  0
SECTION
  2
HEADER
  9
$ACADVER
  1
AC1015
  9
$ACADMAINTVER
 70
     6
  9
$DWGCODEPAGE
  3
ANSI_932
  9
$INSBASE
 10
0.0
 20
0.0
 30
0.0
  9
$EXTMIN
 10
-251.277078
 20
4.333334
 30
0.0
  9
$EXTMAX
 10
119.519605
 20
360.833334
 30
0.0
  9
$LIMMIN
 10
-251.277078
 20
4.333334
  9
$LIMMAX
 10
119.519605
 20
360.833334
  9
$ORTHOMODE
 70
     0
  9
$REGENMODE
 70
     1
  9
$FILLMODE
 70
     1
  9
$QTEXTMODE
 70
     0
  9
$MIRRTEXT
 70
     1
  9
$LTSCALE
 40
1.0
  9
$ATTMODE
 70
     1
  9
$TEXTSIZE
 40
4.1656
  9
$TRACEWID
 40
0.05
  9
$TEXTSTYLE
  7
MX_NOTE_STANDARD
  9
$CLAYER
  8
0
  9
$CELTYPE
  6
CONTINUOUS
  9
$CECOLOR
 62
   256
  9
$CELTSCALE
 40
1.0
  9
$DISPSILH
 70
     0
  9
$DIMSCALE
 40
1.0
  9
$DIMASZ
 40
2.5
  9
$DIMEXO
 40
0.5
  9
$DIMDLI
 40
3.75
  9
$DIMRND
 40
0.0
  9
$DIMDLE
 40
0.0
  9
$DIMEXE
 40
1.0
  9
$DIMTP
 40
0.0
  9
$DIMTM
 40
0.0
  9
$DIMTXT
 40
4.1656
  9
$DIMCEN
 40
2.5
  9
$DIMTSZ
 40
0.0
  9
$DIMTOL
 70
     0
  9
$DIMLIM
 70
     0
  9
$DIMTIH
 70
     0
  9
$DIMTOH
 70
     0
  9
$DIMSE1
 70
     0
  9
$DIMSE2
 70
     0
  9
$DIMTAD
 70
     1
  9
$DIMZIN
 70
     8
  9
$DIMBLK
  1

  9
$DIMASO
 70
     1
  9
$DIMSHO
 70
     1
  9
$DIMPOST
  1

  9
$DIMAPOST
  1

  9
$DIMALT
 70
     0
  9
$DIMALTD
 70
     4
  9
$DIMALTF
 40
0.03937
  9
$DIMLFAC
 40
1.0
  9
$DIMTOFL
 70
     1
  9
$DIMTVP
 40
0.0
  9
$DIMTIX
 70
     0
  9
$DIMSOXD
 70
     0
  9
$DIMSAH
 70
     1
  9
$DIMBLK1
  1
_OPEN30
  9
$DIMBLK2
  1
_OPEN30
  9
$DIMSTYLE
  2
MXDIMSTYLE
  9
$DIMCLRD
 70
     0
  9
$DIMCLRE
 70
     0
  9
$DIMCLRT
 70
     0
  9
$DIMTFAC
 40
1.0
  9
$DIMGAP
 40
1.0
  9
$DIMJUST
 70
     0
  9
$DIMSD1
 70
     0
  9
$DIMSD2
 70
     0
  9
$DIMTOLJ
 70
     0
  9
$DIMTZIN
 70
     0
  9
$DIMALTZ
 70
     0
  9
$DIMALTTZ
 70
     0
  9
$DIMUPT
 70
     0
  9
$DIMDEC
 70
     2
  9
$DIMTDEC
 70
     2
  9
$DIMALTU
 70
     2
  9
$DIMALTTD
 70
     4
  9
$DIMTXSTY
  7
MX_NOTE_STANDARD
  9
$DIMAUNIT
 70
     0
  9
$DIMADEC
 70
     0
  9
$DIMALTRND
 40
0.0
  9
$DIMAZIN
 70
     0
  9
$DIMDSEP
 70
    46
  9
$DIMATFIT
 70
     3
  9
$DIMFRAC
 70
     0
  9
$DIMLDRBLK
  1
_OPEN30
  9
$DIMLUNIT
 70
     2
  9
$DIMLWD
 70
    -2
  9
$DIMLWE
 70
    -2
  9
$DIMTMOVE
 70
     0
  9
$LUNITS
 70
     2
  9
$LUPREC
 70
     4
  9
$SKETCHINC
 40
0.1
  9
$FILLETRAD
 40
0.0
  9
$AUNITS
 70
     0
  9
$AUPREC
 70
     0
  9
$MENU
  1
acad
  9
$ELEVATION
 40
0.0
  9
$PELEVATION
 40
0.0
  9
$THICKNESS
 40
0.0
  9
$LIMCHECK
 70
     0
  9
$CHAMFERA
 40
0.0
  9
$CHAMFERB
 40
0.0
  9
$CHAMFERC
 40
0.0
  9
$CHAMFERD
 40
0.0
  9
$SKPOLY
 70
     0
  9
$TDCREATE
 40
2456801.404409722
  9
$TDUCREATE
 40
0.000000000
  9
$TDUPDATE
 40
2456801.404409722
  9
$TDUUPDATE
 40
0.000000000
  9
$TDINDWG
 40
0.0000000000
  9
$TDUSRTIMER
 40
0.0000000000
  9
$USRTIMER
 70
     1
  9
$ANGBASE
 50
0.0
  9
$ANGDIR
 70
     0
  9
$PDMODE
 70
     0
  9
$PDSIZE
 40
0.0
  9
$PLINEWID
 40
0.0
  9
$SPLFRAME
 70
     0
  9
$SPLINETYPE
 70
     6
  9
$SPLINESEGS
 70
     8
  9
$HANDSEED
  5
DC
  9
$SURFTAB1
 70
     6
  9
$SURFTAB2
 70
     6
  9
$SURFTYPE
 70
     6
  9
$SURFU
 70
     6
  9
$SURFV
 70
     6
  9
$UCSBASE
  2

  9
$UCSNAME
  2

  9
$UCSORG
 10
0.0
 20
0.0
 30
0.0
  9
$UCSXDIR
 10
1.0
 20
0.0
 30
0.0
  9
$UCSYDIR
 10
0.0
 20
1.0
 30
0.0
  9
$UCSORTHOREF
  2

  9
$UCSORTHOVIEW
 70
     0
  9
$UCSORGTOP
 10
0.0
 20
0.0
 30
0.0
  9
$UCSORGBOTTOM
 10
0.0
 20
0.0
 30
0.0
  9
$UCSORGLEFT
 10
0.0
 20
0.0
 30
0.0
  9
$UCSORGRIGHT
 10
0.0
 20
0.0
 30
0.0
  9
$UCSORGFRONT
 10
0.0
 20
0.0
 30
0.0
  9
$UCSORGBACK
 10
0.0
 20
0.0
 30
0.0
  9
$PUCSBASE
  2

  9
$PUCSNAME
  2

  9
$PUCSORG
 10
0.0
 20
0.0
 30
0.0
  9
$PUCSXDIR
 10
1.0
 20
0.0
 30
0.0
  9
$PUCSYDIR
 10
0.0
 20
1.0
 30
0.0
  9
$PUCSORTHOREF
  2

  9
$PUCSORTHOVIEW
 70
     0
  9
$PUCSORGTOP
 10
0.0
 20
0.0
 30
0.0
  9
$PUCSORGBOTTOM
 10
0.0
 20
0.0
 30
0.0
  9
$PUCSORGLEFT
 10
0.0
 20
0.0
 30
0.0
  9
$PUCSORGRIGHT
 10
0.0
 20
0.0
 30
0.0
  9
$PUCSORGFRONT
 10
0.0
 20
0.0
 30
0.0
  9
$PUCSORGBACK
 10
0.0
 20
0.0
 30
0.0
  9
$USERI1
 70
     0
  9
$USERI2
 70
     0
  9
$USERI3
 70
     0
  9
$USERI4
 70
     0
  9
$USERI5
 70
     0
  9
$USERR1
 40
0.0
  9
$USERR2
 40
0.0
  9
$USERR3
 40
0.0
  9
$USERR4
 40
0.0
  9
$USERR5
 40
0.0
  9
$WORLDVIEW
 70
     1
  9
$SHADEDGE
 70
     3
  9
$SHADEDIF
 70
    70
  9
$TILEMODE
 70
     1
  9
$MAXACTVP
 70
    16
  9
$PINSBASE
 10
0.0
 20
0.0
 30
0.0
  9
$PLIMCHECK
 70
     0
  9
$PEXTMIN
 10
1.000000E+20
 20
1.000000E+20
 30
1.000000E+20
  9
$PEXTMAX
 10
-1.000000E+20
 20
-1.000000E+20
 30
-1.000000E+20
  9
$PLIMMIN
 10
0.0
 20
0.0
  9
$PLIMMAX
 10
12.0
 20
9.0
  9
$UNITMODE
 70
     0
  9
$VISRETAIN
 70
     0
  9
$PLINEGEN
 70
     1
  9
$PSLTSCALE
 70
     0
  9
$TREEDEPTH
 70
  3020
  9
$CMLSTYLE
  2
Standard
  9
$CMLJUST
 70
     0
  9
$CMLSCALE
 40
1.0
  9
$PROXYGRAPHICS
 70
     0
  9
$MEASUREMENT
 70
     1
  9
$CELWEIGHT
370
     0
  9
$ENDCAPS
280
     0
  9
$JOINSTYLE
280
     0
  9
$LWDISPLAY
290
     0
  9
$INSUNITS
 70
     0
  9
$HYPERLINKBASE
  1

  9
$STYLESHEET
  1

  9
$XEDIT
290
     1
  9
$CEPSNTYPE
380
     0
  9
$PSTYLEMODE
290
     1
  9
$FINGERPRINTGUID
  2

  9
$VERSIONGUID
  2

  9
$EXTNAMES
290
     1
  9
$PSVPSCALE
 40
0.0
  0
ENDSEC
  0
SECTION
  2
CLASSES
  0
CLASS
  1
LWPOLYLINE
  2
AcDbPolyline
  3
AutoCAD 2000
 90
        0
280
     0
281
     1
  0
CLASS
  1
IMAGE
  2
AcDbRasterImage
  3
ISM
 90
      127
280
     0
281
     1
  0
CLASS
  1
OLE2FRAME
  2
AcDbOle2Frame
  3
AutoCAD 2000
 90
        0
280
     0
281
     1
  0
CLASS
  1
HATCH
  2
AcDbHatch
  3
AutoCAD 2000
 90
        0
280
     0
281
     1
  0
CLASS
  1
DICTIONARYVAR
  2
AcDbDictionaryVar
  3
AutoCAD 2000
 90
        0
280
     0
281
     0
  0
CLASS
  1
RASTERVARIABLES
  2
AcDbRasterVariables
  3
ISM
 90
        0
280
     0
281
     0
  0
CLASS
  1
IMAGEDEF
  2
AcDbRasterImageDef
  3
ISM
 90
        0
280
     0
281
     0
  0
CLASS
  1
IMAGEDEF_REACTOR
  2
AcDbRasterImageDefReactor
  3
ISM
 90
        1
280
     0
281
     0
  0
CLASS
  1
IDBUFFER
  2
AcDbIdBuffer
  3
AutoCAD 2000
 90
        0
280
     0
281
     0
  0
CLASS
  1
SPATIAL_FILTER
  2
AcDbSpatialFilter
  3
AutoCAD 2000
 90
        0
280
     0
281
     0
  0
CLASS
  1
XRECORD
  2
AcDbXrecord
  3
AutoCAD 2000
 90
        0
280
     0
281
     0
  0
CLASS
  1
SORTENTSTABLE
  2
AcDbSortentsTable
  3
AutoCAD 2000
 90
        0
280
     0
281
     0
  0
CLASS
  1
LAYER_INDEX
  2
AcDbLayerIndex
  3
AutoCAD 2000
 90
        0
280
     0
281
     0
  0
CLASS
  1
SPATIAL_INDEX
  2
AcDbSpatialIndex
  3
AutoCAD 2000
 90
        0
280
     0
281
     0
  0
CLASS
  1
OBJECT_PTR
  2
CAseDLPNTableRecord
  3
"ASE-LPNTableRecord"
 90
        1
280
     0
281
     0
  0
CLASS
  1
LAYOUT
  2
AcDbLayout
  3
AutoCAD 2000
 90
        0
280
     0
281
     0
  0
CLASS
  1
PLOTSETTINGS
  2
AcDbPlotSettings
  3
AutoCAD 2000
 90
        0
280
     0
281
     0
  0
CLASS
  1
ACDBDICTIONARYWDFLT
  2
AcDbDictionaryWithDefault
  3
AutoCAD 2000
 90
        0
280
     0
281
     0
  0
CLASS
  1
ACDBPLACEHOLDER
  2
AcDbPlaceHolder
  3
AutoCAD 2000
 90
        0
280
     0
281
     0
  0
ENDSEC
  0
SECTION
  2
TABLES
  0
TABLE
  2
VPORT
  5
7
100
AcDbSymbolTable
 70
     1
  0
VPORT
  5
15
100
AcDbSymbolTableRecord
100
AcDbViewportTableRecord
  2
*ACTIVE
 70
     0
 10
0.0
 20
0.0
 11
1.0
 21
1.0
 12
-65.878736
 22
182.583334
 13
0.0
 23
0.0
 14
1.0
 24
1.0
 15
0.0
 25
0.0
 16
0.0
 26
0.0
 36
1.0
 17
0.0
 27
0.0
 37
0.0
 40
360.065
 41
1.732051
 42
50.0
 43
0.0
 44
0.0
 50
0.0
 51
0.0
 71
     0
 72
   100
 73
     1
 74
     1
 75
     0
 76
     0
 77
     0
 78
     0
281
     0
 65
     0
110
0.0
120
0.0
130
0.0
111
1.0
121
0.0
131
0.0
112
0.0
122
1.0
132
0.0
345
0
346
0
 79
     0
146
0.0
  0
ENDTAB
  0
TABLE
  2
LTYPE
  5
4
100
AcDbSymbolTable
 70
     4
  0
LTYPE
  5
11
100
AcDbSymbolTableRecord
100
AcDbLinetypeTableRecord
  2
BYBLOCK
 70
    64
  3

 72
    65
 73
     0
 40
0.0
  0
LTYPE
  5
12
100
AcDbSymbolTableRecord
100
AcDbLinetypeTableRecord
  2
BYLAYER
 70
    64
  3

 72
    65
 73
     0
 40
0.0
  0
LTYPE
  5
13
100
AcDbSymbolTableRecord
100
AcDbLinetypeTableRecord
  2
CONTINUOUS
 70
    64
  3
Solid line
 72
    65
 73
     0
 40
0.0
  0
LTYPE
  5
4B
100
AcDbSymbolTableRecord
100
AcDbLinetypeTableRecord
  2
DASHED
 70
    64
  3
Dashed __ __ __ __ __ __ __ __ __ __ __ __ __ _
 72
    65
 73
     2
 40
19.05
 49
12.7
 74
     0
 49
-6.35
 74
     0
  0
ENDTAB
  0
TABLE
  2
LAYER
  5
2
100
AcDbSymbolTable
 70
     3
  0
LAYER
  5
14
100
AcDbSymbolTableRecord
100
AcDbLayerTableRecord
  2
0
 70
     0
 62
     7
  6
CONTINUOUS
290
     1
370
    -3
390
1D
  0
LAYER
  5
23
100
AcDbSymbolTableRecord
100
AcDbLayerTableRecord
  2
DEFPOINTS
 70
     0
 62
     7
  6
CONTINUOUS
290
     0
370
    -3
390
1D
  0
LAYER
  5
24
100
AcDbSymbolTableRecord
100
AcDbLayerTableRecord
  2
LY_3
 70
     0
 62
     7
  6
CONTINUOUS
290
     1
370
    -3
390
1D
  0
ENDTAB
  0
TABLE
  2
STYLE
  5
3
100
AcDbSymbolTable
 70
     1
  0
STYLE
  5
17
100
AcDbSymbolTableRecord
100
AcDbTextStyleTableRecord
  2
MX_NOTE_STANDARD
 70
     0
 40
0.0
 41
1.0
 50
0.0
 71
     0
 42
4.1656
  3
txt.shx
  4
extfont.shx
  0
ENDTAB
  0
TABLE
  2
VIEW
  5
5
100
AcDbSymbolTable
 70
     0
  0
ENDTAB
  0
TABLE
  2
UCS
  5
6
100
AcDbSymbolTable
 70
     0
  0
ENDTAB
  0
TABLE
  2
APPID
  5
8
100
AcDbSymbolTable
 70
     1
  0
APPID
  5
16
100
AcDbSymbolTableRecord
100
AcDbRegAppTableRecord
  2
ACAD
 70
     0
  0
ENDTAB
  0
TABLE
  2
DIMSTYLE
  5
9
100
AcDbSymbolTable
 70
     1
100
AcDbDimStyleTable
 71
     0
  0
DIMSTYLE
105
18
100
AcDbSymbolTableRecord
100
AcDbDimStyleTableRecord
  2
MXDIMSTYLE
 70
     0
  3

  4

 40
1.0
 41
2.5
 42
0.5
 43
3.75
 44
1.0
 45
0.0
 46
0.0
 47
0.0
 48
0.0
 71
     0
 72
     0
 73
     0
 74
     0
 75
     0
 76
     0
 77
     1
 78
     8
 79
     0
140
4.1656
141
2.5
142
0.0
143
0.03937
144
1.0
145
0.0
146
1.0
147
1.0
148
0.0
170
     0
171
     4
172
     1
173
     1
174
     0
175
     0
176
     0
177
     0
178
     0
179
     0
271
     2
272
     2
273
     2
274
     4
275
     0
276
     0
277
     2
278
    46
279
     0
280
     0
281
     0
282
     0
283
     0
284
     0
285
     0
286
     0
288
     0
289
     3
340
17
341
25
342
0
343
25
344
25
371
    -2
372
    -2
  0
ENDTAB
  0
TABLE
  2
BLOCK_RECORD
  5
1
100
AcDbSymbolTable
 70
     1
  0
BLOCK_RECORD
  5
A
100
AcDbSymbolTableRecord
100
AcDbBlockTableRecord
  2
*MODEL_SPACE
340
20
  0
BLOCK_RECORD
  5
B
100
AcDbSymbolTableRecord
100
AcDbBlockTableRecord
  2
*PAPER_SPACE
340
21
  0
BLOCK_RECORD
  5
25
100
AcDbSymbolTableRecord
100
AcDbBlockTableRecord
  2
_OPEN30
340
0
  0
ENDTAB
  0
ENDSEC
  0
SECTION
  2
BLOCKS
  0
BLOCK
  5
D
100
AcDbEntity
  8
0
390
0
100
AcDbBlockBegin
  2
*MODEL_SPACE
 70
     0
 10
0.0
 20
0.0
 30
0.0
  3
*MODEL_SPACE
  1

  0
ENDBLK
  5
E
100
AcDbEntity
  8
0
390
0
100
AcDbBlockEnd
  0
BLOCK
  5
F
100
AcDbEntity
 67
     1
  8
0
390
0
100
AcDbBlockBegin
  2
*PAPER_SPACE
 70
     0
 10
0.0
 20
0.0
 30
0.0
  3
*PAPER_SPACE
  1

  0
ENDBLK
  5
10
100
AcDbEntity
 67
     1
  8
0
390
0
100
AcDbBlockEnd
  0
BLOCK
  5
26
100
AcDbEntity
  8
0
370
    -2
390
0
  6
ByBlock
 62
     0
100
AcDbBlockBegin
  2
_OPEN30
 70
     2
 10
0.0
 20
0.0
 30
0.0
  3
_OPEN30
  1

  0
LINE
  5
27
100
AcDbEntity
  8
0
370
    -2
390
0
  6
ByBlock
 62
     0
100
AcDbLine
 10
-1.0
 20
0.267949
 30
0.0
 11
0.0
 21
0.0
 31
0.0
  0
LINE
  5
28
100
AcDbEntity
  8
0
370
    -2
390
0
  6
ByBlock
 62
     0
100
AcDbLine
 10
0.0
 20
0.0
 30
0.0
 11
-1.0
 21
-0.267949
 31
0.0
  0
LINE
  5
29
100
AcDbEntity
  8
0
370
    -2
390
0
  6
ByBlock
 62
     0
100
AcDbLine
 10
0.0
 20
0.0
 30
0.0
 11
-1.0
 21
0.0
 31
0.0
  0
ENDBLK
  5
2A
100
AcDbEntity
  8
0
370
    -2
390
0
  6
ByBlock
 62
     0
100
AcDbBlockEnd
  0
ENDSEC
  0
SECTION
  2
ENTITIES
  0
CIRCLE
  5
2B
100
AcDbEntity
  8
LY_3
390
0
  6
CONTINUOUS
 62
     3
100
AcDbCircle
 10
-189.277078
 20
98.833334
 30
0.0
 40
62.0
  0
CIRCLE
  5
2C
100
AcDbEntity
  8
LY_3
390
0
  6
CONTINUOUS
 62
     3
100
AcDbCircle
 10
-189.277078
 20
98.833334
 30
0.0
 40
56.5
  0
LINE
  5
2D
100
AcDbEntity
  8
LY_3
390
0
  6
CONTINUOUS
 62
     3
100
AcDbLine
 10
-57.980395
 20
44.333334
 30
0.0
 11
-57.980395
 21
153.333334
 31
0.0
  0
LINE
  5
2E
100
AcDbEntity
  8
LY_3
390
0
  6
CONTINUOUS
 62
     3
100
AcDbLine
 10
-19.980395
 20
38.833334
 30
0.0
 11
-19.980395
 21
158.833334
 31
0.0
  0
LINE
  5
2F
100
AcDbEntity
  8
LY_3
390
0
  6
CONTINUOUS
 62
     3
100
AcDbLine
 10
-55.980395
 20
155.333334
 30
0.0
 11
-19.980395
 21
155.333334
 31
0.0
  0
LINE
  5
30
100
AcDbEntity
  8
LY_3
390
0
  6
CONTINUOUS
 62
     3
100
AcDbLine
 10
-55.980395
 20
42.333334
 30
0.0
 11
-19.980395
 21
42.333334
 31
0.0
  0
LINE
  5
31
100
AcDbEntity
  8
LY_3
390
0
  6
CONTINUOUS
 62
     3
100
AcDbLine
 10
-9.980395
 20
38.833334
 30
0.0
 11
-9.980395
 21
158.833334
 31
0.0
  0
LINE
  5
32
100
AcDbEntity
  8
LY_3
390
0
  6
CONTINUOUS
 62
     3
100
AcDbLine
 10
-17.980395
 20
160.833334
 30
0.0
 11
-11.980395
 21
160.833334
 31
0.0
  0
LINE
  5
33
100
AcDbEntity
  8
LY_3
390
0
  6
CONTINUOUS
 62
     3
100
AcDbLine
 10
-17.980395
 20
36.833334
 30
0.0
 11
-11.980395
 21
36.833334
 31
0.0
  0
LINE
  5
34
100
AcDbEntity
  8
LY_3
390
0
  6
CONTINUOUS
 62
     3
100
AcDbLine
 10
119.519605
 20
62.333334
 30
0.0
 11
119.519605
 21
135.333334
 31
0.0
  0
LINE
  5
35
100
AcDbEntity
  8
LY_3
390
0
  6
CONTINUOUS
 62
     3
100
AcDbLine
 10
-4.980395
 20
145.333334
 30
0.0
 11
109.519605
 21
145.333334
 31
0.0
  0
LINE
  5
36
100
AcDbEntity
  8
LY_3
390
0
  6
CONTINUOUS
 62
     3
100
AcDbLine
 10
-4.980395
 20
52.333334
 30
0.0
 11
-3.761645
 21
52.333334
 31
0.0
  0
ARC
  5
37
100
AcDbEntity
  8
LY_3
390
0
  6
CONTINUOUS
 62
     3
100
AcDbCircle
 10
109.519605
 20
135.333334
 30
0.0
 40
10.0
100
AcDbArc
 50
0.0
 51
90.0
  0
ARC
  5
38
100
AcDbEntity
  8
LY_3
390
0
  6
CONTINUOUS
 62
     3
100
AcDbCircle
 10
109.519605
 20
62.333334
 30
0.0
 40
10.0
100
AcDbArc
 50
270.0
 51
0.0
  0
ARC
  5
39
100
AcDbEntity
  8
LY_3
390
0
  6
CONTINUOUS
 62
     3
100
AcDbCircle
 10
-17.980395
 20
158.833334
 30
0.0
 40
2.0
100
AcDbArc
 50
90.0
 51
180.0
  0
ARC
  5
3A
100
AcDbEntity
  8
LY_3
390
0
  6
CONTINUOUS
 62
     3
100
AcDbCircle
 10
-11.980395
 20
158.833334
 30
0.0
 40
2.0
100
AcDbArc
 50
0.0
 51
90.0
  0
ARC
  5
3B
100
AcDbEntity
  8
LY_3
390
0
  6
CONTINUOUS
 62
     3
100
AcDbCircle
 10
-17.980395
 20
38.833334
 30
0.0
 40
2.0
100
AcDbArc
 50
180.0
 51
270.0
  0
ARC
  5
3C
100
AcDbEntity
  8
LY_3
390
0
  6
CONTINUOUS
 62
     3
100
AcDbCircle
 10
-11.980395
 20
38.833334
 30
0.0
 40
2.0
100
AcDbArc
 50
270.0
 51
0.0
  0
ARC
  5
3D
100
AcDbEntity
  8
LY_3
390
0
  6
CONTINUOUS
 62
     3
100
AcDbCircle
 10
-55.980395
 20
153.333334
 30
0.0
 40
2.0
100
AcDbArc
 50
90.0
 51
180.0
  0
ARC
  5
3E
100
AcDbEntity
  8
LY_3
390
0
  6
CONTINUOUS
 62
     3
100
AcDbCircle
 10
-55.980395
 20
44.333334
 30
0.0
 40
2.0
100
AcDbArc
 50
180.0
 51
270.0
  0
LINE
  5
3F
100
AcDbEntity
  8
LY_3
390
0
  6
CONTINUOUS
 62
     3
100
AcDbLine
 10
-4.980395
 20
52.333334
 30
0.0
 11
-4.980395
 21
145.333334
 31
0.0
  0
ARC
  5
40
100
AcDbEntity
  8
LY_3
390
0
  6
CONTINUOUS
 62
     3
100
AcDbCircle
 10
-4.980395
 20
47.333334
 30
0.0
 40
5.0
100
AcDbArc
 50
90.0
 51
180.0
  0
ARC
  5
41
100
AcDbEntity
  8
LY_3
390
0
  6
CONTINUOUS
 62
     3
100
AcDbCircle
 10
-4.980395
 20
150.333334
 30
0.0
 40
5.0
100
AcDbArc
 50
180.0
 51
270.0
  0
LINE
  5
42
100
AcDbEntity
  8
LY_3
390
0
  6
CONTINUOUS
 62
     3
100
AcDbLine
 10
-3.480395
 20
56.833334
 30
0.0
 11
58.519605
 21
56.833334
 31
0.0
  0
LINE
  5
43
100
AcDbEntity
  8
LY_3
390
0
  6
CONTINUOUS
 62
     3
100
AcDbLine
 10
-20.828364
 20
17.333334
 30
0.0
 11
75.867574
 21
17.333334
 31
0.0
  0
LINE
  5
44
100
AcDbEntity
  8
LY_3
390
0
  6
CONTINUOUS
 62
     3
100
AcDbLine
 10
-3.480395
 20
56.833334
 30
0.0
 11
-5.980395
 21
17.333334
 31
0.0
  0
LINE
  5
45
100
AcDbEntity
  8
LY_3
390
0
  6
CONTINUOUS
 62
     3
100
AcDbLine
 10
58.519605
 20
56.833334
 30
0.0
 11
61.019605
 21
17.333334
 31
0.0
  0
LINE
  5
46
100
AcDbEntity
  8
LY_3
390
0
  6
CONTINUOUS
 62
     3
100
AcDbLine
 10
-24.980395
 20
4.333334
 30
0.0
 11
2.519605
 21
4.333334
 31
0.0
  0
LINE
  5
47
100
AcDbEntity
  8
LY_3
390
0
  6
CONTINUOUS
 62
     3
100
AcDbLine
 10
-24.980395
 20
4.333334
 30
0.0
 11
-22.792377
 21
15.711029
 31
0.0
  0
LINE
  5
48
100
AcDbEntity
  8
LY_3
390
0
  6
CONTINUOUS
 62
     3
100
AcDbLine
 10
77.831587
 20
15.711029
 30
0.0
 11
80.019605
 21
4.333334
 31
0.0
  0
ARC
  5
49
100
AcDbEntity
  8
LY_3
390
0
  6
CONTINUOUS
 62
     3
100
AcDbCircle
 10
-20.828364
 20
15.333334
 30
0.0
 40
2.0
100
AcDbArc
 50
90.0
 51
169.114473
  0
ARC
  5
4A
100
AcDbEntity
  8
LY_3
390
0
  6
CONTINUOUS
 62
     3
100
AcDbCircle
 10
75.867574
 20
15.333334
 30
0.0
 40
2.0
100
AcDbArc
 50
10.885527
 51
90.0
  0
LINE
  5
4C
100
AcDbEntity
  8
LY_3
390
0
  6
DASHED
 62
    80
100
AcDbLine
 10
62.019605
 20
4.333334
 30
0.0
 11
62.019605
 21
17.333334
 31
0.0
  0
LINE
  5
4D
100
AcDbEntity
  8
LY_3
390
0
  6
DASHED
 62
    80
100
AcDbLine
 10
71.019605
 20
4.333334
 30
0.0
 11
71.019605
 21
17.333334
 31
0.0
  0
LINE
  5
4E
100
AcDbEntity
  8
LY_3
390
0
  6
DASHED
 62
    80
100
AcDbLine
 10
-6.980395
 20
4.333334
 30
0.0
 11
-6.980395
 21
17.333334
 31
0.0
  0
LINE
  5
4F
100
AcDbEntity
  8
LY_3
390
0
  6
DASHED
 62
    80
100
AcDbLine
 10
-15.980395
 20
4.333334
 30
0.0
 11
-15.980395
 21
17.333334
 31
0.0
  0
LINE
  5
50
100
AcDbEntity
  8
LY_3
390
0
  6
CONTINUOUS
 62
     3
100
AcDbLine
 10
5.519605
 20
7.333334
 30
0.0
 11
49.519605
 21
7.333334
 31
0.0
  0
ARC
  5
51
100
AcDbEntity
  8
LY_3
390
0
  6
CONTINUOUS
 62
     3
100
AcDbCircle
 10
5.519605
 20
4.333334
 30
0.0
 40
3.0
100
AcDbArc
 50
90.0
 51
180.0
  0
ARC
  5
52
100
AcDbEntity
  8
LY_3
390
0
  6
CONTINUOUS
 62
     3
100
AcDbCircle
 10
49.519605
 20
4.333334
 30
0.0
 40
3.0
100
AcDbArc
 50
0.0
 51
90.0
  0
LINE
  5
53
100
AcDbEntity
  8
LY_3
390
0
  6
CONTINUOUS
 62
     3
100
AcDbLine
 10
52.519605
 20
4.333334
 30
0.0
 11
80.019605
 21
4.333334
 31
0.0
  0
LINE
  5
54
100
AcDbEntity
  8
LY_3
390
0
  6
CONTINUOUS
 62
     3
100
AcDbLine
 10
58.800855
 20
52.333334
 30
0.0
 11
109.519605
 21
52.333334
 31
0.0
  0
CIRCLE
  5
55
100
AcDbEntity
  8
LY_3
390
0
  6
CONTINUOUS
 62
     3
100
AcDbCircle
 10
-189.277078
 20
98.833334
 30
0.0
 40
15.0
  0
CIRCLE
  5
56
100
AcDbEntity
  8
LY_3
390
0
  6
CONTINUOUS
 62
     3
100
AcDbCircle
 10
-189.277078
 20
98.833334
 30
0.0
 40
10.0
  0
CIRCLE
  5
57
100
AcDbEntity
  8
LY_3
390
0
  6
CONTINUOUS
 62
     3
100
AcDbCircle
 10
-189.277078
 20
98.833334
 30
0.0
 40
5.0
  0
CIRCLE
  5
58
100
AcDbEntity
  8
LY_3
390
0
  6
CONTINUOUS
 62
     3
100
AcDbCircle
 10
-189.277078
 20
98.833334
 30
0.0
 40
46.5
  0
LINE
  5
59
100
AcDbEntity
  8
LY_3
390
0
  6
CONTINUOUS
 62
     3
100
AcDbLine
 10
-249.277078
 20
4.333334
 30
0.0
 11
-224.277078
 21
4.333334
 31
0.0
  0
LINE
  5
5A
100
AcDbEntity
  8
LY_3
390
0
  6
CONTINUOUS
 62
     3
100
AcDbLine
 10
-245.125047
 20
17.333334
 30
0.0
 11
-227.277078
 21
17.333334
 31
0.0
  0
LINE
  5
5B
100
AcDbEntity
  8
LY_3
390
0
  6
CONTINUOUS
 62
     3
100
AcDbLine
 10
-249.277078
 20
4.333334
 30
0.0
 11
-247.08906
 21
15.711029
 31
0.0
  0
ARC
  5
5C
100
AcDbEntity
  8
LY_3
390
0
  6
CONTINUOUS
 62
     3
100
AcDbCircle
 10
-245.125047
 20
15.333334
 30
0.0
 40
2.0
100
AcDbArc
 50
90.0
 51
169.114473
  0
LINE
  5
5D
100
AcDbEntity
  8
LY_3
390
0
  6
CONTINUOUS
 62
     3
100
AcDbLine
 10
-131.465096
 20
15.711029
 30
0.0
 11
-129.277078
 21
4.333334
 31
0.0
  0
ARC
  5
5E
100
AcDbEntity
  8
LY_3
390
0
  6
CONTINUOUS
 62
     3
100
AcDbCircle
 10
-133.429109
 20
15.333334
 30
0.0
 40
2.0
100
AcDbArc
 50
10.885527
 51
90.0
  0
LINE
  5
5F
100
AcDbEntity
  8
LY_3
390
0
  6
CONTINUOUS
 62
     3
100
AcDbLine
 10
-159.277078
 20
6.333334
 30
0.0
 11
-154.277078
 21
4.333334
 31
0.0
  0
LINE
  5
60
100
AcDbEntity
  8
LY_3
390
0
  6
CONTINUOUS
 62
     3
100
AcDbLine
 10
-219.277078
 20
6.333334
 30
0.0
 11
-224.277078
 21
4.333334
 31
0.0
  0
LINE
  5
61
100
AcDbEntity
  8
LY_3
390
0
  6
CONTINUOUS
 62
     3
100
AcDbLine
 10
-154.277078
 20
4.333334
 30
0.0
 11
-129.277078
 21
4.333334
 31
0.0
  0
LINE
  5
62
100
AcDbEntity
  8
LY_3
390
0
  6
CONTINUOUS
 62
     3
100
AcDbLine
 10
-214.277078
 20
16.333334
 30
0.0
 11
-164.277078
 21
16.333334
 31
0.0
  0
ARC
  5
63
100
AcDbEntity
  8
LY_3
390
0
  6
CONTINUOUS
 62
     3
100
AcDbCircle
 10
-271.047279
 20
58.371969
 30
0.0
 40
60.0
100
AcDbArc
 50
316.844774
 51
343.887426
  0
ARC
  5
64
100
AcDbEntity
  8
LY_3
390
0
  6
CONTINUOUS
 62
     3
100
AcDbCircle
 10
-107.506877
 20
58.371969
 30
0.0
 40
60.0
100
AcDbArc
 50
196.112574
 51
223.155226
  0
LINE
  5
65
100
AcDbEntity
  8
LY_3
390
0
  6
CONTINUOUS
 62
     3
100
AcDbLine
 10
-151.277078
 20
17.333334
 30
0.0
 11
-133.429109
 21
17.333334
 31
0.0
  0
LINE
  5
66
100
AcDbEntity
  8
LY_3
390
0
  6
CONTINUOUS
 62
     3
100
AcDbLine
 10
-159.277078
 20
6.333334
 30
0.0
 11
-159.277078
 21
11.333334
 31
0.0
  0
LINE
  5
67
100
AcDbEntity
  8
LY_3
390
0
  6
CONTINUOUS
 62
     3
100
AcDbLine
 10
-219.277078
 20
11.333334
 30
0.0
 11
-219.277078
 21
6.333334
 31
0.0
  0
ARC
  5
68
100
AcDbEntity
  8
LY_3
390
0
  6
CONTINUOUS
 62
     3
100
AcDbCircle
 10
-214.277078
 20
11.333334
 30
0.0
 40
5.0
100
AcDbArc
 50
90.0
 51
180.0
  0
ARC
  5
69
100
AcDbEntity
  8
LY_3
390
0
  6
CONTINUOUS
 62
     3
100
AcDbCircle
 10
-164.277078
 20
11.333334
 30
0.0
 40
5.0
100
AcDbArc
 50
0.0
 51
90.0
  0
LINE
  5
6A
100
AcDbEntity
  8
LY_3
390
0
  6
DASHED
 62
    80
100
AcDbLine
 10
-232.277078
 20
4.333334
 30
0.0
 11
-232.277078
 21
17.333334
 31
0.0
  0
LINE
  5
6B
100
AcDbEntity
  8
LY_3
390
0
  6
DASHED
 62
    80
100
AcDbLine
 10
-241.277078
 20
4.333334
 30
0.0
 11
-241.277078
 21
17.333334
 31
0.0
  0
LINE
  5
6C
100
AcDbEntity
  8
LY_3
390
0
  6
DASHED
 62
    80
100
AcDbLine
 10
-137.277078
 20
4.333334
 30
0.0
 11
-137.277078
 21
17.333334
 31
0.0
  0
LINE
  5
6D
100
AcDbEntity
  8
LY_3
390
0
  6
DASHED
 62
    80
100
AcDbLine
 10
-146.277078
 20
4.333334
 30
0.0
 11
-146.277078
 21
17.333334
 31
0.0
  0
LINE
  5
6E
100
AcDbEntity
  8
LY_3
390
0
  6
CONTINUOUS
 62
     3
100
AcDbLine
 10
-227.277078
 20
17.333334
 30
0.0
 11
-224.277078
 21
4.333334
 31
0.0
  0
LINE
  5
6F
100
AcDbEntity
  8
LY_3
390
0
  6
CONTINUOUS
 62
     3
100
AcDbLine
 10
-151.277078
 20
17.333334
 30
0.0
 11
-154.277078
 21
4.333334
 31
0.0
  0
ARC
  5
70
100
AcDbEntity
  8
LY_3
390
0
  6
CONTINUOUS
 62
     3
100
AcDbCircle
 10
-132.777078
 20
155.333334
 30
0.0
 40
56.5
100
AcDbArc
 50
190.203398
 51
225.0
  0
ARC
  5
71
100
AcDbEntity
  8
LY_3
390
0
  6
CONTINUOUS
 62
     3
100
AcDbCircle
 10
-132.777078
 20
155.333334
 30
0.0
 40
58.5
100
AcDbArc
 50
189.856296
 51
225.0
  0
ARC
  5
72
100
AcDbEntity
  8
LY_3
390
0
  6
CONTINUOUS
 62
     3
100
AcDbCircle
 10
-173.435718
 20
114.674694
 30
0.0
 40
1.0
100
AcDbArc
 50
225.0
 51
45.0
  0
ARC
  5
73
100
AcDbEntity
  8
LY_3
390
0
  6
CONTINUOUS
 62
     3
100
AcDbCircle
 10
-209.957513
 20
176.013769
 30
0.0
 40
56.5
100
AcDbArc
 50
250.203398
 51
285.0
  0
ARC
  5
74
100
AcDbEntity
  8
LY_3
390
0
  6
CONTINUOUS
 62
     3
100
AcDbCircle
 10
-209.957513
 20
176.013769
 30
0.0
 40
58.5
100
AcDbArc
 50
249.856296
 51
285.0
  0
ARC
  5
75
100
AcDbEntity
  8
LY_3
390
0
  6
CONTINUOUS
 62
     3
100
AcDbCircle
 10
-195.075418
 20
120.473034
 30
0.0
 40
1.0
100
AcDbArc
 50
285.0
 51
105.0
  0
ARC
  5
76
100
AcDbEntity
  8
LY_3
390
0
  6
CONTINUOUS
 62
     3
100
AcDbCircle
 10
-266.457513
 20
119.513769
 30
0.0
 40
56.5
100
AcDbArc
 50
310.203398
 51
345.0
  0
ARC
  5
77
100
AcDbEntity
  8
LY_3
390
0
  6
CONTINUOUS
 62
     3
100
AcDbCircle
 10
-266.457513
 20
119.513769
 30
0.0
 40
58.5
100
AcDbArc
 50
309.856296
 51
345.0
  0
ARC
  5
78
100
AcDbEntity
  8
LY_3
390
0
  6
CONTINUOUS
 62
     3
100
AcDbCircle
 10
-210.916778
 20
104.631675
 30
0.0
 40
1.0
100
AcDbArc
 50
345.0
 51
165.0
  0
ARC
  5
79
100
AcDbEntity
  8
LY_3
390
0
  6
CONTINUOUS
 62
     3
100
AcDbCircle
 10
-245.777078
 20
42.333334
 30
0.0
 40
56.5
100
AcDbArc
 50
10.203398
 51
45.0
  0
ARC
  5
7A
100
AcDbEntity
  8
LY_3
390
0
  6
CONTINUOUS
 62
     3
100
AcDbCircle
 10
-245.777078
 20
42.333334
 30
0.0
 40
58.5
100
AcDbArc
 50
9.856296
 51
45.0
  0
ARC
  5
7B
100
AcDbEntity
  8
LY_3
390
0
  6
CONTINUOUS
 62
     3
100
AcDbCircle
 10
-205.118438
 20
82.991974
 30
0.0
 40
1.0
100
AcDbArc
 50
45.0
 51
225.0
  0
ARC
  5
7C
100
AcDbEntity
  8
LY_3
390
0
  6
CONTINUOUS
 62
     3
100
AcDbCircle
 10
-168.596643
 20
21.652899
 30
0.0
 40
56.5
100
AcDbArc
 50
70.203398
 51
105.0
  0
ARC
  5
7D
100
AcDbEntity
  8
LY_3
390
0
  6
CONTINUOUS
 62
     3
100
AcDbCircle
 10
-168.596643
 20
21.652899
 30
0.0
 40
58.5
100
AcDbArc
 50
69.856296
 51
105.0
  0
ARC
  5
7E
100
AcDbEntity
  8
LY_3
390
0
  6
CONTINUOUS
 62
     3
100
AcDbCircle
 10
-183.478738
 20
77.193634
 30
0.0
 40
1.0
100
AcDbArc
 50
105.0
 51
285.0
  0
ARC
  5
7F
100
AcDbEntity
  8
LY_3
390
0
  6
CONTINUOUS
 62
     3
100
AcDbCircle
 10
-112.096643
 20
78.152899
 30
0.0
 40
56.5
100
AcDbArc
 50
130.203398
 51
165.0
  0
ARC
  5
80
100
AcDbEntity
  8
LY_3
390
0
  6
CONTINUOUS
 62
     3
100
AcDbCircle
 10
-112.096643
 20
78.152899
 30
0.0
 40
58.5
100
AcDbArc
 50
129.856296
 51
165.0
  0
ARC
  5
81
100
AcDbEntity
  8
LY_3
390
0
  6
CONTINUOUS
 62
     3
100
AcDbCircle
 10
-167.637378
 20
93.034993
 30
0.0
 40
1.0
100
AcDbArc
 50
165.0
 51
345.0
  0
LINE
  5
82
100
AcDbEntity
  8
LY_3
390
0
  6
CONTINUOUS
 62
     3
100
AcDbLine
 10
-20.980395
 20
59.158791
 30
0.0
 11
-20.980395
 21
44.158791
 31
0.0
  0
LINE
  5
83
100
AcDbEntity
  8
LY_3
390
0
  6
CONTINUOUS
 62
     3
100
AcDbLine
 10
-47.980395
 20
59.158791
 30
0.0
 11
-47.980395
 21
44.158791
 31
0.0
  0
LINE
  5
84
100
AcDbEntity
  8
LY_3
390
0
  6
CONTINUOUS
 62
     3
100
AcDbLine
 10
-47.980395
 20
44.158791
 30
0.0
 11
-20.980395
 21
44.158791
 31
0.0
  0
LINE
  5
85
100
AcDbEntity
  8
LY_3
390
0
  6
CONTINUOUS
 62
     3
100
AcDbLine
 10
-47.980395
 20
59.158791
 30
0.0
 11
-20.980395
 21
59.158791
 31
0.0
  0
LINE
  5
86
100
AcDbEntity
  8
LY_3
390
0
  6
CONTINUOUS
 62
     3
100
AcDbLine
 10
-47.980395
 20
46.63659
 30
0.0
 11
-20.980395
 21
46.63659
 31
0.0
  0
LINE
  5
87
100
AcDbEntity
  8
LY_3
390
0
  6
CONTINUOUS
 62
     3
100
AcDbLine
 10
-47.980395
 20
151.030078
 30
0.0
 11
-20.980395
 21
151.030078
 31
0.0
  0
LINE
  5
88
100
AcDbEntity
  8
LY_3
390
0
  6
CONTINUOUS
 62
     3
100
AcDbLine
 10
-47.980395
 20
86.311133
 30
0.0
 11
-20.980395
 21
86.311133
 31
0.0
  0
LINE
  5
89
100
AcDbEntity
  8
LY_3
390
0
  6
CONTINUOUS
 62
     3
100
AcDbLine
 10
-47.980395
 20
111.355535
 30
0.0
 11
-20.980395
 21
111.355535
 31
0.0
  0
LINE
  5
8A
100
AcDbEntity
  8
LY_3
390
0
  6
CONTINUOUS
 62
     3
100
AcDbLine
 10
-47.980395
 20
138.507877
 30
0.0
 11
-20.980395
 21
138.507877
 31
0.0
  0
LINE
  5
8B
100
AcDbEntity
  8
LY_3
390
0
  6
CONTINUOUS
 62
     3
100
AcDbLine
 10
-47.980395
 20
113.833334
 30
0.0
 11
-20.980395
 21
113.833334
 31
0.0
  0
LINE
  5
8C
100
AcDbEntity
  8
LY_3
390
0
  6
CONTINUOUS
 62
     3
100
AcDbLine
 10
-47.980395
 20
83.833334
 30
0.0
 11
-20.980395
 21
83.833334
 31
0.0
  0
LINE
  5
8D
100
AcDbEntity
  8
LY_3
390
0
  6
CONTINUOUS
 62
     3
100
AcDbLine
 10
-47.980395
 20
83.833334
 30
0.0
 11
-47.980395
 21
113.833334
 31
0.0
  0
LINE
  5
8E
100
AcDbEntity
  8
LY_3
390
0
  6
CONTINUOUS
 62
     3
100
AcDbLine
 10
-20.980395
 20
83.833334
 30
0.0
 11
-20.980395
 21
113.833334
 31
0.0
  0
LINE
  5
8F
100
AcDbEntity
  8
LY_3
390
0
  6
CONTINUOUS
 62
     3
100
AcDbLine
 10
-47.980395
 20
153.507877
 30
0.0
 11
-20.980395
 21
153.507877
 31
0.0
  0
LINE
  5
90
100
AcDbEntity
  8
LY_3
390
0
  6
CONTINUOUS
 62
     3
100
AcDbLine
 10
-47.980395
 20
138.507877
 30
0.0
 11
-47.980395
 21
153.507877
 31
0.0
  0
LINE
  5
91
100
AcDbEntity
  8
LY_3
390
0
  6
CONTINUOUS
 62
     3
100
AcDbLine
 10
-20.980395
 20
138.507877
 30
0.0
 11
-20.980395
 21
153.507877
 31
0.0
  0
CIRCLE
  5
92
100
AcDbEntity
  8
LY_3
390
0
  6
DASHED
 62
    80
100
AcDbCircle
 10
27.519605
 20
22.366189
 30
0.0
 40
3.5
  0
LINE
  5
93
100
AcDbEntity
  8
LY_3
390
0
  6
DASHED
 62
    80
100
AcDbLine
 10
25.219617
 20
22.941201
 30
0.0
 11
26.02461
 21
22.941201
 31
0.0
  0
LINE
  5
94
100
AcDbEntity
  8
LY_3
390
0
  6
DASHED
 62
    80
100
AcDbLine
 10
29.819593
 20
22.941201
 30
0.0
 11
29.819593
 21
21.791177
 31
0.0
  0
LINE
  5
95
100
AcDbEntity
  8
LY_3
390
0
  6
DASHED
 62
    80
100
AcDbLine
 10
26.944593
 20
24.666177
 30
0.0
 11
28.094617
 21
24.666177
 31
0.0
  0
LINE
  5
96
100
AcDbEntity
  8
LY_3
390
0
  6
DASHED
 62
    80
100
AcDbLine
 10
28.094617
 20
24.666177
 30
0.0
 11
28.094617
 21
23.861184
 31
0.0
  0
LINE
  5
97
100
AcDbEntity
  8
LY_3
390
0
  6
DASHED
 62
    80
100
AcDbLine
 10
29.0146
 20
22.941201
 30
0.0
 11
29.819593
 21
22.941201
 31
0.0
  0
LINE
  5
98
100
AcDbEntity
  8
LY_3
390
0
  6
DASHED
 62
    80
100
AcDbLine
 10
26.944593
 20
24.666177
 30
0.0
 11
26.944593
 21
23.861184
 31
0.0
  0
LINE
  5
99
100
AcDbEntity
  8
LY_3
390
0
  6
DASHED
 62
    80
100
AcDbLine
 10
25.219617
 20
22.941201
 30
0.0
 11
25.219617
 21
21.791177
 31
0.0
  0
LINE
  5
9A
100
AcDbEntity
  8
LY_3
390
0
  6
DASHED
 62
    80
100
AcDbLine
 10
26.944593
 20
20.066201
 30
0.0
 11
28.094617
 21
20.066201
 31
0.0
  0
LINE
  5
9B
100
AcDbEntity
  8
LY_3
390
0
  6
DASHED
 62
    80
100
AcDbLine
 10
25.219617
 20
21.791177
 30
0.0
 11
26.02461
 21
21.791177
 31
0.0
  0
LINE
  5
9C
100
AcDbEntity
  8
LY_3
390
0
  6
DASHED
 62
    80
100
AcDbLine
 10
26.944593
 20
20.871194
 30
0.0
 11
26.944593
 21
20.066201
 31
0.0
  0
LINE
  5
9D
100
AcDbEntity
  8
LY_3
390
0
  6
DASHED
 62
    80
100
AcDbLine
 10
28.094617
 20
20.871194
 30
0.0
 11
28.094617
 21
20.066201
 31
0.0
  0
LINE
  5
9E
100
AcDbEntity
  8
LY_3
390
0
  6
DASHED
 62
    80
100
AcDbLine
 10
29.0146
 20
21.791177
 30
0.0
 11
29.819593
 21
21.791177
 31
0.0
  0
ARC
  5
9F
100
AcDbEntity
  8
LY_3
390
0
  6
DASHED
 62
    80
100
AcDbCircle
 10
26.02461
 20
23.861184
 30
0.0
 40
0.92
100
AcDbArc
 50
269.999997
 51
0.0
  0
ARC
  5
A0
100
AcDbEntity
  8
LY_3
390
0
  6
DASHED
 62
    80
100
AcDbCircle
 10
29.0146
 20
23.861184
 30
0.0
 40
0.92
100
AcDbArc
 50
179.999995
 51
269.999997
  0
ARC
  5
A1
100
AcDbEntity
  8
LY_3
390
0
  6
DASHED
 62
    80
100
AcDbCircle
 10
26.02461
 20
20.871194
 30
0.0
 40
0.92
100
AcDbArc
 50
0.0
 51
90.000003
  0
ARC
  5
A2
100
AcDbEntity
  8
LY_3
390
0
  6
DASHED
 62
    80
100
AcDbCircle
 10
29.0146
 20
20.871194
 30
0.0
 40
0.92
100
AcDbArc
 50
90.000003
 51
180.000005
  0
LINE
  5
A3
100
AcDbEntity
  8
LY_3
390
0
  6
CONTINUOUS
 62
     3
100
AcDbLine
 10
-20.980395
 20
338.507877
 30
0.0
 11
-20.980395
 21
353.507877
 31
0.0
  0
LINE
  5
A4
100
AcDbEntity
  8
LY_3
390
0
  6
CONTINUOUS
 62
     3
100
AcDbLine
 10
-47.980395
 20
338.507877
 30
0.0
 11
-47.980395
 21
353.507877
 31
0.0
  0
LINE
  5
A5
100
AcDbEntity
  8
LY_3
390
0
  6
CONTINUOUS
 62
     3
100
AcDbLine
 10
-47.980395
 20
353.507877
 30
0.0
 11
-20.980395
 21
353.507877
 31
0.0
  0
LINE
  5
A6
100
AcDbEntity
  8
LY_3
390
0
  6
CONTINUOUS
 62
     3
100
AcDbLine
 10
-20.980395
 20
283.833334
 30
0.0
 11
-20.980395
 21
313.833334
 31
0.0
  0
LINE
  5
A7
100
AcDbEntity
  8
LY_3
390
0
  6
CONTINUOUS
 62
     3
100
AcDbLine
 10
-47.980395
 20
283.833334
 30
0.0
 11
-47.980395
 21
313.833334
 31
0.0
  0
LINE
  5
A8
100
AcDbEntity
  8
LY_3
390
0
  6
CONTINUOUS
 62
     3
100
AcDbLine
 10
-47.980395
 20
283.833334
 30
0.0
 11
-20.980395
 21
283.833334
 31
0.0
  0
LINE
  5
A9
100
AcDbEntity
  8
LY_3
390
0
  6
CONTINUOUS
 62
     3
100
AcDbLine
 10
-47.980395
 20
313.833334
 30
0.0
 11
-20.980395
 21
313.833334
 31
0.0
  0
LINE
  5
AA
100
AcDbEntity
  8
LY_3
390
0
  6
CONTINUOUS
 62
     3
100
AcDbLine
 10
-47.980395
 20
338.507877
 30
0.0
 11
-20.980395
 21
338.507877
 31
0.0
  0
LINE
  5
AB
100
AcDbEntity
  8
LY_3
390
0
  6
CONTINUOUS
 62
     3
100
AcDbLine
 10
-47.980395
 20
311.355535
 30
0.0
 11
-20.980395
 21
311.355535
 31
0.0
  0
LINE
  5
AC
100
AcDbEntity
  8
LY_3
390
0
  6
CONTINUOUS
 62
     3
100
AcDbLine
 10
-47.980395
 20
286.311133
 30
0.0
 11
-20.980395
 21
286.311133
 31
0.0
  0
LINE
  5
AD
100
AcDbEntity
  8
LY_3
390
0
  6
CONTINUOUS
 62
     3
100
AcDbLine
 10
-47.980395
 20
351.030078
 30
0.0
 11
-20.980395
 21
351.030078
 31
0.0
  0
LINE
  5
AE
100
AcDbEntity
  8
LY_3
390
0
  6
CONTINUOUS
 62
     3
100
AcDbLine
 10
-47.980395
 20
246.63659
 30
0.0
 11
-20.980395
 21
246.63659
 31
0.0
  0
LINE
  5
AF
100
AcDbEntity
  8
LY_3
390
0
  6
CONTINUOUS
 62
     3
100
AcDbLine
 10
-47.980395
 20
259.158791
 30
0.0
 11
-20.980395
 21
259.158791
 31
0.0
  0
LINE
  5
B0
100
AcDbEntity
  8
LY_3
390
0
  6
CONTINUOUS
 62
     3
100
AcDbLine
 10
-47.980395
 20
244.158791
 30
0.0
 11
-20.980395
 21
244.158791
 31
0.0
  0
LINE
  5
B1
100
AcDbEntity
  8
LY_3
390
0
  6
CONTINUOUS
 62
     3
100
AcDbLine
 10
-47.980395
 20
259.158791
 30
0.0
 11
-47.980395
 21
244.158791
 31
0.0
  0
LINE
  5
B2
100
AcDbEntity
  8
LY_3
390
0
  6
CONTINUOUS
 62
     3
100
AcDbLine
 10
-20.980395
 20
259.158791
 30
0.0
 11
-20.980395
 21
244.158791
 31
0.0
  0
LINE
  5
B3
100
AcDbEntity
  8
LY_3
390
0
  6
CONTINUOUS
 62
     3
100
AcDbLine
 10
-4.980395
 20
252.333334
 30
0.0
 11
109.519605
 21
252.333334
 31
0.0
  0
ARC
  5
B4
100
AcDbEntity
  8
LY_3
390
0
  6
CONTINUOUS
 62
     3
100
AcDbCircle
 10
-4.980395
 20
350.333334
 30
0.0
 40
5.0
100
AcDbArc
 50
180.0
 51
270.0
  0
ARC
  5
B5
100
AcDbEntity
  8
LY_3
390
0
  6
CONTINUOUS
 62
     3
100
AcDbCircle
 10
-4.980395
 20
247.333334
 30
0.0
 40
5.0
100
AcDbArc
 50
90.0
 51
180.0
  0
LINE
  5
B6
100
AcDbEntity
  8
LY_3
390
0
  6
CONTINUOUS
 62
     3
100
AcDbLine
 10
-4.980395
 20
252.333334
 30
0.0
 11
-4.980395
 21
345.333334
 31
0.0
  0
ARC
  5
B7
100
AcDbEntity
  8
LY_3
390
0
  6
CONTINUOUS
 62
     3
100
AcDbCircle
 10
-55.980395
 20
244.333334
 30
0.0
 40
2.0
100
AcDbArc
 50
180.0
 51
270.0
  0
ARC
  5
B8
100
AcDbEntity
  8
LY_3
390
0
  6
CONTINUOUS
 62
     3
100
AcDbCircle
 10
-55.980395
 20
353.333334
 30
0.0
 40
2.0
100
AcDbArc
 50
90.0
 51
180.0
  0
ARC
  5
B9
100
AcDbEntity
  8
LY_3
390
0
  6
CONTINUOUS
 62
     3
100
AcDbCircle
 10
-11.980395
 20
238.833334
 30
0.0
 40
2.0
100
AcDbArc
 50
270.0
 51
0.0
  0
ARC
  5
BA
100
AcDbEntity
  8
LY_3
390
0
  6
CONTINUOUS
 62
     3
100
AcDbCircle
 10
-17.980395
 20
238.833334
 30
0.0
 40
2.0
100
AcDbArc
 50
180.0
 51
270.0
  0
ARC
  5
BB
100
AcDbEntity
  8
LY_3
390
0
  6
CONTINUOUS
 62
     3
100
AcDbCircle
 10
-11.980395
 20
358.833334
 30
0.0
 40
2.0
100
AcDbArc
 50
0.0
 51
90.0
  0
ARC
  5
BC
100
AcDbEntity
  8
LY_3
390
0
  6
CONTINUOUS
 62
     3
100
AcDbCircle
 10
-17.980395
 20
358.833334
 30
0.0
 40
2.0
100
AcDbArc
 50
90.0
 51
180.0
  0
ARC
  5
BD
100
AcDbEntity
  8
LY_3
390
0
  6
CONTINUOUS
 62
     3
100
AcDbCircle
 10
109.519605
 20
262.333334
 30
0.0
 40
10.0
100
AcDbArc
 50
270.0
 51
0.0
  0
ARC
  5
BE
100
AcDbEntity
  8
LY_3
390
0
  6
CONTINUOUS
 62
     3
100
AcDbCircle
 10
109.519605
 20
335.333334
 30
0.0
 40
10.0
100
AcDbArc
 50
0.0
 51
90.0
  0
LINE
  5
BF
100
AcDbEntity
  8
LY_3
390
0
  6
CONTINUOUS
 62
     3
100
AcDbLine
 10
-4.980395
 20
345.333334
 30
0.0
 11
109.519605
 21
345.333334
 31
0.0
  0
LINE
  5
C0
100
AcDbEntity
  8
LY_3
390
0
  6
CONTINUOUS
 62
     3
100
AcDbLine
 10
119.519605
 20
262.333334
 30
0.0
 11
119.519605
 21
335.333334
 31
0.0
  0
LINE
  5
C1
100
AcDbEntity
  8
LY_3
390
0
  6
CONTINUOUS
 62
     3
100
AcDbLine
 10
-17.980395
 20
236.833334
 30
0.0
 11
-11.980395
 21
236.833334
 31
0.0
  0
LINE
  5
C2
100
AcDbEntity
  8
LY_3
390
0
  6
CONTINUOUS
 62
     3
100
AcDbLine
 10
-17.980395
 20
360.833334
 30
0.0
 11
-11.980395
 21
360.833334
 31
0.0
  0
LINE
  5
C3
100
AcDbEntity
  8
LY_3
390
0
  6
CONTINUOUS
 62
     3
100
AcDbLine
 10
-9.980395
 20
238.833334
 30
0.0
 11
-9.980395
 21
358.833334
 31
0.0
  0
LINE
  5
C4
100
AcDbEntity
  8
LY_3
390
0
  6
CONTINUOUS
 62
     3
100
AcDbLine
 10
-55.980395
 20
242.333334
 30
0.0
 11
-19.980395
 21
242.333334
 31
0.0
  0
LINE
  5
C5
100
AcDbEntity
  8
LY_3
390
0
  6
CONTINUOUS
 62
     3
100
AcDbLine
 10
-55.980395
 20
355.333334
 30
0.0
 11
-19.980395
 21
355.333334
 31
0.0
  0
LINE
  5
C6
100
AcDbEntity
  8
LY_3
390
0
  6
CONTINUOUS
 62
     3
100
AcDbLine
 10
-19.980395
 20
238.833334
 30
0.0
 11
-19.980395
 21
358.833334
 31
0.0
  0
LINE
  5
C7
100
AcDbEntity
  8
LY_3
390
0
  6
CONTINUOUS
 62
     3
100
AcDbLine
 10
-57.980395
 20
244.333334
 30
0.0
 11
-57.980395
 21
353.333334
 31
0.0
  0
LINE
  5
C8
100
AcDbEntity
  8
LY_3
390
0
  6
CONTINUOUS
 62
     3
100
AcDbLine
 10
-24.980395
 20
358.833334
 30
0.0
 11
-19.980395
 21
358.833334
 31
0.0
  0
LINE
  5
C9
100
AcDbEntity
  8
LY_3
390
0
  6
CONTINUOUS
 62
     3
100
AcDbLine
 10
-24.980395
 20
238.833334
 30
0.0
 11
-19.980395
 21
238.833334
 31
0.0
  0
LINE
  5
CA
100
AcDbEntity
  8
LY_3
390
0
  6
CONTINUOUS
 62
     3
100
AcDbLine
 10
-24.980395
 20
238.833334
 30
0.0
 11
-24.980395
 21
242.333334
 31
0.0
  0
LINE
  5
CB
100
AcDbEntity
  8
LY_3
390
0
  6
CONTINUOUS
 62
     3
100
AcDbLine
 10
80.019605
 20
238.833334
 30
0.0
 11
80.019605
 21
252.333334
 31
0.0
  0
LINE
  5
CC
100
AcDbEntity
  8
LY_3
390
0
  6
CONTINUOUS
 62
     3
100
AcDbLine
 10
-24.980395
 20
355.333334
 30
0.0
 11
-24.980395
 21
358.833334
 31
0.0
  0
LINE
  5
CD
100
AcDbEntity
  8
LY_3
390
0
  6
CONTINUOUS
 62
     3
100
AcDbLine
 10
-9.980395
 20
238.833334
 30
0.0
 11
80.019605
 21
238.833334
 31
0.0
  0
LINE
  5
CE
100
AcDbEntity
  8
LY_3
390
0
  6
CONTINUOUS
 62
     3
100
AcDbLine
 10
-9.980395
 20
358.833334
 30
0.0
 11
80.019605
 21
358.833334
 31
0.0
  0
LINE
  5
CF
100
AcDbEntity
  8
LY_3
390
0
  6
CONTINUOUS
 62
     3
100
AcDbLine
 10
80.019605
 20
345.333334
 30
0.0
 11
80.019605
 21
358.833334
 31
0.0
  0
ARC
  5
D0
100
AcDbEntity
  8
LY_3
390
0
  6
DASHED
 62
    80
100
AcDbCircle
 10
66.519605
 20
346.333334
 30
0.0
 40
4.5
100
AcDbArc
 50
192.839588
 51
347.160412
  0
ARC
  5
D1
100
AcDbEntity
  8
LY_3
390
0
  6
DASHED
 62
    80
100
AcDbCircle
 10
66.519605
 20
251.333334
 30
0.0
 40
4.5
100
AcDbArc
 50
12.839588
 51
167.160412
  0
ARC
  5
D2
100
AcDbEntity
  8
LY_3
390
0
  6
DASHED
 62
    80
100
AcDbCircle
 10
-11.480395
 20
251.333334
 30
0.0
 40
4.5
100
AcDbArc
 50
7.235541
 51
289.471221
  0
ARC
  5
D3
100
AcDbEntity
  8
LY_3
390
0
  6
DASHED
 62
    80
100
AcDbCircle
 10
-11.480395
 20
346.333334
 30
0.0
 40
4.5
100
AcDbArc
 50
70.528779
 51
352.764459
  0
ARC
  5
D4
100
AcDbEntity
  8
LY_3
390
0
  6
CONTINUOUS
 62
     3
100
AcDbCircle
 10
66.519605
 20
346.333334
 30
0.0
 40
4.5
100
AcDbArc
 50
347.160412
 51
192.839588
  0
ARC
  5
D5
100
AcDbEntity
  8
LY_3
390
0
  6
CONTINUOUS
 62
     3
100
AcDbCircle
 10
66.519605
 20
251.333334
 30
0.0
 40
4.5
100
AcDbArc
 50
167.160412
 51
12.839588
  0
ARC
  5
D6
100
AcDbEntity
  8
LY_3
390
0
  6
CONTINUOUS
 62
     3
100
AcDbCircle
 10
-11.480395
 20
251.333334
 30
0.0
 40
4.5
100
AcDbArc
 50
289.471221
 51
7.235541
  0
ARC
  5
D7
100
AcDbEntity
  8
LY_3
390
0
  6
CONTINUOUS
 62
     3
100
AcDbCircle
 10
-11.480395
 20
346.333334
 30
0.0
 40
4.5
100
AcDbArc
 50
352.764459
 51
70.528779
  0
LINE
  5
D8
100
AcDbEntity
  8
LY_3
390
0
  6
DASHED
 62
    80
100
AcDbLine
 10
80.019605
 20
345.333334
 30
0.0
 11
80.019605
 21
252.333334
 31
0.0
  0
LINE
  5
D9
100
AcDbEntity
  8
LY_3
390
0
  6
DASHED
 62
    80
100
AcDbLine
 10
-24.980395
 20
242.333334
 30
0.0
 11
-24.980395
 21
355.333334
 31
0.0
  0
LINE
  5
DA
100
AcDbEntity
  8
LY_3
390
0
  6
DASHED
 62
    80
100
AcDbLine
 10
-19.980395
 20
358.833334
 30
0.0
 11
-9.980395
 21
358.833334
 31
0.0
  0
LINE
  5
DB
100
AcDbEntity
  8
LY_3
390
0
  6
DASHED
 62
    80
100
AcDbLine
 10
-19.980395
 20
238.833334
 30
0.0
 11
-9.980395
 21
238.833334
 31
0.0
  0
ENDSEC
  0
SECTION
  2
OBJECTS
  0
DICTIONARY
  5
19
100
AcDbDictionary
280
     0
281
     1
  3
ACAD_GROUP
350
1A
  3
ACAD_MLINESTYLE
350
1B
  3
ACAD_LAYOUT
350
1E
  3
ACAD_PLOTSETTINGS
350
22
  3
ACAD_PLOTSTYLENAME
350
1F
  0
DICTIONARY
  5
1A
102
{ACAD_REACTORS
330
19
102
}
100
AcDbDictionary
280
     0
281
     1
  0
DICTIONARY
  5
1B
102
{ACAD_REACTORS
330
19
102
}
100
AcDbDictionary
280
     0
281
     1
  3
Standard
350
1C
  0
MLINESTYLE
  5
1C
102
{ACAD_REACTORS
330
1B
102
}
100
AcDbMlineStyle
  2
Standard
 70
     0
  3

 62
     0
 51
90.0
 52
90.0
 71
     2
 49
0.5
 62
   256
  6
ByLayer
 49
-0.5
 62
   256
  6
ByLayer
  0
ACDBDICTIONARYWDFLT
  5
1F
102
{ACAD_REACTORS
330
19
102
}
100
AcDbDictionary
281
     1
  3
Normal
350
1D
100
AcDbDictionaryWithDefault
340
1D
  0
ACDBPLACEHOLDER
  5
1D
102
{ACAD_REACTORS
330
1F
102
}
  0
LAYOUT
  5
20
102
{ACAD_REACTORS
330
1E
102
}
100
AcDbPlotSettings
  1

  2

  4

  6

 40
0.0
 41
0.0
 42
0.0
 43
0.0
 44
0.0
 45
0.0
 46
0.0
 47
0.0
 48
0.0
 49
0.0
140
0.0
141
0.0
142
1.0
143
1.0
 70
  1024
 72
     0
 73
     0
 74
     0
  7

 75
     0
147
1.0
148
0.0
149
0.0
100
AcDbLayout
  1
Model
 70
     0
 71
     0
 10
0.0
 20
0.0
 11
0.0
 21
0.0
 12
0.0
 22
0.0
 32
0.0
 14
0.0
 24
0.0
 34
0.0
 15
0.0
 25
0.0
 35
0.0
146
0.0
 13
0.0
 23
0.0
 33
0.0
 16
0.0
 26
0.0
 36
0.0
 17
0.0
 27
0.0
 37
0.0
 76
     0
330
A
331
0
345
0
346
0
  0
LAYOUT
  5
21
102
{ACAD_REACTORS
330
1E
102
}
100
AcDbPlotSettings
  1

  2

  4

  6

 40
0.0
 41
0.0
 42
0.0
 43
0.0
 44
0.0
 45
0.0
 46
0.0
 47
0.0
 48
0.0
 49
0.0
140
0.0
141
0.0
142
1.0
143
1.0
 70
     0
 72
     0
 73
     0
 74
     0
  7

 75
     0
147
1.0
148
0.0
149
0.0
100
AcDbLayout
  1
Layout1
 70
     0
 71
     0
 10
0.0
 20
0.0
 11
0.0
 21
0.0
 12
0.0
 22
0.0
 32
0.0
 14
0.0
 24
0.0
 34
0.0
 15
0.0
 25
0.0
 35
0.0
146
0.0
 13
0.0
 23
0.0
 33
0.0
 16
0.0
 26
0.0
 36
0.0
 17
0.0
 27
0.0
 37
0.0
 76
     0
330
B
331
0
345
0
346
0
  0
DICTIONARY
  5
1E
102
{ACAD_REACTORS
330
19
102
}
100
AcDbDictionary
280
     0
281
     1
  3
Layout1
350
21
  3
Model
350
20
  0
DICTIONARY
  5
22
102
{ACAD_REACTORS
330
19
102
}
100
AcDbDictionary
280
     0
281
     1
  0
ENDSEC
  0
EOF
