  0
SECTION
  2
HEADER
  9
$ACADVER
  1
AC1009
  9
$DWGCODEPAGE
  3
dos932
  9
$INSBASE
 10
0.0
 20
0.0
 30
0.0
  9
$EXTMIN
 10
-67.600037
 20
-33.333332061767578
 30
0.0
  9
$EXTMAX
 10
1104.9734634854103
 20
540.06288692660314
 30
0.0
  9
$LIMMIN
 10
-67.600037
 20
-33.333332061767578
  9
$LIMMAX
 10
1104.9734634854103
 20
540.06288692660314
  9
$ORTHOMODE
 70
               0
  9
$REGENMODE
 70
               1
  9
$FILLMODE
 70
               1
  9
$QTEXTMODE
 70
               0
  9
$MIRRTEXT
 70
               1
  9
$DRAGMODE
 70
               2
  9
$LTSCALE
 40
1.0
  9
$OSMODE
 70
               0
  9
$ATTMODE
 70
               1
  9
$TEXTSIZE
 40
4.1655998229980469
  9
$TRACEWID
 40
0.05
  9
$TEXTSTYLE
  7
MX_NOTE_STANDARD
  9
$CLAYER
  8
0
  9
$CELTYPE
  6
CONTINUOUS
  9
$CECOLOR
 62
             256
  9
$DIMSCALE
 40
1.0
  9
$DIMASZ
 40
2.5
  9
$DIMEXO
 40
0.5
  9
$DIMDLI
 40
3.75
  9
$DIMRND
 40
0.0
  9
$DIMDLE
 40
0.0
  9
$DIMEXE
 40
1.0
  9
$DIMTP
 40
0.0
  9
$DIMTM
 40
0.0
  9
$DIMTXT
 40
2.5
  9
$DIMCEN
 40
2.5
  9
$DIMTSZ
 40
0.0
  9
$DIMTOL
 70
               0
  9
$DIMLIM
 70
               0
  9
$DIMTIH
 70
               0
  9
$DIMTOH
 70
               0
  9
$DIMSE1
 70
               0
  9
$DIMSE2
 70
               0
  9
$DIMTAD
 70
               1
  9
$DIMZIN
 70
               8
  9
$DIMBLK
  1

  9
$DIMASO
 70
               1
  9
$DIMSHO
 70
               1
  9
$DIMPOST
  1

  9
$DIMAPOST
  1

  9
$DIMALT
 70
               0
  9
$DIMALTD
 70
               4
  9
$DIMALTF
 40
0.03937007874016
  9
$DIMLFAC
 40
1.0
  9
$DIMTOFL
 70
               1
  9
$DIMTVP
 40
0.0
  9
$DIMTIX
 70
               0
  9
$DIMSOXD
 70
               0
  9
$DIMSAH
 70
               0
  9
$DIMBLK1
  1

  9
$DIMBLK2
  1

  9
$DIMSTYLE
  2
MXDIMSTYLE
  9
$DIMCLRD
 70
               0
  9
$DIMCLRE
 70
               0
  9
$DIMCLRT
 70
               0
  9
$DIMTFAC
 40
1.0
  9
$DIMGAP
 40
1.0
  9
$LUNITS
 70
               2
  9
$LUPREC
 70
               4
  9
$AXISMODE
 70
               0
  9
$AXISUNIT
 10
0.0
 20
0.0
  9
$SKETCHINC
 40
0.1
  9
$FILLETRAD
 40
0.0
  9
$AUNITS
 70
               0
  9
$AUPREC
 70
               0
  9
$MENU
  1
acad
  9
$ELEVATION
 40
0.0
  9
$PELEVATION
 40
0.0
  9
$THICKNESS
 40
0.0
  9
$LIMCHECK
 70
               0
  9
$BLIPMODE
 70
               1
  9
$CHAMFERA
 40
0.0
  9
$CHAMFERB
 40
0.0
  9
$SKPOLY
 70
               0
  9
$TDCREATE
 40
2454331.669664352
  9
$TDUPDATE
 40
2454331.669664352
  9
$TDINDWG
 40
0.0000000000
  9
$TDUSRTIMER
 40
0.0000000000
  9
$USRTIMER
 70
               1
  9
$ANGBASE
 50
0.0
  9
$ANGDIR
 70
               0
  9
$PDMODE
 70
               0
  9
$PDSIZE
 40
0.0
  9
$PLINEWID
 40
0.0
  9
$COORDS
 70
               1
  9
$SPLFRAME
 70
               0
  9
$SPLINETYPE
 70
               6
  9
$SPLINESEGS
 70
               8
  9
$ATTDIA
 70
               0
  9
$ATTREQ
 70
               1
  9
$HANDLING
 70
               1
  9
$HANDSEED
  5
388
  9
$SURFTAB1
 70
               6
  9
$SURFTAB2
 70
               6
  9
$SURFTYPE
 70
               6
  9
$SURFU
 70
               6
  9
$SURFV
 70
               6
  9
$UCSNAME
  2

  9
$UCSORG
 10
0.0
 20
0.0
 30
0.0
  9
$UCSXDIR
 10
1.0
 20
0.0
 30
0.0
  9
$UCSYDIR
 10
0.0
 20
1.0
 30
0.0
  9
$PUCSNAME
  2

  9
$PUCSORG
 10
0.0
 20
0.0
 30
0.0
  9
$PUCSXDIR
 10
1.0
 20
0.0
 30
0.0
  9
$PUCSYDIR
 10
0.0
 20
1.0
 30
0.0
  9
$USERI1
 70
               0
  9
$USERI2
 70
               0
  9
$USERI3
 70
               0
  9
$USERI4
 70
               0
  9
$USERI5
 70
               0
  9
$USERR1
 40
0.0
  9
$USERR2
 40
0.0
  9
$USERR3
 40
0.0
  9
$USERR4
 40
0.0
  9
$USERR5
 40
0.0
  9
$WORLDVIEW
 70
               1
  9
$SHADEDGE
 70
               3
  9
$SHADEDIF
 70
              70
  9
$TILEMODE
 70
               1
  9
$MAXACTVP
 70
              16
  9
$PINSBASE
 10
0.0
 20
0.0
 30
0.0
  9
$PLIMCHECK
 70
               0
  9
$PEXTMIN
 10
1.0000000000000000E+20
 20
1.0000000000000000E+20
 30
1.0000000000000000E+20
  9
$PEXTMAX
 10
-1.0000000000000000E+20
 20
-1.0000000000000000E+20
 30
-1.0000000000000000E+20
  9
$PLIMMIN
 10
0.0
 20
0.0
  9
$PLIMMAX
 10
12.0
 20
9.0
  9
$UNITMODE
 70
               0
  9
$VISRETAIN
 70
               0
  9
$PLINEGEN
 70
               1
  9
$PSLTSCALE
 70
               0
  9
$TREEDEPTH
 70
            3020
  9
$DWGCODEPAGE
  3
dos932
  0
ENDSEC
  0
SECTION
  2
TABLES
  0
TABLE
  2
VPORT
 70
               1
  0
VPORT
  2
*ACTIVE
 70
               0
 10
0.0
 20
0.0
 11
1.0
 21
1.0
 12
518.68671324270508
 22
253.36477743241778
 13
0.0
 23
0.0
 14
1.0
 24
1.0
 15
0.0
 25
0.0
 16
0.0
 26
0.0
 36
1.0
 17
0.0
 27
0.0
 37
0.0
 40
579.13018117825447
 41
1.7320508075688772
 42
50.0
 43
0.0
 44
0.0
 50
0.0
 51
0.0
 71
               0
 72
             100
 73
               1
 74
               1
 75
               0
 76
               0
 77
               0
 78
               0
  0
ENDTAB
  0
TABLE
  2
LTYPE
 70
               2
  0
LTYPE
  2
CONTINUOUS
 70
              64
  3
Solid line
 72
              65
 73
               0
 40
0.0
  0
LTYPE
  2
DASHED
 70
              64
  3
Dashed __ __ __ __ __ __ __ __ __ __ __ __ __ _
 72
              65
 73
               2
 40
19.049999999999997
 49
12.699999999999999
 49
-6.3499999999999996
  0
ENDTAB
  0
TABLE
  2
LAYER
 70
               3
  0
LAYER
  2
0
 70
               0
 62
               7
  6
CONTINUOUS
  0
LAYER
  2
DEFPOINTS
 70
               0
 62
               7
  6
CONTINUOUS
  0
LAYER
  2
LY_3
 70
               0
 62
               7
  6
CONTINUOUS
  0
ENDTAB
  0
TABLE
  2
STYLE
 70
               1
  0
STYLE
  2
MX_NOTE_STANDARD
 70
               0
 40
0.0
 41
1.0
 50
0.0
 71
               0
 42
4.1655998229980469
  3
txt.shx
  4
extfont.shx
  0
ENDTAB
  0
TABLE
  2
VIEW
 70
               0
  0
ENDTAB
  0
TABLE
  2
UCS
 70
               0
  0
ENDTAB
  0
TABLE
  2
APPID
 70
               1
  0
APPID
  2
ACAD
 70
               0
  0
ENDTAB
  0
TABLE
  2
DIMSTYLE
 70
               1
  0
DIMSTYLE
  2
MXDIMSTYLE
 70
               0
  3

  4

  5

  6

  7

 40
1.0
 41
2.5
 42
0.5
 43
3.75
 44
1.0
 45
0.0
 46
0.0
 47
0.0
 48
0.0
 71
               0
 72
               0
 73
               0
 74
               0
 75
               0
 76
               0
 77
               1
 78
               8
140
2.5
141
2.5
142
0.0
143
0.03937007874016
144
1.0
145
0.0
146
1.0
147
1.0
170
               0
171
               4
172
               1
173
               0
174
               0
175
               0
176
               0
177
               0
178
               0
  0
ENDTAB
  0
ENDSEC
  0
SECTION
  2
BLOCKS
  0
ENDSEC
  0
SECTION
  2
ENTITIES
  0
LINE
  8
LY_3
  6
CONTINUOUS
 62
               3
  5
1F
 10
379.0
 20
151.009051
 30
0.0
 11
379.0
 21
138.509051
 31
0.0
  0
LINE
  8
LY_3
  6
CONTINUOUS
 62
               3
  5
20
 10
408.0
 20
151.009051
 30
0.0
 11
408.0
 21
138.509051
 31
0.0
  0
LINE
  8
LY_3
  6
CONTINUOUS
 62
               3
  5
21
 10
408.0
 20
138.509051
 30
0.0
 11
379.0
 21
138.509051
 31
0.0
  0
LINE
  8
LY_3
  6
CONTINUOUS
 62
               3
  5
22
 10
408.0
 20
141.20197200000001
 30
0.0
 11
379.0
 21
141.20197200000001
 31
0.0
  0
LINE
  8
LY_3
  6
CONTINUOUS
 62
               3
  5
23
 10
408.0
 20
151.009051
 30
0.0
 11
379.0
 21
151.009051
 31
0.0
  0
LINE
  8
LY_3
  6
CONTINUOUS
 62
               3
  5
24
 10
408.0
 20
187.5
 30
0.0
 11
379.0
 21
187.5
 31
0.0
  0
LINE
  8
LY_3
  6
CONTINUOUS
 62
               3
  5
25
 10
408.0
 20
212.5
 30
0.0
 11
379.0
 21
212.5
 31
0.0
  0
LINE
  8
LY_3
  6
CONTINUOUS
 62
               3
  5
26
 10
379.0
 20
187.5
 30
0.0
 11
379.0
 21
212.5
 31
0.0
  0
LINE
  8
LY_3
  6
CONTINUOUS
 62
               3
  5
27
 10
408.0
 20
187.5
 30
0.0
 11
408.0
 21
212.5
 31
0.0
  0
LINE
  8
LY_3
  6
CONTINUOUS
 62
               3
  5
28
 10
408.0
 20
209.80707799999999
 30
0.0
 11
379.0
 21
209.80707799999999
 31
0.0
  0
LINE
  8
LY_3
  6
CONTINUOUS
 62
               3
  5
29
 10
408.0
 20
190.19292200000001
 30
0.0
 11
379.0
 21
190.19292200000001
 31
0.0
  0
LINE
  8
LY_3
  6
CONTINUOUS
 62
               3
  5
2A
 10
408.0
 20
248.99095
 30
0.0
 11
379.0
 21
248.99095
 31
0.0
  0
LINE
  8
LY_3
  6
CONTINUOUS
 62
               3
  5
2B
 10
408.0
 20
258.79802799999999
 30
0.0
 11
379.0
 21
258.79802799999999
 31
0.0
  0
LINE
  8
LY_3
  6
CONTINUOUS
 62
               3
  5
2C
 10
408.0
 20
261.49095
 30
0.0
 11
379.0
 21
261.49095
 31
0.0
  0
LINE
  8
LY_3
  6
CONTINUOUS
 62
               3
  5
2D
 10
408.0
 20
248.990949
 30
0.0
 11
408.0
 21
261.49095
 31
0.0
  0
LINE
  8
LY_3
  6
CONTINUOUS
 62
               3
  5
2E
 10
379.0
 20
248.990949
 30
0.0
 11
379.0
 21
261.49095
 31
0.0
  0
LINE
  8
LY_3
  6
CONTINUOUS
 62
               3
  5
2F
 10
208.0
 20
151.009051
 30
0.0
 11
237.0
 21
151.009051
 31
0.0
  0
LINE
  8
LY_3
  6
CONTINUOUS
 62
               3
  5
30
 10
208.0
 20
141.20197200000001
 30
0.0
 11
237.0
 21
141.20197200000001
 31
0.0
  0
LINE
  8
LY_3
  6
CONTINUOUS
 62
               3
  5
31
 10
208.0
 20
138.509051
 30
0.0
 11
237.0
 21
138.509051
 31
0.0
  0
LINE
  8
LY_3
  6
CONTINUOUS
 62
               3
  5
32
 10
208.0
 20
151.009051
 30
0.0
 11
208.0
 21
138.509051
 31
0.0
  0
LINE
  8
LY_3
  6
CONTINUOUS
 62
               3
  5
33
 10
237.0
 20
151.009051
 30
0.0
 11
237.0
 21
138.509051
 31
0.0
  0
LINE
  8
LY_3
  6
CONTINUOUS
 62
               3
  5
34
 10
237.0
 20
248.990949
 30
0.0
 11
237.0
 21
261.49095
 31
0.0
  0
LINE
  8
LY_3
  6
CONTINUOUS
 62
               3
  5
35
 10
208.0
 20
248.990949
 30
0.0
 11
208.0
 21
261.49095
 31
0.0
  0
LINE
  8
LY_3
  6
CONTINUOUS
 62
               3
  5
36
 10
208.0
 20
261.49095
 30
0.0
 11
237.0
 21
261.49095
 31
0.0
  0
LINE
  8
LY_3
  6
CONTINUOUS
 62
               3
  5
37
 10
208.0
 20
258.79802799999999
 30
0.0
 11
237.0
 21
258.79802799999999
 31
0.0
  0
LINE
  8
LY_3
  6
CONTINUOUS
 62
               3
  5
38
 10
208.0
 20
190.19292200000001
 30
0.0
 11
237.0
 21
190.19292200000001
 31
0.0
  0
LINE
  8
LY_3
  6
CONTINUOUS
 62
               3
  5
39
 10
208.0
 20
209.80707799999999
 30
0.0
 11
237.0
 21
209.80707799999999
 31
0.0
  0
LINE
  8
LY_3
  6
CONTINUOUS
 62
               3
  5
3A
 10
208.0
 20
248.99095
 30
0.0
 11
237.0
 21
248.99095
 31
0.0
  0
LINE
  8
LY_3
  6
CONTINUOUS
 62
               3
  5
3B
 10
200.0
 20
140.0
 30
0.0
 11
200.0
 21
260.0
 31
0.0
  0
CIRCLE
  8
LY_3
  6
CONTINUOUS
 62
               3
  5
3C
 10
0.0
 20
200.0
 30
0.0
 40
65.0
  0
CIRCLE
  8
LY_3
  6
CONTINUOUS
 62
               3
  5
3D
 10
0.0
 20
200.0
 30
0.0
 40
42.0
  0
LINE
  8
LY_3
  6
CONTINUOUS
 62
               3
  5
3E
 10
250.0
 20
135.0
 30
0.0
 11
250.0
 21
265.0
 31
0.0
  0
CIRCLE
  8
LY_3
  6
CONTINUOUS
 62
               3
  5
3F
 10
0.0
 20
200.0
 30
0.0
 40
14.0
  0
CIRCLE
  8
LY_3
  6
CONTINUOUS
 62
               3
  5
40
 10
0.0
 20
200.0
 30
0.0
 40
11.0
  0
CIRCLE
  8
LY_3
  6
CONTINUOUS
 62
               3
  5
41
 10
0.0
 20
200.0
 30
0.0
 40
5.0
  0
ARC
  8
LY_3
  6
CONTINUOUS
 62
               3
  5
42
 10
104.95080299999999
 20
228.12148300000001
 30
0.0
 40
84.75
 50
195.0
 51
215.732856
  0
ARC
  8
LY_3
  6
CONTINUOUS
 62
               3
  5
43
 10
104.95080299999999
 20
228.12148300000001
 30
0.0
 40
87.75
 50
195.0
 51
216.501814
  0
ARC
  8
LY_3
  6
CONTINUOUS
 62
               3
  5
44
 10
21.639700000000001
 20
205.79834099999999
 30
0.0
 40
1.5
 50
14.999999999999998
 51
195.0
  0
ARC
  8
LY_3
  6
CONTINUOUS
 62
               3
  5
45
 10
76.829319999999996
 20
123.17068
 30
0.0
 40
84.75
 50
135.0
 51
155.732856
  0
ARC
  8
LY_3
  6
CONTINUOUS
 62
               3
  5
46
 10
76.829319999999996
 20
123.17068
 30
0.0
 40
87.75
 50
135.0
 51
156.501814
  0
ARC
  8
LY_3
  6
CONTINUOUS
 62
               3
  5
47
 10
15.84136
 20
184.15863999999999
 30
0.0
 40
1.5
 50
315.0
 51
134.99999999999994
  0
ARC
  8
LY_3
  6
CONTINUOUS
 62
               3
  5
48
 10
-28.121483000000001
 20
95.049197000000007
 30
0.0
 40
84.75
 50
75.0
 51
95.732855999999998
  0
ARC
  8
LY_3
  6
CONTINUOUS
 62
               3
  5
49
 10
-28.121483000000001
 20
95.049197000000007
 30
0.0
 40
87.75
 50
75.0
 51
96.501813999999996
  0
ARC
  8
LY_3
  6
CONTINUOUS
 62
               3
  5
4A
 10
-5.7983399999999996
 20
178.3603
 30
0.0
 40
1.5
 50
255.00000000000003
 51
75.000000000000014
  0
ARC
  8
LY_3
  6
CONTINUOUS
 62
               3
  5
4B
 10
-104.95080299999999
 20
171.87851699999999
 30
0.0
 40
84.75
 50
14.999999999999998
 51
35.732855999999998
  0
ARC
  8
LY_3
  6
CONTINUOUS
 62
               3
  5
4C
 10
-104.95080299999999
 20
171.87851699999999
 30
0.0
 40
87.75
 50
14.999999999999998
 51
36.501814000000003
  0
ARC
  8
LY_3
  6
CONTINUOUS
 62
               3
  5
4D
 10
-21.639700000000001
 20
194.20165900000001
 30
0.0
 40
1.5
 50
195.0
 51
14.999999999999982
  0
ARC
  8
LY_3
  6
CONTINUOUS
 62
               3
  5
4E
 10
-76.829319999999996
 20
276.82932
 30
0.0
 40
84.75
 50
315.0
 51
335.73285600000003
  0
ARC
  8
LY_3
  6
CONTINUOUS
 62
               3
  5
4F
 10
-76.829319999999996
 20
276.82932
 30
0.0
 40
87.75
 50
315.0
 51
336.50181400000002
  0
ARC
  8
LY_3
  6
CONTINUOUS
 62
               3
  5
50
 10
-15.84136
 20
215.84136000000001
 30
0.0
 40
1.5
 50
135.0
 51
315.0
  0
ARC
  8
LY_3
  6
CONTINUOUS
 62
               3
  5
51
 10
28.121483000000001
 20
304.95080300000001
 30
0.0
 40
84.75
 50
255.00000000000003
 51
275.73285600000003
  0
ARC
  8
LY_3
  6
CONTINUOUS
 62
               3
  5
52
 10
28.121483000000001
 20
304.95080300000001
 30
0.0
 40
87.75
 50
255.00000000000003
 51
276.50181400000002
  0
ARC
  8
LY_3
  6
CONTINUOUS
 62
               3
  5
53
 10
5.7983399999999996
 20
221.6397
 30
0.0
 40
1.5
 50
75.0
 51
255.00000000000003
  0
LINE
  8
LY_3
  6
CONTINUOUS
 62
               3
  5
54
 10
205.0
 20
265.0
 30
0.0
 11
254.0
 21
265.0
 31
0.0
  0
LINE
  8
LY_3
  6
CONTINUOUS
 62
               3
  5
55
 10
205.0
 20
135.0
 30
0.0
 11
254.0
 21
135.0
 31
0.0
  0
ARC
  8
LY_3
  6
CONTINUOUS
 62
               3
  5
56
 10
205.0
 20
260.0
 30
0.0
 40
5.0
 50
90.0
 51
180.0
  0
ARC
  8
LY_3
  6
CONTINUOUS
 62
               3
  5
57
 10
205.0
 20
140.0
 30
0.0
 40
5.0
 50
180.0
 51
270.0
  0
LINE
  8
LY_3
  6
CONTINUOUS
 62
               3
  5
58
 10
254.0
 20
135.0
 30
0.0
 11
254.0
 21
265.0
 31
0.0
  0
LINE
  8
LY_3
  6
CONTINUOUS
 62
               3
  5
59
 10
259.0
 20
143.0
 30
0.0
 11
259.0
 21
257.0
 31
0.0
  0
LINE
  8
LY_3
  6
CONTINUOUS
 62
               3
  5
5A
 10
259.0
 20
257.0
 30
0.0
 11
357.0
 21
257.0
 31
0.0
  0
LINE
  8
LY_3
  6
CONTINUOUS
 62
               3
  5
5B
 10
259.0
 20
143.0
 30
0.0
 11
268.78143999999998
 21
143.0
 31
0.0
  0
LINE
  8
LY_3
  6
CONTINUOUS
 62
               3
  5
5C
 10
259.0
 20
257.0
 30
0.0
 11
254.0
 21
265.0
 31
0.0
  0
LINE
  8
LY_3
  6
CONTINUOUS
 62
               3
  5
5D
 10
259.0
 20
143.0
 30
0.0
 11
254.0
 21
135.0
 31
0.0
  0
LINE
  8
LY_3
  6
CONTINUOUS
 62
               3
  5
5E
 10
357.0
 20
143.0
 30
0.0
 11
362.0
 21
135.0
 31
0.0
  0
LINE
  8
LY_3
  6
CONTINUOUS
 62
               3
  5
5F
 10
357.0
 20
257.0
 30
0.0
 11
362.0
 21
265.0
 31
0.0
  0
LINE
  8
LY_3
  6
CONTINUOUS
 62
               3
  5
60
 10
357.0
 20
143.0
 30
0.0
 11
357.0
 21
257.0
 31
0.0
  0
LINE
  8
LY_3
  6
CONTINUOUS
 62
               3
  5
61
 10
362.0
 20
135.0
 30
0.0
 11
362.0
 21
265.0
 31
0.0
  0
ARC
  8
LY_3
  6
CONTINUOUS
 62
               3
  5
62
 10
411.0
 20
140.0
 30
0.0
 40
5.0
 50
270.0
 51
0.0
  0
ARC
  8
LY_3
  6
CONTINUOUS
 62
               3
  5
63
 10
411.0
 20
260.0
 30
0.0
 40
5.0
 50
0.0
 51
90.0
  0
LINE
  8
LY_3
  6
CONTINUOUS
 62
               3
  5
64
 10
411.0
 20
135.0
 30
0.0
 11
362.0
 21
135.0
 31
0.0
  0
LINE
  8
LY_3
  6
CONTINUOUS
 62
               3
  5
65
 10
411.0
 20
265.0
 30
0.0
 11
362.0
 21
265.0
 31
0.0
  0
LINE
  8
LY_3
  6
CONTINUOUS
 62
               3
  5
66
 10
366.0
 20
135.0
 30
0.0
 11
366.0
 21
265.0
 31
0.0
  0
LINE
  8
LY_3
  6
CONTINUOUS
 62
               3
  5
67
 10
416.0
 20
140.0
 30
0.0
 11
416.0
 21
260.0
 31
0.0
  0
LINE
  8
LY_3
  6
CONTINUOUS
 62
               3
  5
68
 10
208.0
 20
187.5
 30
0.0
 11
208.0
 21
212.5
 31
0.0
  0
LINE
  8
LY_3
  6
CONTINUOUS
 62
               3
  5
69
 10
237.0
 20
187.5
 30
0.0
 11
237.0
 21
212.5
 31
0.0
  0
LINE
  8
LY_3
  6
CONTINUOUS
 62
               3
  5
6A
 10
208.0
 20
212.5
 30
0.0
 11
237.0
 21
212.5
 31
0.0
  0
LINE
  8
LY_3
  6
CONTINUOUS
 62
               3
  5
6B
 10
208.0
 20
187.5
 30
0.0
 11
237.0
 21
187.5
 31
0.0
  0
LINE
  8
LY_3
  6
CONTINUOUS
 62
               3
  5
6C
 10
-59.5
 20
92.0
 30
0.0
 11
-35.0
 21
92.0
 31
0.0
  0
LINE
  8
LY_3
  6
CONTINUOUS
 62
               3
  5
6D
 10
-55.600000000000001
 20
105.0
 30
0.0
 11
-36.600000000000001
 21
105.0
 31
0.0
  0
LINE
  8
LY_3
  6
CONTINUOUS
 62
               3
  5
6E
 10
-55.600000000000001
 20
105.0
 30
0.0
 11
-59.5
 21
92.0
 31
0.0
  0
LINE
  8
LY_3
  6
CONTINUOUS
 62
               3
  5
6F
 10
55.600000000000001
 20
105.0
 30
0.0
 11
59.5
 21
92.0
 31
0.0
  0
LINE
  8
LY_3
  6
CONTINUOUS
 62
               3
  5
70
 10
28.5
 20
95.200000000000003
 30
0.0
 11
28.5
 21
99.200000000000003
 31
0.0
  0
LINE
  8
LY_3
  6
CONTINUOUS
 62
               3
  5
71
 10
28.5
 20
95.200000000000003
 30
0.0
 11
35.0
 21
92.0
 31
0.0
  0
LINE
  8
LY_3
  6
CONTINUOUS
 62
               3
  5
72
 10
-28.5
 20
95.200000000000003
 30
0.0
 11
-35.0
 21
92.0
 31
0.0
  0
LINE
  8
LY_3
  6
CONTINUOUS
 62
               3
  5
73
 10
-23.5
 20
104.2
 30
0.0
 11
23.5
 21
104.2
 31
0.0
  0
ARC
  8
LY_3
  6
CONTINUOUS
 62
               3
  5
74
 10
23.5
 20
99.200000000000003
 30
0.0
 40
5.0
 50
0.0
 51
90.0
  0
ARC
  8
LY_3
  6
CONTINUOUS
 62
               3
  5
75
 10
-23.5
 20
99.200000000000003
 30
0.0
 40
5.0
 50
90.0
 51
180.0
  0
LINE
  8
LY_3
  6
CONTINUOUS
 62
               3
  5
76
 10
-28.5
 20
95.200000000000003
 30
0.0
 11
-28.5
 21
99.200000000000003
 31
0.0
  0
LINE
  8
LY_3
  6
CONTINUOUS
 62
               3
  5
77
 10
35.0
 20
92.0
 30
0.0
 11
36.600000000000001
 21
105.0
 31
0.0
  0
LINE
  8
LY_3
  6
CONTINUOUS
 62
               3
  5
78
 10
35.0
 20
92.0
 30
0.0
 11
59.5
 21
92.0
 31
0.0
  0
LINE
  8
LY_3
  6
CONTINUOUS
 62
               3
  5
79
 10
-35.0
 20
92.0
 30
0.0
 11
-36.600000000000001
 21
105.0
 31
0.0
  0
LINE
  8
LY_3
  6
CONTINUOUS
 62
               3
  5
7A
 10
36.600000000000001
 20
105.0
 30
0.0
 11
55.600000000000001
 21
105.0
 31
0.0
  0
ARC
  8
LY_3
  6
CONTINUOUS
 62
               3
  5
7B
 10
85.242200999999994
 20
145.41673299999999
 30
0.0
 40
63.242201000000001
 50
185.86321100000001
 51
219.723142
  0
ARC
  8
LY_3
  6
CONTINUOUS
 62
               3
  5
7C
 10
-85.242200999999994
 20
145.41673299999999
 30
0.0
 40
63.242201000000001
 50
320.276858
 51
354.13678900000002
  0
LINE
  8
LY_3
  6
CONTINUOUS
 62
               3
  5
7D
 10
254.0
 20
92.0
 30
0.0
 11
280.0
 21
92.0
 31
0.0
  0
LINE
  8
LY_3
  6
CONTINUOUS
 62
               3
  5
7E
 10
257.89999999999998
 20
105.0
 30
0.0
 11
358.10000000000002
 21
105.0
 31
0.0
  0
LINE
  8
LY_3
  6
CONTINUOUS
 62
               3
  5
7F
 10
358.10000000000002
 20
105.0
 30
0.0
 11
362.0
 21
92.0
 31
0.0
  0
LINE
  8
LY_3
  6
CONTINUOUS
 62
               3
  5
80
 10
257.89999999999998
 20
105.0
 30
0.0
 11
254.0
 21
92.0
 31
0.0
  0
LINE
  8
LY_3
  6
DASHED
 62
              80
  5
82
 10
42.5
 20
92.0
 30
0.0
 11
42.5
 21
105.0
 31
0.0
  0
LINE
  8
LY_3
  6
DASHED
 62
              80
  5
83
 10
51.5
 20
92.0
 30
0.0
 11
51.5
 21
105.0
 31
0.0
  0
LINE
  8
LY_3
  6
DASHED
 62
              80
  5
84
 10
-51.5
 20
92.0
 30
0.0
 11
-51.5
 21
105.0
 31
0.0
  0
LINE
  8
LY_3
  6
DASHED
 62
              80
  5
85
 10
-42.5
 20
92.0
 30
0.0
 11
-42.5
 21
105.0
 31
0.0
  0
LINE
  8
LY_3
  6
DASHED
 62
              80
  5
86
 10
261.5
 20
92.0
 30
0.0
 11
261.5
 21
105.0
 31
0.0
  0
LINE
  8
LY_3
  6
DASHED
 62
              80
  5
87
 10
270.5
 20
92.0
 30
0.0
 11
270.5
 21
105.0
 31
0.0
  0
LINE
  8
LY_3
  6
DASHED
 62
              80
  5
88
 10
345.5
 20
92.0
 30
0.0
 11
345.5
 21
105.0
 31
0.0
  0
LINE
  8
LY_3
  6
DASHED
 62
              80
  5
89
 10
354.5
 20
92.0
 30
0.0
 11
354.5
 21
105.0
 31
0.0
  0
LINE
  8
LY_3
  6
CONTINUOUS
 62
               3
  5
8A
 10
269.0
 20
147.41673299999999
 30
0.0
 11
347.0
 21
147.41673299999999
 31
0.0
  0
LINE
  8
LY_3
  6
CONTINUOUS
 62
               3
  5
8B
 10
269.0
 20
147.41673299999999
 30
0.0
 11
267.0
 21
105.0
 31
0.0
  0
LINE
  8
LY_3
  6
CONTINUOUS
 62
               3
  5
8C
 10
347.0
 20
147.41673299999999
 30
0.0
 11
349.0
 21
105.0
 31
0.0
  0
LINE
  8
LY_3
  6
CONTINUOUS
 62
               3
  5
8D
 10
347.21856000000002
 20
143.0
 30
0.0
 11
357.0
 21
143.0
 31
0.0
  0
LINE
  8
LY_3
  6
CONTINUOUS
 62
               3
  5
8E
 10
65.874938999999998
 20
196.5
 30
0.0
 11
65.0
 21
196.5
 31
0.0
  0
LINE
  8
LY_3
  6
CONTINUOUS
 62
               3
  5
8F
 10
65.0
 20
196.5
 30
0.0
 11
65.0
 21
203.5
 31
0.0
  0
LINE
  8
LY_3
  6
CONTINUOUS
 62
               3
  5
90
 10
65.874938999999998
 20
203.5
 30
0.0
 11
65.0
 21
203.5
 31
0.0
  0
ARC
  8
LY_3
  6
CONTINUOUS
 62
               3
  5
91
 10
61.100037
 20
200.0
 30
0.0
 40
6.5
 50
334.28072300000002
 51
25.719274000000009
  0
ARC
  8
LY_3
  6
CONTINUOUS
 62
               3
  5
92
 10
65.874938999999998
 20
197.70001199999999
 30
0.0
 40
1.2
 50
270.00000299999999
 51
334.28072300000002
  0
ARC
  8
LY_3
  6
CONTINUOUS
 62
               3
  5
93
 10
65.874938999999998
 20
202.29998800000001
 30
0.0
 40
1.2
 50
25.719277000000005
 51
89.999997000000008
  0
LINE
  8
LY_3
  6
CONTINUOUS
 62
               3
  5
94
 10
-65.874938999999998
 20
203.5
 30
0.0
 11
-65.0
 21
203.5
 31
0.0
  0
LINE
  8
LY_3
  6
CONTINUOUS
 62
               3
  5
95
 10
-65.0
 20
203.5
 30
0.0
 11
-65.0
 21
196.5
 31
0.0
  0
LINE
  8
LY_3
  6
CONTINUOUS
 62
               3
  5
96
 10
-65.874938999999998
 20
196.5
 30
0.0
 11
-65.0
 21
196.5
 31
0.0
  0
ARC
  8
LY_3
  6
CONTINUOUS
 62
               3
  5
97
 10
-61.100037
 20
200.0
 30
0.0
 40
6.5
 50
154.28072299999999
 51
205.71927400000001
  0
ARC
  8
LY_3
  6
CONTINUOUS
 62
               3
  5
98
 10
-65.874938999999998
 20
202.29998800000001
 30
0.0
 40
1.2
 50
90.000003000000007
 51
154.28072299999999
  0
ARC
  8
LY_3
  6
CONTINUOUS
 62
               3
  5
99
 10
-65.874938999999998
 20
197.70001199999999
 30
0.0
 40
1.2
 50
205.71927700000001
 51
269.99999700000001
  0
ARC
  8
LY_3
  6
CONTINUOUS
 62
               3
  5
9A
 10
246.49499499999999
 20
198.50500500000001
 30
0.0
 40
0.92
 50
90.000003000000007
 51
180.00000499999999
  0
ARC
  8
LY_3
  6
CONTINUOUS
 62
               3
  5
9B
 10
243.50500500000001
 20
198.50500500000001
 30
0.0
 40
0.92
 50
0.0
 51
90.000003000000007
  0
ARC
  8
LY_3
  6
CONTINUOUS
 62
               3
  5
9C
 10
246.49499499999999
 20
201.49499499999999
 30
0.0
 40
0.92
 50
179.99999500000001
 51
269.99999700000001
  0
CIRCLE
  8
LY_3
  6
CONTINUOUS
 62
               3
  5
9D
 10
245.0
 20
200.0
 30
0.0
 40
3.5
  0
ARC
  8
LY_3
  6
CONTINUOUS
 62
               3
  5
9E
 10
243.50500500000001
 20
201.49499499999999
 30
0.0
 40
0.92
 50
269.99999700000001
 51
0.0
  0
LINE
  8
LY_3
  6
CONTINUOUS
 62
               3
  5
9F
 10
246.49499499999999
 20
199.42498800000001
 30
0.0
 11
247.29998800000001
 21
199.42498800000001
 31
0.0
  0
LINE
  8
LY_3
  6
CONTINUOUS
 62
               3
  5
A0
 10
245.57501199999999
 20
198.50500500000001
 30
0.0
 11
245.57501199999999
 21
197.70001199999999
 31
0.0
  0
LINE
  8
LY_3
  6
CONTINUOUS
 62
               3
  5
A1
 10
244.42498800000001
 20
198.50500500000001
 30
0.0
 11
244.42498800000001
 21
197.70001199999999
 31
0.0
  0
LINE
  8
LY_3
  6
CONTINUOUS
 62
               3
  5
A2
 10
242.70001199999999
 20
199.42498800000001
 30
0.0
 11
243.50500500000001
 21
199.42498800000001
 31
0.0
  0
LINE
  8
LY_3
  6
CONTINUOUS
 62
               3
  5
A3
 10
244.42498800000001
 20
197.70001199999999
 30
0.0
 11
245.57501199999999
 21
197.70001199999999
 31
0.0
  0
LINE
  8
LY_3
  6
CONTINUOUS
 62
               3
  5
A4
 10
242.70001199999999
 20
200.57501199999999
 30
0.0
 11
242.70001199999999
 21
199.42498800000001
 31
0.0
  0
LINE
  8
LY_3
  6
CONTINUOUS
 62
               3
  5
A5
 10
244.42498800000001
 20
202.29998800000001
 30
0.0
 11
244.42498800000001
 21
201.49499499999999
 31
0.0
  0
LINE
  8
LY_3
  6
CONTINUOUS
 62
               3
  5
A6
 10
246.49499499999999
 20
200.57501199999999
 30
0.0
 11
247.29998800000001
 21
200.57501199999999
 31
0.0
  0
LINE
  8
LY_3
  6
CONTINUOUS
 62
               3
  5
A7
 10
245.57501199999999
 20
202.29998800000001
 30
0.0
 11
245.57501199999999
 21
201.49499499999999
 31
0.0
  0
LINE
  8
LY_3
  6
CONTINUOUS
 62
               3
  5
A8
 10
244.42498800000001
 20
202.29998800000001
 30
0.0
 11
245.57501199999999
 21
202.29998800000001
 31
0.0
  0
LINE
  8
LY_3
  6
CONTINUOUS
 62
               3
  5
A9
 10
247.29998800000001
 20
200.57501199999999
 30
0.0
 11
247.29998800000001
 21
199.42498800000001
 31
0.0
  0
LINE
  8
LY_3
  6
CONTINUOUS
 62
               3
  5
AA
 10
242.70001199999999
 20
200.57501199999999
 30
0.0
 11
243.50500500000001
 21
200.57501199999999
 31
0.0
  0
ARC
  8
LY_3
  6
CONTINUOUS
 62
               3
  5
AB
 10
369.50500499999998
 20
198.50500500000001
 30
0.0
 40
0.92
 50
359.99999500000001
 51
89.999997000000008
  0
ARC
  8
LY_3
  6
CONTINUOUS
 62
               3
  5
AC
 10
372.49499500000002
 20
198.50500500000001
 30
0.0
 40
0.92
 50
89.999997000000008
 51
180.0
  0
ARC
  8
LY_3
  6
CONTINUOUS
 62
               3
  5
AD
 10
369.50500499999998
 20
201.49499499999999
 30
0.0
 40
0.92
 50
270.00000299999999
 51
0.0000049999999943
  0
CIRCLE
  8
LY_3
  6
CONTINUOUS
 62
               3
  5
AE
 10
371.0
 20
200.0
 30
0.0
 40
3.5
  0
ARC
  8
LY_3
  6
CONTINUOUS
 62
               3
  5
AF
 10
372.49499500000002
 20
201.49499499999999
 30
0.0
 40
0.92
 50
180.0
 51
270.00000299999999
  0
LINE
  8
LY_3
  6
CONTINUOUS
 62
               3
  5
B0
 10
369.50500499999998
 20
199.42498800000001
 30
0.0
 11
368.70001200000002
 21
199.42498800000001
 31
0.0
  0
LINE
  8
LY_3
  6
CONTINUOUS
 62
               3
  5
B1
 10
370.42498799999998
 20
198.50500500000001
 30
0.0
 11
370.42498799999998
 21
197.70001199999999
 31
0.0
  0
LINE
  8
LY_3
  6
CONTINUOUS
 62
               3
  5
B2
 10
371.57501200000002
 20
198.50500500000001
 30
0.0
 11
371.57501200000002
 21
197.70001199999999
 31
0.0
  0
LINE
  8
LY_3
  6
CONTINUOUS
 62
               3
  5
B3
 10
373.29998799999998
 20
199.42498800000001
 30
0.0
 11
372.49499500000002
 21
199.42498800000001
 31
0.0
  0
LINE
  8
LY_3
  6
CONTINUOUS
 62
               3
  5
B4
 10
371.57501200000002
 20
197.70001199999999
 30
0.0
 11
370.42498799999998
 21
197.70001199999999
 31
0.0
  0
LINE
  8
LY_3
  6
CONTINUOUS
 62
               3
  5
B5
 10
373.29998799999998
 20
200.57501199999999
 30
0.0
 11
373.29998799999998
 21
199.42498800000001
 31
0.0
  0
LINE
  8
LY_3
  6
CONTINUOUS
 62
               3
  5
B6
 10
371.57501200000002
 20
202.29998800000001
 30
0.0
 11
371.57501200000002
 21
201.49499499999999
 31
0.0
  0
LINE
  8
LY_3
  6
CONTINUOUS
 62
               3
  5
B7
 10
369.50500499999998
 20
200.57501199999999
 30
0.0
 11
368.70001200000002
 21
200.57501199999999
 31
0.0
  0
LINE
  8
LY_3
  6
CONTINUOUS
 62
               3
  5
B8
 10
370.42498799999998
 20
202.29998800000001
 30
0.0
 11
370.42498799999998
 21
201.49499499999999
 31
0.0
  0
LINE
  8
LY_3
  6
CONTINUOUS
 62
               3
  5
B9
 10
371.57501200000002
 20
202.29998800000001
 30
0.0
 11
370.42498799999998
 21
202.29998800000001
 31
0.0
  0
LINE
  8
LY_3
  6
CONTINUOUS
 62
               3
  5
BA
 10
368.70001200000002
 20
200.57501199999999
 30
0.0
 11
368.70001200000002
 21
199.42498800000001
 31
0.0
  0
LINE
  8
LY_3
  6
CONTINUOUS
 62
               3
  5
BB
 10
373.29998799999998
 20
200.57501199999999
 30
0.0
 11
372.49499500000002
 21
200.57501199999999
 31
0.0
  0
ARC
  8
LY_3
  6
CONTINUOUS
 62
               3
  5
BC
 10
309.49499500000002
 20
109.505005
 30
0.0
 40
0.92
 50
90.000003000000007
 51
180.00000499999999
  0
ARC
  8
LY_3
  6
CONTINUOUS
 62
               3
  5
BD
 10
306.50500499999998
 20
109.505005
 30
0.0
 40
0.92
 50
0.0
 51
90.000003000000007
  0
ARC
  8
LY_3
  6
CONTINUOUS
 62
               3
  5
BE
 10
309.49499500000002
 20
112.494995
 30
0.0
 40
0.92
 50
179.99999500000001
 51
269.99999700000001
  0
CIRCLE
  8
LY_3
  6
CONTINUOUS
 62
               3
  5
BF
 10
308.0
 20
111.0
 30
0.0
 40
3.5
  0
ARC
  8
LY_3
  6
CONTINUOUS
 62
               3
  5
C0
 10
306.50500499999998
 20
112.494995
 30
0.0
 40
0.92
 50
269.99999700000001
 51
0.0
  0
LINE
  8
LY_3
  6
CONTINUOUS
 62
               3
  5
C1
 10
309.49499500000002
 20
110.424988
 30
0.0
 11
310.29998799999998
 21
110.424988
 31
0.0
  0
LINE
  8
LY_3
  6
CONTINUOUS
 62
               3
  5
C2
 10
308.57501200000002
 20
109.505005
 30
0.0
 11
308.57501200000002
 21
108.700012
 31
0.0
  0
LINE
  8
LY_3
  6
CONTINUOUS
 62
               3
  5
C3
 10
307.42498799999998
 20
109.505005
 30
0.0
 11
307.42498799999998
 21
108.700012
 31
0.0
  0
LINE
  8
LY_3
  6
CONTINUOUS
 62
               3
  5
C4
 10
305.70001200000002
 20
110.424988
 30
0.0
 11
306.50500499999998
 21
110.424988
 31
0.0
  0
LINE
  8
LY_3
  6
CONTINUOUS
 62
               3
  5
C5
 10
307.42498799999998
 20
108.700012
 30
0.0
 11
308.57501200000002
 21
108.700012
 31
0.0
  0
LINE
  8
LY_3
  6
CONTINUOUS
 62
               3
  5
C6
 10
305.70001200000002
 20
111.575012
 30
0.0
 11
305.70001200000002
 21
110.424988
 31
0.0
  0
LINE
  8
LY_3
  6
CONTINUOUS
 62
               3
  5
C7
 10
307.42498799999998
 20
113.299988
 30
0.0
 11
307.42498799999998
 21
112.494995
 31
0.0
  0
LINE
  8
LY_3
  6
CONTINUOUS
 62
               3
  5
C8
 10
309.49499500000002
 20
111.575012
 30
0.0
 11
310.29998799999998
 21
111.575012
 31
0.0
  0
LINE
  8
LY_3
  6
CONTINUOUS
 62
               3
  5
C9
 10
308.57501200000002
 20
113.299988
 30
0.0
 11
308.57501200000002
 21
112.494995
 31
0.0
  0
LINE
  8
LY_3
  6
CONTINUOUS
 62
               3
  5
CA
 10
307.42498799999998
 20
113.299988
 30
0.0
 11
308.57501200000002
 21
113.299988
 31
0.0
  0
LINE
  8
LY_3
  6
CONTINUOUS
 62
               3
  5
CB
 10
310.29998799999998
 20
111.575012
 30
0.0
 11
310.29998799999998
 21
110.424988
 31
0.0
  0
LINE
  8
LY_3
  6
CONTINUOUS
 62
               3
  5
CC
 10
305.70001200000002
 20
111.575012
 30
0.0
 11
306.50500499999998
 21
111.575012
 31
0.0
  0
LINE
  8
LY_3
  6
CONTINUOUS
 62
               3
  5
CD
 10
283.0
 20
95.200000000000003
 30
0.0
 11
333.0
 21
95.200000000000003
 31
0.0
  0
LINE
  8
LY_3
  6
CONTINUOUS
 62
               3
  5
CE
 10
280.0
 20
92.0
 30
0.0
 11
280.0
 21
92.200000000000003
 31
0.0
  0
LINE
  8
LY_3
  6
CONTINUOUS
 62
               3
  5
CF
 10
336.0
 20
92.0
 30
0.0
 11
336.0
 21
92.200000000000003
 31
0.0
  0
ARC
  8
LY_3
  6
CONTINUOUS
 62
               3
  5
D0
 10
283.0
 20
92.200000000000003
 30
0.0
 40
3.0
 50
90.0
 51
180.0
  0
ARC
  8
LY_3
  6
CONTINUOUS
 62
               3
  5
D1
 10
333.0
 20
92.200000000000003
 30
0.0
 40
3.0
 50
0.0
 51
90.0
  0
LINE
  8
LY_3
  6
CONTINUOUS
 62
               3
  5
D2
 10
336.0
 20
92.0
 30
0.0
 11
362.0
 21
92.0
 31
0.0
  0
LINE
  8
LY_3
  6
CONTINUOUS
 62
               3
  5
D3
 10
373.29998799999998
 20
450.57501200000002
 30
0.0
 11
372.49499500000002
 21
450.57501200000002
 31
0.0
  0
LINE
  8
LY_3
  6
CONTINUOUS
 62
               3
  5
D4
 10
368.70001200000002
 20
450.57501200000002
 30
0.0
 11
368.70001200000002
 21
449.42498799999998
 31
0.0
  0
LINE
  8
LY_3
  6
CONTINUOUS
 62
               3
  5
D5
 10
371.57501200000002
 20
452.29998799999998
 30
0.0
 11
370.42498799999998
 21
452.29998799999998
 31
0.0
  0
LINE
  8
LY_3
  6
CONTINUOUS
 62
               3
  5
D6
 10
370.42498799999998
 20
452.29998799999998
 30
0.0
 11
370.42498799999998
 21
451.49499500000002
 31
0.0
  0
LINE
  8
LY_3
  6
CONTINUOUS
 62
               3
  5
D7
 10
369.50500499999998
 20
450.57501200000002
 30
0.0
 11
368.70001200000002
 21
450.57501200000002
 31
0.0
  0
LINE
  8
LY_3
  6
CONTINUOUS
 62
               3
  5
D8
 10
371.57501200000002
 20
452.29998799999998
 30
0.0
 11
371.57501200000002
 21
451.49499500000002
 31
0.0
  0
LINE
  8
LY_3
  6
CONTINUOUS
 62
               3
  5
D9
 10
373.29998799999998
 20
450.57501200000002
 30
0.0
 11
373.29998799999998
 21
449.42498799999998
 31
0.0
  0
LINE
  8
LY_3
  6
CONTINUOUS
 62
               3
  5
DA
 10
371.57501200000002
 20
447.70001200000002
 30
0.0
 11
370.42498799999998
 21
447.70001200000002
 31
0.0
  0
LINE
  8
LY_3
  6
CONTINUOUS
 62
               3
  5
DB
 10
373.29998799999998
 20
449.42498799999998
 30
0.0
 11
372.49499500000002
 21
449.42498799999998
 31
0.0
  0
LINE
  8
LY_3
  6
CONTINUOUS
 62
               3
  5
DC
 10
371.57501200000002
 20
448.50500499999998
 30
0.0
 11
371.57501200000002
 21
447.70001200000002
 31
0.0
  0
LINE
  8
LY_3
  6
CONTINUOUS
 62
               3
  5
DD
 10
370.42498799999998
 20
448.50500499999998
 30
0.0
 11
370.42498799999998
 21
447.70001200000002
 31
0.0
  0
LINE
  8
LY_3
  6
CONTINUOUS
 62
               3
  5
DE
 10
369.50500499999998
 20
449.42498799999998
 30
0.0
 11
368.70001200000002
 21
449.42498799999998
 31
0.0
  0
ARC
  8
LY_3
  6
CONTINUOUS
 62
               3
  5
DF
 10
372.49499500000002
 20
451.49499500000002
 30
0.0
 40
0.92
 50
180.0
 51
270.00000299999999
  0
CIRCLE
  8
LY_3
  6
CONTINUOUS
 62
               3
  5
E0
 10
371.0
 20
450.0
 30
0.0
 40
3.5
  0
ARC
  8
LY_3
  6
CONTINUOUS
 62
               3
  5
E1
 10
369.50500499999998
 20
451.49499500000002
 30
0.0
 40
0.92
 50
270.00000299999999
 51
0.0000049999999943
  0
ARC
  8
LY_3
  6
CONTINUOUS
 62
               3
  5
E2
 10
372.49499500000002
 20
448.50500499999998
 30
0.0
 40
0.92
 50
89.999997000000008
 51
180.0
  0
ARC
  8
LY_3
  6
CONTINUOUS
 62
               3
  5
E3
 10
369.50500499999998
 20
448.50500499999998
 30
0.0
 40
0.92
 50
359.99999500000001
 51
89.999997000000008
  0
LINE
  8
LY_3
  6
CONTINUOUS
 62
               3
  5
E4
 10
242.70001199999999
 20
450.57501200000002
 30
0.0
 11
243.50500500000001
 21
450.57501200000002
 31
0.0
  0
LINE
  8
LY_3
  6
CONTINUOUS
 62
               3
  5
E5
 10
247.29998800000001
 20
450.57501200000002
 30
0.0
 11
247.29998800000001
 21
449.42498799999998
 31
0.0
  0
LINE
  8
LY_3
  6
CONTINUOUS
 62
               3
  5
E6
 10
244.42498800000001
 20
452.29998799999998
 30
0.0
 11
245.57501199999999
 21
452.29998799999998
 31
0.0
  0
LINE
  8
LY_3
  6
CONTINUOUS
 62
               3
  5
E7
 10
245.57501199999999
 20
452.29998799999998
 30
0.0
 11
245.57501199999999
 21
451.49499500000002
 31
0.0
  0
LINE
  8
LY_3
  6
CONTINUOUS
 62
               3
  5
E8
 10
246.49499499999999
 20
450.57501200000002
 30
0.0
 11
247.29998800000001
 21
450.57501200000002
 31
0.0
  0
LINE
  8
LY_3
  6
CONTINUOUS
 62
               3
  5
E9
 10
244.42498800000001
 20
452.29998799999998
 30
0.0
 11
244.42498800000001
 21
451.49499500000002
 31
0.0
  0
LINE
  8
LY_3
  6
CONTINUOUS
 62
               3
  5
EA
 10
242.70001199999999
 20
450.57501200000002
 30
0.0
 11
242.70001199999999
 21
449.42498799999998
 31
0.0
  0
LINE
  8
LY_3
  6
CONTINUOUS
 62
               3
  5
EB
 10
244.42498800000001
 20
447.70001200000002
 30
0.0
 11
245.57501199999999
 21
447.70001200000002
 31
0.0
  0
LINE
  8
LY_3
  6
CONTINUOUS
 62
               3
  5
EC
 10
242.70001199999999
 20
449.42498799999998
 30
0.0
 11
243.50500500000001
 21
449.42498799999998
 31
0.0
  0
LINE
  8
LY_3
  6
CONTINUOUS
 62
               3
  5
ED
 10
244.42498800000001
 20
448.50500499999998
 30
0.0
 11
244.42498800000001
 21
447.70001200000002
 31
0.0
  0
LINE
  8
LY_3
  6
CONTINUOUS
 62
               3
  5
EE
 10
245.57501199999999
 20
448.50500499999998
 30
0.0
 11
245.57501199999999
 21
447.70001200000002
 31
0.0
  0
LINE
  8
LY_3
  6
CONTINUOUS
 62
               3
  5
EF
 10
246.49499499999999
 20
449.42498799999998
 30
0.0
 11
247.29998800000001
 21
449.42498799999998
 31
0.0
  0
ARC
  8
LY_3
  6
CONTINUOUS
 62
               3
  5
F0
 10
243.50500500000001
 20
451.49499500000002
 30
0.0
 40
0.92
 50
269.99999700000001
 51
0.0
  0
CIRCLE
  8
LY_3
  6
CONTINUOUS
 62
               3
  5
F1
 10
245.0
 20
450.0
 30
0.0
 40
3.5
  0
ARC
  8
LY_3
  6
CONTINUOUS
 62
               3
  5
F2
 10
246.49499499999999
 20
451.49499500000002
 30
0.0
 40
0.92
 50
179.99999500000001
 51
269.99999700000001
  0
ARC
  8
LY_3
  6
CONTINUOUS
 62
               3
  5
F3
 10
243.50500500000001
 20
448.50500499999998
 30
0.0
 40
0.92
 50
0.0
 51
90.000003000000007
  0
ARC
  8
LY_3
  6
CONTINUOUS
 62
               3
  5
F4
 10
246.49499499999999
 20
448.50500499999998
 30
0.0
 40
0.92
 50
90.000003000000007
 51
180.00000499999999
  0
LINE
  8
LY_3
  6
CONTINUOUS
 62
               3
  5
F5
 10
259.0
 20
393.0
 30
0.0
 11
357.0
 21
393.0
 31
0.0
  0
LINE
  8
LY_3
  6
CONTINUOUS
 62
               3
  5
F6
 10
208.0
 20
437.5
 30
0.0
 11
237.0
 21
437.5
 31
0.0
  0
LINE
  8
LY_3
  6
CONTINUOUS
 62
               3
  5
F7
 10
208.0
 20
462.5
 30
0.0
 11
237.0
 21
462.5
 31
0.0
  0
LINE
  8
LY_3
  6
CONTINUOUS
 62
               3
  5
F8
 10
237.0
 20
437.5
 30
0.0
 11
237.0
 21
462.5
 31
0.0
  0
LINE
  8
LY_3
  6
CONTINUOUS
 62
               3
  5
F9
 10
208.0
 20
437.5
 30
0.0
 11
208.0
 21
462.5
 31
0.0
  0
LINE
  8
LY_3
  6
CONTINUOUS
 62
               3
  5
FA
 10
416.0
 20
390.0
 30
0.0
 11
416.0
 21
510.0
 31
0.0
  0
LINE
  8
LY_3
  6
CONTINUOUS
 62
               3
  5
FB
 10
366.0
 20
385.0
 30
0.0
 11
366.0
 21
515.0
 31
0.0
  0
LINE
  8
LY_3
  6
CONTINUOUS
 62
               3
  5
FC
 10
411.0
 20
515.0
 30
0.0
 11
362.0
 21
515.0
 31
0.0
  0
LINE
  8
LY_3
  6
CONTINUOUS
 62
               3
  5
FD
 10
411.0
 20
385.0
 30
0.0
 11
362.0
 21
385.0
 31
0.0
  0
ARC
  8
LY_3
  6
CONTINUOUS
 62
               3
  5
FE
 10
411.0
 20
510.0
 30
0.0
 40
5.0
 50
0.0
 51
90.0
  0
ARC
  8
LY_3
  6
CONTINUOUS
 62
               3
  5
FF
 10
411.0
 20
390.0
 30
0.0
 40
5.0
 50
270.0
 51
0.0
  0
LINE
  8
LY_3
  6
CONTINUOUS
 62
               3
  5
100
 10
362.0
 20
385.0
 30
0.0
 11
362.0
 21
515.0
 31
0.0
  0
LINE
  8
LY_3
  6
CONTINUOUS
 62
               3
  5
101
 10
357.0
 20
393.0
 30
0.0
 11
357.0
 21
507.0
 31
0.0
  0
LINE
  8
LY_3
  6
CONTINUOUS
 62
               3
  5
102
 10
357.0
 20
507.0
 30
0.0
 11
362.0
 21
515.0
 31
0.0
  0
LINE
  8
LY_3
  6
CONTINUOUS
 62
               3
  5
103
 10
357.0
 20
393.0
 30
0.0
 11
362.0
 21
385.0
 31
0.0
  0
LINE
  8
LY_3
  6
CONTINUOUS
 62
               3
  5
104
 10
259.0
 20
393.0
 30
0.0
 11
254.0
 21
385.0
 31
0.0
  0
LINE
  8
LY_3
  6
CONTINUOUS
 62
               3
  5
105
 10
259.0
 20
507.0
 30
0.0
 11
254.0
 21
515.0
 31
0.0
  0
LINE
  8
LY_3
  6
CONTINUOUS
 62
               3
  5
106
 10
259.0
 20
507.0
 30
0.0
 11
357.0
 21
507.0
 31
0.0
  0
LINE
  8
LY_3
  6
CONTINUOUS
 62
               3
  5
107
 10
259.0
 20
393.0
 30
0.0
 11
259.0
 21
507.0
 31
0.0
  0
LINE
  8
LY_3
  6
CONTINUOUS
 62
               3
  5
108
 10
254.0
 20
385.0
 30
0.0
 11
254.0
 21
515.0
 31
0.0
  0
ARC
  8
LY_3
  6
CONTINUOUS
 62
               3
  5
109
 10
205.0
 20
390.0
 30
0.0
 40
5.0
 50
180.0
 51
270.0
  0
ARC
  8
LY_3
  6
CONTINUOUS
 62
               3
  5
10A
 10
205.0
 20
510.0
 30
0.0
 40
5.0
 50
90.0
 51
180.0
  0
LINE
  8
LY_3
  6
CONTINUOUS
 62
               3
  5
10B
 10
205.0
 20
385.0
 30
0.0
 11
254.0
 21
385.0
 31
0.0
  0
LINE
  8
LY_3
  6
CONTINUOUS
 62
               3
  5
10C
 10
205.0
 20
515.0
 30
0.0
 11
254.0
 21
515.0
 31
0.0
  0
LINE
  8
LY_3
  6
CONTINUOUS
 62
               3
  5
10D
 10
250.0
 20
385.0
 30
0.0
 11
250.0
 21
515.0
 31
0.0
  0
LINE
  8
LY_3
  6
CONTINUOUS
 62
               3
  5
10E
 10
200.0
 20
390.0
 30
0.0
 11
200.0
 21
510.0
 31
0.0
  0
LINE
  8
LY_3
  6
CONTINUOUS
 62
               3
  5
10F
 10
208.0
 20
498.99095
 30
0.0
 11
237.0
 21
498.99095
 31
0.0
  0
LINE
  8
LY_3
  6
CONTINUOUS
 62
               3
  5
110
 10
208.0
 20
459.80707799999999
 30
0.0
 11
237.0
 21
459.80707799999999
 31
0.0
  0
LINE
  8
LY_3
  6
CONTINUOUS
 62
               3
  5
111
 10
208.0
 20
440.19292200000001
 30
0.0
 11
237.0
 21
440.19292200000001
 31
0.0
  0
LINE
  8
LY_3
  6
CONTINUOUS
 62
               3
  5
112
 10
208.0
 20
508.79802799999999
 30
0.0
 11
237.0
 21
508.79802799999999
 31
0.0
  0
LINE
  8
LY_3
  6
CONTINUOUS
 62
               3
  5
113
 10
208.0
 20
511.49095
 30
0.0
 11
237.0
 21
511.49095
 31
0.0
  0
LINE
  8
LY_3
  6
CONTINUOUS
 62
               3
  5
114
 10
208.0
 20
498.990949
 30
0.0
 11
208.0
 21
511.49095
 31
0.0
  0
LINE
  8
LY_3
  6
CONTINUOUS
 62
               3
  5
115
 10
237.0
 20
498.990949
 30
0.0
 11
237.0
 21
511.49095
 31
0.0
  0
LINE
  8
LY_3
  6
CONTINUOUS
 62
               3
  5
116
 10
237.0
 20
401.009051
 30
0.0
 11
237.0
 21
388.509051
 31
0.0
  0
LINE
  8
LY_3
  6
CONTINUOUS
 62
               3
  5
117
 10
208.0
 20
401.009051
 30
0.0
 11
208.0
 21
388.509051
 31
0.0
  0
LINE
  8
LY_3
  6
CONTINUOUS
 62
               3
  5
118
 10
208.0
 20
388.509051
 30
0.0
 11
237.0
 21
388.509051
 31
0.0
  0
LINE
  8
LY_3
  6
CONTINUOUS
 62
               3
  5
119
 10
208.0
 20
391.20197200000001
 30
0.0
 11
237.0
 21
391.20197200000001
 31
0.0
  0
LINE
  8
LY_3
  6
CONTINUOUS
 62
               3
  5
11A
 10
208.0
 20
401.009051
 30
0.0
 11
237.0
 21
401.009051
 31
0.0
  0
LINE
  8
LY_3
  6
CONTINUOUS
 62
               3
  5
11B
 10
379.0
 20
498.990949
 30
0.0
 11
379.0
 21
511.49095
 31
0.0
  0
LINE
  8
LY_3
  6
CONTINUOUS
 62
               3
  5
11C
 10
408.0
 20
498.990949
 30
0.0
 11
408.0
 21
511.49095
 31
0.0
  0
LINE
  8
LY_3
  6
CONTINUOUS
 62
               3
  5
11D
 10
408.0
 20
511.49095
 30
0.0
 11
379.0
 21
511.49095
 31
0.0
  0
LINE
  8
LY_3
  6
CONTINUOUS
 62
               3
  5
11E
 10
408.0
 20
508.79802799999999
 30
0.0
 11
379.0
 21
508.79802799999999
 31
0.0
  0
LINE
  8
LY_3
  6
CONTINUOUS
 62
               3
  5
11F
 10
408.0
 20
498.99095
 30
0.0
 11
379.0
 21
498.99095
 31
0.0
  0
LINE
  8
LY_3
  6
CONTINUOUS
 62
               3
  5
120
 10
408.0
 20
440.19292200000001
 30
0.0
 11
379.0
 21
440.19292200000001
 31
0.0
  0
LINE
  8
LY_3
  6
CONTINUOUS
 62
               3
  5
121
 10
408.0
 20
459.80707799999999
 30
0.0
 11
379.0
 21
459.80707799999999
 31
0.0
  0
LINE
  8
LY_3
  6
CONTINUOUS
 62
               3
  5
122
 10
408.0
 20
437.5
 30
0.0
 11
408.0
 21
462.5
 31
0.0
  0
LINE
  8
LY_3
  6
CONTINUOUS
 62
               3
  5
123
 10
379.0
 20
437.5
 30
0.0
 11
379.0
 21
462.5
 31
0.0
  0
LINE
  8
LY_3
  6
CONTINUOUS
 62
               3
  5
124
 10
408.0
 20
462.5
 30
0.0
 11
379.0
 21
462.5
 31
0.0
  0
LINE
  8
LY_3
  6
CONTINUOUS
 62
               3
  5
125
 10
408.0
 20
437.5
 30
0.0
 11
379.0
 21
437.5
 31
0.0
  0
LINE
  8
LY_3
  6
CONTINUOUS
 62
               3
  5
126
 10
408.0
 20
401.009051
 30
0.0
 11
379.0
 21
401.009051
 31
0.0
  0
LINE
  8
LY_3
  6
CONTINUOUS
 62
               3
  5
127
 10
408.0
 20
391.20197200000001
 30
0.0
 11
379.0
 21
391.20197200000001
 31
0.0
  0
LINE
  8
LY_3
  6
CONTINUOUS
 62
               3
  5
128
 10
408.0
 20
388.509051
 30
0.0
 11
379.0
 21
388.509051
 31
0.0
  0
LINE
  8
LY_3
  6
CONTINUOUS
 62
               3
  5
129
 10
408.0
 20
401.009051
 30
0.0
 11
408.0
 21
388.509051
 31
0.0
  0
LINE
  8
LY_3
  6
CONTINUOUS
 62
               3
  5
12A
 10
379.0
 20
401.009051
 30
0.0
 11
379.0
 21
388.509051
 31
0.0
  0
LINE
  8
LY_3
  6
DASHED
 62
              80
  5
12B
 10
254.0
 20
509.5
 30
0.0
 11
257.4375
 21
509.5
 31
0.0
  0
LINE
  8
LY_3
  6
DASHED
 62
              80
  5
12C
 10
254.0
 20
390.5
 30
0.0
 11
257.4375
 21
390.5
 31
0.0
  0
LINE
  8
LY_3
  6
DASHED
 62
              80
  5
12D
 10
362.0
 20
390.5
 30
0.0
 11
362.0
 21
509.5
 31
0.0
  0
LINE
  8
LY_3
  6
DASHED
 62
              80
  5
12E
 10
254.0
 20
390.5
 30
0.0
 11
254.0
 21
509.5
 31
0.0
  0
CIRCLE
  8
LY_3
  6
DASHED
 62
              80
  5
12F
 10
266.0
 20
497.0
 30
0.0
 40
4.5
  0
CIRCLE
  8
LY_3
  6
DASHED
 62
              80
  5
130
 10
266.0
 20
403.0
 30
0.0
 40
4.5
  0
CIRCLE
  8
LY_3
  6
DASHED
 62
              80
  5
131
 10
350.0
 20
403.0
 30
0.0
 40
4.5
  0
CIRCLE
  8
LY_3
  6
DASHED
 62
              80
  5
132
 10
350.0
 20
497.0
 30
0.0
 40
4.5
  0
LINE
  8
LY_3
  6
DASHED
 62
              80
  5
133
 10
358.5625
 20
509.5
 30
0.0
 11
362.0
 21
509.5
 31
0.0
  0
LINE
  8
LY_3
  6
CONTINUOUS
 62
               3
  5
134
 10
257.4375
 20
509.5
 30
0.0
 11
358.5625
 21
509.5
 31
0.0
  0
LINE
  8
LY_3
  6
CONTINUOUS
 62
               3
  5
135
 10
257.4375
 20
390.5
 30
0.0
 11
358.5625
 21
390.5
 31
0.0
  0
LINE
  8
LY_3
  6
DASHED
 62
              80
  5
136
 10
358.5625
 20
390.5
 30
0.0
 11
362.0
 21
390.5
 31
0.0
  0
LINE
  8
LY_3
  6
CONTINUOUS
 62
               3
  5
137
 10
241.5
 20
384.12506100000002
 30
0.0
 11
241.5
 21
385.0
 31
0.0
  0
LINE
  8
LY_3
  6
CONTINUOUS
 62
               3
  5
138
 10
241.5
 20
385.0
 30
0.0
 11
248.5
 21
385.0
 31
0.0
  0
LINE
  8
LY_3
  6
CONTINUOUS
 62
               3
  5
139
 10
248.5
 20
384.12506100000002
 30
0.0
 11
248.5
 21
385.0
 31
0.0
  0
ARC
  8
LY_3
  6
CONTINUOUS
 62
               3
  5
13A
 10
245.0
 20
388.89996300000001
 30
0.0
 40
6.5
 50
244.28072299999999
 51
295.71927399999998
  0
ARC
  8
LY_3
  6
CONTINUOUS
 62
               3
  5
13B
 10
242.70001199999999
 20
384.12506100000002
 30
0.0
 40
1.2
 50
180.00000299999999
 51
244.28072299999999
  0
ARC
  8
LY_3
  6
CONTINUOUS
 62
               3
  5
13C
 10
247.29998800000001
 20
384.12506100000002
 30
0.0
 40
1.2
 50
295.71927699999998
 51
359.99999700000001
  0
ARC
  8
LY_3
  6
CONTINUOUS
 62
               3
  5
13D
 10
247.29998800000001
 20
515.87493900000004
 30
0.0
 40
1.2
 50
0.000003
 51
64.280722999999995
  0
ARC
  8
LY_3
  6
CONTINUOUS
 62
               3
  5
13E
 10
242.70001199999999
 20
515.87493900000004
 30
0.0
 40
1.2
 50
115.71927700000002
 51
179.99999700000001
  0
ARC
  8
LY_3
  6
CONTINUOUS
 62
               3
  5
13F
 10
245.0
 20
511.10003699999999
 30
0.0
 40
6.5
 50
64.280726000000001
 51
115.71927700000002
  0
LINE
  8
LY_3
  6
CONTINUOUS
 62
               3
  5
140
 10
248.5
 20
515.87493900000004
 30
0.0
 11
248.5
 21
515.0
 31
0.0
  0
LINE
  8
LY_3
  6
CONTINUOUS
 62
               3
  5
141
 10
241.5
 20
515.0
 30
0.0
 11
248.5
 21
515.0
 31
0.0
  0
LINE
  8
LY_3
  6
CONTINUOUS
 62
               3
  5
142
 10
241.5
 20
515.87493900000004
 30
0.0
 11
241.5
 21
515.0
 31
0.0
  0
ARC
  8
LY_3
  6
CONTINUOUS
 62
               3
  5
143
 10
368.70001200000002
 20
515.87493900000004
 30
0.0
 40
1.2
 50
115.71927700000002
 51
179.99999700000001
  0
ARC
  8
LY_3
  6
CONTINUOUS
 62
               3
  5
144
 10
373.29998799999998
 20
515.87493900000004
 30
0.0
 40
1.2
 50
0.000003
 51
64.280722999999995
  0
ARC
  8
LY_3
  6
CONTINUOUS
 62
               3
  5
145
 10
371.0
 20
511.10003699999999
 30
0.0
 40
6.5
 50
64.280722999999995
 51
115.71927400000001
  0
LINE
  8
LY_3
  6
CONTINUOUS
 62
               3
  5
146
 10
367.5
 20
515.87493900000004
 30
0.0
 11
367.5
 21
515.0
 31
0.0
  0
LINE
  8
LY_3
  6
CONTINUOUS
 62
               3
  5
147
 10
374.5
 20
515.0
 30
0.0
 11
367.5
 21
515.0
 31
0.0
  0
LINE
  8
LY_3
  6
CONTINUOUS
 62
               3
  5
148
 10
374.5
 20
515.87493900000004
 30
0.0
 11
374.5
 21
515.0
 31
0.0
  0
ARC
  8
LY_3
  6
CONTINUOUS
 62
               3
  5
149
 10
368.70001200000002
 20
384.12506100000002
 30
0.0
 40
1.2
 50
180.00000299999999
 51
244.28072299999999
  0
ARC
  8
LY_3
  6
CONTINUOUS
 62
               3
  5
14A
 10
373.29998799999998
 20
384.12506100000002
 30
0.0
 40
1.2
 50
295.71927699999998
 51
359.99999700000001
  0
ARC
  8
LY_3
  6
CONTINUOUS
 62
               3
  5
14B
 10
371.0
 20
388.89996300000001
 30
0.0
 40
6.5
 50
244.28072599999999
 51
295.71927699999998
  0
LINE
  8
LY_3
  6
CONTINUOUS
 62
               3
  5
14C
 10
367.5
 20
384.12506100000002
 30
0.0
 11
367.5
 21
385.0
 31
0.0
  0
LINE
  8
LY_3
  6
CONTINUOUS
 62
               3
  5
14D
 10
374.5
 20
385.0
 30
0.0
 11
367.5
 21
385.0
 31
0.0
  0
LINE
  8
LY_3
  6
CONTINUOUS
 62
               3
  5
14E
 10
374.5
 20
384.12506100000002
 30
0.0
 11
374.5
 21
385.0
 31
0.0
  0
TEXT
  8
LY_3
  6
CONTINUOUS
 62
               3
  5
14F
 10
-32.142856958872457
 20
-20.0
 30
0.0
 40
40.0
  1
TW
 41
0.8035710061691319
  7
MX_NOTE_STANDARD
 11
-32.142856958872457
 21
0.0
 31
0.0
 73
               2
  0
LINE
  8
LY_3
  6
CONTINUOUS
 62
               3
  5
150
 10
975.13377848541006
 20
133.06288692660314
 30
0.0
 11
912.97346348541021
 21
133.06288692660314
 31
0.0
  0
LINE
  8
LY_3
  6
CONTINUOUS
 62
               3
  5
151
 10
1001.5426834854101
 20
103.36296192660315
 30
0.0
 11
996.97346348541021
 21
133.06288692660314
 31
0.0
  0
LINE
  8
LY_3
  6
CONTINUOUS
 62
               3
  5
152
 10
1030.9915434854101
 20
85.103183926603137
 30
0.0
 11
1060.99154448541
 21
85.103183926603137
 31
0.0
  0
LINE
  8
LY_3
  6
CONTINUOUS
 62
               3
  5
153
 10
1030.99154448541
 20
88.114920926603148
 30
0.0
 11
1060.99154448541
 21
88.114920926603148
 31
0.0
  0
LINE
  8
LY_3
  6
CONTINUOUS
 62
               3
  5
154
 10
1030.99154448541
 20
89.478183926603137
 30
0.0
 11
1060.99154448541
 21
89.478183926603137
 31
0.0
  0
LINE
  8
LY_3
  6
CONTINUOUS
 62
               3
  5
155
 10
1060.9915454854104
 20
92.489920926603148
 30
0.0
 11
1030.9915454854104
 21
92.489920926603148
 31
0.0
  0
LINE
  8
LY_3
  6
CONTINUOUS
 62
               3
  5
156
 10
996.97346348541021
 20
133.06288692660314
 30
0.0
 11
983.98331548541012
 21
133.06288692660314
 31
0.0
  0
LINE
  8
LY_3
  6
CONTINUOUS
 62
               3
  5
157
 10
1004.9734634854102
 20
81.062886926603142
 30
0.0
 11
1003.3423974854101
 21
91.664818926603147
 31
0.0
  0
LINE
  8
LY_3
  6
CONTINUOUS
 62
               3
  5
158
 10
904.97346348541021
 20
81.062886926603142
 30
0.0
 11
912.97346348541021
 21
133.06288692660314
 31
0.0
  0
LINE
  8
LY_3
  6
CONTINUOUS
 62
               3
  5
159
 10
997.43500248541011
 20
130.06288692660314
 30
0.0
 11
1023.4734634854102
 21
130.06288692660314
 31
0.0
  0
POLYLINE
  8
LY_3
  6
CONTINUOUS
 62
               3
  5
15A
 66
               1
 10
0.0
 20
0.0
 30
0.0
  0
VERTEX
  8
LY_3
  6
CONTINUOUS
 62
               3
  5
241
 10
1032.7072824854104
 20
92.520391926603139
 30
0.0
  0
VERTEX
  8
LY_3
  6
CONTINUOUS
 62
               3
  5
242
 10
1032.2913054854102
 20
92.810796926603146
 30
0.0
  0
VERTEX
  8
LY_3
  6
CONTINUOUS
 62
               3
  5
243
 10
1031.8485514854101
 20
93.018502926603148
 30
0.0
  0
VERTEX
  8
LY_3
  6
CONTINUOUS
 62
               3
  5
244
 10
1031.38814148541
 20
93.139229926603136
 30
0.0
  0
VERTEX
  8
LY_3
  6
CONTINUOUS
 62
               3
  5
245
 10
1030.9195614854102
 20
93.170490926603136
 30
0.0
  0
VERTEX
  8
LY_3
  6
CONTINUOUS
 62
               3
  5
246
 10
1030.4524634854101
 20
93.111642926603139
 30
0.0
  0
VERTEX
  8
LY_3
  6
CONTINUOUS
 62
               3
  5
247
 10
1029.9964724854103
 20
92.963896926603141
 30
0.0
  0
VERTEX
  8
LY_3
  6
CONTINUOUS
 62
               3
  5
248
 10
1029.5609804854103
 20
92.730297926603143
 30
0.0
  0
VERTEX
  8
LY_3
  6
CONTINUOUS
 62
               3
  5
249
 10
1029.1549604854104
 20
92.415657926603146
 30
0.0
  0
VERTEX
  8
LY_3
  6
CONTINUOUS
 62
               3
  5
24A
 10
1028.7867774854103
 20
92.026457926603143
 30
0.0
  0
VERTEX
  8
LY_3
  6
CONTINUOUS
 62
               3
  5
24B
 10
1028.4640154854101
 20
91.570717926603137
 30
0.0
  0
VERTEX
  8
LY_3
  6
CONTINUOUS
 62
               3
  5
24C
 10
1028.1933244854104
 20
91.057825926603144
 30
0.0
  0
VERTEX
  8
LY_3
  6
CONTINUOUS
 62
               3
  5
24D
 10
1027.9802814854102
 20
90.498347926603145
 30
0.0
  0
VERTEX
  8
LY_3
  6
CONTINUOUS
 62
               3
  5
24E
 10
1027.8292744854102
 20
89.903809926603145
 30
0.0
  0
VERTEX
  8
LY_3
  6
CONTINUOUS
 62
               3
  5
24F
 10
1027.74341548541
 20
89.286460926603141
 30
0.0
  0
VERTEX
  8
LY_3
  6
CONTINUOUS
 62
               3
  5
250
 10
1027.7244724854104
 20
88.659019926603136
 30
0.0
  0
VERTEX
  8
LY_3
  6
CONTINUOUS
 62
               3
  5
251
 10
1027.7728364854102
 20
88.034410926603144
 30
0.0
  0
VERTEX
  8
LY_3
  6
CONTINUOUS
 62
               3
  5
252
 10
1027.8875104854101
 20
87.425504926603139
 30
0.0
  0
VERTEX
  8
LY_3
  6
CONTINUOUS
 62
               3
  5
253
 10
1028.06613248541
 20
86.844842926603135
 30
0.0
  0
VERTEX
  8
LY_3
  6
CONTINUOUS
 62
               3
  5
254
 10
1028.3050224854101
 20
86.304389926603136
 30
0.0
  0
VERTEX
  8
LY_3
  6
CONTINUOUS
 62
               3
  5
255
 10
1028.5992584854102
 20
85.815278926603142
 30
0.0
  0
VERTEX
  8
LY_3
  6
CONTINUOUS
 62
               3
  5
256
 10
1028.94277948541
 20
85.387586926603149
 30
0.0
  0
VERTEX
  8
LY_3
  6
CONTINUOUS
 62
               3
  5
257
 10
1029.3285074854102
 20
85.030124926603136
 30
0.0
  0
VERTEX
  8
LY_3
  6
CONTINUOUS
 62
               3
  5
258
 10
1029.7484974854101
 20
84.750256926603143
 30
0.0
  0
VERTEX
  8
LY_3
  6
CONTINUOUS
 62
               3
  5
259
 10
1030.1940954854103
 20
84.553747926603137
 30
0.0
  0
VERTEX
  8
LY_3
  6
CONTINUOUS
 62
               3
  5
25A
 10
1030.6561224854104
 20
84.444647926603139
 30
0.0
  0
VERTEX
  8
LY_3
  6
CONTINUOUS
 62
               3
  5
25B
 10
1031.12505948541
 20
84.425203926603146
 30
0.0
  0
VERTEX
  8
LY_3
  6
CONTINUOUS
 62
               3
  5
25C
 10
1031.59124648541
 20
84.495815926603143
 30
0.0
  0
VERTEX
  8
LY_3
  6
CONTINUOUS
 62
               3
  5
25D
 10
1032.0450784854102
 20
84.655028926603137
 30
0.0
  0
VERTEX
  8
LY_3
  6
CONTINUOUS
 62
               3
  5
25E
 10
1032.4221084854103
 20
84.862806926603142
 30
0.0
  0
VERTEX
  8
LY_3
  6
CONTINUOUS
 62
               3
  5
25F
 10
1032.7768794854101
 20
85.131793926603137
 30
0.0
  0
SEQEND
  8
LY_3
  6
CONTINUOUS
 62
               3
  5
260
  0
POLYLINE
  8
LY_3
  6
CONTINUOUS
 62
               3
  5
15B
 66
               1
 10
0.0
 20
0.0
 30
0.0
  0
VERTEX
  8
LY_3
  6
CONTINUOUS
 62
               3
  5
261
 10
1030.9915454854104
 20
92.489920926603148
 30
0.0
  0
VERTEX
  8
LY_3
  6
CONTINUOUS
 62
               3
  5
262
 10
1030.8446934854101
 20
92.477037926603145
 30
0.0
  0
VERTEX
  8
LY_3
  6
CONTINUOUS
 62
               3
  5
263
 10
1030.7003534854102
 20
92.438609926603135
 30
0.0
  0
VERTEX
  8
LY_3
  6
CONTINUOUS
 62
               3
  5
264
 10
1030.5609964854102
 20
92.375292926603137
 30
0.0
  0
VERTEX
  8
LY_3
  6
CONTINUOUS
 62
               3
  5
265
 10
1030.4290064854104
 20
92.288172926603139
 30
0.0
  0
VERTEX
  8
LY_3
  6
CONTINUOUS
 62
               3
  5
266
 10
1030.3066414854102
 20
92.178737926603148
 30
0.0
  0
VERTEX
  8
LY_3
  6
CONTINUOUS
 62
               3
  5
267
 10
1030.1959954854101
 20
92.048861926603138
 30
0.0
  0
VERTEX
  8
LY_3
  6
CONTINUOUS
 62
               3
  5
268
 10
1030.0989614854102
 20
91.90076692660314
 30
0.0
  0
VERTEX
  8
LY_3
  6
CONTINUOUS
 62
               3
  5
269
 10
1030.0171994854099
 20
91.736986926603137
 30
0.0
  0
VERTEX
  8
LY_3
  6
CONTINUOUS
 62
               3
  5
26A
 10
1029.9521094854103
 20
91.560322926603135
 30
0.0
  0
VERTEX
  8
LY_3
  6
CONTINUOUS
 62
               3
  5
26B
 10
1029.90480348541
 20
91.373799926603141
 30
0.0
  0
VERTEX
  8
LY_3
  6
CONTINUOUS
 62
               3
  5
26C
 10
1029.87609248541
 20
91.180607926603145
 30
0.0
  0
VERTEX
  8
LY_3
  6
CONTINUOUS
 62
               3
  5
26D
 10
1029.8664674854103
 20
90.984052926603141
 30
0.0
  0
VERTEX
  8
LY_3
  6
CONTINUOUS
 62
               3
  5
26E
 10
1029.87609248541
 20
90.78749692660314
 30
0.0
  0
VERTEX
  8
LY_3
  6
CONTINUOUS
 62
               3
  5
26F
 10
1029.90480348541
 20
90.594304926603144
 30
0.0
  0
VERTEX
  8
LY_3
  6
CONTINUOUS
 62
               3
  5
270
 10
1029.95210848541
 20
90.407781926603136
 30
0.0
  0
VERTEX
  8
LY_3
  6
CONTINUOUS
 62
               3
  5
271
 10
1030.0171994854099
 20
90.231117926603147
 30
0.0
  0
VERTEX
  8
LY_3
  6
CONTINUOUS
 62
               3
  5
272
 10
1030.0989604854103
 20
90.067337926603145
 30
0.0
  0
VERTEX
  8
LY_3
  6
CONTINUOUS
 62
               3
  5
273
 10
1030.1959944854102
 20
89.919242926603147
 30
0.0
  0
VERTEX
  8
LY_3
  6
CONTINUOUS
 62
               3
  5
274
 10
1030.3066404854103
 20
89.789366926603137
 30
0.0
  0
VERTEX
  8
LY_3
  6
CONTINUOUS
 62
               3
  5
275
 10
1030.42900548541
 20
89.679931926603146
 30
0.0
  0
VERTEX
  8
LY_3
  6
CONTINUOUS
 62
               3
  5
276
 10
1030.5609964854102
 20
89.592810926603136
 30
0.0
  0
VERTEX
  8
LY_3
  6
CONTINUOUS
 62
               3
  5
277
 10
1030.7003534854102
 20
89.529494926603135
 30
0.0
  0
VERTEX
  8
LY_3
  6
CONTINUOUS
 62
               3
  5
278
 10
1030.8446924854102
 20
89.491066926603139
 30
0.0
  0
VERTEX
  8
LY_3
  6
CONTINUOUS
 62
               3
  5
279
 10
1030.99154448541
 20
89.478183926603137
 30
0.0
  0
SEQEND
  8
LY_3
  6
CONTINUOUS
 62
               3
  5
27A
  0
POLYLINE
  8
LY_3
  6
CONTINUOUS
 62
               3
  5
15C
 66
               1
 10
0.0
 20
0.0
 30
0.0
  0
VERTEX
  8
LY_3
  6
CONTINUOUS
 62
               3
  5
27B
 10
1030.99154448541
 20
88.114920926603148
 30
0.0
  0
VERTEX
  8
LY_3
  6
CONTINUOUS
 62
               3
  5
27C
 10
1030.8314294854104
 20
88.099592926603137
 30
0.0
  0
VERTEX
  8
LY_3
  6
CONTINUOUS
 62
               3
  5
27D
 10
1030.6745734854103
 20
88.053921926603138
 30
0.0
  0
VERTEX
  8
LY_3
  6
CONTINUOUS
 62
               3
  5
27E
 10
1030.5241704854102
 20
87.978837926603148
 30
0.0
  0
VERTEX
  8
LY_3
  6
CONTINUOUS
 62
               3
  5
27F
 10
1030.38328148541
 20
87.875868926603147
 30
0.0
  0
VERTEX
  8
LY_3
  6
CONTINUOUS
 62
               3
  5
280
 10
1030.2547754854104
 20
87.747111926603139
 30
0.0
  0
VERTEX
  8
LY_3
  6
CONTINUOUS
 62
               3
  5
281
 10
1030.14126748541
 20
87.595185926603136
 30
0.0
  0
VERTEX
  8
LY_3
  6
CONTINUOUS
 62
               3
  5
282
 10
1030.0450694854103
 20
87.423185926603139
 30
0.0
  0
VERTEX
  8
LY_3
  6
CONTINUOUS
 62
               3
  5
283
 10
1029.9681374854104
 20
87.234612926603148
 30
0.0
  0
VERTEX
  8
LY_3
  6
CONTINUOUS
 62
               3
  5
284
 10
1029.9120404854102
 20
87.033304926603137
 30
0.0
  0
VERTEX
  8
LY_3
  6
CONTINUOUS
 62
               3
  5
285
 10
1029.8779184854102
 20
86.823359926603146
 30
0.0
  0
VERTEX
  8
LY_3
  6
CONTINUOUS
 62
               3
  5
286
 10
1029.86646648541
 20
86.609052926603141
 30
0.0
  0
VERTEX
  8
LY_3
  6
CONTINUOUS
 62
               3
  5
287
 10
1029.8779184854102
 20
86.394744926603138
 30
0.0
  0
VERTEX
  8
LY_3
  6
CONTINUOUS
 62
               3
  5
288
 10
1029.9120404854102
 20
86.184799926603148
 30
0.0
  0
VERTEX
  8
LY_3
  6
CONTINUOUS
 62
               3
  5
289
 10
1029.9681374854104
 20
85.983491926603136
 30
0.0
  0
VERTEX
  8
LY_3
  6
CONTINUOUS
 62
               3
  5
28A
 10
1030.04506848541
 20
85.794918926603145
 30
0.0
  0
VERTEX
  8
LY_3
  6
CONTINUOUS
 62
               3
  5
28B
 10
1030.14126748541
 20
85.622918926603148
 30
0.0
  0
VERTEX
  8
LY_3
  6
CONTINUOUS
 62
               3
  5
28C
 10
1030.2547744854101
 20
85.470992926603145
 30
0.0
  0
VERTEX
  8
LY_3
  6
CONTINUOUS
 62
               3
  5
28D
 10
1030.3832804854101
 20
85.342235926603138
 30
0.0
  0
VERTEX
  8
LY_3
  6
CONTINUOUS
 62
               3
  5
28E
 10
1030.5241694854103
 20
85.239266926603136
 30
0.0
  0
VERTEX
  8
LY_3
  6
CONTINUOUS
 62
               3
  5
28F
 10
1030.67457248541
 20
85.164181926603135
 30
0.0
  0
VERTEX
  8
LY_3
  6
CONTINUOUS
 62
               3
  5
290
 10
1030.83142848541
 20
85.118511926603148
 30
0.0
  0
VERTEX
  8
LY_3
  6
CONTINUOUS
 62
               3
  5
291
 10
1030.9915434854101
 20
85.103183926603137
 30
0.0
  0
SEQEND
  8
LY_3
  6
CONTINUOUS
 62
               3
  5
292
  0
POLYLINE
  8
LY_3
  6
CONTINUOUS
 62
               3
  5
15D
 66
               1
 10
0.0
 20
0.0
 30
0.0
 70
               1
  0
VERTEX
  8
LY_3
  6
CONTINUOUS
 62
               3
  5
293
 10
1060.99154448541
 20
85.103183926603137
 30
0.0
  0
VERTEX
  8
LY_3
  6
CONTINUOUS
 62
               3
  5
294
 10
1061.0896014854102
 20
85.108913926603137
 30
0.0
  0
VERTEX
  8
LY_3
  6
CONTINUOUS
 62
               3
  5
295
 10
1061.1869124854102
 20
85.126061926603143
 30
0.0
  0
VERTEX
  8
LY_3
  6
CONTINUOUS
 62
               3
  5
296
 10
1061.2827354854103
 20
85.154494926603135
 30
0.0
  0
VERTEX
  8
LY_3
  6
CONTINUOUS
 62
               3
  5
297
 10
1061.37634348541
 20
85.193998926603143
 30
0.0
  0
VERTEX
  8
LY_3
  6
CONTINUOUS
 62
               3
  5
298
 10
1061.4670224854103
 20
85.244271926603147
 30
0.0
  0
VERTEX
  8
LY_3
  6
CONTINUOUS
 62
               3
  5
299
 10
1061.55408348541
 20
85.304931926603146
 30
0.0
  0
VERTEX
  8
LY_3
  6
CONTINUOUS
 62
               3
  5
29A
 10
1061.6368624854103
 20
85.37551692660314
 30
0.0
  0
VERTEX
  8
LY_3
  6
CONTINUOUS
 62
               3
  5
29B
 10
1061.7147304854102
 20
85.455489926603136
 30
0.0
  0
VERTEX
  8
LY_3
  6
CONTINUOUS
 62
               3
  5
29C
 10
1061.7870944854103
 20
85.544241926603135
 30
0.0
  0
VERTEX
  8
LY_3
  6
CONTINUOUS
 62
               3
  5
29D
 10
1061.8534034854101
 20
85.641098926603135
 30
0.0
  0
VERTEX
  8
LY_3
  6
CONTINUOUS
 62
               3
  5
29E
 10
1061.91315348541
 20
85.745320926603142
 30
0.0
  0
VERTEX
  8
LY_3
  6
CONTINUOUS
 62
               3
  5
29F
 10
1061.96589048541
 20
85.856117926603147
 30
0.0
  0
VERTEX
  8
LY_3
  6
CONTINUOUS
 62
               3
  5
2A0
 10
1062.0112114854101
 20
85.972644926603138
 30
0.0
  0
VERTEX
  8
LY_3
  6
CONTINUOUS
 62
               3
  5
2A1
 10
1062.0487714854103
 20
86.094014926603137
 30
0.0
  0
VERTEX
  8
LY_3
  6
CONTINUOUS
 62
               3
  5
2A2
 10
1062.0782854854101
 20
86.219304926603144
 30
0.0
  0
VERTEX
  8
LY_3
  6
CONTINUOUS
 62
               3
  5
2A3
 10
1062.0995294854101
 20
86.347560926603137
 30
0.0
  0
VERTEX
  8
LY_3
  6
CONTINUOUS
 62
               3
  5
2A4
 10
1062.1123404854102
 20
86.477806926603137
 30
0.0
  0
VERTEX
  8
LY_3
  6
CONTINUOUS
 62
               3
  5
2A5
 10
1062.1166224854101
 20
86.609051926603144
 30
0.0
  0
VERTEX
  8
LY_3
  6
CONTINUOUS
 62
               3
  5
2A6
 10
1062.1123404854102
 20
86.740296926603136
 30
0.0
  0
VERTEX
  8
LY_3
  6
CONTINUOUS
 62
               3
  5
2A7
 10
1062.0995294854101
 20
86.870542926603136
 30
0.0
  0
VERTEX
  8
LY_3
  6
CONTINUOUS
 62
               3
  5
2A8
 10
1062.07828648541
 20
86.998798926603143
 30
0.0
  0
VERTEX
  8
LY_3
  6
CONTINUOUS
 62
               3
  5
2A9
 10
1062.0487714854103
 20
87.124088926603136
 30
0.0
  0
VERTEX
  8
LY_3
  6
CONTINUOUS
 62
               3
  5
2AA
 10
1062.0112114854101
 20
87.245458926603135
 30
0.0
  0
VERTEX
  8
LY_3
  6
CONTINUOUS
 62
               3
  5
2AB
 10
1061.96589048541
 20
87.36198592660314
 30
0.0
  0
VERTEX
  8
LY_3
  6
CONTINUOUS
 62
               3
  5
2AC
 10
1061.9131544854104
 20
87.472782926603145
 30
0.0
  0
VERTEX
  8
LY_3
  6
CONTINUOUS
 62
               3
  5
2AD
 10
1061.85340448541
 20
87.577005926603135
 30
0.0
  0
VERTEX
  8
LY_3
  6
CONTINUOUS
 62
               3
  5
2AE
 10
1061.7870954854102
 20
87.673861926603138
 30
0.0
  0
VERTEX
  8
LY_3
  6
CONTINUOUS
 62
               3
  5
2AF
 10
1061.7147314854101
 20
87.762613926603137
 30
0.0
  0
VERTEX
  8
LY_3
  6
CONTINUOUS
 62
               3
  5
2B0
 10
1061.6368634854102
 20
87.842586926603147
 30
0.0
  0
VERTEX
  8
LY_3
  6
CONTINUOUS
 62
               3
  5
2B1
 10
1061.5540844854104
 20
87.913171926603141
 30
0.0
  0
VERTEX
  8
LY_3
  6
CONTINUOUS
 62
               3
  5
2B2
 10
1061.4670234854102
 20
87.97383192660314
 30
0.0
  0
VERTEX
  8
LY_3
  6
CONTINUOUS
 62
               3
  5
2B3
 10
1061.3763444854103
 20
88.024105926603141
 30
0.0
  0
VERTEX
  8
LY_3
  6
CONTINUOUS
 62
               3
  5
2B4
 10
1061.2827364854102
 20
88.063608926603138
 30
0.0
  0
VERTEX
  8
LY_3
  6
CONTINUOUS
 62
               3
  5
2B5
 10
1061.1869134854101
 20
88.092042926603142
 30
0.0
  0
VERTEX
  8
LY_3
  6
CONTINUOUS
 62
               3
  5
2B6
 10
1061.0896024854101
 20
88.109189926603136
 30
0.0
  0
VERTEX
  8
LY_3
  6
CONTINUOUS
 62
               3
  5
2B7
 10
1060.9915454854104
 20
88.114920926603148
 30
0.0
  0
VERTEX
  8
LY_3
  6
CONTINUOUS
 62
               3
  5
2B8
 10
1060.8934884854102
 20
88.109189926603136
 30
0.0
  0
VERTEX
  8
LY_3
  6
CONTINUOUS
 62
               3
  5
2B9
 10
1060.7961774854102
 20
88.092042926603142
 30
0.0
  0
VERTEX
  8
LY_3
  6
CONTINUOUS
 62
               3
  5
2BA
 10
1060.7003544854101
 20
88.063609926603135
 30
0.0
  0
VERTEX
  8
LY_3
  6
CONTINUOUS
 62
               3
  5
2BB
 10
1060.60674648541
 20
88.024105926603141
 30
0.0
  0
VERTEX
  8
LY_3
  6
CONTINUOUS
 62
               3
  5
2BC
 10
1060.5160674854101
 20
87.973832926603137
 30
0.0
  0
VERTEX
  8
LY_3
  6
CONTINUOUS
 62
               3
  5
2BD
 10
1060.4290064854104
 20
87.913172926603139
 30
0.0
  0
VERTEX
  8
LY_3
  6
CONTINUOUS
 62
               3
  5
2BE
 10
1060.3462274854101
 20
87.842587926603144
 30
0.0
  0
VERTEX
  8
LY_3
  6
CONTINUOUS
 62
               3
  5
2BF
 10
1060.2683594854102
 20
87.762614926603135
 30
0.0
  0
VERTEX
  8
LY_3
  6
CONTINUOUS
 62
               3
  5
2C0
 10
1060.1959954854101
 20
87.673861926603138
 30
0.0
  0
VERTEX
  8
LY_3
  6
CONTINUOUS
 62
               3
  5
2C1
 10
1060.1296864854103
 20
87.577005926603135
 30
0.0
  0
VERTEX
  8
LY_3
  6
CONTINUOUS
 62
               3
  5
2C2
 10
1060.0699364854104
 20
87.472782926603145
 30
0.0
  0
VERTEX
  8
LY_3
  6
CONTINUOUS
 62
               3
  5
2C3
 10
1060.0171994854099
 20
87.361986926603137
 30
0.0
  0
VERTEX
  8
LY_3
  6
CONTINUOUS
 62
               3
  5
2C4
 10
1059.9718784854103
 20
87.245459926603147
 30
0.0
  0
VERTEX
  8
LY_3
  6
CONTINUOUS
 62
               3
  5
2C5
 10
1059.9343184854101
 20
87.124089926603148
 30
0.0
  0
VERTEX
  8
LY_3
  6
CONTINUOUS
 62
               3
  5
2C6
 10
1059.9048044854103
 20
86.998799926603141
 30
0.0
  0
VERTEX
  8
LY_3
  6
CONTINUOUS
 62
               3
  5
2C7
 10
1059.8835604854103
 20
86.870543926603148
 30
0.0
  0
VERTEX
  8
LY_3
  6
CONTINUOUS
 62
               3
  5
2C8
 10
1059.8707494854102
 20
86.740297926603148
 30
0.0
  0
VERTEX
  8
LY_3
  6
CONTINUOUS
 62
               3
  5
2C9
 10
1059.8664674854103
 20
86.609052926603141
 30
0.0
  0
VERTEX
  8
LY_3
  6
CONTINUOUS
 62
               3
  5
2CA
 10
1059.8707494854102
 20
86.477807926603148
 30
0.0
  0
VERTEX
  8
LY_3
  6
CONTINUOUS
 62
               3
  5
2CB
 10
1059.8835604854103
 20
86.347560926603137
 30
0.0
  0
VERTEX
  8
LY_3
  6
CONTINUOUS
 62
               3
  5
2CC
 10
1059.90480348541
 20
86.219304926603144
 30
0.0
  0
VERTEX
  8
LY_3
  6
CONTINUOUS
 62
               3
  5
2CD
 10
1059.9343184854101
 20
86.094014926603137
 30
0.0
  0
VERTEX
  8
LY_3
  6
CONTINUOUS
 62
               3
  5
2CE
 10
1059.9718784854103
 20
85.972644926603138
 30
0.0
  0
VERTEX
  8
LY_3
  6
CONTINUOUS
 62
               3
  5
2CF
 10
1060.0171994854099
 20
85.856118926603145
 30
0.0
  0
VERTEX
  8
LY_3
  6
CONTINUOUS
 62
               3
  5
2D0
 10
1060.06993548541
 20
85.74532192660314
 30
0.0
  0
VERTEX
  8
LY_3
  6
CONTINUOUS
 62
               3
  5
2D1
 10
1060.1296854854104
 20
85.641098926603135
 30
0.0
  0
VERTEX
  8
LY_3
  6
CONTINUOUS
 62
               3
  5
2D2
 10
1060.1959944854102
 20
85.544242926603147
 30
0.0
  0
VERTEX
  8
LY_3
  6
CONTINUOUS
 62
               3
  5
2D3
 10
1060.2683584854103
 20
85.455490926603147
 30
0.0
  0
VERTEX
  8
LY_3
  6
CONTINUOUS
 62
               3
  5
2D4
 10
1060.3462264854102
 20
85.37551692660314
 30
0.0
  0
VERTEX
  8
LY_3
  6
CONTINUOUS
 62
               3
  5
2D5
 10
1060.42900548541
 20
85.304931926603146
 30
0.0
  0
VERTEX
  8
LY_3
  6
CONTINUOUS
 62
               3
  5
2D6
 10
1060.5160664854102
 20
85.244271926603147
 30
0.0
  0
VERTEX
  8
LY_3
  6
CONTINUOUS
 62
               3
  5
2D7
 10
1060.6067454854101
 20
85.193998926603143
 30
0.0
  0
VERTEX
  8
LY_3
  6
CONTINUOUS
 62
               3
  5
2D8
 10
1060.7003534854102
 20
85.154494926603135
 30
0.0
  0
VERTEX
  8
LY_3
  6
CONTINUOUS
 62
               3
  5
2D9
 10
1060.7961764854103
 20
85.126061926603143
 30
0.0
  0
VERTEX
  8
LY_3
  6
CONTINUOUS
 62
               3
  5
2DA
 10
1060.8934874854103
 20
85.108913926603137
 30
0.0
  0
SEQEND
  8
LY_3
  6
CONTINUOUS
 62
               3
  5
2DB
  0
ARC
  8
LY_3
  6
CONTINUOUS
 62
              80
  5
15E
 10
1060.99154448541
 20
140.81463292660314
 30
0.0
 40
55.334981999999997
 50
270.0
 51
281.82412900000003
  0
ARC
  8
LY_3
  6
CONTINUOUS
 62
              80
  5
15F
 10
1060.99154448541
 20
140.81463292660314
 30
0.0
 40
53.076180000000001
 50
270.0
 51
281.82412900000003
  0
ARC
  8
LY_3
  6
CONTINUOUS
 62
              80
  5
160
 10
1060.99154448541
 20
140.81463292660314
 30
0.0
 40
50.959981999999997
 50
270.0
 51
281.82412900000003
  0
ARC
  8
LY_3
  6
CONTINUOUS
 62
              80
  5
161
 10
1060.99154448541
 20
140.81463292660314
 30
0.0
 40
48.701180000000001
 50
270.0
 51
281.82412900000003
  0
ARC
  8
LY_3
  6
CONTINUOUS
 62
              80
  5
162
 10
1060.99154448541
 20
140.81463292660314
 30
0.0
 40
54.582048
 50
270.0
 51
281.82412900000003
  0
ARC
  8
LY_3
  6
CONTINUOUS
 62
              80
  5
163
 10
1060.99154448541
 20
140.81463292660314
 30
0.0
 40
53.829113999999997
 50
270.0
 51
281.82412900000003
  0
ARC
  8
LY_3
  6
CONTINUOUS
 62
              80
  5
164
 10
1060.99154448541
 20
140.81463292660314
 30
0.0
 40
50.207048
 50
270.0
 51
281.82412900000003
  0
ARC
  8
LY_3
  6
CONTINUOUS
 62
              80
  5
165
 10
1060.99154448541
 20
140.81463292660314
 30
0.0
 40
49.454113999999997
 50
270.0
 51
281.82412900000003
  0
ARC
  8
LY_3
  6
CONTINUOUS
 62
              80
  5
166
 10
1060.99154448541
 20
140.81463292660314
 30
0.0
 40
54.958514999999998
 50
270.0
 51
281.82412900000003
  0
ARC
  8
LY_3
  6
CONTINUOUS
 62
              80
  5
167
 10
1060.99154448541
 20
140.81463292660314
 30
0.0
 40
54.205581000000002
 50
270.0
 51
281.82412900000003
  0
ARC
  8
LY_3
  6
CONTINUOUS
 62
              80
  5
168
 10
1060.99154448541
 20
140.81463292660314
 30
0.0
 40
53.452646999999999
 50
270.0
 51
281.82412900000003
  0
ARC
  8
LY_3
  6
CONTINUOUS
 62
              80
  5
169
 10
1060.99154448541
 20
140.81463292660314
 30
0.0
 40
50.583514999999998
 50
270.0
 51
281.82412900000003
  0
ARC
  8
LY_3
  6
CONTINUOUS
 62
              80
  5
16A
 10
1060.99154448541
 20
140.81463292660314
 30
0.0
 40
49.077646999999999
 50
270.0
 51
281.82412900000003
  0
ARC
  8
LY_3
  6
CONTINUOUS
 62
              80
  5
16B
 10
1060.99154448541
 20
140.81463292660314
 30
0.0
 40
49.830581000000002
 50
270.0
 51
281.82412900000003
  0
POLYLINE
  8
LY_3
  6
CONTINUOUS
 62
               3
  5
16C
 66
               1
 10
0.0
 20
0.0
 30
0.0
 70
               1
  0
VERTEX
  8
LY_3
  6
CONTINUOUS
 62
               3
  5
2DC
 10
1060.99154448541
 20
89.478183926603137
 30
0.0
  0
VERTEX
  8
LY_3
  6
CONTINUOUS
 62
               3
  5
2DD
 10
1061.0896014854102
 20
89.483913926603137
 30
0.0
  0
VERTEX
  8
LY_3
  6
CONTINUOUS
 62
               3
  5
2DE
 10
1061.1869114854103
 20
89.501061926603143
 30
0.0
  0
VERTEX
  8
LY_3
  6
CONTINUOUS
 62
               3
  5
2DF
 10
1061.2827354854103
 20
89.529494926603135
 30
0.0
  0
VERTEX
  8
LY_3
  6
CONTINUOUS
 62
               3
  5
2E0
 10
1061.37634348541
 20
89.568998926603143
 30
0.0
  0
VERTEX
  8
LY_3
  6
CONTINUOUS
 62
               3
  5
2E1
 10
1061.4670224854103
 20
89.619271926603147
 30
0.0
  0
VERTEX
  8
LY_3
  6
CONTINUOUS
 62
               3
  5
2E2
 10
1061.5540824854102
 20
89.679931926603146
 30
0.0
  0
VERTEX
  8
LY_3
  6
CONTINUOUS
 62
               3
  5
2E3
 10
1061.6368624854103
 20
89.75051692660314
 30
0.0
  0
VERTEX
  8
LY_3
  6
CONTINUOUS
 62
               3
  5
2E4
 10
1061.7147304854102
 20
89.830489926603136
 30
0.0
  0
VERTEX
  8
LY_3
  6
CONTINUOUS
 62
               3
  5
2E5
 10
1061.7870944854103
 20
89.919241926603135
 30
0.0
  0
VERTEX
  8
LY_3
  6
CONTINUOUS
 62
               3
  5
2E6
 10
1061.8534034854101
 20
90.016098926603135
 30
0.0
  0
VERTEX
  8
LY_3
  6
CONTINUOUS
 62
               3
  5
2E7
 10
1061.91315348541
 20
90.120320926603142
 30
0.0
  0
VERTEX
  8
LY_3
  6
CONTINUOUS
 62
               3
  5
2E8
 10
1061.9658894854101
 20
90.231117926603147
 30
0.0
  0
VERTEX
  8
LY_3
  6
CONTINUOUS
 62
               3
  5
2E9
 10
1062.0112104854102
 20
90.347644926603138
 30
0.0
  0
VERTEX
  8
LY_3
  6
CONTINUOUS
 62
               3
  5
2EA
 10
1062.0487714854103
 20
90.469014926603137
 30
0.0
  0
VERTEX
  8
LY_3
  6
CONTINUOUS
 62
               3
  5
2EB
 10
1062.0782854854101
 20
90.594304926603144
 30
0.0
  0
VERTEX
  8
LY_3
  6
CONTINUOUS
 62
               3
  5
2EC
 10
1062.0995294854101
 20
90.722560926603137
 30
0.0
  0
VERTEX
  8
LY_3
  6
CONTINUOUS
 62
               3
  5
2ED
 10
1062.1123404854102
 20
90.852806926603137
 30
0.0
  0
VERTEX
  8
LY_3
  6
CONTINUOUS
 62
               3
  5
2EE
 10
1062.1166224854101
 20
90.984051926603144
 30
0.0
  0
VERTEX
  8
LY_3
  6
CONTINUOUS
 62
               3
  5
2EF
 10
1062.1123404854102
 20
91.115296926603136
 30
0.0
  0
VERTEX
  8
LY_3
  6
CONTINUOUS
 62
               3
  5
2F0
 10
1062.0995294854101
 20
91.245542926603136
 30
0.0
  0
VERTEX
  8
LY_3
  6
CONTINUOUS
 62
               3
  5
2F1
 10
1062.07828648541
 20
91.373798926603143
 30
0.0
  0
VERTEX
  8
LY_3
  6
CONTINUOUS
 62
               3
  5
2F2
 10
1062.0487714854103
 20
91.499088926603136
 30
0.0
  0
VERTEX
  8
LY_3
  6
CONTINUOUS
 62
               3
  5
2F3
 10
1062.0112114854101
 20
91.620458926603135
 30
0.0
  0
VERTEX
  8
LY_3
  6
CONTINUOUS
 62
               3
  5
2F4
 10
1061.96589048541
 20
91.73698592660314
 30
0.0
  0
VERTEX
  8
LY_3
  6
CONTINUOUS
 62
               3
  5
2F5
 10
1061.9131544854104
 20
91.847782926603145
 30
0.0
  0
VERTEX
  8
LY_3
  6
CONTINUOUS
 62
               3
  5
2F6
 10
1061.85340448541
 20
91.952005926603135
 30
0.0
  0
VERTEX
  8
LY_3
  6
CONTINUOUS
 62
               3
  5
2F7
 10
1061.7870944854103
 20
92.048861926603138
 30
0.0
  0
VERTEX
  8
LY_3
  6
CONTINUOUS
 62
               3
  5
2F8
 10
1061.7147304854102
 20
92.137613926603137
 30
0.0
  0
VERTEX
  8
LY_3
  6
CONTINUOUS
 62
               3
  5
2F9
 10
1061.6368634854102
 20
92.217586926603147
 30
0.0
  0
VERTEX
  8
LY_3
  6
CONTINUOUS
 62
               3
  5
2FA
 10
1061.55408348541
 20
92.288171926603141
 30
0.0
  0
VERTEX
  8
LY_3
  6
CONTINUOUS
 62
               3
  5
2FB
 10
1061.4670234854102
 20
92.34883192660314
 30
0.0
  0
VERTEX
  8
LY_3
  6
CONTINUOUS
 62
               3
  5
2FC
 10
1061.3763444854103
 20
92.399105926603141
 30
0.0
  0
VERTEX
  8
LY_3
  6
CONTINUOUS
 62
               3
  5
2FD
 10
1061.2827364854102
 20
92.438608926603138
 30
0.0
  0
VERTEX
  8
LY_3
  6
CONTINUOUS
 62
               3
  5
2FE
 10
1061.1869124854102
 20
92.467042926603142
 30
0.0
  0
VERTEX
  8
LY_3
  6
CONTINUOUS
 62
               3
  5
2FF
 10
1061.0896024854101
 20
92.484189926603136
 30
0.0
  0
VERTEX
  8
LY_3
  6
CONTINUOUS
 62
               3
  5
300
 10
1060.9915454854104
 20
92.489920926603148
 30
0.0
  0
VERTEX
  8
LY_3
  6
CONTINUOUS
 62
               3
  5
301
 10
1060.8934884854102
 20
92.484189926603136
 30
0.0
  0
VERTEX
  8
LY_3
  6
CONTINUOUS
 62
               3
  5
302
 10
1060.7961774854102
 20
92.467042926603142
 30
0.0
  0
VERTEX
  8
LY_3
  6
CONTINUOUS
 62
               3
  5
303
 10
1060.7003534854102
 20
92.438609926603135
 30
0.0
  0
VERTEX
  8
LY_3
  6
CONTINUOUS
 62
               3
  5
304
 10
1060.60674648541
 20
92.399105926603141
 30
0.0
  0
VERTEX
  8
LY_3
  6
CONTINUOUS
 62
               3
  5
305
 10
1060.5160674854101
 20
92.348832926603137
 30
0.0
  0
VERTEX
  8
LY_3
  6
CONTINUOUS
 62
               3
  5
306
 10
1060.4290064854104
 20
92.288172926603139
 30
0.0
  0
VERTEX
  8
LY_3
  6
CONTINUOUS
 62
               3
  5
307
 10
1060.3462274854101
 20
92.217587926603144
 30
0.0
  0
VERTEX
  8
LY_3
  6
CONTINUOUS
 62
               3
  5
308
 10
1060.2683594854102
 20
92.137614926603135
 30
0.0
  0
VERTEX
  8
LY_3
  6
CONTINUOUS
 62
               3
  5
309
 10
1060.1959954854101
 20
92.048861926603138
 30
0.0
  0
VERTEX
  8
LY_3
  6
CONTINUOUS
 62
               3
  5
30A
 10
1060.1296854854104
 20
91.952005926603135
 30
0.0
  0
VERTEX
  8
LY_3
  6
CONTINUOUS
 62
               3
  5
30B
 10
1060.06993548541
 20
91.847782926603145
 30
0.0
  0
VERTEX
  8
LY_3
  6
CONTINUOUS
 62
               3
  5
30C
 10
1060.0171994854099
 20
91.736986926603137
 30
0.0
  0
VERTEX
  8
LY_3
  6
CONTINUOUS
 62
               3
  5
30D
 10
1059.9718784854103
 20
91.620459926603147
 30
0.0
  0
VERTEX
  8
LY_3
  6
CONTINUOUS
 62
               3
  5
30E
 10
1059.9343184854101
 20
91.499089926603148
 30
0.0
  0
VERTEX
  8
LY_3
  6
CONTINUOUS
 62
               3
  5
30F
 10
1059.90480348541
 20
91.373799926603141
 30
0.0
  0
VERTEX
  8
LY_3
  6
CONTINUOUS
 62
               3
  5
310
 10
1059.8835604854103
 20
91.245543926603148
 30
0.0
  0
VERTEX
  8
LY_3
  6
CONTINUOUS
 62
               3
  5
311
 10
1059.8707484854103
 20
91.115297926603148
 30
0.0
  0
VERTEX
  8
LY_3
  6
CONTINUOUS
 62
               3
  5
312
 10
1059.8664674854103
 20
90.984052926603141
 30
0.0
  0
VERTEX
  8
LY_3
  6
CONTINUOUS
 62
               3
  5
313
 10
1059.8707484854103
 20
90.852807926603148
 30
0.0
  0
VERTEX
  8
LY_3
  6
CONTINUOUS
 62
               3
  5
314
 10
1059.8835594854104
 20
90.722560926603137
 30
0.0
  0
VERTEX
  8
LY_3
  6
CONTINUOUS
 62
               3
  5
315
 10
1059.90480348541
 20
90.594304926603144
 30
0.0
  0
VERTEX
  8
LY_3
  6
CONTINUOUS
 62
               3
  5
316
 10
1059.9343174854102
 20
90.469014926603137
 30
0.0
  0
VERTEX
  8
LY_3
  6
CONTINUOUS
 62
               3
  5
317
 10
1059.9718784854103
 20
90.347644926603138
 30
0.0
  0
VERTEX
  8
LY_3
  6
CONTINUOUS
 62
               3
  5
318
 10
1060.0171994854099
 20
90.231118926603145
 30
0.0
  0
VERTEX
  8
LY_3
  6
CONTINUOUS
 62
               3
  5
319
 10
1060.06993548541
 20
90.12032192660314
 30
0.0
  0
VERTEX
  8
LY_3
  6
CONTINUOUS
 62
               3
  5
31A
 10
1060.1296854854104
 20
90.016098926603135
 30
0.0
  0
VERTEX
  8
LY_3
  6
CONTINUOUS
 62
               3
  5
31B
 10
1060.1959944854102
 20
89.919242926603147
 30
0.0
  0
VERTEX
  8
LY_3
  6
CONTINUOUS
 62
               3
  5
31C
 10
1060.2683584854103
 20
89.830490926603147
 30
0.0
  0
VERTEX
  8
LY_3
  6
CONTINUOUS
 62
               3
  5
31D
 10
1060.3462264854102
 20
89.75051692660314
 30
0.0
  0
VERTEX
  8
LY_3
  6
CONTINUOUS
 62
               3
  5
31E
 10
1060.42900548541
 20
89.679931926603146
 30
0.0
  0
VERTEX
  8
LY_3
  6
CONTINUOUS
 62
               3
  5
31F
 10
1060.5160664854102
 20
89.619271926603147
 30
0.0
  0
VERTEX
  8
LY_3
  6
CONTINUOUS
 62
               3
  5
320
 10
1060.6067454854101
 20
89.568998926603143
 30
0.0
  0
VERTEX
  8
LY_3
  6
CONTINUOUS
 62
               3
  5
321
 10
1060.7003524854103
 20
89.529494926603135
 30
0.0
  0
VERTEX
  8
LY_3
  6
CONTINUOUS
 62
               3
  5
322
 10
1060.7961764854103
 20
89.501061926603143
 30
0.0
  0
VERTEX
  8
LY_3
  6
CONTINUOUS
 62
               3
  5
323
 10
1060.8934874854103
 20
89.483913926603137
 30
0.0
  0
SEQEND
  8
LY_3
  6
CONTINUOUS
 62
               3
  5
324
  0
POLYLINE
  8
LY_3
  6
CONTINUOUS
 62
               3
  5
16D
 66
               1
 10
0.0
 20
0.0
 30
0.0
  0
VERTEX
  8
LY_3
  6
CONTINUOUS
 62
               3
  5
325
 10
983.34846348541021
 20
140.81461492660316
 30
0.0
  0
VERTEX
  8
LY_3
  6
CONTINUOUS
 62
               3
  5
326
 10
983.31103548541012
 20
141.24126492660315
 30
0.0
  0
VERTEX
  8
LY_3
  6
CONTINUOUS
 62
               3
  5
327
 10
983.19938948541028
 20
141.66061392660313
 30
0.0
  0
VERTEX
  8
LY_3
  6
CONTINUOUS
 62
               3
  5
328
 10
983.01543648541008
 20
142.06548792660314
 30
0.0
  0
VERTEX
  8
LY_3
  6
CONTINUOUS
 62
               3
  5
329
 10
982.7623244854102
 20
142.44895892660315
 30
0.0
  0
VERTEX
  8
LY_3
  6
CONTINUOUS
 62
               3
  5
32A
 10
982.44438448541007
 20
142.80446592660314
 30
0.0
  0
VERTEX
  8
LY_3
  6
CONTINUOUS
 62
               3
  5
32B
 10
982.06705548541015
 20
143.12592592660314
 30
0.0
  0
VERTEX
  8
LY_3
  6
CONTINUOUS
 62
               3
  5
32C
 10
981.63679548541006
 20
143.40783892660315
 30
0.0
  0
VERTEX
  8
LY_3
  6
CONTINUOUS
 62
               3
  5
32D
 10
981.16096348541021
 20
143.64538192660314
 30
0.0
  0
VERTEX
  8
LY_3
  6
CONTINUOUS
 62
               3
  5
32E
 10
980.64770348541026
 20
143.83448892660314
 30
0.0
  0
VERTEX
  8
LY_3
  6
CONTINUOUS
 62
               3
  5
32F
 10
980.10579748541011
 20
143.97192492660315
 30
0.0
  0
VERTEX
  8
LY_3
  6
CONTINUOUS
 62
               3
  5
330
 10
979.54451548541022
 20
144.05533892660313
 30
0.0
  0
VERTEX
  8
LY_3
  6
CONTINUOUS
 62
               3
  5
331
 10
978.97346348541021
 20
144.08330292660315
 30
0.0
  0
VERTEX
  8
LY_3
  6
CONTINUOUS
 62
               3
  5
332
 10
978.4024114854102
 20
144.05533892660313
 30
0.0
  0
VERTEX
  8
LY_3
  6
CONTINUOUS
 62
               3
  5
333
 10
977.84113048541019
 20
143.97192492660315
 30
0.0
  0
VERTEX
  8
LY_3
  6
CONTINUOUS
 62
               3
  5
334
 10
977.29922348541015
 20
143.83448892660314
 30
0.0
  0
VERTEX
  8
LY_3
  6
CONTINUOUS
 62
               3
  5
335
 10
976.78596348541021
 20
143.64538192660314
 30
0.0
  0
VERTEX
  8
LY_3
  6
CONTINUOUS
 62
               3
  5
336
 10
976.31013248541024
 20
143.40783892660315
 30
0.0
  0
VERTEX
  8
LY_3
  6
CONTINUOUS
 62
               3
  5
337
 10
975.87987148541026
 20
143.12592592660314
 30
0.0
  0
VERTEX
  8
LY_3
  6
CONTINUOUS
 62
               3
  5
338
 10
975.50254248541012
 20
142.80446592660314
 30
0.0
  0
VERTEX
  8
LY_3
  6
CONTINUOUS
 62
               3
  5
339
 10
975.18460248541021
 20
142.44895892660315
 30
0.0
  0
VERTEX
  8
LY_3
  6
CONTINUOUS
 62
               3
  5
33A
 10
974.93149048541011
 20
142.06548792660314
 30
0.0
  0
VERTEX
  8
LY_3
  6
CONTINUOUS
 62
               3
  5
33B
 10
974.74753848541025
 20
141.66061392660313
 30
0.0
  0
VERTEX
  8
LY_3
  6
CONTINUOUS
 62
               3
  5
33C
 10
974.63589248541018
 20
141.24126492660315
 30
0.0
  0
VERTEX
  8
LY_3
  6
CONTINUOUS
 62
               3
  5
33D
 10
974.59846348541021
 20
140.81461492660316
 30
0.0
  0
SEQEND
  8
LY_3
  6
CONTINUOUS
 62
               3
  5
33E
  0
ARC
  8
LY_3
  6
CONTINUOUS
 62
               3
  5
16E
 10
1030.99154448541
 20
140.81463292660314
 30
0.0
 40
47.643081000000002
 50
180.000022
 51
270.0
  0
ARC
  8
LY_3
  6
CONTINUOUS
 62
               3
  5
16F
 10
1030.99154448541
 20
140.81463292660314
 30
0.0
 40
56.393081000000002
 50
180.000022
 51
270.0
  0
POLYLINE
  8
LY_3
  6
CONTINUOUS
 62
               3
  5
170
 66
               1
 10
0.0
 20
0.0
 30
0.0
  0
VERTEX
  8
LY_3
  6
CONTINUOUS
 62
               3
  5
33F
 10
983.69685148541009
 20
134.59949592660314
 30
0.0
  0
VERTEX
  8
LY_3
  6
CONTINUOUS
 62
               3
  5
340
 10
984.92607948541024
 20
135.27617792660314
 30
0.0
  0
VERTEX
  8
LY_3
  6
CONTINUOUS
 62
               3
  5
341
 10
985.98516448541011
 20
136.09790192660313
 30
0.0
  0
VERTEX
  8
LY_3
  6
CONTINUOUS
 62
               3
  5
342
 10
986.84383448541018
 20
137.04117992660315
 30
0.0
  0
VERTEX
  8
LY_3
  6
CONTINUOUS
 62
               3
  5
343
 10
987.47754648541024
 20
138.07904992660315
 30
0.0
  0
VERTEX
  8
LY_3
  6
CONTINUOUS
 62
               3
  5
344
 10
987.86818548541021
 20
139.18184692660313
 30
0.0
  0
VERTEX
  8
LY_3
  6
CONTINUOUS
 62
               3
  5
345
 10
988.00458848541018
 20
140.31804892660315
 30
0.0
  0
VERTEX
  8
LY_3
  6
CONTINUOUS
 62
               3
  5
346
 10
987.88285448541012
 20
141.45518192660313
 30
0.0
  0
VERTEX
  8
LY_3
  6
CONTINUOUS
 62
               3
  5
347
 10
987.50646348541011
 20
142.56074092660313
 30
0.0
  0
VERTEX
  8
LY_3
  6
CONTINUOUS
 62
               3
  5
348
 10
986.88617448541015
 20
143.60312792660315
 30
0.0
  0
VERTEX
  8
LY_3
  6
CONTINUOUS
 62
               3
  5
349
 10
986.03971648541017
 20
144.55254692660313
 30
0.0
  0
VERTEX
  8
LY_3
  6
CONTINUOUS
 62
               3
  5
34A
 10
984.99128448541012
 20
145.38186092660314
 30
0.0
  0
VERTEX
  8
LY_3
  6
CONTINUOUS
 62
               3
  5
34B
 10
983.77084548541018
 20
146.06736592660314
 30
0.0
  0
VERTEX
  8
LY_3
  6
CONTINUOUS
 62
               3
  5
34C
 10
982.41328348541026
 20
146.58946892660313
 30
0.0
  0
VERTEX
  8
LY_3
  6
CONTINUOUS
 62
               3
  5
34D
 10
980.95740048541018
 20
146.93324492660315
 30
0.0
  0
VERTEX
  8
LY_3
  6
CONTINUOUS
 62
               3
  5
34E
 10
979.44481048541013
 20
147.08886992660314
 30
0.0
  0
VERTEX
  8
LY_3
  6
CONTINUOUS
 62
               3
  5
34F
 10
977.91874848541022
 20
147.05189392660313
 30
0.0
  0
VERTEX
  8
LY_3
  6
CONTINUOUS
 62
               3
  5
350
 10
976.42283348541025
 20
146.82337492660315
 30
0.0
  0
VERTEX
  8
LY_3
  6
CONTINUOUS
 62
               3
  5
351
 10
974.99982348541027
 20
146.40984392660314
 30
0.0
  0
VERTEX
  8
LY_3
  6
CONTINUOUS
 62
               3
  5
352
 10
973.69039148541026
 20
145.82312092660314
 30
0.0
  0
VERTEX
  8
LY_3
  6
CONTINUOUS
 62
               3
  5
353
 10
972.53196448541019
 20
145.07997592660314
 30
0.0
  0
VERTEX
  8
LY_3
  6
CONTINUOUS
 62
               3
  5
354
 10
971.55765548541024
 20
144.20165192660315
 30
0.0
  0
VERTEX
  8
LY_3
  6
CONTINUOUS
 62
               3
  5
355
 10
970.79531248541014
 20
143.21325192660314
 30
0.0
  0
VERTEX
  8
LY_3
  6
CONTINUOUS
 62
               3
  5
356
 10
970.26672448541024
 20
142.14302892660314
 30
0.0
  0
VERTEX
  8
LY_3
  6
CONTINUOUS
 62
               3
  5
357
 10
969.98700048541025
 20
141.02157192660314
 30
0.0
  0
VERTEX
  8
LY_3
  6
CONTINUOUS
 62
               3
  5
358
 10
969.96413648541022
 20
139.88093592660314
 30
0.0
  0
VERTEX
  8
LY_3
  6
CONTINUOUS
 62
               3
  5
359
 10
970.1987864854101
 20
138.75372392660313
 30
0.0
  0
VERTEX
  8
LY_3
  6
CONTINUOUS
 62
               3
  5
35A
 10
970.6842414854101
 20
137.67215392660313
 30
0.0
  0
VERTEX
  8
LY_3
  6
CONTINUOUS
 62
               3
  5
35B
 10
971.40662748541024
 20
136.66714192660314
 30
0.0
  0
VERTEX
  8
LY_3
  6
CONTINUOUS
 62
               3
  5
35C
 10
972.34529648541013
 20
135.76741292660313
 30
0.0
  0
VERTEX
  8
LY_3
  6
CONTINUOUS
 62
               3
  5
35D
 10
973.4734174854101
 20
134.99868492660315
 30
0.0
  0
VERTEX
  8
LY_3
  6
CONTINUOUS
 62
               3
  5
35E
 10
974.17608248541012
 20
134.63378692660314
 30
0.0
  0
VERTEX
  8
LY_3
  6
CONTINUOUS
 62
               3
  5
35F
 10
974.92181748541009
 20
134.32021392660315
 30
0.0
  0
SEQEND
  8
LY_3
  6
CONTINUOUS
 62
               3
  5
360
  0
POLYLINE
  8
LY_3
  6
CONTINUOUS
 62
               3
  5
171
 66
               1
 10
0.0
 20
0.0
 30
0.0
  0
VERTEX
  8
LY_3
  6
CONTINUOUS
 62
               3
  5
361
 10
983.74339548541013
 20
134.22891092660313
 30
0.0
  0
VERTEX
  8
LY_3
  6
CONTINUOUS
 62
               3
  5
362
 10
985.77643548541016
 20
134.92102492660314
 30
0.0
  0
VERTEX
  8
LY_3
  6
CONTINUOUS
 62
               3
  5
363
 10
987.63622748541013
 20
135.84594992660314
 30
0.0
  0
VERTEX
  8
LY_3
  6
CONTINUOUS
 62
               3
  5
364
 10
989.27541148541025
 20
136.98012892660313
 30
0.0
  0
VERTEX
  8
LY_3
  6
CONTINUOUS
 62
               3
  5
365
 10
990.65224248541006
 20
138.29467992660315
 30
0.0
  0
VERTEX
  8
LY_3
  6
CONTINUOUS
 62
               3
  5
366
 10
991.73165748541021
 20
139.75612692660314
 30
0.0
  0
VERTEX
  8
LY_3
  6
CONTINUOUS
 62
               3
  5
367
 10
992.48616748541019
 20
141.32725092660314
 30
0.0
  0
VERTEX
  8
LY_3
  6
CONTINUOUS
 62
               3
  5
368
 10
992.89655948541019
 20
142.96804092660315
 30
0.0
  0
VERTEX
  8
LY_3
  6
CONTINUOUS
 62
               3
  5
369
 10
992.95238048541012
 20
144.63671392660314
 30
0.0
  0
VERTEX
  8
LY_3
  6
CONTINUOUS
 62
               3
  5
36A
 10
992.65220948541025
 20
146.29077292660315
 30
0.0
  0
VERTEX
  8
LY_3
  6
CONTINUOUS
 62
               3
  5
36B
 10
992.00369148541006
 20
147.88809592660314
 30
0.0
  0
VERTEX
  8
LY_3
  6
CONTINUOUS
 62
               3
  5
36C
 10
991.02334048541013
 20
149.38800492660314
 30
0.0
  0
VERTEX
  8
LY_3
  6
CONTINUOUS
 62
               3
  5
36D
 10
989.73612348541008
 20
150.75230192660314
 30
0.0
  0
VERTEX
  8
LY_3
  6
CONTINUOUS
 62
               3
  5
36E
 10
988.17482148541023
 20
151.94624492660313
 30
0.0
  0
VERTEX
  8
LY_3
  6
CONTINUOUS
 62
               3
  5
36F
 10
986.37919348541016
 20
152.93942692660315
 30
0.0
  0
VERTEX
  8
LY_3
  6
CONTINUOUS
 62
               3
  5
370
 10
984.39496948541012
 20
153.70655692660313
 30
0.0
  0
VERTEX
  8
LY_3
  6
CONTINUOUS
 62
               3
  5
371
 10
982.27267948541009
 20
154.22809692660314
 30
0.0
  0
VERTEX
  8
LY_3
  6
CONTINUOUS
 62
               3
  5
372
 10
980.06637048541018
 20
154.49076692660313
 30
0.0
  0
VERTEX
  8
LY_3
  6
CONTINUOUS
 62
               3
  5
373
 10
977.83222848541016
 20
154.48787592660315
 30
0.0
  0
VERTEX
  8
LY_3
  6
CONTINUOUS
 62
               3
  5
374
 10
975.6271504854102
 20
154.21949992660313
 30
0.0
  0
VERTEX
  8
LY_3
  6
CONTINUOUS
 62
               3
  5
375
 10
973.50729048541018
 20
153.69247092660314
 30
0.0
  0
VERTEX
  8
LY_3
  6
CONTINUOUS
 62
               3
  5
376
 10
971.52663348541012
 20
152.92021292660314
 30
0.0
  0
VERTEX
  8
LY_3
  6
CONTINUOUS
 62
               3
  5
377
 10
969.7356204854101
 20
151.92238992660313
 30
0.0
  0
VERTEX
  8
LY_3
  6
CONTINUOUS
 62
               3
  5
378
 10
968.17986148541024
 20
150.72441492660315
 30
0.0
  0
VERTEX
  8
LY_3
  6
CONTINUOUS
 62
               3
  5
379
 10
966.89897648541012
 20
149.35679492660313
 30
0.0
  0
VERTEX
  8
LY_3
  6
CONTINUOUS
 62
               3
  5
37A
 10
965.92558448541024
 20
147.85435892660314
 30
0.0
  0
VERTEX
  8
LY_3
  6
CONTINUOUS
 62
               3
  5
37B
 10
965.2844734854101
 20
146.25536792660313
 30
0.0
  0
VERTEX
  8
LY_3
  6
CONTINUOUS
 62
               3
  5
37C
 10
964.99197148541009
 20
144.60054192660314
 30
0.0
  0
VERTEX
  8
LY_3
  6
CONTINUOUS
 62
               3
  5
37D
 10
965.05552648541027
 20
142.93202392660314
 30
0.0
  0
VERTEX
  8
LY_3
  6
CONTINUOUS
 62
               3
  5
37E
 10
965.47352048541018
 20
141.29230492660315
 30
0.0
  0
VERTEX
  8
LY_3
  6
CONTINUOUS
 62
               3
  5
37F
 10
966.23530948541008
 20
139.72314292660315
 30
0.0
  0
VERTEX
  8
LY_3
  6
CONTINUOUS
 62
               3
  5
380
 10
967.32149148541009
 20
138.26449792660316
 30
0.0
  0
VERTEX
  8
LY_3
  6
CONTINUOUS
 62
               3
  5
381
 10
968.70440748541012
 20
136.95351692660313
 30
0.0
  0
VERTEX
  8
LY_3
  6
CONTINUOUS
 62
               3
  5
382
 10
970.34883848541006
 20
135.82358492660313
 30
0.0
  0
VERTEX
  8
LY_3
  6
CONTINUOUS
 62
               3
  5
383
 10
972.21290748541026
 20
134.90347892660313
 30
0.0
  0
VERTEX
  8
LY_3
  6
CONTINUOUS
 62
               3
  5
384
 10
973.55195748541007
 20
134.41921792660315
 30
0.0
  0
VERTEX
  8
LY_3
  6
CONTINUOUS
 62
               3
  5
385
 10
974.95222648541028
 20
134.04384992660314
 30
0.0
  0
SEQEND
  8
LY_3
  6
CONTINUOUS
 62
               3
  5
386
  0
LINE
  8
LY_3
  6
CONTINUOUS
 62
               3
  5
172
 10
951.47346348541021
 20
89.937886926603142
 30
0.0
 11
951.47346348541021
 21
88.187886926603142
 31
0.0
  0
LINE
  8
LY_3
  6
CONTINUOUS
 62
               3
  5
173
 10
954.09846348541021
 20
92.562886926603142
 30
0.0
 11
955.84846348541021
 21
92.562886926603142
 31
0.0
  0
LINE
  8
LY_3
  6
CONTINUOUS
 62
               3
  5
174
 10
954.09846348541021
 20
92.562886926603142
 30
0.0
 11
954.09846348541021
 21
91.337849926603141
 31
0.0
  0
LINE
  8
LY_3
  6
CONTINUOUS
 62
               3
  5
175
 10
951.47346348541021
 20
89.937886926603142
 30
0.0
 11
952.69850048541014
 21
89.937886926603142
 31
0.0
  0
LINE
  8
LY_3
  6
CONTINUOUS
 62
               3
  5
176
 10
958.47346348541021
 20
89.937886926603142
 30
0.0
 11
958.47346348541021
 21
88.187886926603142
 31
0.0
  0
LINE
  8
LY_3
  6
CONTINUOUS
 62
               3
  5
177
 10
955.84846348541021
 20
92.562886926603142
 30
0.0
 11
955.84846348541021
 21
91.337849926603141
 31
0.0
  0
LINE
  8
LY_3
  6
CONTINUOUS
 62
               3
  5
178
 10
957.24842748541016
 20
89.937886926603142
 30
0.0
 11
958.47346348541021
 21
89.937886926603142
 31
0.0
  0
LINE
  8
LY_3
  6
CONTINUOUS
 62
               3
  5
179
 10
957.24842748541016
 20
88.187886926603142
 30
0.0
 11
958.47346348541021
 21
88.187886926603142
 31
0.0
  0
LINE
  8
LY_3
  6
CONTINUOUS
 62
               3
  5
17A
 10
951.47346348541021
 20
88.187886926603142
 30
0.0
 11
952.69850048541014
 21
88.187886926603142
 31
0.0
  0
ARC
  8
LY_3
  6
CONTINUOUS
 62
               3
  5
17B
 10
952.69850048541014
 20
91.337849926603141
 30
0.0
 40
1.3999999999999999
 50
269.99999700000001
 51
0.0
  0
ARC
  8
LY_3
  6
CONTINUOUS
 62
               3
  5
17C
 10
957.24842748541016
 20
91.337849926603141
 30
0.0
 40
1.3999999999999999
 50
179.99999099999999
 51
270.000001
  0
LINE
  8
LY_3
  6
CONTINUOUS
 62
               3
  5
17D
 10
880.47346348541021
 20
65.062886926603142
 30
0.0
 11
914.97346348541021
 21
65.062886926603142
 31
0.0
  0
LINE
  8
LY_3
  6
CONTINUOUS
 62
               3
  5
17E
 10
885.77346348541016
 20
81.062886926603142
 30
0.0
 11
1024.1734634854101
 21
81.062886926603142
 31
0.0
  0
LINE
  8
LY_3
  6
CONTINUOUS
 62
               3
  5
17F
 10
1024.1734634854101
 20
81.062886926603142
 30
0.0
 11
1029.4734634854103
 21
65.062886926603142
 31
0.0
  0
LINE
  8
LY_3
  6
CONTINUOUS
 62
               3
  5
180
 10
885.77346348541016
 20
81.062886926603142
 30
0.0
 11
880.47346348541021
 21
65.062886926603142
 31
0.0
  0
LINE
  8
LY_3
  6
DASHED
 62
              80
  5
181
 10
1007.9734634854102
 20
65.062886926603142
 30
0.0
 11
1007.9734634854102
 21
81.062886926603142
 31
0.0
  0
LINE
  8
LY_3
  6
DASHED
 62
              80
  5
182
 10
1017.9734634854102
 20
65.062886926603142
 30
0.0
 11
1017.9734634854102
 21
81.062886926603142
 31
0.0
  0
LINE
  8
LY_3
  6
DASHED
 62
              80
  5
183
 10
891.97346348541021
 20
65.062886926603142
 30
0.0
 11
891.97346348541021
 21
81.062886926603142
 31
0.0
  0
LINE
  8
LY_3
  6
DASHED
 62
              80
  5
184
 10
901.97346348541021
 20
65.062886926603142
 30
0.0
 11
901.97346348541021
 21
81.062886926603142
 31
0.0
  0
LINE
  8
LY_3
  6
CONTINUOUS
 62
               3
  5
185
 10
954.09846348541021
 20
85.562886926603142
 30
0.0
 11
955.84846348541021
 21
85.562886926603142
 31
0.0
  0
LINE
  8
LY_3
  6
CONTINUOUS
 62
               3
  5
186
 10
955.84846348541021
 20
86.787923926603142
 30
0.0
 11
955.84846348541021
 21
85.562886926603142
 31
0.0
  0
LINE
  8
LY_3
  6
CONTINUOUS
 62
               3
  5
187
 10
954.09846348541021
 20
86.787923926603142
 30
0.0
 11
954.09846348541021
 21
85.562886926603142
 31
0.0
  0
ARC
  8
LY_3
  6
CONTINUOUS
 62
               3
  5
188
 10
920.97346348541021
 20
65.062886926603142
 30
0.0
 40
6.0
 50
90.0
 51
180.0
  0
LINE
  8
LY_3
  6
CONTINUOUS
 62
               3
  5
189
 10
920.97346348541021
 20
71.062886926603142
 30
0.0
 11
988.97346348541021
 21
71.062886926603142
 31
0.0
  0
ARC
  8
LY_3
  6
CONTINUOUS
 62
               3
  5
18A
 10
988.97346348541021
 20
65.062886926603142
 30
0.0
 40
6.0
 50
0.0
 51
90.0
  0
LINE
  8
LY_3
  6
CONTINUOUS
 62
               3
  5
18B
 10
994.97346348541021
 20
65.062886926603142
 30
0.0
 11
1029.4734634854103
 21
65.062886926603142
 31
0.0
  0
ARC
  8
LY_3
  6
CONTINUOUS
 62
               3
  5
18C
 10
952.69850048541014
 20
86.787923926603142
 30
0.0
 40
1.3999999999999999
 50
0.0
 51
90.000003000000007
  0
ARC
  8
LY_3
  6
CONTINUOUS
 62
               3
  5
18D
 10
957.24842748541016
 20
86.787923926603142
 30
0.0
 40
1.3999999999999999
 50
90.000003000000007
 51
180.00000499999999
  0
CIRCLE
  8
LY_3
  6
CONTINUOUS
 62
               3
  5
18E
 10
954.97346348541021
 20
89.062886926603142
 30
0.0
 40
5.25
  0
ARC
  8
LY_3
  6
CONTINUOUS
 62
               3
  5
18F
 10
448.60240748541025
 20
147.41874692660315
 30
0.0
 40
125.37105699999999
 50
328.04346700000002
 51
345.97551199999998
  0
ARC
  8
LY_3
  6
CONTINUOUS
 62
               3
  5
190
 10
761.34452048541027
 20
147.41874692660315
 30
0.0
 40
125.37105699999999
 50
194.02448799999999
 51
211.95653300000001
  0
LINE
  8
LY_3
  6
DASHED
 62
              80
  5
191
 10
545.97346348541021
 20
65.062886926603142
 30
0.0
 11
545.97346348541021
 21
81.062886926603142
 31
0.0
  0
LINE
  8
LY_3
  6
DASHED
 62
              80
  5
192
 10
535.97346348541021
 20
65.062886926603142
 30
0.0
 11
535.97346348541021
 21
81.062886926603142
 31
0.0
  0
LINE
  8
LY_3
  6
DASHED
 62
              80
  5
193
 10
673.97346348541021
 20
65.062886926603142
 30
0.0
 11
673.97346348541021
 21
81.062886926603142
 31
0.0
  0
LINE
  8
LY_3
  6
DASHED
 62
              80
  5
194
 10
663.97346348541021
 20
65.062886926603142
 30
0.0
 11
663.97346348541021
 21
81.062886926603142
 31
0.0
  0
LINE
  8
LY_3
  6
CONTINUOUS
 62
               3
  5
195
 10
558.47346348541021
 20
65.062886926603142
 30
0.0
 11
554.97346348541021
 21
81.062886926603142
 31
0.0
  0
LINE
  8
LY_3
  6
CONTINUOUS
 62
               3
  5
196
 10
651.47346348541021
 20
65.062886926603142
 30
0.0
 11
654.97346348541021
 21
81.062886926603142
 31
0.0
  0
LINE
  8
LY_3
  6
CONTINUOUS
 62
               3
  5
197
 10
570.47346348541021
 20
69.062886926603142
 30
0.0
 11
570.47346348541021
 21
73.062886926603142
 31
0.0
  0
ARC
  8
LY_3
  6
CONTINUOUS
 62
               3
  5
198
 10
575.47346348541021
 20
73.062886926603142
 30
0.0
 40
5.0
 50
90.0
 51
180.0
  0
LINE
  8
LY_3
  6
CONTINUOUS
 62
               3
  5
199
 10
570.47346348541021
 20
69.062886926603142
 30
0.0
 11
558.47346348541021
 21
65.062886926603142
 31
0.0
  0
ARC
  8
LY_3
  6
CONTINUOUS
 62
               3
  5
19A
 10
634.47346348541021
 20
73.062886926603142
 30
0.0
 40
5.0
 50
0.0
 51
90.0
  0
LINE
  8
LY_3
  6
CONTINUOUS
 62
               3
  5
19B
 10
575.47346348541021
 20
78.062886926603142
 30
0.0
 11
634.47346348541021
 21
78.062886926603142
 31
0.0
  0
LINE
  8
LY_3
  6
CONTINUOUS
 62
               3
  5
19C
 10
639.47346348541021
 20
69.062886926603142
 30
0.0
 11
651.47346348541021
 21
65.062886926603142
 31
0.0
  0
LINE
  8
LY_3
  6
CONTINUOUS
 62
               3
  5
19D
 10
654.97346348541021
 20
81.062886926603142
 30
0.0
 11
680.67346348541025
 21
81.062886926603142
 31
0.0
  0
LINE
  8
LY_3
  6
CONTINUOUS
 62
               3
  5
19E
 10
651.47346348541021
 20
65.062886926603142
 30
0.0
 11
685.47346348541021
 21
65.062886926603142
 31
0.0
  0
LINE
  8
LY_3
  6
CONTINUOUS
 62
               3
  5
19F
 10
529.27346348541016
 20
81.062886926603142
 30
0.0
 11
524.47346348541021
 21
65.062886926603142
 31
0.0
  0
LINE
  8
LY_3
  6
CONTINUOUS
 62
               3
  5
1A0
 10
680.67346348541025
 20
81.062886926603142
 30
0.0
 11
685.47346348541021
 21
65.062886926603142
 31
0.0
  0
LINE
  8
LY_3
  6
CONTINUOUS
 62
               3
  5
1A1
 10
529.27346348541016
 20
81.062886926603142
 30
0.0
 11
554.97346348541021
 21
81.062886926603142
 31
0.0
  0
LINE
  8
LY_3
  6
CONTINUOUS
 62
               3
  5
1A2
 10
639.47346348541021
 20
69.062886926603142
 30
0.0
 11
639.47346348541021
 21
73.062886926603142
 31
0.0
  0
LINE
  8
LY_3
  6
CONTINUOUS
 62
               3
  5
1A3
 10
524.47346348541021
 20
65.062886926603142
 30
0.0
 11
558.47346348541021
 21
65.062886926603142
 31
0.0
  0
ARC
  8
LY_3
  6
CONTINUOUS
 62
               3
  5
1A4
 10
585.17176348541022
 20
219.86458692660315
 30
0.0
 40
2.0
 50
135.0
 51
315.0
  0
ARC
  8
LY_3
  6
CONTINUOUS
 62
               3
  5
1A5
 10
612.2213884854101
 20
227.11251292660313
 30
0.0
 40
2.0
 50
75.0
 51
255.00000000000003
  0
ARC
  8
LY_3
  6
CONTINUOUS
 62
               3
  5
1A6
 10
641.98557948541008
 20
338.19398192660316
 30
0.0
 40
117.0
 50
255.00000000000003
 51
276.59496899999999
  0
ARC
  8
LY_3
  6
CONTINUOUS
 62
               3
  5
1A7
 10
641.98557948541008
 20
338.19398192660316
 30
0.0
 40
113.0
 50
255.00000000000003
 51
275.89171499999998
  0
ARC
  8
LY_3
  6
CONTINUOUS
 62
               3
  5
1A8
 10
632.0230894854102
 20
207.31081292660315
 30
0.0
 40
2.0
 50
14.999999999999998
 51
195.0
  0
ARC
  8
LY_3
  6
CONTINUOUS
 62
               3
  5
1A9
 10
743.10455948541028
 20
237.07500192660314
 30
0.0
 40
117.0
 50
195.0
 51
216.59496899999999
  0
ARC
  8
LY_3
  6
CONTINUOUS
 62
               3
  5
1AA
 10
743.10455948541028
 20
237.07500192660314
 30
0.0
 40
113.0
 50
195.0
 51
215.891715
  0
ARC
  8
LY_3
  6
CONTINUOUS
 62
               3
  5
1AB
 10
624.77516448541007
 20
180.26118692660313
 30
0.0
 40
2.0
 50
315.0
 51
134.99999999999994
  0
ARC
  8
LY_3
  6
CONTINUOUS
 62
               3
  5
1AC
 10
706.09244348541017
 20
98.943906926603148
 30
0.0
 40
117.0
 50
135.0
 51
156.59496899999999
  0
ARC
  8
LY_3
  6
CONTINUOUS
 62
               3
  5
1AD
 10
706.09244348541017
 20
98.943906926603148
 30
0.0
 40
113.0
 50
135.0
 51
155.891715
  0
ARC
  8
LY_3
  6
CONTINUOUS
 62
               3
  5
1AE
 10
597.72553848541008
 20
173.01326192660315
 30
0.0
 40
2.0
 50
255.00000000000003
 51
75.000000000000014
  0
ARC
  8
LY_3
  6
CONTINUOUS
 62
               3
  5
1AF
 10
567.96134848541021
 20
61.93179192660314
 30
0.0
 40
117.0
 50
75.0
 51
96.59496900000002
  0
ARC
  8
LY_3
  6
CONTINUOUS
 62
               3
  5
1B0
 10
567.96134848541021
 20
61.93179192660314
 30
0.0
 40
113.0
 50
75.0
 51
95.891715000000005
  0
ARC
  8
LY_3
  6
CONTINUOUS
 62
               3
  5
1B1
 10
577.9238384854101
 20
192.81496092660313
 30
0.0
 40
2.0
 50
195.0
 51
14.999999999999982
  0
ARC
  8
LY_3
  6
CONTINUOUS
 62
               3
  5
1B2
 10
466.84236848541025
 20
163.05077192660315
 30
0.0
 40
117.0
 50
14.999999999999998
 51
36.594968999999999
  0
ARC
  8
LY_3
  6
CONTINUOUS
 62
               3
  5
1B3
 10
466.84236848541025
 20
163.05077192660315
 30
0.0
 40
113.0
 50
14.999999999999998
 51
35.891714999999998
  0
CIRCLE
  8
LY_3
  6
CONTINUOUS
 62
               3
  5
1B4
 10
604.97346348541021
 20
200.06288692660314
 30
0.0
 40
5.0
  0
CIRCLE
  8
LY_3
  6
CONTINUOUS
 62
               3
  5
1B5
 10
604.97346348541021
 20
200.06288692660314
 30
0.0
 40
11.0
  0
CIRCLE
  8
LY_3
  6
CONTINUOUS
 62
               3
  5
1B6
 10
604.97346348541021
 20
200.06288692660314
 30
0.0
 40
14.0
  0
CIRCLE
  8
LY_3
  6
CONTINUOUS
 62
               3
  5
1B7
 10
604.97346348541021
 20
200.06288692660314
 30
0.0
 40
55.0
  0
ARC
  8
LY_3
  6
CONTINUOUS
 62
               3
  5
1B8
 10
503.85448448541013
 20
301.18186692660316
 30
0.0
 40
117.0
 50
315.0
 51
336.59496899999999
  0
ARC
  8
LY_3
  6
CONTINUOUS
 62
               3
  5
1B9
 10
503.85448448541013
 20
301.18186692660316
 30
0.0
 40
113.0
 50
315.0
 51
335.89171499999998
  0
LINE
  8
LY_3
  6
CONTINUOUS
 62
               3
  5
1BA
 10
1093.9734634854103
 20
185.30343192660314
 30
0.0
 11
1053.9734634854103
 21
185.30343192660314
 31
0.0
  0
LINE
  8
LY_3
  6
CONTINUOUS
 62
               3
  5
1BB
 10
1093.9734634854103
 20
180.06288692660314
 30
0.0
 11
1053.9734634854103
 21
180.06288692660314
 31
0.0
  0
LINE
  8
LY_3
  6
CONTINUOUS
 62
               3
  5
1BC
 10
1093.9734634854103
 20
220.06288692660314
 30
0.0
 11
1053.9734634854103
 21
220.06288692660314
 31
0.0
  0
LINE
  8
LY_3
  6
CONTINUOUS
 62
               3
  5
1BD
 10
1093.9734634854103
 20
214.82234192660314
 30
0.0
 11
1053.9734634854103
 21
214.82234192660314
 31
0.0
  0
LINE
  8
LY_3
  6
CONTINUOUS
 62
               3
  5
1BE
 10
1053.9734634854103
 20
180.06288692660314
 30
0.0
 11
1053.9734634854103
 21
220.06288692660314
 31
0.0
  0
LINE
  8
LY_3
  6
CONTINUOUS
 62
               3
  5
1BF
 10
1093.9734634854103
 20
180.06288692660314
 30
0.0
 11
1093.9734634854103
 21
220.06288692660314
 31
0.0
  0
LINE
  8
LY_3
  6
CONTINUOUS
 62
               3
  5
1C0
 10
1053.9734634854103
 20
266.05630792660315
 30
0.0
 11
1053.9734634854103
 21
286.05630792660315
 31
0.0
  0
LINE
  8
LY_3
  6
CONTINUOUS
 62
               3
  5
1C1
 10
1093.9734634854103
 20
266.05630792660315
 30
0.0
 11
1093.9734634854103
 21
286.05630792660315
 31
0.0
  0
LINE
  8
LY_3
  6
CONTINUOUS
 62
               3
  5
1C2
 10
1093.9734634854103
 20
286.05630792660315
 30
0.0
 11
1053.9734634854103
 21
286.05630792660315
 31
0.0
  0
LINE
  8
LY_3
  6
CONTINUOUS
 62
               3
  5
1C3
 10
1093.9734634854103
 20
280.81576292660316
 30
0.0
 11
1053.9734634854103
 21
280.81576292660316
 31
0.0
  0
LINE
  8
LY_3
  6
CONTINUOUS
 62
               3
  5
1C4
 10
1093.9734634854103
 20
266.05630792660315
 30
0.0
 11
1053.9734634854103
 21
266.05630792660315
 31
0.0
  0
LINE
  8
LY_3
  6
CONTINUOUS
 62
               3
  5
1C5
 10
1053.9734634854103
 20
134.06946592660313
 30
0.0
 11
1053.9734634854103
 21
114.06946592660314
 31
0.0
  0
LINE
  8
LY_3
  6
CONTINUOUS
 62
               3
  5
1C6
 10
1093.9734634854103
 20
134.06946592660313
 30
0.0
 11
1093.9734634854103
 21
114.06946592660314
 31
0.0
  0
LINE
  8
LY_3
  6
CONTINUOUS
 62
               3
  5
1C7
 10
1093.9734634854103
 20
114.06946592660314
 30
0.0
 11
1053.9734634854103
 21
114.06946592660314
 31
0.0
  0
LINE
  8
LY_3
  6
CONTINUOUS
 62
               3
  5
1C8
 10
1093.9734634854103
 20
119.31001192660314
 30
0.0
 11
1053.9734634854103
 21
119.31001192660314
 31
0.0
  0
LINE
  8
LY_3
  6
CONTINUOUS
 62
               3
  5
1C9
 10
1093.9734634854103
 20
134.06946592660313
 30
0.0
 11
1053.9734634854103
 21
134.06946592660313
 31
0.0
  0
LINE
  8
LY_3
  6
CONTINUOUS
 62
               3
  5
1CA
 10
855.97346348541021
 20
134.06946592660313
 30
0.0
 11
855.97346348541021
 21
114.06946592660314
 31
0.0
  0
LINE
  8
LY_3
  6
CONTINUOUS
 62
               3
  5
1CB
 10
815.97346348541021
 20
134.06946592660313
 30
0.0
 11
815.97346348541021
 21
114.06946592660314
 31
0.0
  0
LINE
  8
LY_3
  6
CONTINUOUS
 62
               3
  5
1CC
 10
815.97346348541021
 20
114.06946592660314
 30
0.0
 11
855.97346348541021
 21
114.06946592660314
 31
0.0
  0
LINE
  8
LY_3
  6
CONTINUOUS
 62
               3
  5
1CD
 10
815.97346348541021
 20
119.31001192660314
 30
0.0
 11
855.97346348541021
 21
119.31001192660314
 31
0.0
  0
LINE
  8
LY_3
  6
CONTINUOUS
 62
               3
  5
1CE
 10
815.97346348541021
 20
134.06946592660313
 30
0.0
 11
855.97346348541021
 21
134.06946592660313
 31
0.0
  0
LINE
  8
LY_3
  6
CONTINUOUS
 62
               3
  5
1CF
 10
815.97346348541021
 20
286.05630792660315
 30
0.0
 11
855.97346348541021
 21
286.05630792660315
 31
0.0
  0
LINE
  8
LY_3
  6
CONTINUOUS
 62
               3
  5
1D0
 10
815.97346348541021
 20
280.81576292660316
 30
0.0
 11
855.97346348541021
 21
280.81576292660316
 31
0.0
  0
LINE
  8
LY_3
  6
CONTINUOUS
 62
               3
  5
1D1
 10
815.97346348541021
 20
266.05630792660315
 30
0.0
 11
815.97346348541021
 21
286.05630792660315
 31
0.0
  0
LINE
  8
LY_3
  6
CONTINUOUS
 62
               3
  5
1D2
 10
855.97346348541021
 20
266.05630792660315
 30
0.0
 11
855.97346348541021
 21
286.05630792660315
 31
0.0
  0
LINE
  8
LY_3
  6
CONTINUOUS
 62
               3
  5
1D3
 10
815.97346348541021
 20
185.30343192660314
 30
0.0
 11
855.97346348541021
 21
185.30343192660314
 31
0.0
  0
LINE
  8
LY_3
  6
CONTINUOUS
 62
               3
  5
1D4
 10
815.97346348541021
 20
214.82234192660314
 30
0.0
 11
855.97346348541021
 21
214.82234192660314
 31
0.0
  0
LINE
  8
LY_3
  6
CONTINUOUS
 62
               3
  5
1D5
 10
815.97346348541021
 20
266.05630792660315
 30
0.0
 11
855.97346348541021
 21
266.05630792660315
 31
0.0
  0
LINE
  8
LY_3
  6
CONTINUOUS
 62
               3
  5
1D6
 10
815.97346348541021
 20
180.06288692660314
 30
0.0
 11
855.97346348541021
 21
180.06288692660314
 31
0.0
  0
LINE
  8
LY_3
  6
CONTINUOUS
 62
               3
  5
1D7
 10
815.97346348541021
 20
220.06288692660314
 30
0.0
 11
855.97346348541021
 21
220.06288692660314
 31
0.0
  0
LINE
  8
LY_3
  6
CONTINUOUS
 62
               3
  5
1D8
 10
855.97346348541021
 20
180.06288692660314
 30
0.0
 11
855.97346348541021
 21
220.06288692660314
 31
0.0
  0
LINE
  8
LY_3
  6
CONTINUOUS
 62
               3
  5
1D9
 10
815.97346348541021
 20
180.06288692660314
 30
0.0
 11
815.97346348541021
 21
220.06288692660314
 31
0.0
  0
LINE
  8
LY_3
  6
CONTINUOUS
 62
               3
  5
1DA
 10
1004.9734634854102
 20
130.06288692660314
 30
0.0
 11
1004.9734634854102
 21
270.06288692660314
 31
0.0
  0
LINE
  8
LY_3
  6
CONTINUOUS
 62
               3
  5
1DB
 10
904.97346348541021
 20
130.06288692660314
 30
0.0
 11
904.97346348541021
 21
270.06288692660314
 31
0.0
  0
LINE
  8
LY_3
  6
CONTINUOUS
 62
               3
  5
1DC
 10
861.47346348541021
 20
110.06288692660314
 30
0.0
 11
861.47346348541021
 21
290.06288692660314
 31
0.0
  0
LINE
  8
LY_3
  6
CONTINUOUS
 62
               3
  5
1DD
 10
1048.4734634854103
 20
110.06288692660314
 30
0.0
 11
1048.4734634854103
 21
290.06288692660314
 31
0.0
  0
LINE
  8
LY_3
  6
CONTINUOUS
 62
               3
  5
1DE
 10
871.47346348541021
 20
110.06288692660314
 30
0.0
 11
871.47346348541021
 21
290.06288692660314
 31
0.0
  0
LINE
  8
LY_3
  6
CONTINUOUS
 62
               3
  5
1DF
 10
1038.4734634854103
 20
110.06288692660314
 30
0.0
 11
1038.4734634854103
 21
290.06288692660314
 31
0.0
  0
ARC
  8
LY_3
  6
CONTINUOUS
 62
               3
  5
1E0
 10
1023.4734634854102
 20
280.06288692660314
 30
0.0
 40
10.0
 50
270.0
 51
0.0
  0
ARC
  8
LY_3
  6
CONTINUOUS
 62
               3
  5
1E1
 10
1023.4734634854102
 20
120.06288692660314
 30
0.0
 40
10.0
 50
0.0
 51
90.0
  0
ARC
  8
LY_3
  6
CONTINUOUS
 62
               3
  5
1E2
 10
886.47346348541021
 20
120.06288692660314
 30
0.0
 40
10.0
 50
90.0
 51
180.0
  0
ARC
  8
LY_3
  6
CONTINUOUS
 62
               3
  5
1E3
 10
886.47346348541021
 20
280.06288692660314
 30
0.0
 40
10.0
 50
180.0
 51
270.0
  0
ARC
  8
LY_3
  6
CONTINUOUS
 62
               3
  5
1E4
 10
1038.4734634854103
 20
115.06288692660314
 30
0.0
 40
5.0
 50
180.0
 51
270.0
  0
ARC
  8
LY_3
  6
CONTINUOUS
 62
               3
  5
1E5
 10
1099.9734634854103
 20
115.06288692660314
 30
0.0
 40
5.0
 50
270.0
 51
0.0
  0
ARC
  8
LY_3
  6
CONTINUOUS
 62
               3
  5
1E6
 10
1099.9734634854103
 20
285.06288692660314
 30
0.0
 40
5.0
 50
0.0
 51
90.0
  0
ARC
  8
LY_3
  6
CONTINUOUS
 62
               3
  5
1E7
 10
1038.4734634854103
 20
285.06288692660314
 30
0.0
 40
5.0
 50
90.0
 51
180.0
  0
ARC
  8
LY_3
  6
CONTINUOUS
 62
               3
  5
1E8
 10
871.47346348541021
 20
115.06288692660314
 30
0.0
 40
5.0
 50
270.0
 51
0.0
  0
ARC
  8
LY_3
  6
CONTINUOUS
 62
               3
  5
1E9
 10
871.47346348541021
 20
285.06288692660314
 30
0.0
 40
5.0
 50
0.0
 51
90.0
  0
ARC
  8
LY_3
  6
CONTINUOUS
 62
               3
  5
1EA
 10
809.97346348541021
 20
115.06288692660314
 30
0.0
 40
5.0
 50
180.0
 51
270.0
  0
ARC
  8
LY_3
  6
CONTINUOUS
 62
               3
  5
1EB
 10
809.97346348541021
 20
285.06288692660314
 30
0.0
 40
5.0
 50
90.0
 51
180.0
  0
LINE
  8
LY_3
  6
CONTINUOUS
 62
               3
  5
1EC
 10
886.47346348541021
 20
130.06288692660314
 30
0.0
 11
912.51192548541019
 21
130.06288692660314
 31
0.0
  0
LINE
  8
LY_3
  6
CONTINUOUS
 62
               3
  5
1ED
 10
886.47346348541021
 20
270.06288692660314
 30
0.0
 11
1023.4734634854102
 21
270.06288692660314
 31
0.0
  0
LINE
  8
LY_3
  6
CONTINUOUS
 62
               3
  5
1EE
 10
1038.4734634854103
 20
110.06288692660314
 30
0.0
 11
1099.9734634854103
 21
110.06288692660314
 31
0.0
  0
LINE
  8
LY_3
  6
CONTINUOUS
 62
               3
  5
1EF
 10
1038.4734634854103
 20
290.06288692660314
 30
0.0
 11
1099.9734634854103
 21
290.06288692660314
 31
0.0
  0
LINE
  8
LY_3
  6
CONTINUOUS
 62
               3
  5
1F0
 10
1033.4734634854103
 20
115.06288692660314
 30
0.0
 11
1033.4734634854103
 21
285.06288692660314
 31
0.0
  0
LINE
  8
LY_3
  6
CONTINUOUS
 62
               3
  5
1F1
 10
876.47346348541021
 20
115.06288692660314
 30
0.0
 11
876.47346348541021
 21
285.06288692660314
 31
0.0
  0
LINE
  8
LY_3
  6
CONTINUOUS
 62
               3
  5
1F2
 10
1104.9734634854103
 20
115.06288692660314
 30
0.0
 11
1104.9734634854103
 21
285.06288692660314
 31
0.0
  0
LINE
  8
LY_3
  6
CONTINUOUS
 62
               3
  5
1F3
 10
809.97346348541021
 20
110.06288692660314
 30
0.0
 11
871.47346348541021
 21
110.06288692660314
 31
0.0
  0
LINE
  8
LY_3
  6
CONTINUOUS
 62
               3
  5
1F4
 10
809.97346348541021
 20
290.06288692660314
 30
0.0
 11
871.47346348541021
 21
290.06288692660314
 31
0.0
  0
CIRCLE
  8
LY_3
  6
CONTINUOUS
 62
               3
  5
1F5
 10
604.97346348541021
 20
200.06288692660314
 30
0.0
 40
90.0
  0
LINE
  8
LY_3
  6
CONTINUOUS
 62
               3
  5
1F6
 10
804.97346348541021
 20
115.06288692660314
 30
0.0
 11
804.97346348541021
 21
285.06288692660314
 31
0.0
  0
LINE
  8
LY_3
  6
CONTINUOUS
 62
               3
  5
1F7
 10
804.97346348541021
 20
365.06288692660314
 30
0.0
 11
804.97346348541021
 21
535.06288692660314
 31
0.0
  0
LINE
  8
LY_3
  6
CONTINUOUS
 62
               3
  5
1F8
 10
809.97346348541021
 20
540.06288692660314
 30
0.0
 11
871.47346348541021
 21
540.06288692660314
 31
0.0
  0
LINE
  8
LY_3
  6
CONTINUOUS
 62
               3
  5
1F9
 10
809.97346348541021
 20
360.06288692660314
 30
0.0
 11
871.47346348541021
 21
360.06288692660314
 31
0.0
  0
LINE
  8
LY_3
  6
CONTINUOUS
 62
               3
  5
1FA
 10
1104.9734634854103
 20
365.06288692660314
 30
0.0
 11
1104.9734634854103
 21
535.06288692660314
 31
0.0
  0
LINE
  8
LY_3
  6
CONTINUOUS
 62
               3
  5
1FB
 10
876.47346348541021
 20
365.06288692660314
 30
0.0
 11
876.47346348541021
 21
535.06288692660314
 31
0.0
  0
LINE
  8
LY_3
  6
CONTINUOUS
 62
               3
  5
1FC
 10
1033.4734634854103
 20
365.06288692660314
 30
0.0
 11
1033.4734634854103
 21
535.06288692660314
 31
0.0
  0
LINE
  8
LY_3
  6
CONTINUOUS
 62
               3
  5
1FD
 10
1038.4734634854103
 20
540.06288692660314
 30
0.0
 11
1099.9734634854103
 21
540.06288692660314
 31
0.0
  0
LINE
  8
LY_3
  6
CONTINUOUS
 62
               3
  5
1FE
 10
1038.4734634854103
 20
360.06288692660314
 30
0.0
 11
1099.9734634854103
 21
360.06288692660314
 31
0.0
  0
LINE
  8
LY_3
  6
CONTINUOUS
 62
               3
  5
1FF
 10
886.47346348541021
 20
520.06288692660314
 30
0.0
 11
1023.4734634854102
 21
520.06288692660314
 31
0.0
  0
ARC
  8
LY_3
  6
CONTINUOUS
 62
               3
  5
200
 10
809.97346348541021
 20
535.06288692660314
 30
0.0
 40
5.0
 50
90.0
 51
180.0
  0
ARC
  8
LY_3
  6
CONTINUOUS
 62
               3
  5
201
 10
809.97346348541021
 20
365.06288692660314
 30
0.0
 40
5.0
 50
180.0
 51
270.0
  0
ARC
  8
LY_3
  6
CONTINUOUS
 62
               3
  5
202
 10
871.47346348541021
 20
535.06288692660314
 30
0.0
 40
5.0
 50
0.0
 51
90.0
  0
ARC
  8
LY_3
  6
CONTINUOUS
 62
               3
  5
203
 10
871.47346348541021
 20
365.06288692660314
 30
0.0
 40
5.0
 50
270.0
 51
0.0
  0
ARC
  8
LY_3
  6
CONTINUOUS
 62
               3
  5
204
 10
1038.4734634854103
 20
535.06288692660314
 30
0.0
 40
5.0
 50
90.0
 51
180.0
  0
ARC
  8
LY_3
  6
CONTINUOUS
 62
               3
  5
205
 10
1099.9734634854103
 20
535.06288692660314
 30
0.0
 40
5.0
 50
0.0
 51
90.0
  0
ARC
  8
LY_3
  6
CONTINUOUS
 62
               3
  5
206
 10
1099.9734634854103
 20
365.06288692660314
 30
0.0
 40
5.0
 50
270.0
 51
0.0
  0
ARC
  8
LY_3
  6
CONTINUOUS
 62
               3
  5
207
 10
1038.4734634854103
 20
365.06288692660314
 30
0.0
 40
5.0
 50
180.0
 51
270.0
  0
ARC
  8
LY_3
  6
CONTINUOUS
 62
               3
  5
208
 10
886.47346348541021
 20
530.06288692660314
 30
0.0
 40
10.0
 50
180.0
 51
270.0
  0
ARC
  8
LY_3
  6
CONTINUOUS
 62
               3
  5
209
 10
886.47346348541021
 20
370.06288692660314
 30
0.0
 40
10.0
 50
90.0
 51
180.0
  0
ARC
  8
LY_3
  6
CONTINUOUS
 62
               3
  5
20A
 10
1023.4734634854102
 20
370.06288692660314
 30
0.0
 40
10.0
 50
0.0
 51
90.0
  0
ARC
  8
LY_3
  6
CONTINUOUS
 62
               3
  5
20B
 10
1023.4734634854102
 20
530.06288692660314
 30
0.0
 40
10.0
 50
270.0
 51
0.0
  0
LINE
  8
LY_3
  6
CONTINUOUS
 62
               3
  5
20C
 10
1038.4734634854103
 20
360.06288692660314
 30
0.0
 11
1038.4734634854103
 21
540.06288692660314
 31
0.0
  0
LINE
  8
LY_3
  6
CONTINUOUS
 62
               3
  5
20D
 10
871.47346348541021
 20
360.06288692660314
 30
0.0
 11
871.47346348541021
 21
540.06288692660314
 31
0.0
  0
LINE
  8
LY_3
  6
CONTINUOUS
 62
               3
  5
20E
 10
1048.4734634854103
 20
360.06288692660314
 30
0.0
 11
1048.4734634854103
 21
540.06288692660314
 31
0.0
  0
LINE
  8
LY_3
  6
CONTINUOUS
 62
               3
  5
20F
 10
861.47346348541021
 20
360.06288692660314
 30
0.0
 11
861.47346348541021
 21
540.06288692660314
 31
0.0
  0
LINE
  8
LY_3
  6
CONTINUOUS
 62
               3
  5
210
 10
904.97346348541021
 20
380.06288692660314
 30
0.0
 11
904.97346348541021
 21
520.06288692660314
 31
0.0
  0
LINE
  8
LY_3
  6
CONTINUOUS
 62
               3
  5
211
 10
1004.9734634854102
 20
380.06288692660314
 30
0.0
 11
1004.9734634854102
 21
520.06288692660314
 31
0.0
  0
LINE
  8
LY_3
  6
CONTINUOUS
 62
               3
  5
212
 10
815.97346348541021
 20
430.06288692660314
 30
0.0
 11
815.97346348541021
 21
470.06288692660314
 31
0.0
  0
LINE
  8
LY_3
  6
CONTINUOUS
 62
               3
  5
213
 10
855.97346348541021
 20
430.06288692660314
 30
0.0
 11
855.97346348541021
 21
470.06288692660314
 31
0.0
  0
LINE
  8
LY_3
  6
CONTINUOUS
 62
               3
  5
214
 10
815.97346348541021
 20
470.06288692660314
 30
0.0
 11
855.97346348541021
 21
470.06288692660314
 31
0.0
  0
LINE
  8
LY_3
  6
CONTINUOUS
 62
               3
  5
215
 10
815.97346348541021
 20
430.06288692660314
 30
0.0
 11
855.97346348541021
 21
430.06288692660314
 31
0.0
  0
LINE
  8
LY_3
  6
CONTINUOUS
 62
               3
  5
216
 10
815.97346348541021
 20
516.05630792660315
 30
0.0
 11
855.97346348541021
 21
516.05630792660315
 31
0.0
  0
LINE
  8
LY_3
  6
CONTINUOUS
 62
               3
  5
217
 10
815.97346348541021
 20
464.82234192660314
 30
0.0
 11
855.97346348541021
 21
464.82234192660314
 31
0.0
  0
LINE
  8
LY_3
  6
CONTINUOUS
 62
               3
  5
218
 10
815.97346348541021
 20
435.30343192660314
 30
0.0
 11
855.97346348541021
 21
435.30343192660314
 31
0.0
  0
LINE
  8
LY_3
  6
CONTINUOUS
 62
               3
  5
219
 10
855.97346348541021
 20
516.05630792660315
 30
0.0
 11
855.97346348541021
 21
536.05630792660315
 31
0.0
  0
LINE
  8
LY_3
  6
CONTINUOUS
 62
               3
  5
21A
 10
815.97346348541021
 20
516.05630792660315
 30
0.0
 11
815.97346348541021
 21
536.05630792660315
 31
0.0
  0
LINE
  8
LY_3
  6
CONTINUOUS
 62
               3
  5
21B
 10
815.97346348541021
 20
530.81576292660316
 30
0.0
 11
855.97346348541021
 21
530.81576292660316
 31
0.0
  0
LINE
  8
LY_3
  6
CONTINUOUS
 62
               3
  5
21C
 10
815.97346348541021
 20
536.05630792660315
 30
0.0
 11
855.97346348541021
 21
536.05630792660315
 31
0.0
  0
LINE
  8
LY_3
  6
CONTINUOUS
 62
               3
  5
21D
 10
815.97346348541021
 20
384.06946592660313
 30
0.0
 11
855.97346348541021
 21
384.06946592660313
 31
0.0
  0
LINE
  8
LY_3
  6
CONTINUOUS
 62
               3
  5
21E
 10
815.97346348541021
 20
369.31001192660312
 30
0.0
 11
855.97346348541021
 21
369.31001192660312
 31
0.0
  0
LINE
  8
LY_3
  6
CONTINUOUS
 62
               3
  5
21F
 10
815.97346348541021
 20
364.06946592660313
 30
0.0
 11
855.97346348541021
 21
364.06946592660313
 31
0.0
  0
LINE
  8
LY_3
  6
CONTINUOUS
 62
               3
  5
220
 10
815.97346348541021
 20
384.06946592660313
 30
0.0
 11
815.97346348541021
 21
364.06946592660313
 31
0.0
  0
LINE
  8
LY_3
  6
CONTINUOUS
 62
               3
  5
221
 10
855.97346348541021
 20
384.06946592660313
 30
0.0
 11
855.97346348541021
 21
364.06946592660313
 31
0.0
  0
LINE
  8
LY_3
  6
CONTINUOUS
 62
               3
  5
222
 10
1093.9734634854103
 20
384.06946592660313
 30
0.0
 11
1053.9734634854103
 21
384.06946592660313
 31
0.0
  0
LINE
  8
LY_3
  6
CONTINUOUS
 62
               3
  5
223
 10
1093.9734634854103
 20
369.31001192660312
 30
0.0
 11
1053.9734634854103
 21
369.31001192660312
 31
0.0
  0
LINE
  8
LY_3
  6
CONTINUOUS
 62
               3
  5
224
 10
1093.9734634854103
 20
364.06946592660313
 30
0.0
 11
1053.9734634854103
 21
364.06946592660313
 31
0.0
  0
LINE
  8
LY_3
  6
CONTINUOUS
 62
               3
  5
225
 10
1093.9734634854103
 20
384.06946592660313
 30
0.0
 11
1093.9734634854103
 21
364.06946592660313
 31
0.0
  0
LINE
  8
LY_3
  6
CONTINUOUS
 62
               3
  5
226
 10
1053.9734634854103
 20
384.06946592660313
 30
0.0
 11
1053.9734634854103
 21
364.06946592660313
 31
0.0
  0
LINE
  8
LY_3
  6
CONTINUOUS
 62
               3
  5
227
 10
1093.9734634854103
 20
516.05630792660315
 30
0.0
 11
1053.9734634854103
 21
516.05630792660315
 31
0.0
  0
LINE
  8
LY_3
  6
CONTINUOUS
 62
               3
  5
228
 10
1093.9734634854103
 20
530.81576292660316
 30
0.0
 11
1053.9734634854103
 21
530.81576292660316
 31
0.0
  0
LINE
  8
LY_3
  6
CONTINUOUS
 62
               3
  5
229
 10
1093.9734634854103
 20
536.05630792660315
 30
0.0
 11
1053.9734634854103
 21
536.05630792660315
 31
0.0
  0
LINE
  8
LY_3
  6
CONTINUOUS
 62
               3
  5
22A
 10
1093.9734634854103
 20
516.05630792660315
 30
0.0
 11
1093.9734634854103
 21
536.05630792660315
 31
0.0
  0
LINE
  8
LY_3
  6
CONTINUOUS
 62
               3
  5
22B
 10
1053.9734634854103
 20
516.05630792660315
 30
0.0
 11
1053.9734634854103
 21
536.05630792660315
 31
0.0
  0
LINE
  8
LY_3
  6
CONTINUOUS
 62
               3
  5
22C
 10
1093.9734634854103
 20
430.06288692660314
 30
0.0
 11
1093.9734634854103
 21
470.06288692660314
 31
0.0
  0
LINE
  8
LY_3
  6
CONTINUOUS
 62
               3
  5
22D
 10
1053.9734634854103
 20
430.06288692660314
 30
0.0
 11
1053.9734634854103
 21
470.06288692660314
 31
0.0
  0
LINE
  8
LY_3
  6
CONTINUOUS
 62
               3
  5
22E
 10
1093.9734634854103
 20
464.82234192660314
 30
0.0
 11
1053.9734634854103
 21
464.82234192660314
 31
0.0
  0
LINE
  8
LY_3
  6
CONTINUOUS
 62
               3
  5
22F
 10
1093.9734634854103
 20
470.06288692660314
 30
0.0
 11
1053.9734634854103
 21
470.06288692660314
 31
0.0
  0
LINE
  8
LY_3
  6
CONTINUOUS
 62
               3
  5
230
 10
1093.9734634854103
 20
430.06288692660314
 30
0.0
 11
1053.9734634854103
 21
430.06288692660314
 31
0.0
  0
LINE
  8
LY_3
  6
CONTINUOUS
 62
               3
  5
231
 10
1093.9734634854103
 20
435.30343192660314
 30
0.0
 11
1053.9734634854103
 21
435.30343192660314
 31
0.0
  0
LINE
  8
LY_3
  6
CONTINUOUS
 62
               3
  5
232
 10
886.47346348541021
 20
380.06288692660314
 30
0.0
 11
1023.4734634854102
 21
380.06288692660314
 31
0.0
  0
LINE
  8
LY_3
  6
CONTINUOUS
 62
              20
  5
233
 10
880.47346348541021
 20
530.56288692660314
 30
0.0
 11
1029.4734634854103
 21
530.56288692660314
 31
0.0
  0
LINE
  8
LY_3
  6
CONTINUOUS
 62
              20
  5
234
 10
880.47346348541021
 20
369.56288692660314
 30
0.0
 11
1029.4734634854103
 21
369.56288692660314
 31
0.0
  0
LINE
  8
LY_3
  6
CONTINUOUS
 62
              20
  5
235
 10
880.47346348541021
 20
369.56288692660314
 30
0.0
 11
880.47346348541021
 21
378.06288692660314
 31
0.0
  0
LINE
  8
LY_3
  6
CONTINUOUS
 62
              20
  5
236
 10
1029.4734634854103
 20
369.56288692660314
 30
0.0
 11
1029.4734634854103
 21
378.06288692660314
 31
0.0
  0
CIRCLE
  8
LY_3
  6
DASHED
 62
              20
  5
237
 10
896.97346348541021
 20
514.06288692660314
 30
0.0
 40
5.0
  0
CIRCLE
  8
LY_3
  6
DASHED
 62
              20
  5
238
 10
1012.9734634854102
 20
514.06288692660314
 30
0.0
 40
5.0
  0
CIRCLE
  8
LY_3
  6
DASHED
 62
              20
  5
239
 10
1012.9734634854102
 20
386.06288692660314
 30
0.0
 40
5.0
  0
CIRCLE
  8
LY_3
  6
DASHED
 62
              20
  5
23A
 10
896.97346348541021
 20
386.06288692660314
 30
0.0
 40
5.0
  0
LINE
  8
LY_3
  6
CONTINUOUS
 62
              20
  5
23B
 10
1029.4734634854103
 20
522.06288692660314
 30
0.0
 11
1029.4734634854103
 21
530.56288692660314
 31
0.0
  0
LINE
  8
LY_3
  6
CONTINUOUS
 62
              20
  5
23C
 10
880.47346348541021
 20
522.06288692660314
 30
0.0
 11
880.47346348541021
 21
530.56288692660314
 31
0.0
  0
LINE
  8
LY_3
  6
DASHED
 62
              20
  5
23D
 10
880.47346348541021
 20
378.06288692660314
 30
0.0
 11
880.47346348541021
 21
522.06288692660314
 31
0.0
  0
LINE
  8
LY_3
  6
DASHED
 62
              20
  5
23E
 10
1029.4734634854103
 20
378.06288692660314
 30
0.0
 11
1029.4734634854103
 21
522.06288692660314
 31
0.0
  0
TEXT
  8
LY_3
  6
CONTINUOUS
 62
               3
  5
23F
 10
593.22353036230913
 20
-19.937113073396858
 30
0.0
 40
40.0
  1
K
 41
1.0500099815348627
  7
MX_NOTE_STANDARD
 11
593.22353036230913
 21
0.0628869266031415
 31
0.0
 73
               2
  0
ENDSEC
  0
EOF
