  0
SECTION
  2
HEADER
  9
$ACADVER
  1
AC1009
  9
$DWGCODEPAGE
  3
dos932
  9
$INSBASE
 10
0.0
 20
0.0
 30
0.0
  9
$EXTMIN
 10
-240.801124
 20
0.0
 30
0.0
  9
$EXTMAX
 10
98.0
 20
278.400037
 30
0.0
  9
$LIMMIN
 10
-240.801124
 20
0.0
  9
$LIMMAX
 10
98.0
 20
278.400037
  9
$ORTHOMODE
 70
     0
  9
$REGENMODE
 70
     1
  9
$FILLMODE
 70
     1
  9
$QTEXTMODE
 70
     0
  9
$MIRRTEXT
 70
     1
  9
$DRAGMODE
 70
     2
  9
$LTSCALE
 40
1.0
  9
$OSMODE
 70
     0
  9
$ATTMODE
 70
     1
  9
$TEXTSIZE
 40
4.1656
  9
$TRACEWID
 40
0.05
  9
$TEXTSTYLE
  7
MX_NOTE_STANDARD
  9
$CLAYER
  8
LY_1
  9
$CELTYPE
  6
CONTINUOUS
  9
$CECOLOR
 62
   256
  9
$DIMSCALE
 40
1.0
  9
$DIMASZ
 40
2.5
  9
$DIMEXO
 40
0.5
  9
$DIMDLI
 40
3.75
  9
$DIMRND
 40
0.0
  9
$DIMDLE
 40
0.0
  9
$DIMEXE
 40
1.0
  9
$DIMTP
 40
0.0
  9
$DIMTM
 40
0.0
  9
$DIMTXT
 40
2.5
  9
$DIMCEN
 40
2.5
  9
$DIMTSZ
 40
0.0
  9
$DIMTOL
 70
     0
  9
$DIMLIM
 70
     0
  9
$DIMTIH
 70
     0
  9
$DIMTOH
 70
     0
  9
$DIMSE1
 70
     0
  9
$DIMSE2
 70
     0
  9
$DIMTAD
 70
     1
  9
$DIMZIN
 70
     8
  9
$DIMBLK
  1

  9
$DIMASO
 70
     1
  9
$DIMSHO
 70
     1
  9
$DIMPOST
  1

  9
$DIMAPOST
  1

  9
$DIMALT
 70
     0
  9
$DIMALTD
 70
     4
  9
$DIMALTF
 40
0.03937
  9
$DIMLFAC
 40
1.0
  9
$DIMTOFL
 70
     1
  9
$DIMTVP
 40
0.0
  9
$DIMTIX
 70
     0
  9
$DIMSOXD
 70
     0
  9
$DIMSAH
 70
     0
  9
$DIMBLK1
  1

  9
$DIMBLK2
  1

  9
$DIMSTYLE
  2
MXDIMSTYLE
  9
$DIMCLRD
 70
     0
  9
$DIMCLRE
 70
     0
  9
$DIMCLRT
 70
     0
  9
$DIMTFAC
 40
1.0
  9
$DIMGAP
 40
1.0
  9
$LUNITS
 70
     2
  9
$LUPREC
 70
     4
  9
$AXISMODE
 70
     0
  9
$AXISUNIT
 10
0.0
 20
0.0
  9
$SKETCHINC
 40
0.1
  9
$FILLETRAD
 40
0.0
  9
$AUNITS
 70
     0
  9
$AUPREC
 70
     0
  9
$MENU
  1
acad
  9
$ELEVATION
 40
0.0
  9
$PELEVATION
 40
0.0
  9
$THICKNESS
 40
0.0
  9
$LIMCHECK
 70
     0
  9
$BLIPMODE
 70
     1
  9
$CHAMFERA
 40
0.0
  9
$CHAMFERB
 40
0.0
  9
$SKPOLY
 70
     0
  9
$TDCREATE
 40
2453885.424502315
  9
$TDUPDATE
 40
2453885.424502315
  9
$TDINDWG
 40
0.0000000000
  9
$TDUSRTIMER
 40
0.0000000000
  9
$USRTIMER
 70
     1
  9
$ANGBASE
 50
0.0
  9
$ANGDIR
 70
     0
  9
$PDMODE
 70
     0
  9
$PDSIZE
 40
0.0
  9
$PLINEWID
 40
0.0
  9
$COORDS
 70
     1
  9
$SPLFRAME
 70
     0
  9
$SPLINETYPE
 70
     6
  9
$SPLINESEGS
 70
     8
  9
$ATTDIA
 70
     0
  9
$ATTREQ
 70
     1
  9
$HANDLING
 70
     1
  9
$HANDSEED
  5
206
  9
$SURFTAB1
 70
     6
  9
$SURFTAB2
 70
     6
  9
$SURFTYPE
 70
     6
  9
$SURFU
 70
     6
  9
$SURFV
 70
     6
  9
$UCSNAME
  2

  9
$UCSORG
 10
0.0
 20
0.0
 30
0.0
  9
$UCSXDIR
 10
1.0
 20
0.0
 30
0.0
  9
$UCSYDIR
 10
0.0
 20
1.0
 30
0.0
  9
$PUCSNAME
  2

  9
$PUCSORG
 10
0.0
 20
0.0
 30
0.0
  9
$PUCSXDIR
 10
1.0
 20
0.0
 30
0.0
  9
$PUCSYDIR
 10
0.0
 20
1.0
 30
0.0
  9
$USERI1
 70
     0
  9
$USERI2
 70
     0
  9
$USERI3
 70
     0
  9
$USERI4
 70
     0
  9
$USERI5
 70
     0
  9
$USERR1
 40
0.0
  9
$USERR2
 40
0.0
  9
$USERR3
 40
0.0
  9
$USERR4
 40
0.0
  9
$USERR5
 40
0.0
  9
$WORLDVIEW
 70
     1
  9
$SHADEDGE
 70
     3
  9
$SHADEDIF
 70
    70
  9
$TILEMODE
 70
     1
  9
$MAXACTVP
 70
    16
  9
$PINSBASE
 10
0.0
 20
0.0
 30
0.0
  9
$PLIMCHECK
 70
     0
  9
$PEXTMIN
 10
1.000000E+20
 20
1.000000E+20
 30
1.000000E+20
  9
$PEXTMAX
 10
-1.000000E+20
 20
-1.000000E+20
 30
-1.000000E+20
  9
$PLIMMIN
 10
0.0
 20
0.0
  9
$PLIMMAX
 10
12.0
 20
9.0
  9
$UNITMODE
 70
     0
  9
$VISRETAIN
 70
     0
  9
$PLINEGEN
 70
     1
  9
$PSLTSCALE
 70
     0
  9
$TREEDEPTH
 70
  3020
  9
$DWGCODEPAGE
  3
dos932
  0
ENDSEC
  0
SECTION
  2
TABLES
  0
TABLE
  2
VPORT
 70
     1
  0
VPORT
  2
*ACTIVE
 70
     0
 10
0.0
 20
0.0
 11
1.0
 21
1.0
 12
-71.400562
 22
139.200018
 13
0.0
 23
0.0
 14
1.0
 24
1.0
 15
0.0
 25
0.0
 16
0.0
 26
0.0
 36
1.0
 17
0.0
 27
0.0
 37
0.0
 40
281.184037
 41
1.732051
 42
50.0
 43
0.0
 44
0.0
 50
0.0
 51
0.0
 71
     0
 72
   100
 73
     1
 74
     1
 75
     0
 76
     0
 77
     0
 78
     0
  0
ENDTAB
  0
TABLE
  2
LTYPE
 70
     2
  0
LTYPE
  2
CONTINUOUS
 70
    64
  3
Solid line
 72
    65
 73
     0
 40
0.0
  0
LTYPE
  2
DASHED
 70
    64
  3
Dashed __ __ __ __ __ __ __ __ __ __ __ __ __ _
 72
    65
 73
     2
 40
19.05
 49
12.7
 49
-6.35
  0
ENDTAB
  0
TABLE
  2
LAYER
 70
     3
  0
LAYER
  2
0
 70
     0
 62
     7
  6
CONTINUOUS
  0
LAYER
  2
LY_1
 70
     0
 62
     7
  6
CONTINUOUS
  0
LAYER
  2
DEFPOINTS
 70
     0
 62
     7
  6
CONTINUOUS
  0
ENDTAB
  0
TABLE
  2
STYLE
 70
     1
  0
STYLE
  2
MX_NOTE_STANDARD
 70
     0
 40
0.0
 41
1.0
 50
0.0
 71
     0
 42
4.1656
  3
txt.shx
  4
extfont.shx
  0
ENDTAB
  0
TABLE
  2
VIEW
 70
     0
  0
ENDTAB
  0
TABLE
  2
UCS
 70
     0
  0
ENDTAB
  0
TABLE
  2
APPID
 70
     1
  0
APPID
  2
ACAD
 70
     0
  0
ENDTAB
  0
TABLE
  2
DIMSTYLE
 70
     1
  0
DIMSTYLE
  2
MXDIMSTYLE
 70
     0
  3

  4

  5

  6

  7

 40
1.0
 41
2.5
 42
0.5
 43
3.75
 44
1.0
 45
0.0
 46
0.0
 47
0.0
 48
0.0
 71
     0
 72
     0
 73
     0
 74
     0
 75
     0
 76
     0
 77
     1
 78
     8
140
2.5
141
2.5
142
0.0
143
0.03937
144
1.0
145
0.0
146
1.0
147
1.0
170
     0
171
     4
172
     1
173
     0
174
     0
175
     0
176
     0
177
     0
178
     0
  0
ENDTAB
  0
ENDSEC
  0
SECTION
  2
BLOCKS
  0
ENDSEC
  0
SECTION
  2
ENTITIES
  0
CIRCLE
  8
LY_1
  6
DASHED
 62
    80
  5
20
 10
0.0
 20
190.0
 30
0.0
 40
4.5
  0
CIRCLE
  8
LY_1
  6
DASHED
 62
    80
  5
21
 10
0.0
 20
267.0
 30
0.0
 40
4.5
  0
LINE
  8
LY_1
  6
DASHED
 62
    80
  5
22
 10
-31.0
 20
276.0
 30
0.0
 11
-24.0
 21
276.0
 31
0.0
  0
LINE
  8
LY_1
  6
DASHED
 62
    80
  5
23
 10
-31.0
 20
181.0
 30
0.0
 11
-24.0
 21
181.0
 31
0.0
  0
LINE
  8
LY_1
  6
DASHED
 62
    80
  5
24
 10
-36.0
 20
275.0
 30
0.0
 11
-36.0
 21
182.0
 31
0.0
  0
LINE
  8
LY_1
  6
DASHED
 62
    80
  5
25
 10
36.0
 20
275.0
 30
0.0
 11
36.0
 21
182.0
 31
0.0
  0
LINE
  8
LY_1
  6
CONTINUOUS
 62
     3
  5
26
 10
-24.0
 20
181.0
 30
0.0
 11
36.0
 21
181.0
 31
0.0
  0
ARC
  8
LY_1
  6
CONTINUOUS
 62
     3
  5
27
 10
-29.799988
 20
180.325061
 30
0.0
 40
1.2
 50
180.000003
 51
244.280723
  0
ARC
  8
LY_1
  6
CONTINUOUS
 62
     3
  5
28
 10
-25.200012
 20
180.325061
 30
0.0
 40
1.2
 50
295.719277
 51
359.999997
  0
ARC
  8
LY_1
  6
CONTINUOUS
 62
     3
  5
29
 10
-27.5
 20
185.099963
 30
0.0
 40
6.5
 50
244.280726
 51
295.719277
  0
LINE
  8
LY_1
  6
CONTINUOUS
 62
     3
  5
2A
 10
-31.0
 20
180.325061
 30
0.0
 11
-31.0
 21
182.0
 31
0.0
  0
LINE
  8
LY_1
  6
CONTINUOUS
 62
     3
  5
2B
 10
-24.0
 20
181.2
 30
0.0
 11
-31.0
 21
181.2
 31
0.0
  0
LINE
  8
LY_1
  6
CONTINUOUS
 62
     3
  5
2C
 10
-24.0
 20
180.325061
 30
0.0
 11
-24.0
 21
182.0
 31
0.0
  0
LINE
  8
LY_1
  6
CONTINUOUS
 62
     3
  5
2D
 10
-24.0
 20
276.0
 30
0.0
 11
36.0
 21
276.0
 31
0.0
  0
LINE
  8
LY_1
  6
CONTINUOUS
 62
     3
  5
2E
 10
-36.0
 20
182.0
 30
0.0
 11
-36.0
 21
181.0
 31
0.0
  0
LINE
  8
LY_1
  6
CONTINUOUS
 62
     3
  5
2F
 10
36.0
 20
182.0
 30
0.0
 11
36.0
 21
181.0
 31
0.0
  0
LINE
  8
LY_1
  6
CONTINUOUS
 62
     3
  5
30
 10
-36.0
 20
276.0
 30
0.0
 11
-31.0
 21
276.0
 31
0.0
  0
LINE
  8
LY_1
  6
CONTINUOUS
 62
     3
  5
31
 10
-36.0
 20
181.0
 30
0.0
 11
-31.0
 21
181.0
 31
0.0
  0
LINE
  8
LY_1
  6
CONTINUOUS
 62
     3
  5
32
 10
-36.0
 20
276.0
 30
0.0
 11
-36.0
 21
275.0
 31
0.0
  0
LINE
  8
LY_1
  6
CONTINUOUS
 62
     3
  5
33
 10
36.0
 20
276.0
 30
0.0
 11
36.0
 21
275.0
 31
0.0
  0
LINE
  8
LY_1
  6
CONTINUOUS
 62
     3
  5
34
 10
-24.0
 20
276.674939
 30
0.0
 11
-24.0
 21
275.0
 31
0.0
  0
LINE
  8
LY_1
  6
CONTINUOUS
 62
     3
  5
35
 10
-24.0
 20
275.8
 30
0.0
 11
-31.0
 21
275.8
 31
0.0
  0
LINE
  8
LY_1
  6
CONTINUOUS
 62
     3
  5
36
 10
-31.0
 20
276.674939
 30
0.0
 11
-31.0
 21
275.0
 31
0.0
  0
ARC
  8
LY_1
  6
CONTINUOUS
 62
     3
  5
37
 10
-27.5
 20
271.900037
 30
0.0
 40
6.5
 50
64.280723
 51
115.719274
  0
ARC
  8
LY_1
  6
CONTINUOUS
 62
     3
  5
38
 10
-25.200012
 20
276.674939
 30
0.0
 40
1.2
 50
0.000003
 51
64.280723
  0
ARC
  8
LY_1
  6
CONTINUOUS
 62
     3
  5
39
 10
-29.799988
 20
276.674939
 30
0.0
 40
1.2
 50
115.719277
 51
179.999997
  0
LINE
  8
LY_1
  6
CONTINUOUS
 62
     3
  5
3A
 10
-39.799988
 20
229.075012
 30
0.0
 11
-38.994995
 21
229.075012
 31
0.0
  0
LINE
  8
LY_1
  6
CONTINUOUS
 62
     3
  5
3B
 10
-35.200012
 20
229.075012
 30
0.0
 11
-35.200012
 21
227.924988
 31
0.0
  0
LINE
  8
LY_1
  6
CONTINUOUS
 62
     3
  5
3C
 10
-38.075012
 20
230.799988
 30
0.0
 11
-36.924988
 21
230.799988
 31
0.0
  0
LINE
  8
LY_1
  6
CONTINUOUS
 62
     3
  5
3D
 10
-36.924988
 20
230.799988
 30
0.0
 11
-36.924988
 21
229.994995
 31
0.0
  0
LINE
  8
LY_1
  6
CONTINUOUS
 62
     3
  5
3E
 10
-36.005005
 20
229.075012
 30
0.0
 11
-35.200012
 21
229.075012
 31
0.0
  0
LINE
  8
LY_1
  6
CONTINUOUS
 62
     3
  5
3F
 10
-38.075012
 20
230.799988
 30
0.0
 11
-38.075012
 21
229.994995
 31
0.0
  0
LINE
  8
LY_1
  6
CONTINUOUS
 62
     3
  5
40
 10
-39.799988
 20
229.075012
 30
0.0
 11
-39.799988
 21
227.924988
 31
0.0
  0
LINE
  8
LY_1
  6
CONTINUOUS
 62
     3
  5
41
 10
-38.075012
 20
226.200012
 30
0.0
 11
-36.924988
 21
226.200012
 31
0.0
  0
LINE
  8
LY_1
  6
CONTINUOUS
 62
     3
  5
42
 10
-39.799988
 20
227.924988
 30
0.0
 11
-38.994995
 21
227.924988
 31
0.0
  0
LINE
  8
LY_1
  6
CONTINUOUS
 62
     3
  5
43
 10
-38.075012
 20
227.005005
 30
0.0
 11
-38.075012
 21
226.200012
 31
0.0
  0
LINE
  8
LY_1
  6
CONTINUOUS
 62
     3
  5
44
 10
-36.924988
 20
227.005005
 30
0.0
 11
-36.924988
 21
226.200012
 31
0.0
  0
LINE
  8
LY_1
  6
CONTINUOUS
 62
     3
  5
45
 10
-36.005005
 20
227.924988
 30
0.0
 11
-35.200012
 21
227.924988
 31
0.0
  0
ARC
  8
LY_1
  6
CONTINUOUS
 62
     3
  5
46
 10
-38.994995
 20
229.994995
 30
0.0
 40
0.92
 50
269.999997
 51
0.0
  0
CIRCLE
  8
LY_1
  6
CONTINUOUS
 62
     3
  5
47
 10
-37.5
 20
228.5
 30
0.0
 40
3.5
  0
ARC
  8
LY_1
  6
CONTINUOUS
 62
     3
  5
48
 10
-36.005005
 20
229.994995
 30
0.0
 40
0.92
 50
179.999995
 51
269.999997
  0
ARC
  8
LY_1
  6
CONTINUOUS
 62
     3
  5
49
 10
-38.994995
 20
227.005005
 30
0.0
 40
0.92
 50
0.0
 51
90.000003
  0
ARC
  8
LY_1
  6
CONTINUOUS
 62
     3
  5
4A
 10
-36.005005
 20
227.005005
 30
0.0
 40
0.92
 50
90.000003
 51
180.000005
  0
LINE
  8
LY_1
  6
CONTINUOUS
 62
     3
  5
4B
 10
-25.200012
 20
229.075012
 30
0.0
 11
-26.005005
 21
229.075012
 31
0.0
  0
LINE
  8
LY_1
  6
CONTINUOUS
 62
     3
  5
4C
 10
-29.799988
 20
229.075012
 30
0.0
 11
-29.799988
 21
227.924988
 31
0.0
  0
LINE
  8
LY_1
  6
CONTINUOUS
 62
     3
  5
4D
 10
-26.924988
 20
230.799988
 30
0.0
 11
-28.075012
 21
230.799988
 31
0.0
  0
LINE
  8
LY_1
  6
CONTINUOUS
 62
     3
  5
4E
 10
-28.075012
 20
230.799988
 30
0.0
 11
-28.075012
 21
229.994995
 31
0.0
  0
LINE
  8
LY_1
  6
CONTINUOUS
 62
     3
  5
4F
 10
-28.994995
 20
229.075012
 30
0.0
 11
-29.799988
 21
229.075012
 31
0.0
  0
LINE
  8
LY_1
  6
CONTINUOUS
 62
     3
  5
50
 10
-26.924988
 20
230.799988
 30
0.0
 11
-26.924988
 21
229.994995
 31
0.0
  0
LINE
  8
LY_1
  6
CONTINUOUS
 62
     3
  5
51
 10
-25.200012
 20
229.075012
 30
0.0
 11
-25.200012
 21
227.924988
 31
0.0
  0
LINE
  8
LY_1
  6
CONTINUOUS
 62
     3
  5
52
 10
-26.924988
 20
226.200012
 30
0.0
 11
-28.075012
 21
226.200012
 31
0.0
  0
LINE
  8
LY_1
  6
CONTINUOUS
 62
     3
  5
53
 10
-25.200012
 20
227.924988
 30
0.0
 11
-26.005005
 21
227.924988
 31
0.0
  0
LINE
  8
LY_1
  6
CONTINUOUS
 62
     3
  5
54
 10
-26.924988
 20
227.005005
 30
0.0
 11
-26.924988
 21
226.200012
 31
0.0
  0
LINE
  8
LY_1
  6
CONTINUOUS
 62
     3
  5
55
 10
-28.075012
 20
227.005005
 30
0.0
 11
-28.075012
 21
226.200012
 31
0.0
  0
LINE
  8
LY_1
  6
CONTINUOUS
 62
     3
  5
56
 10
-28.994995
 20
227.924988
 30
0.0
 11
-29.799988
 21
227.924988
 31
0.0
  0
ARC
  8
LY_1
  6
CONTINUOUS
 62
     3
  5
57
 10
-26.005005
 20
229.994995
 30
0.0
 40
0.92
 50
180.0
 51
270.000003
  0
CIRCLE
  8
LY_1
  6
CONTINUOUS
 62
     3
  5
58
 10
-27.5
 20
228.5
 30
0.0
 40
3.5
  0
ARC
  8
LY_1
  6
CONTINUOUS
 62
     3
  5
59
 10
-28.994995
 20
229.994995
 30
0.0
 40
0.92
 50
270.000003
 51
0.000005
  0
ARC
  8
LY_1
  6
CONTINUOUS
 62
     3
  5
5A
 10
-26.005005
 20
227.005005
 30
0.0
 40
0.92
 50
89.999997
 51
180.0
  0
ARC
  8
LY_1
  6
CONTINUOUS
 62
     3
  5
5B
 10
-28.994995
 20
227.005005
 30
0.0
 40
0.92
 50
359.999995
 51
89.999997
  0
LINE
  8
LY_1
  6
CONTINUOUS
 62
     3
  5
5C
 10
-69.5
 20
182.0
 30
0.0
 11
38.265052
 21
182.0
 31
0.0
  0
LINE
  8
LY_1
  6
CONTINUOUS
 62
     3
  5
5D
 10
-69.5
 20
190.163133
 30
0.0
 11
-64.5
 21
190.163133
 31
0.0
  0
LINE
  8
LY_1
  6
CONTINUOUS
 62
     3
  5
5E
 10
-69.5
 20
192.733527
 30
0.0
 11
-64.5
 21
192.733527
 31
0.0
  0
LINE
  8
LY_1
  6
CONTINUOUS
 62
     3
  5
5F
 10
-69.5
 20
202.183948
 30
0.0
 11
-64.5
 21
202.183948
 31
0.0
  0
LINE
  8
LY_1
  6
CONTINUOUS
 62
     3
  5
60
 10
-69.5
 20
202.183948
 30
0.0
 11
-69.5
 21
190.163133
 31
0.0
  0
LINE
  8
LY_1
  6
CONTINUOUS
 62
     3
  5
61
 10
-64.5
 20
202.183948
 30
0.0
 11
-64.5
 21
190.163133
 31
0.0
  0
LINE
  8
LY_1
  6
CONTINUOUS
 62
     3
  5
62
 10
-54.5
 20
202.183948
 30
0.0
 11
-54.5
 21
190.163133
 31
0.0
  0
LINE
  8
LY_1
  6
CONTINUOUS
 62
     3
  5
63
 10
-59.5
 20
202.183948
 30
0.0
 11
-59.5
 21
190.163133
 31
0.0
  0
LINE
  8
LY_1
  6
CONTINUOUS
 62
     3
  5
64
 10
-59.5
 20
202.183948
 30
0.0
 11
-54.5
 21
202.183948
 31
0.0
  0
LINE
  8
LY_1
  6
CONTINUOUS
 62
     3
  5
65
 10
-59.5
 20
192.733527
 30
0.0
 11
-54.5
 21
192.733527
 31
0.0
  0
LINE
  8
LY_1
  6
CONTINUOUS
 62
     3
  5
66
 10
-59.5
 20
190.163133
 30
0.0
 11
-54.5
 21
190.163133
 31
0.0
  0
LINE
  8
LY_1
  6
CONTINUOUS
 62
     3
  5
67
 10
-44.5
 20
202.183948
 30
0.0
 11
-44.5
 21
190.163133
 31
0.0
  0
LINE
  8
LY_1
  6
CONTINUOUS
 62
     3
  5
68
 10
-49.5
 20
202.183948
 30
0.0
 11
-49.5
 21
190.163133
 31
0.0
  0
LINE
  8
LY_1
  6
CONTINUOUS
 62
     3
  5
69
 10
-49.5
 20
202.183948
 30
0.0
 11
-44.5
 21
202.183948
 31
0.0
  0
LINE
  8
LY_1
  6
CONTINUOUS
 62
     3
  5
6A
 10
-49.5
 20
192.733527
 30
0.0
 11
-44.5
 21
192.733527
 31
0.0
  0
LINE
  8
LY_1
  6
CONTINUOUS
 62
     3
  5
6B
 10
-49.5
 20
190.163133
 30
0.0
 11
-44.5
 21
190.163133
 31
0.0
  0
LINE
  8
LY_1
  6
CONTINUOUS
 62
     3
  5
6C
 10
-69.5
 20
185.088034
 30
0.0
 11
-64.5
 21
185.088034
 31
0.0
  0
LINE
  8
LY_1
  6
CONTINUOUS
 62
     3
  5
6D
 10
-59.5
 20
185.088034
 30
0.0
 11
-54.5
 21
185.088034
 31
0.0
  0
LINE
  8
LY_1
  6
CONTINUOUS
 62
     3
  5
6E
 10
-49.5
 20
185.088034
 30
0.0
 11
-44.5
 21
185.088034
 31
0.0
  0
LINE
  8
LY_1
  6
CONTINUOUS
 62
     3
  5
6F
 10
-44.5
 20
185.088034
 30
0.0
 11
-44.5
 21
182.0
 31
0.0
  0
LINE
  8
LY_1
  6
CONTINUOUS
 62
     3
  5
70
 10
-49.5
 20
185.088034
 30
0.0
 11
-49.5
 21
182.0
 31
0.0
  0
LINE
  8
LY_1
  6
CONTINUOUS
 62
     3
  5
71
 10
-54.5
 20
185.088034
 30
0.0
 11
-54.5
 21
182.0
 31
0.0
  0
LINE
  8
LY_1
  6
CONTINUOUS
 62
     3
  5
72
 10
-59.5
 20
185.088034
 30
0.0
 11
-59.5
 21
182.0
 31
0.0
  0
LINE
  8
LY_1
  6
CONTINUOUS
 62
     3
  5
73
 10
-64.5
 20
185.088034
 30
0.0
 11
-64.5
 21
182.0
 31
0.0
  0
LINE
  8
LY_1
  6
CONTINUOUS
 62
     3
  5
74
 10
-69.5
 20
185.088034
 30
0.0
 11
-69.5
 21
182.0
 31
0.0
  0
LINE
  8
LY_1
  6
CONTINUOUS
 62
     3
  5
75
 10
-49.5
 20
271.911966
 30
0.0
 11
-44.5
 21
271.911966
 31
0.0
  0
LINE
  8
LY_1
  6
CONTINUOUS
 62
     3
  5
76
 10
-44.5
 20
271.911966
 30
0.0
 11
-44.5
 21
275.0
 31
0.0
  0
LINE
  8
LY_1
  6
CONTINUOUS
 62
     3
  5
77
 10
-49.5
 20
271.911966
 30
0.0
 11
-49.5
 21
275.0
 31
0.0
  0
LINE
  8
LY_1
  6
CONTINUOUS
 62
     3
  5
78
 10
-59.5
 20
271.911966
 30
0.0
 11
-54.5
 21
271.911966
 31
0.0
  0
LINE
  8
LY_1
  6
CONTINUOUS
 62
     3
  5
79
 10
-54.5
 20
271.911966
 30
0.0
 11
-54.5
 21
275.0
 31
0.0
  0
LINE
  8
LY_1
  6
CONTINUOUS
 62
     3
  5
7A
 10
-59.5
 20
271.911966
 30
0.0
 11
-59.5
 21
275.0
 31
0.0
  0
LINE
  8
LY_1
  6
CONTINUOUS
 62
     3
  5
7B
 10
-64.5
 20
271.911966
 30
0.0
 11
-64.5
 21
275.0
 31
0.0
  0
LINE
  8
LY_1
  6
CONTINUOUS
 62
     3
  5
7C
 10
-69.5
 20
271.911966
 30
0.0
 11
-69.5
 21
275.0
 31
0.0
  0
LINE
  8
LY_1
  6
CONTINUOUS
 62
     3
  5
7D
 10
-69.5
 20
271.911966
 30
0.0
 11
-64.5
 21
271.911966
 31
0.0
  0
LINE
  8
LY_1
  6
CONTINUOUS
 62
     3
  5
7E
 10
-49.5
 20
266.836867
 30
0.0
 11
-44.5
 21
266.836867
 31
0.0
  0
LINE
  8
LY_1
  6
CONTINUOUS
 62
     3
  5
7F
 10
-49.5
 20
264.266473
 30
0.0
 11
-44.5
 21
264.266473
 31
0.0
  0
LINE
  8
LY_1
  6
CONTINUOUS
 62
     3
  5
80
 10
-49.5
 20
254.816052
 30
0.0
 11
-44.5
 21
254.816052
 31
0.0
  0
LINE
  8
LY_1
  6
CONTINUOUS
 62
     3
  5
81
 10
-49.5
 20
254.816052
 30
0.0
 11
-49.5
 21
266.836867
 31
0.0
  0
LINE
  8
LY_1
  6
CONTINUOUS
 62
     3
  5
82
 10
-44.5
 20
254.816052
 30
0.0
 11
-44.5
 21
266.836867
 31
0.0
  0
LINE
  8
LY_1
  6
CONTINUOUS
 62
     3
  5
83
 10
-59.5
 20
266.836867
 30
0.0
 11
-54.5
 21
266.836867
 31
0.0
  0
LINE
  8
LY_1
  6
CONTINUOUS
 62
     3
  5
84
 10
-59.5
 20
264.266473
 30
0.0
 11
-54.5
 21
264.266473
 31
0.0
  0
LINE
  8
LY_1
  6
CONTINUOUS
 62
     3
  5
85
 10
-59.5
 20
254.816052
 30
0.0
 11
-54.5
 21
254.816052
 31
0.0
  0
LINE
  8
LY_1
  6
CONTINUOUS
 62
     3
  5
86
 10
-59.5
 20
254.816052
 30
0.0
 11
-59.5
 21
266.836867
 31
0.0
  0
LINE
  8
LY_1
  6
CONTINUOUS
 62
     3
  5
87
 10
-54.5
 20
254.816052
 30
0.0
 11
-54.5
 21
266.836867
 31
0.0
  0
LINE
  8
LY_1
  6
CONTINUOUS
 62
     3
  5
88
 10
-64.5
 20
254.816052
 30
0.0
 11
-64.5
 21
266.836867
 31
0.0
  0
LINE
  8
LY_1
  6
CONTINUOUS
 62
     3
  5
89
 10
-69.5
 20
254.816052
 30
0.0
 11
-69.5
 21
266.836867
 31
0.0
  0
LINE
  8
LY_1
  6
CONTINUOUS
 62
     3
  5
8A
 10
-69.5
 20
254.816052
 30
0.0
 11
-64.5
 21
254.816052
 31
0.0
  0
LINE
  8
LY_1
  6
CONTINUOUS
 62
     3
  5
8B
 10
-69.5
 20
264.266473
 30
0.0
 11
-64.5
 21
264.266473
 31
0.0
  0
LINE
  8
LY_1
  6
CONTINUOUS
 62
     3
  5
8C
 10
-69.5
 20
266.836867
 30
0.0
 11
-64.5
 21
266.836867
 31
0.0
  0
LINE
  8
LY_1
  6
CONTINUOUS
 62
     3
  5
8D
 10
-49.5
 20
221.330534
 30
0.0
 11
-44.5
 21
221.330534
 31
0.0
  0
LINE
  8
LY_1
  6
CONTINUOUS
 62
     3
  5
8E
 10
-49.5
 20
235.669466
 30
0.0
 11
-44.5
 21
235.669466
 31
0.0
  0
LINE
  8
LY_1
  6
CONTINUOUS
 62
     3
  5
8F
 10
-59.5
 20
221.330534
 30
0.0
 11
-54.5
 21
221.330534
 31
0.0
  0
LINE
  8
LY_1
  6
CONTINUOUS
 62
     3
  5
90
 10
-59.5
 20
235.669466
 30
0.0
 11
-54.5
 21
235.669466
 31
0.0
  0
LINE
  8
LY_1
  6
CONTINUOUS
 62
     3
  5
91
 10
-69.5
 20
221.330534
 30
0.0
 11
-64.5
 21
221.330534
 31
0.0
  0
LINE
  8
LY_1
  6
CONTINUOUS
 62
     3
  5
92
 10
-69.5
 20
235.669466
 30
0.0
 11
-64.5
 21
235.669466
 31
0.0
  0
LINE
  8
LY_1
  6
CONTINUOUS
 62
     3
  5
93
 10
-49.5
 20
220.0
 30
0.0
 11
-44.5
 21
220.0
 31
0.0
  0
LINE
  8
LY_1
  6
CONTINUOUS
 62
     3
  5
94
 10
-59.5
 20
220.0
 30
0.0
 11
-54.5
 21
220.0
 31
0.0
  0
LINE
  8
LY_1
  6
CONTINUOUS
 62
     3
  5
95
 10
-49.5
 20
237.0
 30
0.0
 11
-44.5
 21
237.0
 31
0.0
  0
LINE
  8
LY_1
  6
CONTINUOUS
 62
     3
  5
96
 10
-59.5
 20
237.0
 30
0.0
 11
-54.5
 21
237.0
 31
0.0
  0
LINE
  8
LY_1
  6
CONTINUOUS
 62
     3
  5
97
 10
-69.5
 20
220.0
 30
0.0
 11
-64.5
 21
220.0
 31
0.0
  0
LINE
  8
LY_1
  6
CONTINUOUS
 62
     3
  5
98
 10
-69.5
 20
237.0
 30
0.0
 11
-64.5
 21
237.0
 31
0.0
  0
LINE
  8
LY_1
  6
CONTINUOUS
 62
     3
  5
99
 10
-44.5
 20
220.0
 30
0.0
 11
-44.5
 21
237.0
 31
0.0
  0
LINE
  8
LY_1
  6
CONTINUOUS
 62
     3
  5
9A
 10
-49.5
 20
220.0
 30
0.0
 11
-49.5
 21
237.0
 31
0.0
  0
LINE
  8
LY_1
  6
CONTINUOUS
 62
     3
  5
9B
 10
-54.5
 20
220.0
 30
0.0
 11
-54.5
 21
237.0
 31
0.0
  0
LINE
  8
LY_1
  6
CONTINUOUS
 62
     3
  5
9C
 10
-59.5
 20
220.0
 30
0.0
 11
-59.5
 21
237.0
 31
0.0
  0
LINE
  8
LY_1
  6
CONTINUOUS
 62
     3
  5
9D
 10
-64.5
 20
220.0
 30
0.0
 11
-64.5
 21
237.0
 31
0.0
  0
LINE
  8
LY_1
  6
CONTINUOUS
 62
     3
  5
9E
 10
-69.5
 20
220.0
 30
0.0
 11
-69.5
 21
237.0
 31
0.0
  0
LINE
  8
LY_1
  6
CONTINUOUS
 62
     3
  5
9F
 10
-32.5
 20
182.0
 30
0.0
 11
-32.5
 21
275.0
 31
0.0
  0
ARC
  8
LY_1
  6
CONTINUOUS
 62
     3
  5
A0
 10
-69.5
 20
187.0
 30
0.0
 40
5.0
 50
180.0
 51
270.0
  0
ARC
  8
LY_1
  6
CONTINUOUS
 62
     3
  5
A1
 10
-69.5
 20
270.0
 30
0.0
 40
5.0
 50
90.0
 51
180.0
  0
ARC
  8
LY_1
  6
CONTINUOUS
 62
     3
  5
A2
 10
3.416667
 20
228.5
 30
0.0
 40
85.416667
 50
155.810486
 51
204.189514
  0
LINE
  8
LY_1
  6
CONTINUOUS
 62
     3
  5
A3
 10
-69.5
 20
275.0
 30
0.0
 11
38.265052
 21
275.0
 31
0.0
  0
LINE
  8
LY_1
  6
CONTINUOUS
 62
     3
  5
A4
 10
-74.5
 20
187.0
 30
0.0
 11
-74.5
 21
270.0
 31
0.0
  0
ARC
  8
LY_1
  6
CONTINUOUS
 62
     3
  5
A5
 10
38.265052
 20
244.874084
 30
0.0
 40
62.874084
 50
270.0
 51
338.294588
  0
ARC
  8
LY_1
  6
CONTINUOUS
 62
     3
  5
A6
 10
38.265052
 20
212.125916
 30
0.0
 40
62.874084
 50
21.705412
 51
90.0
  0
ARC
  8
LY_1
  6
CONTINUOUS
 62
     3
  5
A7
 10
79.4
 20
228.5
 30
0.0
 40
18.6
 50
338.294588
 51
21.705412
  0
POINT
  8
LY_1
  6
CONTINUOUS
 62
    80
  5
A8
 10
-238.401087
 20
0.0
 30
0.0
  0
LINE
  8
LY_1
  6
DASHED
 62
    80
  5
A9
 10
4.5
 20
0.0
 30
0.0
 11
4.5
 21
10.0
 31
0.0
  0
LINE
  8
LY_1
  6
DASHED
 62
    80
  5
AA
 10
-4.5
 20
0.0
 30
0.0
 11
-4.5
 21
10.0
 31
0.0
  0
POLYLINE
  8
LY_1
  6
CONTINUOUS
 62
     3
  5
AB
 66
     1
 10
0.0
 20
0.0
 30
0.0
  0
VERTEX
  8
LY_1
  6
CONTINUOUS
 62
     3
  5
1A1
 10
47.746359
 20
19.507725
 30
0.0
  0
VERTEX
  8
LY_1
  6
CONTINUOUS
 62
     3
  5
1A2
 10
47.449226
 20
19.307781
 30
0.0
  0
VERTEX
  8
LY_1
  6
CONTINUOUS
 62
     3
  5
1A3
 10
47.136162
 20
19.082775
 30
0.0
  0
VERTEX
  8
LY_1
  6
CONTINUOUS
 62
     3
  5
1A4
 10
46.813294
 20
18.8359
 30
0.0
  0
VERTEX
  8
LY_1
  6
CONTINUOUS
 62
     3
  5
1A5
 10
46.486748
 20
18.570348
 30
0.0
  0
VERTEX
  8
LY_1
  6
CONTINUOUS
 62
     3
  5
1A6
 10
46.16265
 20
18.289309
 30
0.0
  0
VERTEX
  8
LY_1
  6
CONTINUOUS
 62
     3
  5
1A7
 10
45.847124
 20
17.995977
 30
0.0
  0
VERTEX
  8
LY_1
  6
CONTINUOUS
 62
     3
  5
1A8
 10
45.546296
 20
17.693543
 30
0.0
  0
VERTEX
  8
LY_1
  6
CONTINUOUS
 62
     3
  5
1A9
 10
45.266293
 20
17.385199
 30
0.0
  0
VERTEX
  8
LY_1
  6
CONTINUOUS
 62
     3
  5
1AA
 10
45.01324
 20
17.074137
 30
0.0
  0
VERTEX
  8
LY_1
  6
CONTINUOUS
 62
     3
  5
1AB
 10
44.793262
 20
16.763549
 30
0.0
  0
VERTEX
  8
LY_1
  6
CONTINUOUS
 62
     3
  5
1AC
 10
44.612486
 20
16.456627
 30
0.0
  0
VERTEX
  8
LY_1
  6
CONTINUOUS
 62
     3
  5
1AD
 10
44.477036
 20
16.156563
 30
0.0
  0
VERTEX
  8
LY_1
  6
CONTINUOUS
 62
     3
  5
1AE
 10
44.393038
 20
15.866548
 30
0.0
  0
VERTEX
  8
LY_1
  6
CONTINUOUS
 62
     3
  5
1AF
 10
44.366619
 20
15.589774
 30
0.0
  0
VERTEX
  8
LY_1
  6
CONTINUOUS
 62
     3
  5
1B0
 10
44.403903
 20
15.329435
 30
0.0
  0
VERTEX
  8
LY_1
  6
CONTINUOUS
 62
     3
  5
1B1
 10
44.511017
 20
15.08872
 30
0.0
  0
VERTEX
  8
LY_1
  6
CONTINUOUS
 62
     3
  5
1B2
 10
44.614299
 20
14.950467
 30
0.0
  0
VERTEX
  8
LY_1
  6
CONTINUOUS
 62
     3
  5
1B3
 10
44.743237
 20
14.819782
 30
0.0
  0
VERTEX
  8
LY_1
  6
CONTINUOUS
 62
     3
  5
1B4
 10
44.894313
 20
14.695471
 30
0.0
  0
VERTEX
  8
LY_1
  6
CONTINUOUS
 62
     3
  5
1B5
 10
45.06401
 20
14.57634
 30
0.0
  0
VERTEX
  8
LY_1
  6
CONTINUOUS
 62
     3
  5
1B6
 10
45.248813
 20
14.461194
 30
0.0
  0
VERTEX
  8
LY_1
  6
CONTINUOUS
 62
     3
  5
1B7
 10
45.445204
 20
14.348838
 30
0.0
  0
VERTEX
  8
LY_1
  6
CONTINUOUS
 62
     3
  5
1B8
 10
45.649668
 20
14.238078
 30
0.0
  0
VERTEX
  8
LY_1
  6
CONTINUOUS
 62
     3
  5
1B9
 10
45.858688
 20
14.127719
 30
0.0
  0
VERTEX
  8
LY_1
  6
CONTINUOUS
 62
     3
  5
1BA
 10
46.068748
 20
14.016567
 30
0.0
  0
VERTEX
  8
LY_1
  6
CONTINUOUS
 62
     3
  5
1BB
 10
46.276331
 20
13.903427
 30
0.0
  0
VERTEX
  8
LY_1
  6
CONTINUOUS
 62
     3
  5
1BC
 10
46.47792
 20
13.787105
 30
0.0
  0
VERTEX
  8
LY_1
  6
CONTINUOUS
 62
     3
  5
1BD
 10
46.67
 20
13.666406
 30
0.0
  0
VERTEX
  8
LY_1
  6
CONTINUOUS
 62
     3
  5
1BE
 10
46.849054
 20
13.540136
 30
0.0
  0
VERTEX
  8
LY_1
  6
CONTINUOUS
 62
     3
  5
1BF
 10
47.011565
 20
13.407099
 30
0.0
  0
VERTEX
  8
LY_1
  6
CONTINUOUS
 62
     3
  5
1C0
 10
47.154018
 20
13.266102
 30
0.0
  0
VERTEX
  8
LY_1
  6
CONTINUOUS
 62
     3
  5
1C1
 10
47.272895
 20
13.11595
 30
0.0
  0
VERTEX
  8
LY_1
  6
CONTINUOUS
 62
     3
  5
1C2
 10
47.40057
 20
12.875891
 30
0.0
  0
VERTEX
  8
LY_1
  6
CONTINUOUS
 62
     3
  5
1C3
 10
47.473503
 20
12.616138
 30
0.0
  0
VERTEX
  8
LY_1
  6
CONTINUOUS
 62
     3
  5
1C4
 10
47.496111
 20
12.339595
 30
0.0
  0
VERTEX
  8
LY_1
  6
CONTINUOUS
 62
     3
  5
1C5
 10
47.472814
 20
12.04917
 30
0.0
  0
VERTEX
  8
LY_1
  6
CONTINUOUS
 62
     3
  5
1C6
 10
47.40803
 20
11.747769
 30
0.0
  0
VERTEX
  8
LY_1
  6
CONTINUOUS
 62
     3
  5
1C7
 10
47.30618
 20
11.438298
 30
0.0
  0
VERTEX
  8
LY_1
  6
CONTINUOUS
 62
     3
  5
1C8
 10
47.171683
 20
11.123663
 30
0.0
  0
VERTEX
  8
LY_1
  6
CONTINUOUS
 62
     3
  5
1C9
 10
47.008956
 20
10.806771
 30
0.0
  0
VERTEX
  8
LY_1
  6
CONTINUOUS
 62
     3
  5
1CA
 10
46.82242
 20
10.490528
 30
0.0
  0
VERTEX
  8
LY_1
  6
CONTINUOUS
 62
     3
  5
1CB
 10
46.616494
 20
10.17784
 30
0.0
  0
VERTEX
  8
LY_1
  6
CONTINUOUS
 62
     3
  5
1CC
 10
46.395597
 20
9.871613
 30
0.0
  0
VERTEX
  8
LY_1
  6
CONTINUOUS
 62
     3
  5
1CD
 10
46.164148
 20
9.574755
 30
0.0
  0
VERTEX
  8
LY_1
  6
CONTINUOUS
 62
     3
  5
1CE
 10
45.926566
 20
9.29017
 30
0.0
  0
VERTEX
  8
LY_1
  6
CONTINUOUS
 62
     3
  5
1CF
 10
45.68727
 20
9.020766
 30
0.0
  0
VERTEX
  8
LY_1
  6
CONTINUOUS
 62
     3
  5
1D0
 10
45.45068
 20
8.769448
 30
0.0
  0
VERTEX
  8
LY_1
  6
CONTINUOUS
 62
     3
  5
1D1
 10
45.221214
 20
8.539123
 30
0.0
  0
SEQEND
  8
LY_1
  6
CONTINUOUS
 62
     3
  5
1D2
  0
POLYLINE
  8
LY_1
  6
CONTINUOUS
 62
     3
  5
AC
 66
     1
 10
0.0
 20
0.0
 30
0.0
  0
VERTEX
  8
LY_1
  6
CONTINUOUS
 62
     3
  5
1D3
 10
51.496359
 20
19.507725
 30
0.0
  0
VERTEX
  8
LY_1
  6
CONTINUOUS
 62
     3
  5
1D4
 10
51.199226
 20
19.307781
 30
0.0
  0
VERTEX
  8
LY_1
  6
CONTINUOUS
 62
     3
  5
1D5
 10
50.886162
 20
19.082775
 30
0.0
  0
VERTEX
  8
LY_1
  6
CONTINUOUS
 62
     3
  5
1D6
 10
50.563294
 20
18.8359
 30
0.0
  0
VERTEX
  8
LY_1
  6
CONTINUOUS
 62
     3
  5
1D7
 10
50.236748
 20
18.570348
 30
0.0
  0
VERTEX
  8
LY_1
  6
CONTINUOUS
 62
     3
  5
1D8
 10
49.91265
 20
18.289309
 30
0.0
  0
VERTEX
  8
LY_1
  6
CONTINUOUS
 62
     3
  5
1D9
 10
49.597124
 20
17.995977
 30
0.0
  0
VERTEX
  8
LY_1
  6
CONTINUOUS
 62
     3
  5
1DA
 10
49.296296
 20
17.693543
 30
0.0
  0
VERTEX
  8
LY_1
  6
CONTINUOUS
 62
     3
  5
1DB
 10
49.016293
 20
17.385199
 30
0.0
  0
VERTEX
  8
LY_1
  6
CONTINUOUS
 62
     3
  5
1DC
 10
48.76324
 20
17.074137
 30
0.0
  0
VERTEX
  8
LY_1
  6
CONTINUOUS
 62
     3
  5
1DD
 10
48.543262
 20
16.763549
 30
0.0
  0
VERTEX
  8
LY_1
  6
CONTINUOUS
 62
     3
  5
1DE
 10
48.362486
 20
16.456627
 30
0.0
  0
VERTEX
  8
LY_1
  6
CONTINUOUS
 62
     3
  5
1DF
 10
48.227036
 20
16.156563
 30
0.0
  0
VERTEX
  8
LY_1
  6
CONTINUOUS
 62
     3
  5
1E0
 10
48.143038
 20
15.866548
 30
0.0
  0
VERTEX
  8
LY_1
  6
CONTINUOUS
 62
     3
  5
1E1
 10
48.116619
 20
15.589774
 30
0.0
  0
VERTEX
  8
LY_1
  6
CONTINUOUS
 62
     3
  5
1E2
 10
48.153903
 20
15.329435
 30
0.0
  0
VERTEX
  8
LY_1
  6
CONTINUOUS
 62
     3
  5
1E3
 10
48.261017
 20
15.08872
 30
0.0
  0
VERTEX
  8
LY_1
  6
CONTINUOUS
 62
     3
  5
1E4
 10
48.364299
 20
14.950467
 30
0.0
  0
VERTEX
  8
LY_1
  6
CONTINUOUS
 62
     3
  5
1E5
 10
48.493237
 20
14.819782
 30
0.0
  0
VERTEX
  8
LY_1
  6
CONTINUOUS
 62
     3
  5
1E6
 10
48.644313
 20
14.695471
 30
0.0
  0
VERTEX
  8
LY_1
  6
CONTINUOUS
 62
     3
  5
1E7
 10
48.81401
 20
14.57634
 30
0.0
  0
VERTEX
  8
LY_1
  6
CONTINUOUS
 62
     3
  5
1E8
 10
48.998813
 20
14.461194
 30
0.0
  0
VERTEX
  8
LY_1
  6
CONTINUOUS
 62
     3
  5
1E9
 10
49.195204
 20
14.348838
 30
0.0
  0
VERTEX
  8
LY_1
  6
CONTINUOUS
 62
     3
  5
1EA
 10
49.399668
 20
14.238078
 30
0.0
  0
VERTEX
  8
LY_1
  6
CONTINUOUS
 62
     3
  5
1EB
 10
49.608688
 20
14.127719
 30
0.0
  0
VERTEX
  8
LY_1
  6
CONTINUOUS
 62
     3
  5
1EC
 10
49.818748
 20
14.016567
 30
0.0
  0
VERTEX
  8
LY_1
  6
CONTINUOUS
 62
     3
  5
1ED
 10
50.026331
 20
13.903427
 30
0.0
  0
VERTEX
  8
LY_1
  6
CONTINUOUS
 62
     3
  5
1EE
 10
50.22792
 20
13.787105
 30
0.0
  0
VERTEX
  8
LY_1
  6
CONTINUOUS
 62
     3
  5
1EF
 10
50.42
 20
13.666406
 30
0.0
  0
VERTEX
  8
LY_1
  6
CONTINUOUS
 62
     3
  5
1F0
 10
50.599054
 20
13.540136
 30
0.0
  0
VERTEX
  8
LY_1
  6
CONTINUOUS
 62
     3
  5
1F1
 10
50.761565
 20
13.407099
 30
0.0
  0
VERTEX
  8
LY_1
  6
CONTINUOUS
 62
     3
  5
1F2
 10
50.904018
 20
13.266102
 30
0.0
  0
VERTEX
  8
LY_1
  6
CONTINUOUS
 62
     3
  5
1F3
 10
51.022895
 20
13.11595
 30
0.0
  0
VERTEX
  8
LY_1
  6
CONTINUOUS
 62
     3
  5
1F4
 10
51.15057
 20
12.875891
 30
0.0
  0
VERTEX
  8
LY_1
  6
CONTINUOUS
 62
     3
  5
1F5
 10
51.223503
 20
12.616138
 30
0.0
  0
VERTEX
  8
LY_1
  6
CONTINUOUS
 62
     3
  5
1F6
 10
51.246111
 20
12.339595
 30
0.0
  0
VERTEX
  8
LY_1
  6
CONTINUOUS
 62
     3
  5
1F7
 10
51.222814
 20
12.04917
 30
0.0
  0
VERTEX
  8
LY_1
  6
CONTINUOUS
 62
     3
  5
1F8
 10
51.15803
 20
11.747769
 30
0.0
  0
VERTEX
  8
LY_1
  6
CONTINUOUS
 62
     3
  5
1F9
 10
51.05618
 20
11.438298
 30
0.0
  0
VERTEX
  8
LY_1
  6
CONTINUOUS
 62
     3
  5
1FA
 10
50.921683
 20
11.123663
 30
0.0
  0
VERTEX
  8
LY_1
  6
CONTINUOUS
 62
     3
  5
1FB
 10
50.758956
 20
10.806771
 30
0.0
  0
VERTEX
  8
LY_1
  6
CONTINUOUS
 62
     3
  5
1FC
 10
50.57242
 20
10.490528
 30
0.0
  0
VERTEX
  8
LY_1
  6
CONTINUOUS
 62
     3
  5
1FD
 10
50.366494
 20
10.17784
 30
0.0
  0
VERTEX
  8
LY_1
  6
CONTINUOUS
 62
     3
  5
1FE
 10
50.145597
 20
9.871613
 30
0.0
  0
VERTEX
  8
LY_1
  6
CONTINUOUS
 62
     3
  5
1FF
 10
49.914148
 20
9.574755
 30
0.0
  0
VERTEX
  8
LY_1
  6
CONTINUOUS
 62
     3
  5
200
 10
49.676566
 20
9.29017
 30
0.0
  0
VERTEX
  8
LY_1
  6
CONTINUOUS
 62
     3
  5
201
 10
49.43727
 20
9.020766
 30
0.0
  0
VERTEX
  8
LY_1
  6
CONTINUOUS
 62
     3
  5
202
 10
49.20068
 20
8.769448
 30
0.0
  0
VERTEX
  8
LY_1
  6
CONTINUOUS
 62
     3
  5
203
 10
48.971214
 20
8.539123
 30
0.0
  0
SEQEND
  8
LY_1
  6
CONTINUOUS
 62
     3
  5
204
  0
LINE
  8
LY_1
  6
CONTINUOUS
 62
     3
  5
AD
 10
48.435151
 20
16.588171
 30
0.0
 11
71.489817
 21
16.588171
 31
0.0
  0
LINE
  8
LY_1
  6
CONTINUOUS
 62
     3
  5
AE
 10
51.228357
 20
12.088171
 30
0.0
 11
71.489817
 21
12.088171
 31
0.0
  0
LINE
  8
LY_1
  6
CONTINUOUS
 62
    80
  5
AF
 10
85.026308
 20
14.713171
 30
0.0
 11
85.026308
 21
16.213171
 31
0.0
  0
LINE
  8
LY_1
  6
CONTINUOUS
 62
    80
  5
B0
 10
85.026308
 20
13.813171
 30
0.0
 11
93.571153
 21
13.813171
 31
0.0
  0
LINE
  8
LY_1
  6
CONTINUOUS
 62
    80
  5
B1
 10
85.026308
 20
16.063171
 30
0.0
 11
93.571153
 21
16.063171
 31
0.0
  0
LINE
  8
LY_1
  6
CONTINUOUS
 62
    80
  5
B2
 10
85.026308
 20
12.780485
 30
0.0
 11
93.571153
 21
12.780485
 31
0.0
  0
LINE
  8
LY_1
  6
CONTINUOUS
 62
    80
  5
B3
 10
85.026308
 20
14.863171
 30
0.0
 11
93.571153
 21
14.863171
 31
0.0
  0
LINE
  8
LY_1
  6
CONTINUOUS
 62
    80
  5
B4
 10
71.489817
 20
12.630485
 30
0.0
 11
85.026308
 21
12.630485
 31
0.0
  0
LINE
  8
LY_1
  6
CONTINUOUS
 62
    80
  5
B5
 10
71.489817
 20
16.213171
 30
0.0
 11
85.026308
 21
16.213171
 31
0.0
  0
LINE
  8
LY_1
  6
CONTINUOUS
 62
    80
  5
B6
 10
71.489817
 20
13.963171
 30
0.0
 11
85.026308
 21
13.963171
 31
0.0
  0
LINE
  8
LY_1
  6
CONTINUOUS
 62
    80
  5
B7
 10
71.489817
 20
14.713171
 30
0.0
 11
85.026308
 21
14.713171
 31
0.0
  0
LINE
  8
LY_1
  6
CONTINUOUS
 62
     3
  5
B8
 10
71.489817
 20
12.088171
 30
0.0
 11
71.489817
 21
16.588171
 31
0.0
  0
LINE
  8
LY_1
  6
CONTINUOUS
 62
    80
  5
B9
 10
85.026308
 20
12.630485
 30
0.0
 11
85.026308
 21
13.963171
 31
0.0
  0
LINE
  8
LY_1
  6
CONTINUOUS
 62
     3
  5
BA
 10
23.27738
 20
16.588171
 30
0.0
 11
44.685151
 21
16.588171
 31
0.0
  0
LINE
  8
LY_1
  6
CONTINUOUS
 62
     3
  5
BB
 10
28.346662
 20
12.088171
 30
0.0
 11
47.478357
 21
12.088171
 31
0.0
  0
ARC
  8
LY_1
  6
CONTINUOUS
 62
     3
  5
BC
 10
-36.600232
 20
26.491166
 30
0.0
 40
16.600232
 50
276.571458
 51
0.0
  0
ARC
  8
LY_1
  6
CONTINUOUS
 62
     3
  5
BD
 10
36.600232
 20
26.491166
 30
0.0
 40
16.600232
 50
180.0
 51
263.428542
  0
ARC
  8
LY_1
  6
CONTINUOUS
 62
     3
  5
BE
 10
-34.0
 20
8.0
 30
0.0
 40
2.0
 50
90.0
 51
180.0
  0
LINE
  8
LY_1
  6
CONTINUOUS
 62
     3
  5
BF
 10
-36.0
 20
0.0
 30
0.0
 11
-36.0
 21
8.0
 31
0.0
  0
ARC
  8
LY_1
  6
CONTINUOUS
 62
     3
  5
C0
 10
34.0
 20
8.0
 30
0.0
 40
2.0
 50
0.0
 51
90.0
  0
LINE
  8
LY_1
  6
CONTINUOUS
 62
     3
  5
C1
 10
-34.0
 20
10.0
 30
0.0
 11
34.0
 21
10.0
 31
0.0
  0
LINE
  8
LY_1
  6
CONTINUOUS
 62
     3
  5
C2
 10
-36.0
 20
0.0
 30
0.0
 11
36.0
 21
0.0
 31
0.0
  0
LINE
  8
LY_1
  6
CONTINUOUS
 62
     3
  5
C3
 10
36.0
 20
0.0
 30
0.0
 11
36.0
 21
8.0
 31
0.0
  0
LINE
  8
LY_1
  6
CONTINUOUS
 62
     3
  5
C4
 10
20.0
 20
26.491166
 30
0.0
 11
20.0
 21
32.0
 31
0.0
  0
LINE
  8
LY_1
  6
CONTINUOUS
 62
     3
  5
C5
 10
-20.0
 20
26.491166
 30
0.0
 11
-20.0
 21
32.0
 31
0.0
  0
LINE
  8
LY_1
  6
CONTINUOUS
 62
     3
  5
C6
 10
17.73425
 20
36.520839
 30
0.0
 11
-17.73425
 21
36.520839
 31
0.0
  0
ARC
  8
LY_1
  6
CONTINUOUS
 62
     3
  5
C7
 10
-31.011746
 20
40.347049
 30
0.0
 40
13.817807
 50
322.837391
 51
343.924467
  0
ARC
  8
LY_1
  6
CONTINUOUS
 62
     3
  5
C8
 10
31.011746
 20
40.347049
 30
0.0
 40
13.817807
 50
196.075533
 51
217.162609
  0
LINE
  8
LY_1
  6
CONTINUOUS
 62
     3
  5
C9
 10
-170.901087
 20
33.520839
 30
0.0
 11
-170.901087
 21
36.520839
 31
0.0
  0
LINE
  8
LY_1
  6
CONTINUOUS
 62
     3
  5
CA
 10
-210.901087
 20
33.520839
 30
0.0
 11
-210.901087
 21
36.520839
 31
0.0
  0
LINE
  8
LY_1
  6
DASHED
 62
    80
  5
CB
 10
-147.901087
 20
0.0
 30
0.0
 11
-147.901087
 21
10.0
 31
0.0
  0
LINE
  8
LY_1
  6
DASHED
 62
    80
  5
CC
 10
-156.901087
 20
0.0
 30
0.0
 11
-156.901087
 21
10.0
 31
0.0
  0
ARC
  8
LY_1
  6
CONTINUOUS
 62
     3
  5
CD
 10
79.4
 20
78.5
 30
0.0
 40
18.6
 50
338.294588
 51
21.705412
  0
ARC
  8
LY_1
  6
CONTINUOUS
 62
     3
  5
CE
 10
38.265052
 20
62.125916
 30
0.0
 40
62.874084
 50
21.705412
 51
90.0
  0
ARC
  8
LY_1
  6
CONTINUOUS
 62
     3
  5
CF
 10
38.265052
 20
94.874084
 30
0.0
 40
62.874084
 50
270.0
 51
338.294588
  0
CIRCLE
  8
LY_1
  6
CONTINUOUS
 62
     3
  5
D0
 10
-190.901087
 20
78.5
 30
0.0
 40
46.5
  0
CIRCLE
  8
LY_1
  6
CONTINUOUS
 62
     3
  5
D1
 10
-190.901087
 20
78.5
 30
0.0
 40
44.0
  0
LINE
  8
LY_1
  6
CONTINUOUS
 62
     3
  5
D2
 10
-74.5
 20
37.0
 30
0.0
 11
-74.5
 21
120.0
 31
0.0
  0
LINE
  8
LY_1
  6
CONTINUOUS
 62
     3
  5
D3
 10
-69.5
 20
125.0
 30
0.0
 11
38.265052
 21
125.0
 31
0.0
  0
LINE
  8
LY_1
  6
CONTINUOUS
 62
     3
  5
D4
 10
-69.5
 20
32.0
 30
0.0
 11
-20.0
 21
32.0
 31
0.0
  0
ARC
  8
LY_1
  6
CONTINUOUS
 62
     3
  5
D5
 10
3.416667
 20
78.5
 30
0.0
 40
85.416667
 50
155.810486
 51
204.189514
  0
ARC
  8
LY_1
  6
CONTINUOUS
 62
     3
  5
D6
 10
-69.5
 20
120.0
 30
0.0
 40
5.0
 50
90.0
 51
180.0
  0
ARC
  8
LY_1
  6
CONTINUOUS
 62
     3
  5
D7
 10
-69.5
 20
37.0
 30
0.0
 40
5.0
 50
180.0
 51
270.0
  0
LINE
  8
LY_1
  6
CONTINUOUS
 62
     3
  5
D8
 10
-32.5
 20
32.0
 30
0.0
 11
-32.5
 21
125.0
 31
0.0
  0
LINE
  8
LY_1
  6
CONTINUOUS
 62
     3
  5
D9
 10
-69.5
 20
70.0
 30
0.0
 11
-69.5
 21
87.0
 31
0.0
  0
LINE
  8
LY_1
  6
CONTINUOUS
 62
     3
  5
DA
 10
-64.5
 20
70.0
 30
0.0
 11
-64.5
 21
87.0
 31
0.0
  0
LINE
  8
LY_1
  6
CONTINUOUS
 62
     3
  5
DB
 10
-59.5
 20
70.0
 30
0.0
 11
-59.5
 21
87.0
 31
0.0
  0
LINE
  8
LY_1
  6
CONTINUOUS
 62
     3
  5
DC
 10
-54.5
 20
70.0
 30
0.0
 11
-54.5
 21
87.0
 31
0.0
  0
LINE
  8
LY_1
  6
CONTINUOUS
 62
     3
  5
DD
 10
-49.5
 20
70.0
 30
0.0
 11
-49.5
 21
87.0
 31
0.0
  0
LINE
  8
LY_1
  6
CONTINUOUS
 62
     3
  5
DE
 10
-44.5
 20
70.0
 30
0.0
 11
-44.5
 21
87.0
 31
0.0
  0
LINE
  8
LY_1
  6
CONTINUOUS
 62
     3
  5
DF
 10
-69.5
 20
87.0
 30
0.0
 11
-64.5
 21
87.0
 31
0.0
  0
LINE
  8
LY_1
  6
CONTINUOUS
 62
     3
  5
E0
 10
-69.5
 20
70.0
 30
0.0
 11
-64.5
 21
70.0
 31
0.0
  0
LINE
  8
LY_1
  6
CONTINUOUS
 62
     3
  5
E1
 10
-59.5
 20
87.0
 30
0.0
 11
-54.5
 21
87.0
 31
0.0
  0
LINE
  8
LY_1
  6
CONTINUOUS
 62
     3
  5
E2
 10
-49.5
 20
87.0
 30
0.0
 11
-44.5
 21
87.0
 31
0.0
  0
LINE
  8
LY_1
  6
CONTINUOUS
 62
     3
  5
E3
 10
-59.5
 20
70.0
 30
0.0
 11
-54.5
 21
70.0
 31
0.0
  0
LINE
  8
LY_1
  6
CONTINUOUS
 62
     3
  5
E4
 10
-49.5
 20
70.0
 30
0.0
 11
-44.5
 21
70.0
 31
0.0
  0
LINE
  8
LY_1
  6
CONTINUOUS
 62
     3
  5
E5
 10
-69.5
 20
85.669466
 30
0.0
 11
-64.5
 21
85.669466
 31
0.0
  0
LINE
  8
LY_1
  6
CONTINUOUS
 62
     3
  5
E6
 10
-69.5
 20
71.330534
 30
0.0
 11
-64.5
 21
71.330534
 31
0.0
  0
LINE
  8
LY_1
  6
CONTINUOUS
 62
     3
  5
E7
 10
-59.5
 20
85.669466
 30
0.0
 11
-54.5
 21
85.669466
 31
0.0
  0
LINE
  8
LY_1
  6
CONTINUOUS
 62
     3
  5
E8
 10
-59.5
 20
71.330534
 30
0.0
 11
-54.5
 21
71.330534
 31
0.0
  0
LINE
  8
LY_1
  6
CONTINUOUS
 62
     3
  5
E9
 10
-49.5
 20
85.669466
 30
0.0
 11
-44.5
 21
85.669466
 31
0.0
  0
LINE
  8
LY_1
  6
CONTINUOUS
 62
     3
  5
EA
 10
-49.5
 20
71.330534
 30
0.0
 11
-44.5
 21
71.330534
 31
0.0
  0
LINE
  8
LY_1
  6
CONTINUOUS
 62
     3
  5
EB
 10
-69.5
 20
116.836867
 30
0.0
 11
-64.5
 21
116.836867
 31
0.0
  0
LINE
  8
LY_1
  6
CONTINUOUS
 62
     3
  5
EC
 10
-69.5
 20
114.266473
 30
0.0
 11
-64.5
 21
114.266473
 31
0.0
  0
LINE
  8
LY_1
  6
CONTINUOUS
 62
     3
  5
ED
 10
-69.5
 20
104.816052
 30
0.0
 11
-64.5
 21
104.816052
 31
0.0
  0
LINE
  8
LY_1
  6
CONTINUOUS
 62
     3
  5
EE
 10
-69.5
 20
104.816052
 30
0.0
 11
-69.5
 21
116.836867
 31
0.0
  0
LINE
  8
LY_1
  6
CONTINUOUS
 62
     3
  5
EF
 10
-64.5
 20
104.816052
 30
0.0
 11
-64.5
 21
116.836867
 31
0.0
  0
LINE
  8
LY_1
  6
CONTINUOUS
 62
     3
  5
F0
 10
-54.5
 20
104.816052
 30
0.0
 11
-54.5
 21
116.836867
 31
0.0
  0
LINE
  8
LY_1
  6
CONTINUOUS
 62
     3
  5
F1
 10
-59.5
 20
104.816052
 30
0.0
 11
-59.5
 21
116.836867
 31
0.0
  0
LINE
  8
LY_1
  6
CONTINUOUS
 62
     3
  5
F2
 10
-59.5
 20
104.816052
 30
0.0
 11
-54.5
 21
104.816052
 31
0.0
  0
LINE
  8
LY_1
  6
CONTINUOUS
 62
     3
  5
F3
 10
-59.5
 20
114.266473
 30
0.0
 11
-54.5
 21
114.266473
 31
0.0
  0
LINE
  8
LY_1
  6
CONTINUOUS
 62
     3
  5
F4
 10
-59.5
 20
116.836867
 30
0.0
 11
-54.5
 21
116.836867
 31
0.0
  0
LINE
  8
LY_1
  6
CONTINUOUS
 62
     3
  5
F5
 10
-44.5
 20
104.816052
 30
0.0
 11
-44.5
 21
116.836867
 31
0.0
  0
LINE
  8
LY_1
  6
CONTINUOUS
 62
     3
  5
F6
 10
-49.5
 20
104.816052
 30
0.0
 11
-49.5
 21
116.836867
 31
0.0
  0
LINE
  8
LY_1
  6
CONTINUOUS
 62
     3
  5
F7
 10
-49.5
 20
104.816052
 30
0.0
 11
-44.5
 21
104.816052
 31
0.0
  0
LINE
  8
LY_1
  6
CONTINUOUS
 62
     3
  5
F8
 10
-49.5
 20
114.266473
 30
0.0
 11
-44.5
 21
114.266473
 31
0.0
  0
LINE
  8
LY_1
  6
CONTINUOUS
 62
     3
  5
F9
 10
-49.5
 20
116.836867
 30
0.0
 11
-44.5
 21
116.836867
 31
0.0
  0
LINE
  8
LY_1
  6
CONTINUOUS
 62
     3
  5
FA
 10
-69.5
 20
121.911966
 30
0.0
 11
-64.5
 21
121.911966
 31
0.0
  0
LINE
  8
LY_1
  6
CONTINUOUS
 62
     3
  5
FB
 10
-69.5
 20
121.911966
 30
0.0
 11
-69.5
 21
125.0
 31
0.0
  0
LINE
  8
LY_1
  6
CONTINUOUS
 62
     3
  5
FC
 10
-64.5
 20
121.911966
 30
0.0
 11
-64.5
 21
125.0
 31
0.0
  0
LINE
  8
LY_1
  6
CONTINUOUS
 62
     3
  5
FD
 10
-59.5
 20
121.911966
 30
0.0
 11
-59.5
 21
125.0
 31
0.0
  0
LINE
  8
LY_1
  6
CONTINUOUS
 62
     3
  5
FE
 10
-54.5
 20
121.911966
 30
0.0
 11
-54.5
 21
125.0
 31
0.0
  0
LINE
  8
LY_1
  6
CONTINUOUS
 62
     3
  5
FF
 10
-59.5
 20
121.911966
 30
0.0
 11
-54.5
 21
121.911966
 31
0.0
  0
LINE
  8
LY_1
  6
CONTINUOUS
 62
     3
  5
100
 10
-49.5
 20
121.911966
 30
0.0
 11
-49.5
 21
125.0
 31
0.0
  0
LINE
  8
LY_1
  6
CONTINUOUS
 62
     3
  5
101
 10
-44.5
 20
121.911966
 30
0.0
 11
-44.5
 21
125.0
 31
0.0
  0
LINE
  8
LY_1
  6
CONTINUOUS
 62
     3
  5
102
 10
-49.5
 20
121.911966
 30
0.0
 11
-44.5
 21
121.911966
 31
0.0
  0
LINE
  8
LY_1
  6
CONTINUOUS
 62
     3
  5
103
 10
-69.5
 20
35.088034
 30
0.0
 11
-69.5
 21
32.0
 31
0.0
  0
LINE
  8
LY_1
  6
CONTINUOUS
 62
     3
  5
104
 10
-64.5
 20
35.088034
 30
0.0
 11
-64.5
 21
32.0
 31
0.0
  0
LINE
  8
LY_1
  6
CONTINUOUS
 62
     3
  5
105
 10
-59.5
 20
35.088034
 30
0.0
 11
-59.5
 21
32.0
 31
0.0
  0
LINE
  8
LY_1
  6
CONTINUOUS
 62
     3
  5
106
 10
-54.5
 20
35.088034
 30
0.0
 11
-54.5
 21
32.0
 31
0.0
  0
LINE
  8
LY_1
  6
CONTINUOUS
 62
     3
  5
107
 10
-49.5
 20
35.088034
 30
0.0
 11
-49.5
 21
32.0
 31
0.0
  0
LINE
  8
LY_1
  6
CONTINUOUS
 62
     3
  5
108
 10
-44.5
 20
35.088034
 30
0.0
 11
-44.5
 21
32.0
 31
0.0
  0
LINE
  8
LY_1
  6
CONTINUOUS
 62
     3
  5
109
 10
-49.5
 20
35.088034
 30
0.0
 11
-44.5
 21
35.088034
 31
0.0
  0
LINE
  8
LY_1
  6
CONTINUOUS
 62
     3
  5
10A
 10
-59.5
 20
35.088034
 30
0.0
 11
-54.5
 21
35.088034
 31
0.0
  0
LINE
  8
LY_1
  6
CONTINUOUS
 62
     3
  5
10B
 10
-69.5
 20
35.088034
 30
0.0
 11
-64.5
 21
35.088034
 31
0.0
  0
LINE
  8
LY_1
  6
CONTINUOUS
 62
     3
  5
10C
 10
-49.5
 20
40.163133
 30
0.0
 11
-44.5
 21
40.163133
 31
0.0
  0
LINE
  8
LY_1
  6
CONTINUOUS
 62
     3
  5
10D
 10
-49.5
 20
42.733527
 30
0.0
 11
-44.5
 21
42.733527
 31
0.0
  0
LINE
  8
LY_1
  6
CONTINUOUS
 62
     3
  5
10E
 10
-49.5
 20
52.183948
 30
0.0
 11
-44.5
 21
52.183948
 31
0.0
  0
LINE
  8
LY_1
  6
CONTINUOUS
 62
     3
  5
10F
 10
-49.5
 20
52.183948
 30
0.0
 11
-49.5
 21
40.163133
 31
0.0
  0
LINE
  8
LY_1
  6
CONTINUOUS
 62
     3
  5
110
 10
-44.5
 20
52.183948
 30
0.0
 11
-44.5
 21
40.163133
 31
0.0
  0
LINE
  8
LY_1
  6
CONTINUOUS
 62
     3
  5
111
 10
-59.5
 20
40.163133
 30
0.0
 11
-54.5
 21
40.163133
 31
0.0
  0
LINE
  8
LY_1
  6
CONTINUOUS
 62
     3
  5
112
 10
-59.5
 20
42.733527
 30
0.0
 11
-54.5
 21
42.733527
 31
0.0
  0
LINE
  8
LY_1
  6
CONTINUOUS
 62
     3
  5
113
 10
-59.5
 20
52.183948
 30
0.0
 11
-54.5
 21
52.183948
 31
0.0
  0
LINE
  8
LY_1
  6
CONTINUOUS
 62
     3
  5
114
 10
-59.5
 20
52.183948
 30
0.0
 11
-59.5
 21
40.163133
 31
0.0
  0
LINE
  8
LY_1
  6
CONTINUOUS
 62
     3
  5
115
 10
-54.5
 20
52.183948
 30
0.0
 11
-54.5
 21
40.163133
 31
0.0
  0
LINE
  8
LY_1
  6
CONTINUOUS
 62
     3
  5
116
 10
-64.5
 20
52.183948
 30
0.0
 11
-64.5
 21
40.163133
 31
0.0
  0
LINE
  8
LY_1
  6
CONTINUOUS
 62
     3
  5
117
 10
-69.5
 20
52.183948
 30
0.0
 11
-69.5
 21
40.163133
 31
0.0
  0
LINE
  8
LY_1
  6
CONTINUOUS
 62
     3
  5
118
 10
-69.5
 20
52.183948
 30
0.0
 11
-64.5
 21
52.183948
 31
0.0
  0
LINE
  8
LY_1
  6
CONTINUOUS
 62
     3
  5
119
 10
-69.5
 20
42.733527
 30
0.0
 11
-64.5
 21
42.733527
 31
0.0
  0
LINE
  8
LY_1
  6
CONTINUOUS
 62
     3
  5
11A
 10
-69.5
 20
40.163133
 30
0.0
 11
-64.5
 21
40.163133
 31
0.0
  0
CIRCLE
  8
LY_1
  6
CONTINUOUS
 62
     3
  5
11B
 10
-190.901087
 20
78.5
 30
0.0
 40
6.0
  0
ARC
  8
LY_1
  6
CONTINUOUS
 62
     3
  5
11C
 10
-190.901087
 20
78.5
 30
0.0
 40
12.0
 50
353.665413
 51
66.334587
  0
ARC
  8
LY_1
  6
CONTINUOUS
 62
     3
  5
11D
 10
-190.901087
 20
78.5
 30
0.0
 40
19.0
 50
353.665413
 51
66.334587
  0
ARC
  8
LY_1
  6
CONTINUOUS
 62
     3
  5
11E
 10
-184.679466
 20
92.696529
 30
0.0
 40
3.5
 50
66.334587
 51
246.334587
  0
ARC
  8
LY_1
  6
CONTINUOUS
 62
     3
  5
11F
 10
-175.495722
 20
76.789818
 30
0.0
 40
3.5
 50
173.665413
 51
353.665413
  0
ARC
  8
LY_1
  6
CONTINUOUS
 62
     3
  5
120
 10
-190.901087
 20
78.5
 30
0.0
 40
19.0
 50
113.665413
 51
186.334587
  0
ARC
  8
LY_1
  6
CONTINUOUS
 62
     3
  5
121
 10
-197.122709
 20
92.696529
 30
0.0
 40
3.5
 50
293.665413
 51
113.665413
  0
ARC
  8
LY_1
  6
CONTINUOUS
 62
     3
  5
122
 10
-190.901087
 20
78.5
 30
0.0
 40
12.0
 50
113.665413
 51
186.334587
  0
ARC
  8
LY_1
  6
CONTINUOUS
 62
     3
  5
123
 10
-206.306453
 20
76.789818
 30
0.0
 40
3.5
 50
186.334587
 51
6.334587
  0
ARC
  8
LY_1
  6
CONTINUOUS
 62
     3
  5
124
 10
-190.901087
 20
78.5
 30
0.0
 40
19.0
 50
233.665413
 51
306.334587
  0
ARC
  8
LY_1
  6
CONTINUOUS
 62
     3
  5
125
 10
-200.084831
 20
66.013653
 30
0.0
 40
3.5
 50
53.665413
 51
233.665413
  0
ARC
  8
LY_1
  6
CONTINUOUS
 62
     3
  5
126
 10
-190.901087
 20
78.5
 30
0.0
 40
12.0
 50
233.665413
 51
306.334587
  0
ARC
  8
LY_1
  6
CONTINUOUS
 62
     3
  5
127
 10
-181.717344
 20
66.013653
 30
0.0
 40
3.5
 50
306.334587
 51
126.334587
  0
ARC
  8
LY_1
  6
CONTINUOUS
 62
     3
  5
128
 10
-190.901087
 20
78.5
 30
0.0
 40
24.5
 50
12.656716
 51
47.343284
  0
ARC
  8
LY_1
  6
CONTINUOUS
 62
     3
  5
129
 10
-190.901087
 20
78.5
 30
0.0
 40
32.5
 50
12.656716
 51
47.343284
  0
ARC
  8
LY_1
  6
CONTINUOUS
 62
     3
  5
12A
 10
-163.093627
 20
84.744612
 30
0.0
 40
4.0
 50
192.656716
 51
12.656716
  0
ARC
  8
LY_1
  6
CONTINUOUS
 62
     3
  5
12B
 10
-171.589365
 20
99.459661
 30
0.0
 40
4.0
 50
47.343284
 51
227.343284
  0
ARC
  8
LY_1
  6
CONTINUOUS
 62
     3
  5
12C
 10
-190.901087
 20
78.5
 30
0.0
 40
32.5
 50
72.656716
 51
107.343284
  0
ARC
  8
LY_1
  6
CONTINUOUS
 62
     3
  5
12D
 10
-199.396825
 20
105.704272
 30
0.0
 40
4.0
 50
107.343284
 51
287.343284
  0
ARC
  8
LY_1
  6
CONTINUOUS
 62
     3
  5
12E
 10
-182.40535
 20
105.704272
 30
0.0
 40
4.0
 50
252.656716
 51
72.656716
  0
ARC
  8
LY_1
  6
CONTINUOUS
 62
     3
  5
12F
 10
-190.901087
 20
78.5
 30
0.0
 40
24.5
 50
72.656716
 51
107.343284
  0
ARC
  8
LY_1
  6
CONTINUOUS
 62
     3
  5
130
 10
-190.901087
 20
78.5
 30
0.0
 40
32.5
 50
132.656716
 51
167.343284
  0
ARC
  8
LY_1
  6
CONTINUOUS
 62
     3
  5
131
 10
-218.708547
 20
84.744612
 30
0.0
 40
4.0
 50
167.343284
 51
347.343284
  0
ARC
  8
LY_1
  6
CONTINUOUS
 62
     3
  5
132
 10
-210.21281
 20
99.459661
 30
0.0
 40
4.0
 50
312.656716
 51
132.656716
  0
ARC
  8
LY_1
  6
CONTINUOUS
 62
     3
  5
133
 10
-190.901087
 20
78.5
 30
0.0
 40
24.5
 50
132.656716
 51
167.343284
  0
ARC
  8
LY_1
  6
CONTINUOUS
 62
     3
  5
134
 10
-190.901087
 20
78.5
 30
0.0
 40
32.5
 50
192.656716
 51
227.343284
  0
ARC
  8
LY_1
  6
CONTINUOUS
 62
     3
  5
135
 10
-210.21281
 20
57.540339
 30
0.0
 40
4.0
 50
227.343284
 51
47.343284
  0
ARC
  8
LY_1
  6
CONTINUOUS
 62
     3
  5
136
 10
-218.708547
 20
72.255388
 30
0.0
 40
4.0
 50
12.656716
 51
192.656716
  0
ARC
  8
LY_1
  6
CONTINUOUS
 62
     3
  5
137
 10
-190.901087
 20
78.5
 30
0.0
 40
24.5
 50
192.656716
 51
227.343284
  0
ARC
  8
LY_1
  6
CONTINUOUS
 62
     3
  5
138
 10
-190.901087
 20
78.5
 30
0.0
 40
32.5
 50
252.656716
 51
287.343284
  0
ARC
  8
LY_1
  6
CONTINUOUS
 62
     3
  5
139
 10
-182.40535
 20
51.295728
 30
0.0
 40
4.0
 50
287.343284
 51
107.343284
  0
ARC
  8
LY_1
  6
CONTINUOUS
 62
     3
  5
13A
 10
-199.396825
 20
51.295728
 30
0.0
 40
4.0
 50
72.656716
 51
252.656716
  0
ARC
  8
LY_1
  6
CONTINUOUS
 62
     3
  5
13B
 10
-190.901087
 20
78.5
 30
0.0
 40
24.5
 50
252.656716
 51
287.343284
  0
ARC
  8
LY_1
  6
CONTINUOUS
 62
     3
  5
13C
 10
-190.901087
 20
78.5
 30
0.0
 40
32.5
 50
312.656716
 51
347.343284
  0
ARC
  8
LY_1
  6
CONTINUOUS
 62
     3
  5
13D
 10
-163.093627
 20
72.255388
 30
0.0
 40
4.0
 50
347.343284
 51
167.343284
  0
ARC
  8
LY_1
  6
CONTINUOUS
 62
     3
  5
13E
 10
-171.589365
 20
57.540339
 30
0.0
 40
4.0
 50
132.656716
 51
312.656716
  0
ARC
  8
LY_1
  6
CONTINUOUS
 62
     3
  5
13F
 10
-190.901087
 20
78.5
 30
0.0
 40
24.5
 50
312.656716
 51
347.343284
  0
LINE
  8
LY_1
  6
CONTINUOUS
 62
     3
  5
140
 10
-209.841784
 20
80.0
 30
0.0
 11
-202.806968
 21
80.0
 31
0.0
  0
LINE
  8
LY_1
  6
CONTINUOUS
 62
     3
  5
141
 10
-209.841784
 20
77.0
 30
0.0
 11
-202.812769
 21
77.0
 31
0.0
  0
LINE
  8
LY_1
  6
CONTINUOUS
 62
     3
  5
142
 10
-214.918228
 20
56.60418
 30
0.0
 11
-209.253364
 21
62.269044
 31
0.0
  0
LINE
  8
LY_1
  6
CONTINUOUS
 62
     3
  5
143
 10
-212.794625
 20
54.485142
 30
0.0
 11
-207.157613
 21
60.122154
 31
0.0
  0
LINE
  8
LY_1
  6
CONTINUOUS
 62
     3
  5
144
 10
-192.401087
 20
46.034634
 30
0.0
 11
-192.401087
 21
54.045961
 31
0.0
  0
LINE
  8
LY_1
  6
CONTINUOUS
 62
     3
  5
145
 10
-189.401087
 20
46.034634
 30
0.0
 11
-189.401087
 21
54.045961
 31
0.0
  0
LINE
  8
LY_1
  6
CONTINUOUS
 62
     3
  5
146
 10
-169.005267
 20
54.482859
 30
0.0
 11
-174.644562
 21
60.122155
 31
0.0
  0
LINE
  8
LY_1
  6
CONTINUOUS
 62
     3
  5
147
 10
-166.883947
 20
56.60418
 30
0.0
 11
-172.548811
 21
62.269044
 31
0.0
  0
LINE
  8
LY_1
  6
CONTINUOUS
 62
     3
  5
148
 10
-178.995206
 20
80.0
 30
0.0
 11
-171.96039
 21
80.0
 31
0.0
  0
LINE
  8
LY_1
  6
CONTINUOUS
 62
     3
  5
149
 10
-178.989406
 20
77.0
 30
0.0
 11
-171.96039
 21
77.0
 31
0.0
  0
LINE
  8
LY_1
  6
CONTINUOUS
 62
     3
  5
14A
 10
-183.543018
 20
87.979389
 30
0.0
 11
-178.568652
 21
92.953755
 31
0.0
  0
LINE
  8
LY_1
  6
CONTINUOUS
 62
     3
  5
14B
 10
-181.421698
 20
85.858069
 30
0.0
 11
-176.447332
 21
90.832435
 31
0.0
  0
LINE
  8
LY_1
  6
CONTINUOUS
 62
     3
  5
14C
 10
-192.401087
 20
102.954039
 30
0.0
 11
-192.401087
 21
110.965366
 31
0.0
  0
LINE
  8
LY_1
  6
CONTINUOUS
 62
     3
  5
14D
 10
-189.401087
 20
102.954039
 30
0.0
 11
-189.401087
 21
110.965366
 31
0.0
  0
LINE
  8
LY_1
  6
CONTINUOUS
 62
     3
  5
14E
 10
-200.380477
 20
85.858069
 30
0.0
 11
-205.354843
 21
90.832435
 31
0.0
  0
LINE
  8
LY_1
  6
CONTINUOUS
 62
     3
  5
14F
 10
-198.259156
 20
87.979389
 30
0.0
 11
-203.233522
 21
92.953755
 31
0.0
  0
LINE
  8
LY_1
  6
CONTINUOUS
 62
     3
  5
150
 10
-209.253364
 20
94.730956
 30
0.0
 11
-214.918228
 21
100.39582
 31
0.0
  0
LINE
  8
LY_1
  6
CONTINUOUS
 62
     3
  5
151
 10
-207.157613
 20
96.877846
 30
0.0
 11
-212.796908
 21
102.517141
 31
0.0
  0
LINE
  8
LY_1
  6
CONTINUOUS
 62
     3
  5
152
 10
-172.548811
 20
94.730956
 30
0.0
 11
-166.883947
 21
100.39582
 31
0.0
  0
LINE
  8
LY_1
  6
CONTINUOUS
 62
     3
  5
153
 10
-174.644562
 20
96.877846
 30
0.0
 11
-169.005267
 21
102.517141
 31
0.0
  0
LINE
  8
LY_1
  6
CONTINUOUS
 62
     3
  5
154
 10
-178.723342
 20
64.200934
 30
0.0
 11
-183.530063
 21
69.007655
 31
0.0
  0
LINE
  8
LY_1
  6
CONTINUOUS
 62
     3
  5
155
 10
-192.401087
 20
59.559303
 30
0.0
 11
-192.401087
 21
66.594119
 31
0.0
  0
LINE
  8
LY_1
  6
CONTINUOUS
 62
     3
  5
156
 10
-189.401087
 20
59.559303
 30
0.0
 11
-189.401087
 21
66.594119
 31
0.0
  0
LINE
  8
LY_1
  6
CONTINUOUS
 62
     3
  5
157
 10
-203.078833
 20
64.200934
 30
0.0
 11
-198.272112
 21
69.007655
 31
0.0
  0
LINE
  8
LY_1
  6
CONTINUOUS
 62
     3
  5
158
 10
-238.401087
 20
0.0
 30
0.0
 11
-143.401087
 21
0.0
 31
0.0
  0
LINE
  8
LY_1
  6
CONTINUOUS
 62
     3
  5
159
 10
-238.401087
 20
0.0
 30
0.0
 11
-238.401087
 21
7.0
 31
0.0
  0
LINE
  8
LY_1
  6
CONTINUOUS
 62
     3
  5
15A
 10
-143.401087
 20
0.0
 30
0.0
 11
-143.401087
 21
7.0
 31
0.0
  0
LINE
  8
LY_1
  6
CONTINUOUS
 62
     3
  5
15B
 10
-235.401087
 20
10.0
 30
0.0
 11
-146.401087
 21
10.0
 31
0.0
  0
ARC
  8
LY_1
  6
CONTINUOUS
 62
     3
  5
15C
 10
-235.401087
 20
7.0
 30
0.0
 40
3.0
 50
90.0
 51
180.0
  0
ARC
  8
LY_1
  6
CONTINUOUS
 62
     3
  5
15D
 10
-146.401087
 20
7.0
 30
0.0
 40
3.0
 50
0.0
 51
90.0
  0
ARC
  8
LY_1
  6
CONTINUOUS
 62
     3
  5
15E
 10
-147.380249
 20
33.520839
 30
0.0
 40
23.520839
 50
178.775695
 51
270.0
  0
ARC
  8
LY_1
  6
CONTINUOUS
 62
     3
  5
15F
 10
-234.421926
 20
33.520839
 30
0.0
 40
23.520839
 50
270.0
 51
1.224305
  0
LINE
  8
LY_1
  6
DASHED
 62
    80
  5
160
 10
-233.901087
 20
0.0
 30
0.0
 11
-233.901087
 21
10.0
 31
0.0
  0
LINE
  8
LY_1
  6
DASHED
 62
    80
  5
161
 10
-224.901087
 20
0.0
 30
0.0
 11
-224.901087
 21
10.0
 31
0.0
  0
LINE
  8
LY_1
  6
CONTINUOUS
 62
     3
  5
162
 10
20.0
 20
32.0
 30
0.0
 11
38.265052
 21
32.0
 31
0.0
  0
ARC
  8
LY_1
  6
CONTINUOUS
 62
     3
  5
163
 10
-193.201075
 20
126.674939
 30
0.0
 40
1.2
 50
115.719277
 51
179.999997
  0
ARC
  8
LY_1
  6
CONTINUOUS
 62
     3
  5
164
 10
-188.6011
 20
126.674939
 30
0.0
 40
1.2
 50
0.000003
 51
64.280723
  0
ARC
  8
LY_1
  6
CONTINUOUS
 62
     3
  5
165
 10
-190.901087
 20
121.900037
 30
0.0
 40
6.5
 50
64.280723
 51
115.719274
  0
LINE
  8
LY_1
  6
CONTINUOUS
 62
     3
  5
166
 10
-194.401087
 20
126.674939
 30
0.0
 11
-194.401087
 21
125.0
 31
0.0
  0
LINE
  8
LY_1
  6
CONTINUOUS
 62
     3
  5
167
 10
-187.401087
 20
125.8
 30
0.0
 11
-194.401087
 21
125.8
 31
0.0
  0
LINE
  8
LY_1
  6
CONTINUOUS
 62
     3
  5
168
 10
-187.401087
 20
126.674939
 30
0.0
 11
-187.401087
 21
125.0
 31
0.0
  0
LINE
  8
LY_1
  6
CONTINUOUS
 62
     3
  5
169
 10
-187.401087
 20
125.0
 30
0.0
 11
-194.401087
 21
125.0
 31
0.0
  0
ARC
  8
LY_1
  6
CONTINUOUS
 62
     3
  5
16A
 10
-239.076026
 20
76.200012
 30
0.0
 40
1.2
 50
205.719277
 51
269.999997
  0
ARC
  8
LY_1
  6
CONTINUOUS
 62
     3
  5
16B
 10
-239.076026
 20
80.799988
 30
0.0
 40
1.2
 50
90.000003
 51
154.280723
  0
ARC
  8
LY_1
  6
CONTINUOUS
 62
     3
  5
16C
 10
-234.301124
 20
78.5
 30
0.0
 40
6.5
 50
154.280723
 51
205.719274
  0
LINE
  8
LY_1
  6
CONTINUOUS
 62
     3
  5
16D
 10
-239.076026
 20
75.0
 30
0.0
 11
-237.401087
 21
75.0
 31
0.0
  0
LINE
  8
LY_1
  6
CONTINUOUS
 62
     3
  5
16E
 10
-238.201087
 20
82.0
 30
0.0
 11
-238.201087
 21
75.0
 31
0.0
  0
LINE
  8
LY_1
  6
CONTINUOUS
 62
     3
  5
16F
 10
-239.076026
 20
82.0
 30
0.0
 11
-237.401087
 21
82.0
 31
0.0
  0
LINE
  8
LY_1
  6
CONTINUOUS
 62
     3
  5
170
 10
-237.401087
 20
82.0
 30
0.0
 11
-237.401087
 21
75.0
 31
0.0
  0
ARC
  8
LY_1
  6
CONTINUOUS
 62
     3
  5
171
 10
-142.726148
 20
80.799988
 30
0.0
 40
1.2
 50
25.719277
 51
89.999997
  0
ARC
  8
LY_1
  6
CONTINUOUS
 62
     3
  5
172
 10
-142.726148
 20
76.200012
 30
0.0
 40
1.2
 50
270.000003
 51
334.280723
  0
ARC
  8
LY_1
  6
CONTINUOUS
 62
     3
  5
173
 10
-147.501051
 20
78.5
 30
0.0
 40
6.5
 50
334.280723
 51
25.719274
  0
LINE
  8
LY_1
  6
CONTINUOUS
 62
     3
  5
174
 10
-142.726148
 20
82.0
 30
0.0
 11
-144.401087
 21
82.0
 31
0.0
  0
LINE
  8
LY_1
  6
CONTINUOUS
 62
     3
  5
175
 10
-143.601087
 20
75.0
 30
0.0
 11
-143.601087
 21
82.0
 31
0.0
  0
LINE
  8
LY_1
  6
CONTINUOUS
 62
     3
  5
176
 10
-142.726148
 20
75.0
 30
0.0
 11
-144.401087
 21
75.0
 31
0.0
  0
LINE
  8
LY_1
  6
CONTINUOUS
 62
     3
  5
177
 10
-144.401087
 20
75.0
 30
0.0
 11
-144.401087
 21
82.0
 31
0.0
  0
ARC
  8
LY_1
  6
CONTINUOUS
 62
     3
  5
178
 10
-28.994995
 20
77.005005
 30
0.0
 40
0.92
 50
359.999995
 51
89.999997
  0
ARC
  8
LY_1
  6
CONTINUOUS
 62
     3
  5
179
 10
-26.005005
 20
77.005005
 30
0.0
 40
0.92
 50
89.999997
 51
180.0
  0
ARC
  8
LY_1
  6
CONTINUOUS
 62
     3
  5
17A
 10
-28.994995
 20
79.994995
 30
0.0
 40
0.92
 50
270.000003
 51
0.000005
  0
CIRCLE
  8
LY_1
  6
CONTINUOUS
 62
     3
  5
17B
 10
-27.5
 20
78.5
 30
0.0
 40
3.5
  0
ARC
  8
LY_1
  6
CONTINUOUS
 62
     3
  5
17C
 10
-26.005005
 20
79.994995
 30
0.0
 40
0.92
 50
180.0
 51
270.000003
  0
LINE
  8
LY_1
  6
CONTINUOUS
 62
     3
  5
17D
 10
-28.994995
 20
77.924988
 30
0.0
 11
-29.799988
 21
77.924988
 31
0.0
  0
LINE
  8
LY_1
  6
CONTINUOUS
 62
     3
  5
17E
 10
-28.075012
 20
77.005005
 30
0.0
 11
-28.075012
 21
76.200012
 31
0.0
  0
LINE
  8
LY_1
  6
CONTINUOUS
 62
     3
  5
17F
 10
-26.924988
 20
77.005005
 30
0.0
 11
-26.924988
 21
76.200012
 31
0.0
  0
LINE
  8
LY_1
  6
CONTINUOUS
 62
     3
  5
180
 10
-25.200012
 20
77.924988
 30
0.0
 11
-26.005005
 21
77.924988
 31
0.0
  0
LINE
  8
LY_1
  6
CONTINUOUS
 62
     3
  5
181
 10
-26.924988
 20
76.200012
 30
0.0
 11
-28.075012
 21
76.200012
 31
0.0
  0
LINE
  8
LY_1
  6
CONTINUOUS
 62
     3
  5
182
 10
-25.200012
 20
79.075012
 30
0.0
 11
-25.200012
 21
77.924988
 31
0.0
  0
LINE
  8
LY_1
  6
CONTINUOUS
 62
     3
  5
183
 10
-26.924988
 20
80.799988
 30
0.0
 11
-26.924988
 21
79.994995
 31
0.0
  0
LINE
  8
LY_1
  6
CONTINUOUS
 62
     3
  5
184
 10
-28.994995
 20
79.075012
 30
0.0
 11
-29.799988
 21
79.075012
 31
0.0
  0
LINE
  8
LY_1
  6
CONTINUOUS
 62
     3
  5
185
 10
-28.075012
 20
80.799988
 30
0.0
 11
-28.075012
 21
79.994995
 31
0.0
  0
LINE
  8
LY_1
  6
CONTINUOUS
 62
     3
  5
186
 10
-26.924988
 20
80.799988
 30
0.0
 11
-28.075012
 21
80.799988
 31
0.0
  0
LINE
  8
LY_1
  6
CONTINUOUS
 62
     3
  5
187
 10
-29.799988
 20
79.075012
 30
0.0
 11
-29.799988
 21
77.924988
 31
0.0
  0
LINE
  8
LY_1
  6
CONTINUOUS
 62
     3
  5
188
 10
-25.200012
 20
79.075012
 30
0.0
 11
-26.005005
 21
79.075012
 31
0.0
  0
ARC
  8
LY_1
  6
CONTINUOUS
 62
     3
  5
189
 10
-36.005005
 20
77.005005
 30
0.0
 40
0.92
 50
90.000003
 51
180.000005
  0
ARC
  8
LY_1
  6
CONTINUOUS
 62
     3
  5
18A
 10
-38.994995
 20
77.005005
 30
0.0
 40
0.92
 50
0.0
 51
90.000003
  0
ARC
  8
LY_1
  6
CONTINUOUS
 62
     3
  5
18B
 10
-36.005005
 20
79.994995
 30
0.0
 40
0.92
 50
179.999995
 51
269.999997
  0
CIRCLE
  8
LY_1
  6
CONTINUOUS
 62
     3
  5
18C
 10
-37.5
 20
78.5
 30
0.0
 40
3.5
  0
ARC
  8
LY_1
  6
CONTINUOUS
 62
     3
  5
18D
 10
-38.994995
 20
79.994995
 30
0.0
 40
0.92
 50
269.999997
 51
0.0
  0
LINE
  8
LY_1
  6
CONTINUOUS
 62
     3
  5
18E
 10
-36.005005
 20
77.924988
 30
0.0
 11
-35.200012
 21
77.924988
 31
0.0
  0
LINE
  8
LY_1
  6
CONTINUOUS
 62
     3
  5
18F
 10
-36.924988
 20
77.005005
 30
0.0
 11
-36.924988
 21
76.200012
 31
0.0
  0
LINE
  8
LY_1
  6
CONTINUOUS
 62
     3
  5
190
 10
-38.075012
 20
77.005005
 30
0.0
 11
-38.075012
 21
76.200012
 31
0.0
  0
LINE
  8
LY_1
  6
CONTINUOUS
 62
     3
  5
191
 10
-39.799988
 20
77.924988
 30
0.0
 11
-38.994995
 21
77.924988
 31
0.0
  0
LINE
  8
LY_1
  6
CONTINUOUS
 62
     3
  5
192
 10
-38.075012
 20
76.200012
 30
0.0
 11
-36.924988
 21
76.200012
 31
0.0
  0
LINE
  8
LY_1
  6
CONTINUOUS
 62
     3
  5
193
 10
-39.799988
 20
79.075012
 30
0.0
 11
-39.799988
 21
77.924988
 31
0.0
  0
LINE
  8
LY_1
  6
CONTINUOUS
 62
     3
  5
194
 10
-38.075012
 20
80.799988
 30
0.0
 11
-38.075012
 21
79.994995
 31
0.0
  0
LINE
  8
LY_1
  6
CONTINUOUS
 62
     3
  5
195
 10
-36.005005
 20
79.075012
 30
0.0
 11
-35.200012
 21
79.075012
 31
0.0
  0
LINE
  8
LY_1
  6
CONTINUOUS
 62
     3
  5
196
 10
-36.924988
 20
80.799988
 30
0.0
 11
-36.924988
 21
79.994995
 31
0.0
  0
LINE
  8
LY_1
  6
CONTINUOUS
 62
     3
  5
197
 10
-38.075012
 20
80.799988
 30
0.0
 11
-36.924988
 21
80.799988
 31
0.0
  0
LINE
  8
LY_1
  6
CONTINUOUS
 62
     3
  5
198
 10
-35.200012
 20
79.075012
 30
0.0
 11
-35.200012
 21
77.924988
 31
0.0
  0
LINE
  8
LY_1
  6
CONTINUOUS
 62
     3
  5
199
 10
-39.799988
 20
79.075012
 30
0.0
 11
-38.994995
 21
79.075012
 31
0.0
  0
ARC
  8
LY_1
  6
CONTINUOUS
 62
     3
  5
19A
 10
-29.799988
 20
126.674939
 30
0.0
 40
1.2
 50
115.719277
 51
179.999997
  0
ARC
  8
LY_1
  6
CONTINUOUS
 62
     3
  5
19B
 10
-25.200012
 20
126.674939
 30
0.0
 40
1.2
 50
0.000003
 51
64.280723
  0
ARC
  8
LY_1
  6
CONTINUOUS
 62
     3
  5
19C
 10
-27.5
 20
121.900037
 30
0.0
 40
6.5
 50
64.280723
 51
115.719274
  0
LINE
  8
LY_1
  6
CONTINUOUS
 62
     3
  5
19D
 10
-31.0
 20
126.674939
 30
0.0
 11
-31.0
 21
125.0
 31
0.0
  0
LINE
  8
LY_1
  6
CONTINUOUS
 62
     3
  5
19E
 10
-24.0
 20
125.8
 30
0.0
 11
-31.0
 21
125.8
 31
0.0
  0
LINE
  8
LY_1
  6
CONTINUOUS
 62
     3
  5
19F
 10
-24.0
 20
126.674939
 30
0.0
 11
-24.0
 21
125.0
 31
0.0
  0
ENDSEC
  0
EOF
