  0
SECTION
  2
HEADER
  9
$ACADVER
  1
AC1009
  9
$DWGCODEPAGE
  3
dos932
  9
$INSBASE
 10
0.0
 20
0.0
 30
0.0
  9
$EXTMIN
 10
-76.284577
 20
-221.79279
 30
0.0
  9
$EXTMAX
 10
65.0
 20
404.0
 30
0.0
  9
$LIMMIN
 10
-76.284577
 20
-221.79279
  9
$LIMMAX
 10
65.0
 20
404.0
  9
$ORTHOMODE
 70
     0
  9
$REGENMODE
 70
     1
  9
$FILLMODE
 70
     1
  9
$QTEXTMODE
 70
     0
  9
$MIRRTEXT
 70
     1
  9
$DRAGMODE
 70
     2
  9
$LTSCALE
 40
1.0
  9
$OSMODE
 70
     0
  9
$ATTMODE
 70
     1
  9
$TEXTSIZE
 40
4.1656
  9
$TRACEWID
 40
0.05
  9
$TEXTSTYLE
  7
MX_NOTE_STANDARD
  9
$CLAYER
  8
LY_1
  9
$CELTYPE
  6
CONTINUOUS
  9
$CECOLOR
 62
   256
  9
$DIMSCALE
 40
1.0
  9
$DIMASZ
 40
2.5
  9
$DIMEXO
 40
0.5
  9
$DIMDLI
 40
3.75
  9
$DIMRND
 40
0.0
  9
$DIMDLE
 40
0.0
  9
$DIMEXE
 40
1.0
  9
$DIMTP
 40
0.0
  9
$DIMTM
 40
0.0
  9
$DIMTXT
 40
2.5
  9
$DIMCEN
 40
2.5
  9
$DIMTSZ
 40
0.0
  9
$DIMTOL
 70
     0
  9
$DIMLIM
 70
     0
  9
$DIMTIH
 70
     0
  9
$DIMTOH
 70
     0
  9
$DIMSE1
 70
     0
  9
$DIMSE2
 70
     0
  9
$DIMTAD
 70
     1
  9
$DIMZIN
 70
     8
  9
$DIMBLK
  1

  9
$DIMASO
 70
     1
  9
$DIMSHO
 70
     1
  9
$DIMPOST
  1

  9
$DIMAPOST
  1

  9
$DIMALT
 70
     0
  9
$DIMALTD
 70
     4
  9
$DIMALTF
 40
0.03937
  9
$DIMLFAC
 40
1.0
  9
$DIMTOFL
 70
     1
  9
$DIMTVP
 40
0.0
  9
$DIMTIX
 70
     0
  9
$DIMSOXD
 70
     0
  9
$DIMSAH
 70
     0
  9
$DIMBLK1
  1

  9
$DIMBLK2
  1

  9
$DIMSTYLE
  2
MXDIMSTYLE
  9
$DIMCLRD
 70
     0
  9
$DIMCLRE
 70
     0
  9
$DIMCLRT
 70
     0
  9
$DIMTFAC
 40
1.0
  9
$DIMGAP
 40
1.0
  9
$LUNITS
 70
     2
  9
$LUPREC
 70
     4
  9
$AXISMODE
 70
     0
  9
$AXISUNIT
 10
0.0
 20
0.0
  9
$SKETCHINC
 40
0.1
  9
$FILLETRAD
 40
0.0
  9
$AUNITS
 70
     0
  9
$AUPREC
 70
     0
  9
$MENU
  1
acad
  9
$ELEVATION
 40
0.0
  9
$PELEVATION
 40
0.0
  9
$THICKNESS
 40
0.0
  9
$LIMCHECK
 70
     0
  9
$BLIPMODE
 70
     1
  9
$CHAMFERA
 40
0.0
  9
$CHAMFERB
 40
0.0
  9
$SKPOLY
 70
     0
  9
$TDCREATE
 40
2453676.661006944
  9
$TDUPDATE
 40
2453676.661006944
  9
$TDINDWG
 40
0.0000000000
  9
$TDUSRTIMER
 40
0.0000000000
  9
$USRTIMER
 70
     1
  9
$ANGBASE
 50
0.0
  9
$ANGDIR
 70
     0
  9
$PDMODE
 70
     0
  9
$PDSIZE
 40
0.0
  9
$PLINEWID
 40
0.0
  9
$COORDS
 70
     1
  9
$SPLFRAME
 70
     0
  9
$SPLINETYPE
 70
     6
  9
$SPLINESEGS
 70
     8
  9
$ATTDIA
 70
     0
  9
$ATTREQ
 70
     1
  9
$HANDLING
 70
     1
  9
$HANDSEED
  5
12D
  9
$SURFTAB1
 70
     6
  9
$SURFTAB2
 70
     6
  9
$SURFTYPE
 70
     6
  9
$SURFU
 70
     6
  9
$SURFV
 70
     6
  9
$UCSNAME
  2

  9
$UCSORG
 10
0.0
 20
0.0
 30
0.0
  9
$UCSXDIR
 10
1.0
 20
0.0
 30
0.0
  9
$UCSYDIR
 10
0.0
 20
1.0
 30
0.0
  9
$PUCSNAME
  2

  9
$PUCSORG
 10
0.0
 20
0.0
 30
0.0
  9
$PUCSXDIR
 10
1.0
 20
0.0
 30
0.0
  9
$PUCSYDIR
 10
0.0
 20
1.0
 30
0.0
  9
$USERI1
 70
     0
  9
$USERI2
 70
     0
  9
$USERI3
 70
     0
  9
$USERI4
 70
     0
  9
$USERI5
 70
     0
  9
$USERR1
 40
0.0
  9
$USERR2
 40
0.0
  9
$USERR3
 40
0.0
  9
$USERR4
 40
0.0
  9
$USERR5
 40
0.0
  9
$WORLDVIEW
 70
     1
  9
$SHADEDGE
 70
     3
  9
$SHADEDIF
 70
    70
  9
$TILEMODE
 70
     1
  9
$MAXACTVP
 70
    16
  9
$PINSBASE
 10
0.0
 20
0.0
 30
0.0
  9
$PLIMCHECK
 70
     0
  9
$PEXTMIN
 10
1.000000E+20
 20
1.000000E+20
 30
1.000000E+20
  9
$PEXTMAX
 10
-1.000000E+20
 20
-1.000000E+20
 30
-1.000000E+20
  9
$PLIMMIN
 10
0.0
 20
0.0
  9
$PLIMMAX
 10
12.0
 20
9.0
  9
$UNITMODE
 70
     0
  9
$VISRETAIN
 70
     0
  9
$PLINEGEN
 70
     1
  9
$PSLTSCALE
 70
     0
  9
$TREEDEPTH
 70
  3020
  9
$DWGCODEPAGE
  3
dos932
  0
ENDSEC
  0
SECTION
  2
TABLES
  0
TABLE
  2
VPORT
 70
     1
  0
VPORT
  2
*ACTIVE
 70
     0
 10
0.0
 20
0.0
 11
1.0
 21
1.0
 12
-5.642288
 22
91.103605
 13
0.0
 23
0.0
 14
1.0
 24
1.0
 15
0.0
 25
0.0
 16
0.0
 26
0.0
 36
1.0
 17
0.0
 27
0.0
 37
0.0
 40
632.050718
 41
1.732051
 42
50.0
 43
0.0
 44
0.0
 50
0.0
 51
0.0
 71
     0
 72
   100
 73
     1
 74
     1
 75
     0
 76
     0
 77
     0
 78
     0
  0
ENDTAB
  0
TABLE
  2
LTYPE
 70
     1
  0
LTYPE
  2
CONTINUOUS
 70
    64
  3
Solid line
 72
    65
 73
     0
 40
0.0
  0
ENDTAB
  0
TABLE
  2
LAYER
 70
     3
  0
LAYER
  2
0
 70
     0
 62
     7
  6
CONTINUOUS
  0
LAYER
  2
LY_1
 70
     0
 62
     7
  6
CONTINUOUS
  0
LAYER
  2
DEFPOINTS
 70
     0
 62
     7
  6
CONTINUOUS
  0
ENDTAB
  0
TABLE
  2
STYLE
 70
     1
  0
STYLE
  2
MX_NOTE_STANDARD
 70
     0
 40
0.0
 41
1.0
 50
0.0
 71
     0
 42
4.1656
  3
txt.shx
  4
extfont.shx
  0
ENDTAB
  0
TABLE
  2
VIEW
 70
     0
  0
ENDTAB
  0
TABLE
  2
UCS
 70
     0
  0
ENDTAB
  0
TABLE
  2
APPID
 70
     1
  0
APPID
  2
ACAD
 70
     0
  0
ENDTAB
  0
TABLE
  2
DIMSTYLE
 70
     1
  0
DIMSTYLE
  2
MXDIMSTYLE
 70
     0
  3

  4

  5

  6

  7

 40
1.0
 41
2.5
 42
0.5
 43
3.75
 44
1.0
 45
0.0
 46
0.0
 47
0.0
 48
0.0
 71
     0
 72
     0
 73
     0
 74
     0
 75
     0
 76
     0
 77
     1
 78
     8
140
2.5
141
2.5
142
0.0
143
0.03937
144
1.0
145
0.0
146
1.0
147
1.0
170
     0
171
     4
172
     1
173
     0
174
     0
175
     0
176
     0
177
     0
178
     0
  0
ENDTAB
  0
ENDSEC
  0
SECTION
  2
BLOCKS
  0
BLOCK
  8
0
  5
20
  2
MS_1
 70
     0
 10
0.0
 20
0.0
 30
0.0
  3
MS_1
  0
ARC
  8
0
  6
CONTINUOUS
 62
    80
  5
21
 10
4.38678
 20
-2.623596
 30
0.0
 40
2.3764
 50
234.299276
 51
305.700707
  0
ARC
  8
0
  6
CONTINUOUS
 62
    80
  5
22
 10
-4.38678
 20
-2.623596
 30
0.0
 40
2.3764
 50
234.299276
 51
305.700707
  0
ARC
  8
0
  6
CONTINUOUS
 62
    80
  5
23
 10
0.0
 20
5.299805
 30
0.0
 40
10.299829
 50
253.066177
 51
286.93382
  0
LINE
  8
0
  6
CONTINUOUS
 62
     3
  5
24
 10
5.773515
 20
-4.553439
 30
0.0
 11
5.000013
 21
-5.000021
 31
0.0
  0
LINE
  8
0
  6
CONTINUOUS
 62
    80
  5
25
 10
3.0
 20
-4.553406
 30
0.0
 11
3.0
 21
0.0
 31
0.0
  0
LINE
  8
0
  6
CONTINUOUS
 62
     3
  5
26
 10
5.773499
 20
-4.553406
 30
0.0
 11
5.773499
 21
0.0
 31
0.0
  0
LINE
  8
0
  6
CONTINUOUS
 62
     3
  5
27
 10
5.773499
 20
0.0
 30
0.0
 11
-5.773499
 21
0.0
 31
0.0
  0
LINE
  8
0
  6
CONTINUOUS
 62
     3
  5
28
 10
-5.773493
 20
-4.553443
 30
0.0
 11
-5.000022
 21
-5.000007
 31
0.0
  0
LINE
  8
0
  6
CONTINUOUS
 62
     3
  5
29
 10
5.0
 20
-5.0
 30
0.0
 11
-5.0
 21
-5.0
 31
0.0
  0
LINE
  8
0
  6
CONTINUOUS
 62
    80
  5
2A
 10
-3.0
 20
-4.553406
 30
0.0
 11
-3.0
 21
0.0
 31
0.0
  0
LINE
  8
0
  6
CONTINUOUS
 62
     3
  5
2B
 10
-5.773499
 20
-4.553406
 30
0.0
 11
-5.773499
 21
0.0
 31
0.0
  0
ENDBLK
  8
0
  5
2C
  0
ENDSEC
  0
SECTION
  2
ENTITIES
  0
LINE
  8
LY_1
  6
CONTINUOUS
 62
     3
  5
2D
 10
1.089293
 20
-150.508371
 30
0.0
 11
31.241211
 21
-139.544915
 31
0.0
  0
LINE
  8
LY_1
  6
CONTINUOUS
 62
     3
  5
2E
 10
0.508371
 20
-148.910707
 30
0.0
 11
30.660289
 21
-137.947251
 31
0.0
  0
LINE
  8
LY_1
  6
CONTINUOUS
 62
     3
  5
2F
 10
0.508371
 20
-148.910707
 30
0.0
 11
-10.455085
 21
-118.758789
 31
0.0
  0
LINE
  8
LY_1
  6
CONTINUOUS
 62
     3
  5
30
 10
-1.089293
 20
-149.491629
 30
0.0
 11
-12.052749
 21
-119.339711
 31
0.0
  0
LINE
  8
LY_1
  6
CONTINUOUS
 62
     3
  5
31
 10
12.052749
 20
-180.660289
 30
0.0
 11
1.089293
 21
-150.508371
 31
0.0
  0
LINE
  8
LY_1
  6
CONTINUOUS
 62
     3
  5
32
 10
10.455085
 20
-181.241211
 30
0.0
 11
-0.508371
 21
-151.089293
 31
0.0
  0
LINE
  8
LY_1
  6
CONTINUOUS
 62
     3
  5
33
 10
-30.660289
 20
-162.052749
 30
0.0
 11
-0.508371
 21
-151.089293
 31
0.0
  0
LINE
  8
LY_1
  6
CONTINUOUS
 62
     3
  5
34
 10
-31.241211
 20
-160.455085
 30
0.0
 11
-1.089293
 21
-149.491629
 31
0.0
  0
CIRCLE
  8
LY_1
  6
CONTINUOUS
 62
     3
  5
35
 10
0.0
 20
339.0
 30
0.0
 40
65.0
  0
CIRCLE
  8
LY_1
  6
CONTINUOUS
 62
     3
  5
36
 10
0.0
 20
339.0
 30
0.0
 40
55.0
  0
CIRCLE
  8
LY_1
  6
CONTINUOUS
 62
     3
  5
37
 10
0.0
 20
339.0
 30
0.0
 40
54.5
  0
CIRCLE
  8
LY_1
  6
CONTINUOUS
 62
     3
  5
38
 10
0.0
 20
339.0
 30
0.0
 40
49.9
  0
CIRCLE
  8
LY_1
  6
CONTINUOUS
 62
     3
  5
39
 10
0.0
 20
339.0
 30
0.0
 40
48.5
  0
CIRCLE
  8
LY_1
  6
CONTINUOUS
 62
     3
  5
3A
 10
0.0
 20
339.0
 30
0.0
 40
44.5
  0
LINE
  8
LY_1
  6
CONTINUOUS
 62
     3
  5
3B
 10
-47.5
 20
-26.0
 30
0.0
 11
-42.5
 21
-26.0
 31
0.0
  0
LINE
  8
LY_1
  6
CONTINUOUS
 62
     3
  5
3C
 10
-48.0
 20
-25.5
 30
0.0
 11
-48.0
 21
-18.0
 31
0.0
  0
LINE
  8
LY_1
  6
CONTINUOUS
 62
     3
  5
3D
 10
-42.0
 20
-25.5
 30
0.0
 11
-42.0
 21
-18.0
 31
0.0
  0
LINE
  8
LY_1
  6
CONTINUOUS
 62
     3
  5
3E
 10
-55.0
 20
-13.0
 30
0.0
 11
-35.0
 21
-13.0
 31
0.0
  0
INSERT
  8
LY_1
  6
BYBLOCK
  5
3F
  2
MS_1
 10
-45.0
 20
-13.0
 30
0.0
  0
LINE
  8
LY_1
  6
CONTINUOUS
 62
     3
  5
40
 10
-48.0
 20
-25.5
 30
0.0
 11
-47.5
 21
-26.0
 31
0.0
  0
LINE
  8
LY_1
  6
CONTINUOUS
 62
     3
  5
41
 10
-42.0
 20
-25.5
 30
0.0
 11
-42.5
 21
-26.0
 31
0.0
  0
LINE
  8
LY_1
  6
CONTINUOUS
 62
    80
  5
42
 10
-48.0
 20
-25.5
 30
0.0
 11
-42.0
 21
-25.5
 31
0.0
  0
LINE
  8
LY_1
  6
CONTINUOUS
 62
    80
  5
43
 10
-42.5
 20
-26.0
 30
0.0
 11
-42.5
 21
-18.0
 31
0.0
  0
LINE
  8
LY_1
  6
CONTINUOUS
 62
    80
  5
44
 10
-47.5
 20
-26.0
 30
0.0
 11
-47.5
 21
-18.0
 31
0.0
  0
LINE
  8
LY_1
  6
CONTINUOUS
 62
     3
  5
45
 10
-35.0
 20
0.0
 30
0.0
 11
-35.0
 21
-13.0
 31
0.0
  0
LINE
  8
LY_1
  6
CONTINUOUS
 62
     3
  5
46
 10
-55.0
 20
0.0
 30
0.0
 11
-55.0
 21
-13.0
 31
0.0
  0
LINE
  8
LY_1
  6
CONTINUOUS
 62
     3
  5
47
 10
-2.5
 20
-26.0
 30
0.0
 11
2.5
 21
-26.0
 31
0.0
  0
LINE
  8
LY_1
  6
CONTINUOUS
 62
     3
  5
48
 10
-3.0
 20
-25.5
 30
0.0
 11
-3.0
 21
-18.0
 31
0.0
  0
LINE
  8
LY_1
  6
CONTINUOUS
 62
     3
  5
49
 10
3.0
 20
-25.5
 30
0.0
 11
3.0
 21
-18.0
 31
0.0
  0
LINE
  8
LY_1
  6
CONTINUOUS
 62
     3
  5
4A
 10
-10.0
 20
-13.0
 30
0.0
 11
10.0
 21
-13.0
 31
0.0
  0
INSERT
  8
LY_1
  6
BYBLOCK
  5
4B
  2
MS_1
 10
0.0
 20
-13.0
 30
0.0
  0
LINE
  8
LY_1
  6
CONTINUOUS
 62
     3
  5
4C
 10
-3.0
 20
-25.5
 30
0.0
 11
-2.5
 21
-26.0
 31
0.0
  0
LINE
  8
LY_1
  6
CONTINUOUS
 62
     3
  5
4D
 10
3.0
 20
-25.5
 30
0.0
 11
2.5
 21
-26.0
 31
0.0
  0
LINE
  8
LY_1
  6
CONTINUOUS
 62
    80
  5
4E
 10
-3.0
 20
-25.5
 30
0.0
 11
3.0
 21
-25.5
 31
0.0
  0
LINE
  8
LY_1
  6
CONTINUOUS
 62
    80
  5
4F
 10
2.5
 20
-26.0
 30
0.0
 11
2.5
 21
-18.0
 31
0.0
  0
LINE
  8
LY_1
  6
CONTINUOUS
 62
    80
  5
50
 10
-2.5
 20
-26.0
 30
0.0
 11
-2.5
 21
-18.0
 31
0.0
  0
LINE
  8
LY_1
  6
CONTINUOUS
 62
     3
  5
51
 10
10.0
 20
0.0
 30
0.0
 11
10.0
 21
-13.0
 31
0.0
  0
LINE
  8
LY_1
  6
CONTINUOUS
 62
     3
  5
52
 10
-10.0
 20
0.0
 30
0.0
 11
-10.0
 21
-13.0
 31
0.0
  0
LINE
  8
LY_1
  6
CONTINUOUS
 62
    80
  5
53
 10
42.5
 20
-26.0
 30
0.0
 11
42.5
 21
-18.0
 31
0.0
  0
LINE
  8
LY_1
  6
CONTINUOUS
 62
    80
  5
54
 10
47.5
 20
-26.0
 30
0.0
 11
47.5
 21
-18.0
 31
0.0
  0
LINE
  8
LY_1
  6
CONTINUOUS
 62
    80
  5
55
 10
42.0
 20
-25.5
 30
0.0
 11
48.0
 21
-25.5
 31
0.0
  0
LINE
  8
LY_1
  6
CONTINUOUS
 62
     3
  5
56
 10
48.0
 20
-25.5
 30
0.0
 11
47.5
 21
-26.0
 31
0.0
  0
LINE
  8
LY_1
  6
CONTINUOUS
 62
     3
  5
57
 10
42.0
 20
-25.5
 30
0.0
 11
42.5
 21
-26.0
 31
0.0
  0
INSERT
  8
LY_1
  6
BYBLOCK
  5
58
  2
MS_1
 10
45.0
 20
-13.0
 30
0.0
  0
LINE
  8
LY_1
  6
CONTINUOUS
 62
    80
  5
59
 10
-64.0
 20
34.0
 30
0.0
 11
64.0
 21
34.0
 31
0.0
  0
LINE
  8
LY_1
  6
CONTINUOUS
 62
    80
  5
5A
 10
-65.0
 20
30.0
 30
0.0
 11
65.0
 21
30.0
 31
0.0
  0
LINE
  8
LY_1
  6
CONTINUOUS
 62
    80
  5
5B
 10
-64.0
 20
28.0
 30
0.0
 11
64.0
 21
28.0
 31
0.0
  0
LINE
  8
LY_1
  6
CONTINUOUS
 62
    80
  5
5C
 10
-65.0
 20
24.0
 30
0.0
 11
65.0
 21
24.0
 31
0.0
  0
LINE
  8
LY_1
  6
CONTINUOUS
 62
    80
  5
5D
 10
-64.0
 20
22.0
 30
0.0
 11
64.0
 21
22.0
 31
0.0
  0
LINE
  8
LY_1
  6
CONTINUOUS
 62
    80
  5
5E
 10
-65.0
 20
18.0
 30
0.0
 11
65.0
 21
18.0
 31
0.0
  0
LINE
  8
LY_1
  6
CONTINUOUS
 62
    80
  5
5F
 10
-64.0
 20
16.0
 30
0.0
 11
64.0
 21
16.0
 31
0.0
  0
LINE
  8
LY_1
  6
CONTINUOUS
 62
    80
  5
60
 10
-64.0
 20
31.0
 30
0.0
 11
64.0
 21
31.0
 31
0.0
  0
LINE
  8
LY_1
  6
CONTINUOUS
 62
    80
  5
61
 10
-65.0
 20
29.0
 30
0.0
 11
65.0
 21
29.0
 31
0.0
  0
LINE
  8
LY_1
  6
CONTINUOUS
 62
    80
  5
62
 10
-64.0
 20
25.0
 30
0.0
 11
64.0
 21
25.0
 31
0.0
  0
LINE
  8
LY_1
  6
CONTINUOUS
 62
    80
  5
63
 10
-65.0
 20
23.0
 30
0.0
 11
65.0
 21
23.0
 31
0.0
  0
LINE
  8
LY_1
  6
CONTINUOUS
 62
    80
  5
64
 10
-64.0
 20
19.0
 30
0.0
 11
64.0
 21
19.0
 31
0.0
  0
LINE
  8
LY_1
  6
CONTINUOUS
 62
    80
  5
65
 10
-65.0
 20
17.0
 30
0.0
 11
65.0
 21
17.0
 31
0.0
  0
LINE
  8
LY_1
  6
CONTINUOUS
 62
    80
  5
66
 10
-64.0
 20
13.0
 30
0.0
 11
64.0
 21
13.0
 31
0.0
  0
LINE
  8
LY_1
  6
CONTINUOUS
 62
     3
  5
67
 10
44.5
 20
187.5
 30
0.0
 11
44.5
 21
186.0
 31
0.0
  0
LINE
  8
LY_1
  6
CONTINUOUS
 62
     3
  5
68
 10
44.5
 20
186.0
 30
0.0
 11
48.5
 21
185.0
 31
0.0
  0
LINE
  8
LY_1
  6
CONTINUOUS
 62
     3
  5
69
 10
-48.5
 20
185.0
 30
0.0
 11
48.5
 21
185.0
 31
0.0
  0
LINE
  8
LY_1
  6
CONTINUOUS
 62
     3
  5
6A
 10
48.5
 20
185.0
 30
0.0
 11
49.9
 21
103.0
 31
0.0
  0
LINE
  8
LY_1
  6
CONTINUOUS
 62
     3
  5
6B
 10
-50.0
 20
103.0
 30
0.0
 11
50.0
 21
103.0
 31
0.0
  0
LINE
  8
LY_1
  6
CONTINUOUS
 62
     3
  5
6C
 10
55.0
 20
93.0
 30
0.0
 11
54.5
 21
102.5
 31
0.0
  0
LINE
  8
LY_1
  6
CONTINUOUS
 62
     3
  5
6D
 10
50.0
 20
103.0
 30
0.0
 11
54.5
 21
102.5
 31
0.0
  0
LINE
  8
LY_1
  6
CONTINUOUS
 62
     3
  5
6E
 10
-44.5
 20
187.5
 30
0.0
 11
-44.5
 21
186.0
 31
0.0
  0
LINE
  8
LY_1
  6
CONTINUOUS
 62
     3
  5
6F
 10
-44.5
 20
186.0
 30
0.0
 11
-48.5
 21
185.0
 31
0.0
  0
LINE
  8
LY_1
  6
CONTINUOUS
 62
     3
  5
70
 10
-48.5
 20
185.0
 30
0.0
 11
-49.9
 21
103.0
 31
0.0
  0
LINE
  8
LY_1
  6
CONTINUOUS
 62
     3
  5
71
 10
-55.0
 20
93.0
 30
0.0
 11
-54.5
 21
102.5
 31
0.0
  0
LINE
  8
LY_1
  6
CONTINUOUS
 62
     3
  5
72
 10
-50.0
 20
103.0
 30
0.0
 11
-54.5
 21
102.5
 31
0.0
  0
LINE
  8
LY_1
  6
CONTINUOUS
 62
     3
  5
73
 10
65.0
 20
49.0
 30
0.0
 11
65.0
 21
57.5
 31
0.0
  0
LINE
  8
LY_1
  6
CONTINUOUS
 62
     3
  5
74
 10
65.0
 20
57.5
 30
0.0
 11
55.0
 21
93.0
 31
0.0
  0
LINE
  8
LY_1
  6
CONTINUOUS
 62
     3
  5
75
 10
-65.0
 20
57.5
 30
0.0
 11
65.0
 21
57.5
 31
0.0
  0
LINE
  8
LY_1
  6
CONTINUOUS
 62
     3
  5
76
 10
-65.0
 20
47.5
 30
0.0
 11
65.0
 21
47.5
 31
0.0
  0
LINE
  8
LY_1
  6
CONTINUOUS
 62
     3
  5
77
 10
65.0
 20
47.5
 30
0.0
 11
65.0
 21
49.0
 31
0.0
  0
LINE
  8
LY_1
  6
CONTINUOUS
 62
     3
  5
78
 10
65.0
 20
47.5
 30
0.0
 11
65.0
 21
35.0
 31
0.0
  0
LINE
  8
LY_1
  6
CONTINUOUS
 62
     3
  5
79
 10
65.0
 20
12.0
 30
0.0
 11
65.0
 21
2.0
 31
0.0
  0
LINE
  8
LY_1
  6
CONTINUOUS
 62
     3
  5
7A
 10
-63.0
 20
0.0
 30
0.0
 11
63.0
 21
0.0
 31
0.0
  0
ARC
  8
LY_1
  6
CONTINUOUS
 62
     3
  5
7B
 10
63.0
 20
2.0
 30
0.0
 40
2.0
 50
270.0
 51
0.0
  0
ARC
  8
LY_1
  6
CONTINUOUS
 62
     3
  5
7C
 10
0.0
 20
-150.0
 30
0.0
 40
65.0
 50
240.781633
 51
231.581633
  0
LINE
  8
LY_1
  6
CONTINUOUS
 62
     3
  5
7D
 10
-65.0
 20
49.0
 30
0.0
 11
65.0
 21
49.0
 31
0.0
  0
LINE
  8
LY_1
  6
CONTINUOUS
 62
     3
  5
7E
 10
-65.0
 20
49.0
 30
0.0
 11
-65.0
 21
57.5
 31
0.0
  0
LINE
  8
LY_1
  6
CONTINUOUS
 62
     3
  5
7F
 10
-65.0
 20
57.5
 30
0.0
 11
-55.0
 21
93.0
 31
0.0
  0
LINE
  8
LY_1
  6
CONTINUOUS
 62
     3
  5
80
 10
-55.0
 20
93.0
 30
0.0
 11
55.0
 21
93.0
 31
0.0
  0
LINE
  8
LY_1
  6
CONTINUOUS
 62
     3
  5
81
 10
-65.0
 20
47.5
 30
0.0
 11
-65.0
 21
49.0
 31
0.0
  0
LINE
  8
LY_1
  6
CONTINUOUS
 62
     3
  5
82
 10
-65.0
 20
47.5
 30
0.0
 11
-65.0
 21
35.0
 31
0.0
  0
LINE
  8
LY_1
  6
CONTINUOUS
 62
     3
  5
83
 10
-64.0
 20
34.0
 30
0.0
 11
-65.0
 21
35.0
 31
0.0
  0
LINE
  8
LY_1
  6
CONTINUOUS
 62
     3
  5
84
 10
-64.0
 20
34.0
 30
0.0
 11
-64.0
 21
31.0
 31
0.0
  0
LINE
  8
LY_1
  6
CONTINUOUS
 62
     3
  5
85
 10
-64.0
 20
31.0
 30
0.0
 11
-65.0
 21
30.0
 31
0.0
  0
LINE
  8
LY_1
  6
CONTINUOUS
 62
     3
  5
86
 10
-65.0
 20
30.0
 30
0.0
 11
-65.0
 21
29.0
 31
0.0
  0
LINE
  8
LY_1
  6
CONTINUOUS
 62
     3
  5
87
 10
-65.0
 20
29.0
 30
0.0
 11
-64.0
 21
28.0
 31
0.0
  0
LINE
  8
LY_1
  6
CONTINUOUS
 62
     3
  5
88
 10
-64.0
 20
28.0
 30
0.0
 11
-64.0
 21
25.0
 31
0.0
  0
LINE
  8
LY_1
  6
CONTINUOUS
 62
     3
  5
89
 10
-64.0
 20
25.0
 30
0.0
 11
-65.0
 21
24.0
 31
0.0
  0
LINE
  8
LY_1
  6
CONTINUOUS
 62
     3
  5
8A
 10
-65.0
 20
24.0
 30
0.0
 11
-65.0
 21
23.0
 31
0.0
  0
LINE
  8
LY_1
  6
CONTINUOUS
 62
     3
  5
8B
 10
-65.0
 20
23.0
 30
0.0
 11
-64.0
 21
22.0
 31
0.0
  0
LINE
  8
LY_1
  6
CONTINUOUS
 62
     3
  5
8C
 10
-64.0
 20
22.0
 30
0.0
 11
-64.0
 21
19.0
 31
0.0
  0
LINE
  8
LY_1
  6
CONTINUOUS
 62
     3
  5
8D
 10
-64.0
 20
19.0
 30
0.0
 11
-65.0
 21
18.0
 31
0.0
  0
LINE
  8
LY_1
  6
CONTINUOUS
 62
     3
  5
8E
 10
-65.0
 20
18.0
 30
0.0
 11
-65.0
 21
17.0
 31
0.0
  0
LINE
  8
LY_1
  6
CONTINUOUS
 62
     3
  5
8F
 10
-65.0
 20
17.0
 30
0.0
 11
-64.0
 21
16.0
 31
0.0
  0
LINE
  8
LY_1
  6
CONTINUOUS
 62
     3
  5
90
 10
-64.0
 20
16.0
 30
0.0
 11
-64.0
 21
13.0
 31
0.0
  0
LINE
  8
LY_1
  6
CONTINUOUS
 62
     3
  5
91
 10
-64.0
 20
13.0
 30
0.0
 11
-65.0
 21
12.0
 31
0.0
  0
LINE
  8
LY_1
  6
CONTINUOUS
 62
     3
  5
92
 10
-65.0
 20
12.0
 30
0.0
 11
-65.0
 21
2.0
 31
0.0
  0
ARC
  8
LY_1
  6
CONTINUOUS
 62
     3
  5
93
 10
-63.0
 20
2.0
 30
0.0
 40
2.0
 50
180.0
 51
270.0
  0
LINE
  8
LY_1
  6
CONTINUOUS
 62
     3
  5
94
 10
-65.0
 20
12.0
 30
0.0
 11
65.0
 21
12.0
 31
0.0
  0
LINE
  8
LY_1
  6
CONTINUOUS
 62
     3
  5
95
 10
-41.8
 20
16.0
 30
0.0
 11
-41.8
 21
13.0
 31
0.0
  0
LINE
  8
LY_1
  6
CONTINUOUS
 62
     3
  5
96
 10
-41.8
 20
19.0
 30
0.0
 11
-41.8
 21
22.0
 31
0.0
  0
LINE
  8
LY_1
  6
CONTINUOUS
 62
     3
  5
97
 10
-41.8
 20
25.0
 30
0.0
 11
-41.8
 21
28.0
 31
0.0
  0
LINE
  8
LY_1
  6
CONTINUOUS
 62
     3
  5
98
 10
-41.8
 20
31.0
 30
0.0
 11
-41.8
 21
34.0
 31
0.0
  0
LINE
  8
LY_1
  6
CONTINUOUS
 62
     3
  5
99
 10
-61.0
 20
34.0
 30
0.0
 11
-61.0
 21
31.0
 31
0.0
  0
LINE
  8
LY_1
  6
CONTINUOUS
 62
     3
  5
9A
 10
-61.0
 20
28.0
 30
0.0
 11
-61.0
 21
25.0
 31
0.0
  0
LINE
  8
LY_1
  6
CONTINUOUS
 62
     3
  5
9B
 10
-61.0
 20
22.0
 30
0.0
 11
-61.0
 21
19.0
 31
0.0
  0
LINE
  8
LY_1
  6
CONTINUOUS
 62
     3
  5
9C
 10
-61.0
 20
16.0
 30
0.0
 11
-61.0
 21
13.0
 31
0.0
  0
LINE
  8
LY_1
  6
CONTINUOUS
 62
     3
  5
9D
 10
-22.2
 20
13.0
 30
0.0
 11
-22.2
 21
16.0
 31
0.0
  0
LINE
  8
LY_1
  6
CONTINUOUS
 62
     3
  5
9E
 10
-22.2
 20
19.0
 30
0.0
 11
-22.2
 21
22.0
 31
0.0
  0
LINE
  8
LY_1
  6
CONTINUOUS
 62
     3
  5
9F
 10
-22.2
 20
25.0
 30
0.0
 11
-22.2
 21
28.0
 31
0.0
  0
LINE
  8
LY_1
  6
CONTINUOUS
 62
     3
  5
A0
 10
-22.2
 20
31.0
 30
0.0
 11
-22.2
 21
34.0
 31
0.0
  0
LINE
  8
LY_1
  6
CONTINUOUS
 62
     3
  5
A1
 10
55.0
 20
0.0
 30
0.0
 11
55.0
 21
-13.0
 31
0.0
  0
LINE
  8
LY_1
  6
CONTINUOUS
 62
     3
  5
A2
 10
35.0
 20
0.0
 30
0.0
 11
35.0
 21
-13.0
 31
0.0
  0
LINE
  8
LY_1
  6
CONTINUOUS
 62
     3
  5
A3
 10
35.0
 20
-13.0
 30
0.0
 11
55.0
 21
-13.0
 31
0.0
  0
LINE
  8
LY_1
  6
CONTINUOUS
 62
     3
  5
A4
 10
48.0
 20
-25.5
 30
0.0
 11
48.0
 21
-18.0
 31
0.0
  0
LINE
  8
LY_1
  6
CONTINUOUS
 62
     3
  5
A5
 10
42.0
 20
-25.5
 30
0.0
 11
42.0
 21
-18.0
 31
0.0
  0
LINE
  8
LY_1
  6
CONTINUOUS
 62
     3
  5
A6
 10
42.5
 20
-26.0
 30
0.0
 11
47.5
 21
-26.0
 31
0.0
  0
CIRCLE
  8
LY_1
  6
CONTINUOUS
 62
     3
  5
A7
 10
-45.024984
 20
-175.956711
 30
0.0
 40
10.0
  0
CIRCLE
  8
LY_1
  6
CONTINUOUS
 62
     3
  5
A8
 10
-45.024984
 20
-175.956711
 30
0.0
 40
7.0
  0
LINE
  8
LY_1
  6
CONTINUOUS
 62
     3
  5
A9
 10
-49.862283
 20
-175.933621
 30
0.0
 11
-47.460951
 21
-171.777469
 31
0.0
  0
LINE
  8
LY_1
  6
CONTINUOUS
 62
     3
  5
AA
 10
-47.460951
 20
-171.777469
 30
0.0
 11
-42.573624
 21
-171.713972
 31
0.0
  0
LINE
  8
LY_1
  6
CONTINUOUS
 62
     3
  5
AB
 10
-42.573624
 20
-171.713972
 30
0.0
 11
-40.187684
 21
-175.9798
 31
0.0
  0
LINE
  8
LY_1
  6
CONTINUOUS
 62
     3
  5
AC
 10
-40.187684
 20
-175.9798
 30
0.0
 11
-42.589017
 21
-180.135953
 31
0.0
  0
LINE
  8
LY_1
  6
CONTINUOUS
 62
     3
  5
AD
 10
-42.589017
 20
-180.135953
 30
0.0
 11
-47.476344
 21
-180.19945
 31
0.0
  0
LINE
  8
LY_1
  6
CONTINUOUS
 62
     3
  5
AE
 10
-47.476344
 20
-180.19945
 30
0.0
 11
-49.862283
 21
-175.933621
 31
0.0
  0
CIRCLE
  8
LY_1
  6
CONTINUOUS
 62
     3
  5
AF
 10
-45.024984
 20
-175.956711
 30
0.0
 40
2.0
  0
CIRCLE
  8
LY_1
  6
CONTINUOUS
 62
     3
  5
B0
 10
-45.024984
 20
-175.956711
 30
0.0
 40
3.0
  0
CIRCLE
  8
LY_1
  6
CONTINUOUS
 62
     3
  5
B1
 10
-45.024984
 20
-175.956711
 30
0.0
 40
4.2
  0
CIRCLE
  8
LY_1
  6
CONTINUOUS
 62
     3
  5
B2
 10
0.0
 20
-98.028854
 30
0.0
 40
10.0
  0
CIRCLE
  8
LY_1
  6
CONTINUOUS
 62
     3
  5
B3
 10
0.0
 20
-98.028854
 30
0.0
 40
7.0
  0
LINE
  8
LY_1
  6
CONTINUOUS
 62
     3
  5
B4
 10
-4.8373
 20
-98.005764
 30
0.0
 11
-2.435967
 21
-93.849612
 31
0.0
  0
LINE
  8
LY_1
  6
CONTINUOUS
 62
     3
  5
B5
 10
-2.435967
 20
-93.849612
 30
0.0
 11
2.45136
 21
-93.786115
 31
0.0
  0
LINE
  8
LY_1
  6
CONTINUOUS
 62
     3
  5
B6
 10
2.45136
 20
-93.786115
 30
0.0
 11
4.8373
 21
-98.051944
 31
0.0
  0
LINE
  8
LY_1
  6
CONTINUOUS
 62
     3
  5
B7
 10
4.8373
 20
-98.051944
 30
0.0
 11
2.435967
 21
-102.208096
 31
0.0
  0
LINE
  8
LY_1
  6
CONTINUOUS
 62
     3
  5
B8
 10
2.435967
 20
-102.208096
 30
0.0
 11
-2.45136
 21
-102.271593
 31
0.0
  0
LINE
  8
LY_1
  6
CONTINUOUS
 62
     3
  5
B9
 10
-2.45136
 20
-102.271593
 30
0.0
 11
-4.8373
 21
-98.005764
 31
0.0
  0
CIRCLE
  8
LY_1
  6
CONTINUOUS
 62
     3
  5
BA
 10
0.0
 20
-98.028854
 30
0.0
 40
2.0
  0
CIRCLE
  8
LY_1
  6
CONTINUOUS
 62
     3
  5
BB
 10
0.0
 20
-98.028854
 30
0.0
 40
3.0
  0
CIRCLE
  8
LY_1
  6
CONTINUOUS
 62
     3
  5
BC
 10
0.0
 20
-98.028854
 30
0.0
 40
4.2
  0
CIRCLE
  8
LY_1
  6
CONTINUOUS
 62
     3
  5
BD
 10
45.024984
 20
-176.014435
 30
0.0
 40
10.0
  0
CIRCLE
  8
LY_1
  6
CONTINUOUS
 62
     3
  5
BE
 10
45.024984
 20
-176.014435
 30
0.0
 40
7.0
  0
LINE
  8
LY_1
  6
CONTINUOUS
 62
     3
  5
BF
 10
40.187684
 20
-175.991345
 30
0.0
 11
42.589017
 21
-171.835193
 31
0.0
  0
LINE
  8
LY_1
  6
CONTINUOUS
 62
     3
  5
C0
 10
42.589017
 20
-171.835193
 30
0.0
 11
47.476344
 21
-171.771696
 31
0.0
  0
LINE
  8
LY_1
  6
CONTINUOUS
 62
     3
  5
C1
 10
47.476344
 20
-171.771696
 30
0.0
 11
49.862283
 21
-176.037525
 31
0.0
  0
LINE
  8
LY_1
  6
CONTINUOUS
 62
     3
  5
C2
 10
49.862283
 20
-176.037525
 30
0.0
 11
47.460951
 21
-180.193677
 31
0.0
  0
LINE
  8
LY_1
  6
CONTINUOUS
 62
     3
  5
C3
 10
47.460951
 20
-180.193677
 30
0.0
 11
42.573624
 21
-180.257174
 31
0.0
  0
LINE
  8
LY_1
  6
CONTINUOUS
 62
     3
  5
C4
 10
42.573624
 20
-180.257174
 30
0.0
 11
40.187684
 21
-175.991345
 31
0.0
  0
CIRCLE
  8
LY_1
  6
CONTINUOUS
 62
     3
  5
C5
 10
45.024984
 20
-176.014435
 30
0.0
 40
2.0
  0
CIRCLE
  8
LY_1
  6
CONTINUOUS
 62
     3
  5
C6
 10
45.024984
 20
-176.014435
 30
0.0
 40
3.0
  0
CIRCLE
  8
LY_1
  6
CONTINUOUS
 62
     3
  5
C7
 10
45.024984
 20
-176.014435
 30
0.0
 40
4.2
  0
ARC
  8
LY_1
  6
CONTINUOUS
 62
     3
  5
C8
 10
-76.948467
 20
-146.655837
 30
0.0
 40
65.4
 50
270.581633
 51
315.081633
  0
ARC
  8
LY_1
  6
CONTINUOUS
 62
     3
  5
C9
 10
-77.185137
 20
-146.865568
 30
0.0
 40
75.2
 50
274.881633
 51
316.081633
  0
ARC
  8
LY_1
  6
CONTINUOUS
 62
     3
  5
CA
 10
-26.014435
 20
-195.024984
 30
0.0
 40
5.2
 50
297.481633
 51
154.381633
  0
ARC
  8
LY_1
  6
CONTINUOUS
 62
     3
  5
CB
 10
0.0
 20
-150.0
 30
0.0
 40
61.9
 50
241.981633
 51
232.381633
  0
CIRCLE
  8
LY_1
  6
CONTINUOUS
 62
     3
  5
CC
 10
-36.404816
 20
-189.021653
 30
0.0
 40
2.5
  0
LINE
  8
LY_1
  6
CONTINUOUS
 62
     3
  5
CD
 10
-36.087332
 20
-187.472716
 30
0.0
 11
-35.221467
 21
-187.972994
 31
0.0
  0
LINE
  8
LY_1
  6
CONTINUOUS
 62
     3
  5
CE
 10
-35.221467
 20
-187.972994
 30
0.0
 11
-35.721745
 21
-188.838859
 31
0.0
  0
LINE
  8
LY_1
  6
CONTINUOUS
 62
     3
  5
CF
 10
-36.7223
 20
-190.570589
 30
0.0
 11
-37.588165
 21
-190.070311
 31
0.0
  0
LINE
  8
LY_1
  6
CONTINUOUS
 62
     3
  5
D0
 10
-37.588165
 20
-190.070311
 30
0.0
 11
-37.087887
 21
-189.204446
 31
0.0
  0
LINE
  8
LY_1
  6
CONTINUOUS
 62
     3
  5
D1
 10
-37.453475
 20
-187.838304
 30
0.0
 11
-36.58761
 21
-188.338581
 31
0.0
  0
LINE
  8
LY_1
  6
CONTINUOUS
 62
     3
  5
D2
 10
-34.85588
 20
-189.339136
 30
0.0
 11
-35.356157
 21
-190.205002
 31
0.0
  0
LINE
  8
LY_1
  6
CONTINUOUS
 62
     3
  5
D3
 10
-35.356157
 20
-190.205002
 30
0.0
 11
-36.222022
 21
-189.704724
 31
0.0
  0
LINE
  8
LY_1
  6
CONTINUOUS
 62
     3
  5
D4
 10
-37.953752
 20
-188.704169
 30
0.0
 11
-37.453475
 21
-187.838304
 31
0.0
  0
LINE
  8
LY_1
  6
CONTINUOUS
 62
     3
  5
D5
 10
-37.087887
 20
-189.204446
 30
0.0
 11
-37.953752
 21
-188.704169
 31
0.0
  0
LINE
  8
LY_1
  6
CONTINUOUS
 62
     3
  5
D6
 10
-36.58761
 20
-188.338581
 30
0.0
 11
-36.087332
 21
-187.472716
 31
0.0
  0
LINE
  8
LY_1
  6
CONTINUOUS
 62
     3
  5
D7
 10
-35.721745
 20
-188.838859
 30
0.0
 11
-34.85588
 21
-189.339136
 31
0.0
  0
LINE
  8
LY_1
  6
CONTINUOUS
 62
     3
  5
D8
 10
-36.222022
 20
-189.704724
 30
0.0
 11
-36.7223
 21
-190.570589
 31
0.0
  0
CIRCLE
  8
LY_1
  6
CONTINUOUS
 62
     3
  5
D9
 10
-15.624054
 20
-201.028315
 30
0.0
 40
2.5
  0
LINE
  8
LY_1
  6
CONTINUOUS
 62
     3
  5
DA
 10
-15.30657
 20
-199.479379
 30
0.0
 11
-14.440705
 21
-199.979656
 31
0.0
  0
LINE
  8
LY_1
  6
CONTINUOUS
 62
     3
  5
DB
 10
-14.440705
 20
-199.979656
 30
0.0
 11
-14.940983
 21
-200.845521
 31
0.0
  0
LINE
  8
LY_1
  6
CONTINUOUS
 62
     3
  5
DC
 10
-15.941538
 20
-202.577251
 30
0.0
 11
-16.807403
 21
-202.076974
 31
0.0
  0
LINE
  8
LY_1
  6
CONTINUOUS
 62
     3
  5
DD
 10
-16.807403
 20
-202.076974
 30
0.0
 11
-16.307126
 21
-201.211109
 31
0.0
  0
LINE
  8
LY_1
  6
CONTINUOUS
 62
     3
  5
DE
 10
-16.672713
 20
-199.844966
 30
0.0
 11
-15.806848
 21
-200.345244
 31
0.0
  0
LINE
  8
LY_1
  6
CONTINUOUS
 62
     3
  5
DF
 10
-14.075118
 20
-201.345799
 30
0.0
 11
-14.575395
 21
-202.211664
 31
0.0
  0
LINE
  8
LY_1
  6
CONTINUOUS
 62
     3
  5
E0
 10
-14.575395
 20
-202.211664
 30
0.0
 11
-15.44126
 21
-201.711386
 31
0.0
  0
LINE
  8
LY_1
  6
CONTINUOUS
 62
     3
  5
E1
 10
-17.172991
 20
-200.710831
 30
0.0
 11
-16.672713
 21
-199.844966
 31
0.0
  0
LINE
  8
LY_1
  6
CONTINUOUS
 62
     3
  5
E2
 10
-16.307126
 20
-201.211109
 30
0.0
 11
-17.172991
 21
-200.710831
 31
0.0
  0
LINE
  8
LY_1
  6
CONTINUOUS
 62
     3
  5
E3
 10
-15.806848
 20
-200.345244
 30
0.0
 11
-15.30657
 21
-199.479379
 31
0.0
  0
LINE
  8
LY_1
  6
CONTINUOUS
 62
     3
  5
E4
 10
-14.940983
 20
-200.845521
 30
0.0
 11
-14.075118
 21
-201.345799
 31
0.0
  0
LINE
  8
LY_1
  6
CONTINUOUS
 62
     3
  5
E5
 10
-15.44126
 20
-201.711386
 30
0.0
 11
-15.941538
 21
-202.577251
 31
0.0
  0
CIRCLE
  8
LY_1
  6
CONTINUOUS
 62
     3
  5
E6
 10
27.986683
 20
-198.507686
 30
0.0
 40
2.5
  0
LINE
  8
LY_1
  6
CONTINUOUS
 62
     3
  5
E7
 10
28.304167
 20
-196.958749
 30
0.0
 11
29.170032
 21
-197.459027
 31
0.0
  0
LINE
  8
LY_1
  6
CONTINUOUS
 62
     3
  5
E8
 10
29.170032
 20
-197.459027
 30
0.0
 11
28.669755
 21
-198.324892
 31
0.0
  0
LINE
  8
LY_1
  6
CONTINUOUS
 62
     3
  5
E9
 10
27.669199
 20
-200.056622
 30
0.0
 11
26.803334
 21
-199.556344
 31
0.0
  0
LINE
  8
LY_1
  6
CONTINUOUS
 62
     3
  5
EA
 10
26.803334
 20
-199.556344
 30
0.0
 11
27.303612
 21
-198.690479
 31
0.0
  0
LINE
  8
LY_1
  6
CONTINUOUS
 62
     3
  5
EB
 10
26.938025
 20
-197.324337
 30
0.0
 11
27.80389
 21
-197.824614
 31
0.0
  0
LINE
  8
LY_1
  6
CONTINUOUS
 62
     3
  5
EC
 10
29.53562
 20
-198.825169
 30
0.0
 11
29.035342
 21
-199.691034
 31
0.0
  0
LINE
  8
LY_1
  6
CONTINUOUS
 62
     3
  5
ED
 10
29.035342
 20
-199.691034
 30
0.0
 11
28.169477
 21
-199.190757
 31
0.0
  0
LINE
  8
LY_1
  6
CONTINUOUS
 62
     3
  5
EE
 10
26.437747
 20
-198.190202
 30
0.0
 11
26.938025
 21
-197.324337
 31
0.0
  0
LINE
  8
LY_1
  6
CONTINUOUS
 62
     3
  5
EF
 10
27.303612
 20
-198.690479
 30
0.0
 11
26.437747
 21
-198.190202
 31
0.0
  0
LINE
  8
LY_1
  6
CONTINUOUS
 62
     3
  5
F0
 10
27.80389
 20
-197.824614
 30
0.0
 11
28.304167
 21
-196.958749
 31
0.0
  0
LINE
  8
LY_1
  6
CONTINUOUS
 62
     3
  5
F1
 10
28.669755
 20
-198.324892
 30
0.0
 11
29.53562
 21
-198.825169
 31
0.0
  0
LINE
  8
LY_1
  6
CONTINUOUS
 62
     3
  5
F2
 10
28.169477
 20
-199.190757
 30
0.0
 11
27.669199
 21
-200.056622
 31
0.0
  0
CIRCLE
  8
LY_1
  6
CONTINUOUS
 62
     3
  5
F3
 10
28.015545
 20
-101.511556
 30
0.0
 40
2.5
  0
LINE
  8
LY_1
  6
CONTINUOUS
 62
     3
  5
F4
 10
28.333029
 20
-99.962619
 30
0.0
 11
29.198894
 21
-100.462897
 31
0.0
  0
LINE
  8
LY_1
  6
CONTINUOUS
 62
     3
  5
F5
 10
29.198894
 20
-100.462897
 30
0.0
 11
28.698617
 21
-101.328762
 31
0.0
  0
LINE
  8
LY_1
  6
CONTINUOUS
 62
     3
  5
F6
 10
27.698062
 20
-103.060492
 30
0.0
 11
26.832197
 21
-102.560215
 31
0.0
  0
LINE
  8
LY_1
  6
CONTINUOUS
 62
     3
  5
F7
 10
26.832197
 20
-102.560215
 30
0.0
 11
27.332474
 21
-101.69435
 31
0.0
  0
LINE
  8
LY_1
  6
CONTINUOUS
 62
     3
  5
F8
 10
26.966887
 20
-100.328207
 30
0.0
 11
27.832752
 21
-100.828485
 31
0.0
  0
LINE
  8
LY_1
  6
CONTINUOUS
 62
     3
  5
F9
 10
29.564482
 20
-101.82904
 30
0.0
 11
29.064204
 21
-102.694905
 31
0.0
  0
LINE
  8
LY_1
  6
CONTINUOUS
 62
     3
  5
FA
 10
29.064204
 20
-102.694905
 30
0.0
 11
28.198339
 21
-102.194627
 31
0.0
  0
LINE
  8
LY_1
  6
CONTINUOUS
 62
     3
  5
FB
 10
26.466609
 20
-101.194072
 30
0.0
 11
26.966887
 21
-100.328207
 31
0.0
  0
LINE
  8
LY_1
  6
CONTINUOUS
 62
     3
  5
FC
 10
27.332474
 20
-101.69435
 30
0.0
 11
26.466609
 21
-101.194072
 31
0.0
  0
LINE
  8
LY_1
  6
CONTINUOUS
 62
     3
  5
FD
 10
27.832752
 20
-100.828485
 30
0.0
 11
28.333029
 21
-99.962619
 31
0.0
  0
LINE
  8
LY_1
  6
CONTINUOUS
 62
     3
  5
FE
 10
28.698617
 20
-101.328762
 30
0.0
 11
29.564482
 21
-101.82904
 31
0.0
  0
LINE
  8
LY_1
  6
CONTINUOUS
 62
     3
  5
FF
 10
28.198339
 20
-102.194627
 30
0.0
 11
27.698062
 21
-103.060492
 31
0.0
  0
CIRCLE
  8
LY_1
  6
CONTINUOUS
 62
     3
  5
100
 10
-56.002229
 20
-149.980759
 30
0.0
 40
2.5
  0
LINE
  8
LY_1
  6
CONTINUOUS
 62
     3
  5
101
 10
-55.684745
 20
-148.431822
 30
0.0
 11
-54.81888
 21
-148.9321
 31
0.0
  0
LINE
  8
LY_1
  6
CONTINUOUS
 62
     3
  5
102
 10
-54.81888
 20
-148.9321
 30
0.0
 11
-55.319157
 21
-149.797965
 31
0.0
  0
LINE
  8
LY_1
  6
CONTINUOUS
 62
     3
  5
103
 10
-56.319713
 20
-151.529695
 30
0.0
 11
-57.185578
 21
-151.029417
 31
0.0
  0
LINE
  8
LY_1
  6
CONTINUOUS
 62
     3
  5
104
 10
-57.185578
 20
-151.029417
 30
0.0
 11
-56.6853
 21
-150.163552
 31
0.0
  0
LINE
  8
LY_1
  6
CONTINUOUS
 62
     3
  5
105
 10
-57.050888
 20
-148.79741
 30
0.0
 11
-56.185023
 21
-149.297687
 31
0.0
  0
LINE
  8
LY_1
  6
CONTINUOUS
 62
     3
  5
106
 10
-54.453292
 20
-150.298242
 30
0.0
 11
-54.95357
 21
-151.164107
 31
0.0
  0
LINE
  8
LY_1
  6
CONTINUOUS
 62
     3
  5
107
 10
-54.95357
 20
-151.164107
 30
0.0
 11
-55.819435
 21
-150.66383
 31
0.0
  0
LINE
  8
LY_1
  6
CONTINUOUS
 62
     3
  5
108
 10
-57.551165
 20
-149.663275
 30
0.0
 11
-57.050888
 21
-148.79741
 31
0.0
  0
LINE
  8
LY_1
  6
CONTINUOUS
 62
     3
  5
109
 10
-56.6853
 20
-150.163552
 30
0.0
 11
-57.551165
 21
-149.663275
 31
0.0
  0
LINE
  8
LY_1
  6
CONTINUOUS
 62
     3
  5
10A
 10
-56.185023
 20
-149.297687
 30
0.0
 11
-55.684745
 21
-148.431822
 31
0.0
  0
LINE
  8
LY_1
  6
CONTINUOUS
 62
     3
  5
10B
 10
-55.319157
 20
-149.797965
 30
0.0
 11
-54.453292
 21
-150.298242
 31
0.0
  0
LINE
  8
LY_1
  6
CONTINUOUS
 62
     3
  5
10C
 10
-55.819435
 20
-150.66383
 30
0.0
 11
-56.319713
 21
-151.529695
 31
0.0
  0
LINE
  8
LY_1
  6
CONTINUOUS
 62
     3
  5
10D
 10
-65.0
 20
35.0
 30
0.0
 11
65.0
 21
35.0
 31
0.0
  0
LINE
  8
LY_1
  6
CONTINUOUS
 62
     3
  5
10E
 10
64.0
 20
34.0
 30
0.0
 11
65.0
 21
35.0
 31
0.0
  0
LINE
  8
LY_1
  6
CONTINUOUS
 62
     3
  5
10F
 10
64.0
 20
34.0
 30
0.0
 11
64.0
 21
31.0
 31
0.0
  0
LINE
  8
LY_1
  6
CONTINUOUS
 62
     3
  5
110
 10
64.0
 20
31.0
 30
0.0
 11
65.0
 21
30.0
 31
0.0
  0
LINE
  8
LY_1
  6
CONTINUOUS
 62
     3
  5
111
 10
65.0
 20
30.0
 30
0.0
 11
65.0
 21
29.0
 31
0.0
  0
LINE
  8
LY_1
  6
CONTINUOUS
 62
     3
  5
112
 10
65.0
 20
29.0
 30
0.0
 11
64.0
 21
28.0
 31
0.0
  0
LINE
  8
LY_1
  6
CONTINUOUS
 62
     3
  5
113
 10
64.0
 20
28.0
 30
0.0
 11
64.0
 21
25.0
 31
0.0
  0
LINE
  8
LY_1
  6
CONTINUOUS
 62
     3
  5
114
 10
64.0
 20
25.0
 30
0.0
 11
65.0
 21
24.0
 31
0.0
  0
LINE
  8
LY_1
  6
CONTINUOUS
 62
     3
  5
115
 10
65.0
 20
24.0
 30
0.0
 11
65.0
 21
23.0
 31
0.0
  0
LINE
  8
LY_1
  6
CONTINUOUS
 62
     3
  5
116
 10
65.0
 20
23.0
 30
0.0
 11
64.0
 21
22.0
 31
0.0
  0
LINE
  8
LY_1
  6
CONTINUOUS
 62
     3
  5
117
 10
64.0
 20
22.0
 30
0.0
 11
64.0
 21
19.0
 31
0.0
  0
LINE
  8
LY_1
  6
CONTINUOUS
 62
     3
  5
118
 10
64.0
 20
19.0
 30
0.0
 11
65.0
 21
18.0
 31
0.0
  0
LINE
  8
LY_1
  6
CONTINUOUS
 62
     3
  5
119
 10
65.0
 20
18.0
 30
0.0
 11
65.0
 21
17.0
 31
0.0
  0
LINE
  8
LY_1
  6
CONTINUOUS
 62
     3
  5
11A
 10
65.0
 20
17.0
 30
0.0
 11
64.0
 21
16.0
 31
0.0
  0
LINE
  8
LY_1
  6
CONTINUOUS
 62
     3
  5
11B
 10
64.0
 20
16.0
 30
0.0
 11
64.0
 21
13.0
 31
0.0
  0
LINE
  8
LY_1
  6
CONTINUOUS
 62
     3
  5
11C
 10
64.0
 20
13.0
 30
0.0
 11
65.0
 21
12.0
 31
0.0
  0
LINE
  8
LY_1
  6
CONTINUOUS
 62
     3
  5
11D
 10
41.8
 20
16.0
 30
0.0
 11
41.8
 21
13.0
 31
0.0
  0
LINE
  8
LY_1
  6
CONTINUOUS
 62
     3
  5
11E
 10
41.8
 20
19.0
 30
0.0
 11
41.8
 21
22.0
 31
0.0
  0
LINE
  8
LY_1
  6
CONTINUOUS
 62
     3
  5
11F
 10
41.8
 20
25.0
 30
0.0
 11
41.8
 21
28.0
 31
0.0
  0
LINE
  8
LY_1
  6
CONTINUOUS
 62
     3
  5
120
 10
41.8
 20
31.0
 30
0.0
 11
41.8
 21
34.0
 31
0.0
  0
LINE
  8
LY_1
  6
CONTINUOUS
 62
     3
  5
121
 10
61.0
 20
34.0
 30
0.0
 11
61.0
 21
31.0
 31
0.0
  0
LINE
  8
LY_1
  6
CONTINUOUS
 62
     3
  5
122
 10
61.0
 20
28.0
 30
0.0
 11
61.0
 21
25.0
 31
0.0
  0
LINE
  8
LY_1
  6
CONTINUOUS
 62
     3
  5
123
 10
61.0
 20
22.0
 30
0.0
 11
61.0
 21
19.0
 31
0.0
  0
LINE
  8
LY_1
  6
CONTINUOUS
 62
     3
  5
124
 10
61.0
 20
16.0
 30
0.0
 11
61.0
 21
13.0
 31
0.0
  0
LINE
  8
LY_1
  6
CONTINUOUS
 62
     3
  5
125
 10
22.2
 20
13.0
 30
0.0
 11
22.2
 21
16.0
 31
0.0
  0
LINE
  8
LY_1
  6
CONTINUOUS
 62
     3
  5
126
 10
22.2
 20
19.0
 30
0.0
 11
22.2
 21
22.0
 31
0.0
  0
LINE
  8
LY_1
  6
CONTINUOUS
 62
     3
  5
127
 10
22.2
 20
25.0
 30
0.0
 11
22.2
 21
28.0
 31
0.0
  0
LINE
  8
LY_1
  6
CONTINUOUS
 62
     3
  5
128
 10
22.2
 20
31.0
 30
0.0
 11
22.2
 21
34.0
 31
0.0
  0
ARC
  8
LY_1
  6
CONTINUOUS
 62
     3
  5
129
 10
0.0
 20
-471.833333
 30
0.0
 40
660.833333
 50
86.138825
 51
93.861175
  0
ARC
  8
LY_1
  6
CONTINUOUS
 62
     3
  5
12A
 10
0.0
 20
1175.625
 30
0.0
 40
990.625
 50
267.425342
 51
272.574658
  0
ENDSEC
  0
EOF
