  0
SECTION
  2
HEADER
  9
$ACADVER
  1
AC1009
  9
$DWGCODEPAGE
  3
dos932
  9
$INSBASE
 10
0.0
 20
0.0
 30
0.0
  9
$EXTMIN
 10
-60.0
 20
-204.808431
 30
0.0
  9
$EXTMAX
 10
60.0
 20
185.0
 30
0.0
  9
$LIMMIN
 10
-60.0
 20
-204.808431
  9
$LIMMAX
 10
60.0
 20
185.0
  9
$ORTHOMODE
 70
     0
  9
$REGENMODE
 70
     1
  9
$FILLMODE
 70
     1
  9
$QTEXTMODE
 70
     0
  9
$MIRRTEXT
 70
     1
  9
$DRAGMODE
 70
     2
  9
$LTSCALE
 40
1.0
  9
$OSMODE
 70
     0
  9
$ATTMODE
 70
     1
  9
$TEXTSIZE
 40
4.1656
  9
$TRACEWID
 40
0.05
  9
$TEXTSTYLE
  7
MX_NOTE_STANDARD
  9
$CLAYER
  8
0
  9
$CELTYPE
  6
CONTINUOUS
  9
$CECOLOR
 62
   256
  9
$DIMSCALE
 40
1.0
  9
$DIMASZ
 40
2.5
  9
$DIMEXO
 40
0.5
  9
$DIMDLI
 40
3.75
  9
$DIMRND
 40
0.0
  9
$DIMDLE
 40
0.0
  9
$DIMEXE
 40
1.0
  9
$DIMTP
 40
0.0
  9
$DIMTM
 40
0.0
  9
$DIMTXT
 40
2.5
  9
$DIMCEN
 40
2.5
  9
$DIMTSZ
 40
0.0
  9
$DIMTOL
 70
     0
  9
$DIMLIM
 70
     0
  9
$DIMTIH
 70
     0
  9
$DIMTOH
 70
     0
  9
$DIMSE1
 70
     0
  9
$DIMSE2
 70
     0
  9
$DIMTAD
 70
     1
  9
$DIMZIN
 70
     8
  9
$DIMBLK
  1

  9
$DIMASO
 70
     1
  9
$DIMSHO
 70
     1
  9
$DIMPOST
  1

  9
$DIMAPOST
  1

  9
$DIMALT
 70
     0
  9
$DIMALTD
 70
     4
  9
$DIMALTF
 40
0.03937
  9
$DIMLFAC
 40
1.0
  9
$DIMTOFL
 70
     1
  9
$DIMTVP
 40
0.0
  9
$DIMTIX
 70
     0
  9
$DIMSOXD
 70
     0
  9
$DIMSAH
 70
     0
  9
$DIMBLK1
  1

  9
$DIMBLK2
  1

  9
$DIMSTYLE
  2
MXDIMSTYLE
  9
$DIMCLRD
 70
     0
  9
$DIMCLRE
 70
     0
  9
$DIMCLRT
 70
     0
  9
$DIMTFAC
 40
1.0
  9
$DIMGAP
 40
1.0
  9
$LUNITS
 70
     2
  9
$LUPREC
 70
     4
  9
$AXISMODE
 70
     0
  9
$AXISUNIT
 10
0.0
 20
0.0
  9
$SKETCHINC
 40
0.1
  9
$FILLETRAD
 40
0.0
  9
$AUNITS
 70
     0
  9
$AUPREC
 70
     0
  9
$MENU
  1
acad
  9
$ELEVATION
 40
0.0
  9
$PELEVATION
 40
0.0
  9
$THICKNESS
 40
0.0
  9
$LIMCHECK
 70
     0
  9
$BLIPMODE
 70
     1
  9
$CHAMFERA
 40
0.0
  9
$CHAMFERB
 40
0.0
  9
$SKPOLY
 70
     0
  9
$TDCREATE
 40
2453676.660868056
  9
$TDUPDATE
 40
2453676.660868056
  9
$TDINDWG
 40
0.0000000000
  9
$TDUSRTIMER
 40
0.0000000000
  9
$USRTIMER
 70
     1
  9
$ANGBASE
 50
0.0
  9
$ANGDIR
 70
     0
  9
$PDMODE
 70
     0
  9
$PDSIZE
 40
0.0
  9
$PLINEWID
 40
0.0
  9
$COORDS
 70
     1
  9
$SPLFRAME
 70
     0
  9
$SPLINETYPE
 70
     6
  9
$SPLINESEGS
 70
     8
  9
$ATTDIA
 70
     0
  9
$ATTREQ
 70
     1
  9
$HANDLING
 70
     1
  9
$HANDSEED
  5
24B
  9
$SURFTAB1
 70
     6
  9
$SURFTAB2
 70
     6
  9
$SURFTYPE
 70
     6
  9
$SURFU
 70
     6
  9
$SURFV
 70
     6
  9
$UCSNAME
  2

  9
$UCSORG
 10
0.0
 20
0.0
 30
0.0
  9
$UCSXDIR
 10
1.0
 20
0.0
 30
0.0
  9
$UCSYDIR
 10
0.0
 20
1.0
 30
0.0
  9
$PUCSNAME
  2

  9
$PUCSORG
 10
0.0
 20
0.0
 30
0.0
  9
$PUCSXDIR
 10
1.0
 20
0.0
 30
0.0
  9
$PUCSYDIR
 10
0.0
 20
1.0
 30
0.0
  9
$USERI1
 70
     0
  9
$USERI2
 70
     0
  9
$USERI3
 70
     0
  9
$USERI4
 70
     0
  9
$USERI5
 70
     0
  9
$USERR1
 40
0.0
  9
$USERR2
 40
0.0
  9
$USERR3
 40
0.0
  9
$USERR4
 40
0.0
  9
$USERR5
 40
0.0
  9
$WORLDVIEW
 70
     1
  9
$SHADEDGE
 70
     3
  9
$SHADEDIF
 70
    70
  9
$TILEMODE
 70
     1
  9
$MAXACTVP
 70
    16
  9
$PINSBASE
 10
0.0
 20
0.0
 30
0.0
  9
$PLIMCHECK
 70
     0
  9
$PEXTMIN
 10
1.000000E+20
 20
1.000000E+20
 30
1.000000E+20
  9
$PEXTMAX
 10
-1.000000E+20
 20
-1.000000E+20
 30
-1.000000E+20
  9
$PLIMMIN
 10
0.0
 20
0.0
  9
$PLIMMAX
 10
12.0
 20
9.0
  9
$UNITMODE
 70
     0
  9
$VISRETAIN
 70
     0
  9
$PLINEGEN
 70
     1
  9
$PSLTSCALE
 70
     0
  9
$TREEDEPTH
 70
  3020
  9
$DWGCODEPAGE
  3
dos932
  0
ENDSEC
  0
SECTION
  2
TABLES
  0
TABLE
  2
VPORT
 70
     1
  0
VPORT
  2
*ACTIVE
 70
     0
 10
0.0
 20
0.0
 11
1.0
 21
1.0
 12
0.0
 22
-9.904215
 13
0.0
 23
0.0
 14
1.0
 24
1.0
 15
0.0
 25
0.0
 16
0.0
 26
0.0
 36
1.0
 17
0.0
 27
0.0
 37
0.0
 40
393.706515
 41
1.732051
 42
50.0
 43
0.0
 44
0.0
 50
0.0
 51
0.0
 71
     0
 72
   100
 73
     1
 74
     1
 75
     0
 76
     0
 77
     0
 78
     0
  0
ENDTAB
  0
TABLE
  2
LTYPE
 70
     1
  0
LTYPE
  2
CONTINUOUS
 70
    64
  3
Solid line
 72
    65
 73
     0
 40
0.0
  0
ENDTAB
  0
TABLE
  2
LAYER
 70
     5
  0
LAYER
  2
0
 70
     0
 62
     7
  6
CONTINUOUS
  0
LAYER
  2
1
 70
     0
 62
     7
  6
CONTINUOUS
  0
LAYER
  2
30
 70
     0
 62
     7
  6
CONTINUOUS
  0
LAYER
  2
_CONSTR
 70
     0
 62
     5
  6
CONTINUOUS
  0
LAYER
  2
DEFPOINTS
 70
     0
 62
     7
  6
CONTINUOUS
  0
ENDTAB
  0
TABLE
  2
STYLE
 70
     1
  0
STYLE
  2
MX_NOTE_STANDARD
 70
     0
 40
0.0
 41
1.0
 50
0.0
 71
     0
 42
4.1656
  3
txt.shx
  4
extfont.shx
  0
ENDTAB
  0
TABLE
  2
VIEW
 70
     0
  0
ENDTAB
  0
TABLE
  2
UCS
 70
     0
  0
ENDTAB
  0
TABLE
  2
APPID
 70
     1
  0
APPID
  2
ACAD
 70
     0
  0
ENDTAB
  0
TABLE
  2
DIMSTYLE
 70
     1
  0
DIMSTYLE
  2
MXDIMSTYLE
 70
     0
  3

  4

  5

  6

  7

 40
1.0
 41
2.5
 42
0.5
 43
3.75
 44
1.0
 45
0.0
 46
0.0
 47
0.0
 48
0.0
 71
     0
 72
     0
 73
     0
 74
     0
 75
     0
 76
     0
 77
     1
 78
     8
140
2.5
141
2.5
142
0.0
143
0.03937
144
1.0
145
0.0
146
1.0
147
1.0
170
     0
171
     4
172
     1
173
     0
174
     0
175
     0
176
     0
177
     0
178
     0
  0
ENDTAB
  0
ENDSEC
  0
SECTION
  2
BLOCKS
  0
ENDSEC
  0
SECTION
  2
ENTITIES
  0
LINE
  8
0
  6
CONTINUOUS
 62
     3
  5
21
 10
2.5
 20
-25.5
 30
0.0
 11
2.0
 21
-26.0
 31
0.0
  0
LINE
  8
0
  6
CONTINUOUS
 62
     3
  5
22
 10
-2.5
 20
-15.329004
 30
0.0
 11
-2.5
 21
-25.5
 31
0.0
  0
LINE
  8
0
  6
CONTINUOUS
 62
     3
  5
23
 10
-2.0
 20
-26.0
 30
0.0
 11
2.0
 21
-26.0
 31
0.0
  0
LINE
  8
0
  6
CONTINUOUS
 62
     3
  5
24
 10
2.5
 20
-25.5
 30
0.0
 11
2.5
 21
-15.329004
 31
0.0
  0
LINE
  8
0
  6
CONTINUOUS
 62
    80
  5
25
 10
-2.0
 20
-15.329004
 30
0.0
 11
-2.0
 21
-26.0
 31
0.0
  0
LINE
  8
0
  6
CONTINUOUS
 62
    80
  5
26
 10
2.0
 20
-15.329004
 30
0.0
 11
2.0
 21
-26.0
 31
0.0
  0
LINE
  8
0
  6
CONTINUOUS
 62
    80
  5
27
 10
-2.5
 20
-25.5
 30
0.0
 11
2.5
 21
-25.5
 31
0.0
  0
LINE
  8
0
  6
CONTINUOUS
 62
     3
  5
28
 10
-2.5
 20
-25.5
 30
0.0
 11
-2.0
 21
-26.0
 31
0.0
  0
LINE
  8
0
  6
CONTINUOUS
 62
     3
  5
29
 10
7.5
 20
-11.0
 30
0.0
 11
7.5
 21
-10.0
 31
0.0
  0
LINE
  8
0
  6
CONTINUOUS
 62
     3
  5
2A
 10
-7.5
 20
-11.0
 30
0.0
 11
7.5
 21
-11.0
 31
0.0
  0
LINE
  8
0
  6
CONTINUOUS
 62
     3
  5
2B
 10
-7.5
 20
-10.0
 30
0.0
 11
-7.5
 21
-11.0
 31
0.0
  0
LINE
  8
0
  6
CONTINUOUS
 62
     3
  5
2C
 10
-7.5
 20
-10.0
 30
0.0
 11
7.5
 21
-10.0
 31
0.0
  0
LINE
  8
0
  6
CONTINUOUS
 62
     3
  5
2D
 10
-5.279631
 20
-11.779221
 30
0.0
 11
-5.279631
 21
-11.34632
 31
0.0
  0
LINE
  8
0
  6
CONTINUOUS
 62
     3
  5
2E
 10
5.109978
 20
-11.779221
 30
0.0
 11
5.109978
 21
-11.34632
 31
0.0
  0
LINE
  8
0
  6
CONTINUOUS
 62
     3
  5
2F
 10
3.914136
 20
-12.349821
 30
0.0
 11
5.109978
 21
-11.779221
 31
0.0
  0
LINE
  8
0
  6
CONTINUOUS
 62
     3
  5
30
 10
-4.083789
 20
-12.349821
 30
0.0
 11
-5.279631
 21
-11.779221
 31
0.0
  0
ARC
  8
0
  6
CONTINUOUS
 62
     3
  5
31
 10
3.261021
 20
-9.442646
 30
0.0
 40
2.979635
 50
243.137163
 51
282.661633
  0
ARC
  8
0
  6
CONTINUOUS
 62
     3
  5
32
 10
-0.084827
 20
-6.044483
 30
0.0
 40
6.377798
 50
251.729322
 51
288.270678
  0
ARC
  8
0
  6
CONTINUOUS
 62
     3
  5
33
 10
-3.430674
 20
-9.442646
 30
0.0
 40
2.979635
 50
257.338367
 51
296.862837
  0
ARC
  8
0
  6
CONTINUOUS
 62
     3
  5
34
 10
2.914395
 20
-13.558737
 30
0.0
 40
1.770267
 50
235.615753
 51
295.615753
  0
ARC
  8
0
  6
CONTINUOUS
 62
     3
  5
35
 10
-0.084827
 20
-8.711918
 30
0.0
 40
6.617086
 50
252.412046
 51
287.587954
  0
ARC
  8
0
  6
CONTINUOUS
 62
     3
  5
36
 10
-3.084048
 20
-13.558737
 30
0.0
 40
1.770267
 50
244.384247
 51
304.384247
  0
LINE
  8
0
  6
CONTINUOUS
 62
     3
  5
37
 10
3.378377
 20
-15.329004
 30
0.0
 11
3.914136
 21
-15.019683
 31
0.0
  0
LINE
  8
0
  6
CONTINUOUS
 62
     3
  5
38
 10
-3.54803
 20
-15.329004
 30
0.0
 11
-4.083789
 21
-15.019683
 31
0.0
  0
LINE
  8
0
  6
CONTINUOUS
 62
     3
  5
39
 10
-4.083789
 20
-15.019683
 30
0.0
 11
-4.083789
 21
-12.349821
 31
0.0
  0
LINE
  8
0
  6
CONTINUOUS
 62
     3
  5
3A
 10
3.914136
 20
-15.019683
 30
0.0
 11
3.914136
 21
-12.349821
 31
0.0
  0
LINE
  8
0
  6
CONTINUOUS
 62
     3
  5
3B
 10
1.914655
 20
-15.019683
 30
0.0
 11
1.914655
 21
-12.100751
 31
0.0
  0
LINE
  8
0
  6
CONTINUOUS
 62
     3
  5
3C
 10
-2.084308
 20
-15.019683
 30
0.0
 11
-2.084308
 21
-12.100751
 31
0.0
  0
LINE
  8
0
  6
CONTINUOUS
 62
     3
  5
3D
 10
-3.54803
 20
-15.329004
 30
0.0
 11
3.378377
 21
-15.329004
 31
0.0
  0
LINE
  8
0
  6
CONTINUOUS
 62
     3
  5
3E
 10
-5.279631
 20
-11.779221
 30
0.0
 11
5.109978
 21
-11.779221
 31
0.0
  0
LINE
  8
0
  6
CONTINUOUS
 62
     3
  5
3F
 10
-4.987642
 20
-11.0
 30
0.0
 11
4.817989
 21
-11.0
 31
0.0
  0
ARC
  8
0
  6
CONTINUOUS
 62
     3
  5
40
 10
4.763658
 20
-11.34632
 30
0.0
 40
0.34632
 50
0.0
 51
90.0
  0
ARC
  8
0
  6
CONTINUOUS
 62
     3
  5
41
 10
-4.933311
 20
-11.34632
 30
0.0
 40
0.34632
 50
90.0
 51
180.0
  0
LINE
  8
0
  6
CONTINUOUS
 62
     3
  5
42
 10
-4.933311
 20
-11.0
 30
0.0
 11
4.763658
 21
-11.0
 31
0.0
  0
LINE
  8
0
  6
CONTINUOUS
 62
     3
  5
43
 10
7.5
 20
-10.0
 30
0.0
 11
7.5
 21
0.0
 31
0.0
  0
LINE
  8
0
  6
CONTINUOUS
 62
     3
  5
44
 10
-7.5
 20
0.0
 30
0.0
 11
-7.5
 21
-10.0
 31
0.0
  0
LINE
  8
0
  6
CONTINUOUS
 62
     3
  5
45
 10
-41.471143
 20
-25.5
 30
0.0
 11
-40.971143
 21
-26.0
 31
0.0
  0
LINE
  8
0
  6
CONTINUOUS
 62
     3
  5
46
 10
-36.471143
 20
-15.329004
 30
0.0
 11
-36.471143
 21
-25.5
 31
0.0
  0
LINE
  8
0
  6
CONTINUOUS
 62
     3
  5
47
 10
-36.971143
 20
-26.0
 30
0.0
 11
-40.971143
 21
-26.0
 31
0.0
  0
LINE
  8
0
  6
CONTINUOUS
 62
     3
  5
48
 10
-41.471143
 20
-25.5
 30
0.0
 11
-41.471143
 21
-15.329004
 31
0.0
  0
LINE
  8
0
  6
CONTINUOUS
 62
    80
  5
49
 10
-36.971143
 20
-15.329004
 30
0.0
 11
-36.971143
 21
-26.0
 31
0.0
  0
LINE
  8
0
  6
CONTINUOUS
 62
    80
  5
4A
 10
-40.971143
 20
-15.329004
 30
0.0
 11
-40.971143
 21
-26.0
 31
0.0
  0
LINE
  8
0
  6
CONTINUOUS
 62
    80
  5
4B
 10
-36.471143
 20
-25.5
 30
0.0
 11
-41.471143
 21
-25.5
 31
0.0
  0
LINE
  8
0
  6
CONTINUOUS
 62
     3
  5
4C
 10
-36.471143
 20
-25.5
 30
0.0
 11
-36.971143
 21
-26.0
 31
0.0
  0
LINE
  8
0
  6
CONTINUOUS
 62
     3
  5
4D
 10
-46.471143
 20
-11.0
 30
0.0
 11
-46.471143
 21
-10.0
 31
0.0
  0
LINE
  8
0
  6
CONTINUOUS
 62
     3
  5
4E
 10
-31.471143
 20
-11.0
 30
0.0
 11
-46.471143
 21
-11.0
 31
0.0
  0
LINE
  8
0
  6
CONTINUOUS
 62
     3
  5
4F
 10
-31.471143
 20
-10.0
 30
0.0
 11
-31.471143
 21
-11.0
 31
0.0
  0
LINE
  8
0
  6
CONTINUOUS
 62
     3
  5
50
 10
-31.471143
 20
-10.0
 30
0.0
 11
-46.471143
 21
-10.0
 31
0.0
  0
LINE
  8
0
  6
CONTINUOUS
 62
     3
  5
51
 10
-33.691512
 20
-11.779221
 30
0.0
 11
-33.691512
 21
-11.34632
 31
0.0
  0
LINE
  8
0
  6
CONTINUOUS
 62
     3
  5
52
 10
-44.081121
 20
-11.779221
 30
0.0
 11
-44.081121
 21
-11.34632
 31
0.0
  0
LINE
  8
0
  6
CONTINUOUS
 62
     3
  5
53
 10
-42.885279
 20
-12.349821
 30
0.0
 11
-44.081121
 21
-11.779221
 31
0.0
  0
LINE
  8
0
  6
CONTINUOUS
 62
     3
  5
54
 10
-34.887354
 20
-12.349821
 30
0.0
 11
-33.691512
 21
-11.779221
 31
0.0
  0
ARC
  8
0
  6
CONTINUOUS
 62
     3
  5
55
 10
-42.232164
 20
-9.442646
 30
0.0
 40
2.979635
 50
257.338367
 51
296.862837
  0
ARC
  8
0
  6
CONTINUOUS
 62
     3
  5
56
 10
-38.886317
 20
-6.044483
 30
0.0
 40
6.377798
 50
251.729322
 51
288.270678
  0
ARC
  8
0
  6
CONTINUOUS
 62
     3
  5
57
 10
-35.540469
 20
-9.442646
 30
0.0
 40
2.979635
 50
243.137163
 51
282.661633
  0
ARC
  8
0
  6
CONTINUOUS
 62
     3
  5
58
 10
-41.885539
 20
-13.558737
 30
0.0
 40
1.770267
 50
244.384247
 51
304.384247
  0
ARC
  8
0
  6
CONTINUOUS
 62
     3
  5
59
 10
-38.886317
 20
-8.711918
 30
0.0
 40
6.617086
 50
252.412046
 51
287.587954
  0
ARC
  8
0
  6
CONTINUOUS
 62
     3
  5
5A
 10
-35.887095
 20
-13.558737
 30
0.0
 40
1.770267
 50
235.615753
 51
295.615753
  0
LINE
  8
0
  6
CONTINUOUS
 62
     3
  5
5B
 10
-42.34952
 20
-15.329004
 30
0.0
 11
-42.885279
 21
-15.019683
 31
0.0
  0
LINE
  8
0
  6
CONTINUOUS
 62
     3
  5
5C
 10
-35.423113
 20
-15.329004
 30
0.0
 11
-34.887354
 21
-15.019683
 31
0.0
  0
LINE
  8
0
  6
CONTINUOUS
 62
     3
  5
5D
 10
-34.887354
 20
-15.019683
 30
0.0
 11
-34.887354
 21
-12.349821
 31
0.0
  0
LINE
  8
0
  6
CONTINUOUS
 62
     3
  5
5E
 10
-42.885279
 20
-15.019683
 30
0.0
 11
-42.885279
 21
-12.349821
 31
0.0
  0
LINE
  8
0
  6
CONTINUOUS
 62
     3
  5
5F
 10
-40.885798
 20
-15.019683
 30
0.0
 11
-40.885798
 21
-12.100751
 31
0.0
  0
LINE
  8
0
  6
CONTINUOUS
 62
     3
  5
60
 10
-36.886835
 20
-15.019683
 30
0.0
 11
-36.886835
 21
-12.100751
 31
0.0
  0
LINE
  8
0
  6
CONTINUOUS
 62
     3
  5
61
 10
-35.423113
 20
-15.329004
 30
0.0
 11
-42.34952
 21
-15.329004
 31
0.0
  0
LINE
  8
0
  6
CONTINUOUS
 62
     3
  5
62
 10
-33.691512
 20
-11.779221
 30
0.0
 11
-44.081121
 21
-11.779221
 31
0.0
  0
LINE
  8
0
  6
CONTINUOUS
 62
     3
  5
63
 10
-33.983501
 20
-11.0
 30
0.0
 11
-43.789132
 21
-11.0
 31
0.0
  0
ARC
  8
0
  6
CONTINUOUS
 62
     3
  5
64
 10
-43.734801
 20
-11.34632
 30
0.0
 40
0.34632
 50
90.0
 51
180.0
  0
ARC
  8
0
  6
CONTINUOUS
 62
     3
  5
65
 10
-34.037832
 20
-11.34632
 30
0.0
 40
0.34632
 50
0.0
 51
90.0
  0
LINE
  8
0
  6
CONTINUOUS
 62
     3
  5
66
 10
-34.037832
 20
-11.0
 30
0.0
 11
-43.734801
 21
-11.0
 31
0.0
  0
LINE
  8
0
  6
CONTINUOUS
 62
     3
  5
67
 10
-46.471143
 20
-10.0
 30
0.0
 11
-46.471143
 21
0.0
 31
0.0
  0
LINE
  8
0
  6
CONTINUOUS
 62
     3
  5
68
 10
-31.471143
 20
0.0
 30
0.0
 11
-31.471143
 21
-10.0
 31
0.0
  0
CIRCLE
  8
0
  6
CONTINUOUS
 62
    30
  5
69
 10
38.971143
 20
-150.571429
 30
0.0
 40
2.4
  0
CIRCLE
  8
0
  6
CONTINUOUS
 62
    30
  5
6A
 10
38.971143
 20
-150.571429
 30
0.0
 40
2.5
  0
LINE
  8
0
  6
CONTINUOUS
 62
    30
  5
6B
 10
42.971143
 20
-148.262027
 30
0.0
 11
42.971143
 21
-152.88083
 31
0.0
  0
LINE
  8
0
  6
CONTINUOUS
 62
    30
  5
6C
 10
42.971143
 20
-152.88083
 30
0.0
 11
38.971143
 21
-155.190231
 31
0.0
  0
CIRCLE
  8
0
  6
CONTINUOUS
 62
    30
  5
6D
 10
38.971143
 20
-150.571429
 30
0.0
 40
4.0
  0
LINE
  8
0
  6
CONTINUOUS
 62
    30
  5
6E
 10
38.971143
 20
-155.190231
 30
0.0
 11
34.971143
 21
-152.88083
 31
0.0
  0
LINE
  8
0
  6
CONTINUOUS
 62
    30
  5
6F
 10
42.971143
 20
-148.262027
 30
0.0
 11
38.971143
 21
-145.952626
 31
0.0
  0
LINE
  8
0
  6
CONTINUOUS
 62
    30
  5
70
 10
38.971143
 20
-145.952626
 30
0.0
 11
34.971143
 21
-148.262027
 31
0.0
  0
LINE
  8
0
  6
CONTINUOUS
 62
    30
  5
71
 10
34.971143
 20
-148.262027
 30
0.0
 11
34.971143
 21
-152.88083
 31
0.0
  0
CIRCLE
  8
0
  6
CONTINUOUS
 62
    30
  5
72
 10
38.971143
 20
-150.571429
 30
0.0
 40
6.0
  0
CIRCLE
  8
0
  6
CONTINUOUS
 62
    30
  5
73
 10
-38.971143
 20
-150.571429
 30
0.0
 40
2.4
  0
CIRCLE
  8
0
  6
CONTINUOUS
 62
    30
  5
74
 10
-38.971143
 20
-150.571429
 30
0.0
 40
2.5
  0
LINE
  8
0
  6
CONTINUOUS
 62
    30
  5
75
 10
-38.971143
 20
-155.190231
 30
0.0
 11
-42.971143
 21
-152.88083
 31
0.0
  0
LINE
  8
0
  6
CONTINUOUS
 62
    30
  5
76
 10
-42.971143
 20
-152.88083
 30
0.0
 11
-42.971143
 21
-148.262027
 31
0.0
  0
CIRCLE
  8
0
  6
CONTINUOUS
 62
    30
  5
77
 10
-38.971143
 20
-150.571429
 30
0.0
 40
4.0
  0
LINE
  8
0
  6
CONTINUOUS
 62
    30
  5
78
 10
-42.971143
 20
-148.262027
 30
0.0
 11
-38.971143
 21
-145.952626
 31
0.0
  0
LINE
  8
0
  6
CONTINUOUS
 62
    30
  5
79
 10
-38.971143
 20
-155.190231
 30
0.0
 11
-34.971143
 21
-152.88083
 31
0.0
  0
LINE
  8
0
  6
CONTINUOUS
 62
    30
  5
7A
 10
-34.971143
 20
-152.88083
 30
0.0
 11
-34.971143
 21
-148.262027
 31
0.0
  0
LINE
  8
0
  6
CONTINUOUS
 62
    30
  5
7B
 10
-34.971143
 20
-148.262027
 30
0.0
 11
-38.971143
 21
-145.952626
 31
0.0
  0
CIRCLE
  8
0
  6
CONTINUOUS
 62
    30
  5
7C
 10
-38.971143
 20
-150.571429
 30
0.0
 40
6.0
  0
LINE
  8
0
  6
CONTINUOUS
 62
    30
  5
7D
 10
-4.0
 20
-80.762027
 30
0.0
 11
-4.0
 21
-85.38083
 31
0.0
  0
LINE
  8
0
  6
CONTINUOUS
 62
    30
  5
7E
 10
4.0
 20
-80.762027
 30
0.0
 11
4.0
 21
-85.38083
 31
0.0
  0
CIRCLE
  8
0
  6
CONTINUOUS
 62
    30
  5
7F
 10
0.0
 20
-83.071429
 30
0.0
 40
4.0
  0
LINE
  8
0
  6
CONTINUOUS
 62
    30
  5
80
 10
0.0
 20
-78.452626
 30
0.0
 11
4.0
 21
-80.762027
 31
0.0
  0
LINE
  8
0
  6
CONTINUOUS
 62
    30
  5
81
 10
-4.0
 20
-85.38083
 30
0.0
 11
0.0
 21
-87.690231
 31
0.0
  0
LINE
  8
0
  6
CONTINUOUS
 62
    30
  5
82
 10
-4.0
 20
-80.762027
 30
0.0
 11
0.0
 21
-78.452626
 31
0.0
  0
LINE
  8
0
  6
CONTINUOUS
 62
    30
  5
83
 10
0.0
 20
-87.690231
 30
0.0
 11
4.0
 21
-85.38083
 31
0.0
  0
CIRCLE
  8
0
  6
CONTINUOUS
 62
    30
  5
84
 10
0.0
 20
-83.071429
 30
0.0
 40
2.5
  0
CIRCLE
  8
0
  6
CONTINUOUS
 62
    30
  5
85
 10
0.0
 20
-83.071429
 30
0.0
 40
2.4
  0
CIRCLE
  8
0
  6
CONTINUOUS
 62
    30
  5
86
 10
0.0
 20
-83.071429
 30
0.0
 40
6.0
  0
LINE
  8
0
  6
CONTINUOUS
 62
     3
  5
87
 10
34.037832
 20
-11.0
 30
0.0
 11
43.734801
 21
-11.0
 31
0.0
  0
ARC
  8
0
  6
CONTINUOUS
 62
     3
  5
88
 10
34.037832
 20
-11.34632
 30
0.0
 40
0.34632
 50
90.0
 51
180.0
  0
ARC
  8
0
  6
CONTINUOUS
 62
     3
  5
89
 10
43.734801
 20
-11.34632
 30
0.0
 40
0.34632
 50
0.0
 51
90.0
  0
LINE
  8
0
  6
CONTINUOUS
 62
     3
  5
8A
 10
33.983501
 20
-11.0
 30
0.0
 11
43.789132
 21
-11.0
 31
0.0
  0
LINE
  8
0
  6
CONTINUOUS
 62
     3
  5
8B
 10
33.691512
 20
-11.779221
 30
0.0
 11
44.081121
 21
-11.779221
 31
0.0
  0
LINE
  8
0
  6
CONTINUOUS
 62
     3
  5
8C
 10
35.423113
 20
-15.329004
 30
0.0
 11
42.34952
 21
-15.329004
 31
0.0
  0
LINE
  8
0
  6
CONTINUOUS
 62
     3
  5
8D
 10
36.886835
 20
-15.019683
 30
0.0
 11
36.886835
 21
-12.100751
 31
0.0
  0
LINE
  8
0
  6
CONTINUOUS
 62
     3
  5
8E
 10
40.885798
 20
-15.019683
 30
0.0
 11
40.885798
 21
-12.100751
 31
0.0
  0
LINE
  8
0
  6
CONTINUOUS
 62
     3
  5
8F
 10
42.885279
 20
-15.019683
 30
0.0
 11
42.885279
 21
-12.349821
 31
0.0
  0
LINE
  8
0
  6
CONTINUOUS
 62
     3
  5
90
 10
34.887354
 20
-15.019683
 30
0.0
 11
34.887354
 21
-12.349821
 31
0.0
  0
LINE
  8
0
  6
CONTINUOUS
 62
     3
  5
91
 10
35.423113
 20
-15.329004
 30
0.0
 11
34.887354
 21
-15.019683
 31
0.0
  0
LINE
  8
0
  6
CONTINUOUS
 62
     3
  5
92
 10
42.34952
 20
-15.329004
 30
0.0
 11
42.885279
 21
-15.019683
 31
0.0
  0
ARC
  8
0
  6
CONTINUOUS
 62
     3
  5
93
 10
35.887095
 20
-13.558737
 30
0.0
 40
1.770267
 50
244.384247
 51
304.384247
  0
ARC
  8
0
  6
CONTINUOUS
 62
     3
  5
94
 10
38.886317
 20
-8.711918
 30
0.0
 40
6.617086
 50
252.412046
 51
287.587954
  0
ARC
  8
0
  6
CONTINUOUS
 62
     3
  5
95
 10
41.885539
 20
-13.558737
 30
0.0
 40
1.770267
 50
235.615753
 51
295.615753
  0
ARC
  8
0
  6
CONTINUOUS
 62
     3
  5
96
 10
35.540469
 20
-9.442646
 30
0.0
 40
2.979635
 50
257.338367
 51
296.862837
  0
ARC
  8
0
  6
CONTINUOUS
 62
     3
  5
97
 10
38.886317
 20
-6.044483
 30
0.0
 40
6.377798
 50
251.729322
 51
288.270678
  0
ARC
  8
0
  6
CONTINUOUS
 62
     3
  5
98
 10
42.232164
 20
-9.442646
 30
0.0
 40
2.979635
 50
243.137163
 51
282.661633
  0
LINE
  8
0
  6
CONTINUOUS
 62
     3
  5
99
 10
34.887354
 20
-12.349821
 30
0.0
 11
33.691512
 21
-11.779221
 31
0.0
  0
LINE
  8
0
  6
CONTINUOUS
 62
     3
  5
9A
 10
42.885279
 20
-12.349821
 30
0.0
 11
44.081121
 21
-11.779221
 31
0.0
  0
LINE
  8
0
  6
CONTINUOUS
 62
     3
  5
9B
 10
44.081121
 20
-11.779221
 30
0.0
 11
44.081121
 21
-11.34632
 31
0.0
  0
LINE
  8
0
  6
CONTINUOUS
 62
     3
  5
9C
 10
33.691512
 20
-11.779221
 30
0.0
 11
33.691512
 21
-11.34632
 31
0.0
  0
ARC
  8
0
  6
CONTINUOUS
 62
    27
  5
9D
 10
22.5
 20
-167.042572
 30
0.0
 40
2.25
 50
0.0
 51
180.0
  0
ARC
  8
0
  6
CONTINUOUS
 62
    27
  5
9E
 10
22.5
 20
-167.042572
 30
0.0
 40
7.5
 50
287.457603
 51
80.520476
  0
ARC
  8
0
  6
CONTINUOUS
 62
    80
  5
9F
 10
43.70052
 20
-201.433431
 30
0.0
 40
1.40625
 50
126.869898
 51
233.130102
  0
ARC
  8
0
  6
CONTINUOUS
 62
    80
  5
A0
 10
42.01302
 20
-203.683431
 30
0.0
 40
1.40625
 50
306.869898
 51
53.130102
  0
LINE
  8
0
  6
CONTINUOUS
 62
     3
  5
A1
 10
25.25
 20
-204.808431
 30
0.0
 11
42.85677
 21
-204.808431
 31
0.0
  0
LINE
  8
0
  6
CONTINUOUS
 62
     3
  5
A2
 10
25.25
 20
-201.808431
 30
0.0
 11
42.345192
 21
-201.808431
 31
0.0
  0
LINE
  8
0
  6
CONTINUOUS
 62
     3
  5
A3
 10
23.25
 20
-167.042572
 30
0.0
 11
23.25
 21
-199.808431
 31
0.0
  0
LINE
  8
0
  6
CONTINUOUS
 62
     3
  5
A4
 10
24.75
 20
-199.808431
 30
0.0
 11
24.75
 21
-167.042572
 31
0.0
  0
LINE
  8
0
  6
CONTINUOUS
 62
     3
  5
A5
 10
25.25
 20
-203.308431
 30
0.0
 11
43.368348
 21
-203.308431
 31
0.0
  0
ARC
  8
0
  6
CONTINUOUS
 62
     3
  5
A6
 10
25.25
 20
-199.808431
 30
0.0
 40
2.0
 50
180.0
 51
270.0
  0
LINE
  8
0
  6
CONTINUOUS
 62
     3
  5
A7
 10
20.25
 20
-167.042572
 30
0.0
 11
20.25
 21
-199.808431
 31
0.0
  0
LINE
  8
0
  6
CONTINUOUS
 62
     3
  5
A8
 10
25.25
 20
-200.308431
 30
0.0
 11
42.85677
 21
-200.308431
 31
0.0
  0
ARC
  8
0
  6
CONTINUOUS
 62
     3
  5
A9
 10
25.25
 20
-199.808431
 30
0.0
 40
5.0
 50
180.0
 51
270.0
  0
LINE
  8
0
  6
CONTINUOUS
 62
     3
  5
AA
 10
21.75
 20
-167.042572
 30
0.0
 11
21.75
 21
-199.808431
 31
0.0
  0
ARC
  8
0
  6
CONTINUOUS
 62
     3
  5
AB
 10
25.25
 20
-199.808431
 30
0.0
 40
0.5
 50
180.0
 51
270.0
  0
ARC
  8
0
  6
CONTINUOUS
 62
     3
  5
AC
 10
25.25
 20
-199.808431
 30
0.0
 40
3.5
 50
180.0
 51
270.0
  0
ARC
  8
0
  6
CONTINUOUS
 62
    27
  5
AD
 10
22.5
 20
-167.042572
 30
0.0
 40
4.0
 50
304.228866
 51
235.771134
  0
ARC
  8
0
  6
CONTINUOUS
 62
    27
  5
AE
 10
22.5
 20
-167.042572
 30
0.0
 40
7.5
 50
159.479524
 51
252.542397
  0
LINE
  8
0
  6
CONTINUOUS
 62
     3
  5
AF
 10
-30.947586
 20
-179.47422
 30
0.0
 11
-20.694968
 21
-161.716165
 31
0.0
  0
LINE
  8
0
  6
CONTINUOUS
 62
     3
  5
B0
 10
-29.04233
 20
-180.57422
 30
0.0
 11
-18.789712
 21
-162.816165
 31
0.0
  0
ARC
  8
0
  6
CONTINUOUS
 62
     3
  5
B1
 10
0.0
 20
-128.071429
 30
0.0
 40
39.5
 50
238.404215
 51
241.595785
  0
ARC
  8
0
  6
CONTINUOUS
 62
     3
  5
B2
 10
0.0
 20
-128.071429
 30
0.0
 40
58.0
 50
238.913291
 51
241.086709
  0
LINE
  8
0
  6
CONTINUOUS
 62
     3
  5
B3
 10
-25.404997
 20
-182.427533
 30
0.0
 11
-17.064766
 21
-163.695069
 31
0.0
  0
LINE
  8
0
  6
CONTINUOUS
 62
     3
  5
B4
 10
-23.395197
 20
-183.322354
 30
0.0
 11
-15.054966
 21
-164.589889
 31
0.0
  0
ARC
  8
0
  6
CONTINUOUS
 62
     3
  5
B5
 10
0.0
 20
-128.071429
 30
0.0
 40
39.5
 50
244.404215
 51
247.595785
  0
ARC
  8
0
  6
CONTINUOUS
 62
     3
  5
B6
 10
0.0
 20
-128.071429
 30
0.0
 40
58.0
 50
244.913291
 51
247.086709
  0
LINE
  8
0
  6
CONTINUOUS
 62
     3
  5
B7
 10
-19.584066
 20
-184.78531
 30
0.0
 11
-13.247599
 21
-165.283673
 31
0.0
  0
LINE
  8
0
  6
CONTINUOUS
 62
     3
  5
B8
 10
-17.491741
 20
-185.465148
 30
0.0
 11
-11.155275
 21
-165.96351
 31
0.0
  0
ARC
  8
0
  6
CONTINUOUS
 62
     3
  5
B9
 10
0.0
 20
-128.071429
 30
0.0
 40
39.5
 50
250.404215
 51
253.595785
  0
ARC
  8
0
  6
CONTINUOUS
 62
     3
  5
BA
 10
0.0
 20
-128.071429
 30
0.0
 40
58.0
 50
250.913291
 51
253.086709
  0
LINE
  8
0
  6
CONTINUOUS
 62
     3
  5
BB
 10
-13.548567
 20
-186.521718
 30
0.0
 11
-9.285289
 21
-166.464571
 31
0.0
  0
LINE
  8
0
  6
CONTINUOUS
 62
     3
  5
BC
 10
-11.396642
 20
-186.979124
 30
0.0
 11
-7.133364
 21
-166.921977
 31
0.0
  0
ARC
  8
0
  6
CONTINUOUS
 62
     3
  5
BD
 10
0.0
 20
-128.071429
 30
0.0
 40
39.5
 50
256.404215
 51
259.595785
  0
ARC
  8
0
  6
CONTINUOUS
 62
     3
  5
BE
 10
0.0
 20
-128.071429
 30
0.0
 40
58.0
 50
256.913291
 51
259.086709
  0
LINE
  8
0
  6
CONTINUOUS
 62
     3
  5
BF
 10
-36.151106
 20
-175.957726
 30
0.0
 11
-24.098432
 21
-159.368642
 31
0.0
  0
LINE
  8
0
  6
CONTINUOUS
 62
     3
  5
C0
 10
-34.371269
 20
-177.250854
 30
0.0
 11
-22.318594
 21
-160.66177
 31
0.0
  0
ARC
  8
0
  6
CONTINUOUS
 62
     3
  5
C1
 10
0.0
 20
-128.071429
 30
0.0
 40
58.0
 50
232.913291
 51
235.086709
  0
ARC
  8
0
  6
CONTINUOUS
 62
     3
  5
C2
 10
0.0
 20
-128.071429
 30
0.0
 40
39.5
 50
232.404215
 51
235.595785
  0
LINE
  8
0
  6
CONTINUOUS
 62
     3
  5
C3
 10
-40.958548
 20
-171.91658
 30
0.0
 11
-27.237868
 21
-156.678221
 31
0.0
  0
LINE
  8
0
  6
CONTINUOUS
 62
     3
  5
C4
 10
-39.323629
 20
-173.388668
 30
0.0
 11
-25.602949
 21
-158.150308
 31
0.0
  0
ARC
  8
0
  6
CONTINUOUS
 62
     3
  5
C5
 10
0.0
 20
-128.071429
 30
0.0
 40
58.0
 50
226.913291
 51
229.086709
  0
ARC
  8
0
  6
CONTINUOUS
 62
     3
  5
C6
 10
0.0
 20
-128.071429
 30
0.0
 40
39.5
 50
226.404215
 51
229.595785
  0
ARC
  8
0
  6
CONTINUOUS
 62
     3
  5
C7
 10
0.0
 20
-128.071429
 30
0.0
 40
39.5
 50
262.404215
 51
265.595785
  0
ARC
  8
0
  6
CONTINUOUS
 62
     3
  5
C8
 10
0.0
 20
-128.071429
 30
0.0
 40
58.0
 50
268.913291
 51
271.086709
  0
LINE
  8
0
  6
CONTINUOUS
 62
     3
  5
C9
 10
5.17668
 20
-187.847695
 30
0.0
 11
3.033299
 21
-167.454789
 31
0.0
  0
LINE
  8
0
  6
CONTINUOUS
 62
     3
  5
CA
 10
7.364628
 20
-187.617732
 30
0.0
 11
5.221247
 21
-167.224827
 31
0.0
  0
ARC
  8
0
  6
CONTINUOUS
 62
     3
  5
CB
 10
0.0
 20
-128.071429
 30
0.0
 40
39.5
 50
274.404215
 51
277.595785
  0
ARC
  8
0
  6
CONTINUOUS
 62
     3
  5
CC
 10
0.0
 20
-128.071429
 30
0.0
 40
58.0
 50
274.913291
 51
277.086709
  0
LINE
  8
0
  6
CONTINUOUS
 62
     3
  5
CD
 10
11.396642
 20
-186.979124
 30
0.0
 11
7.133364
 21
-166.921977
 31
0.0
  0
LINE
  8
0
  6
CONTINUOUS
 62
     3
  5
CE
 10
13.548567
 20
-186.521718
 30
0.0
 11
9.285289
 21
-166.464571
 31
0.0
  0
ARC
  8
0
  6
CONTINUOUS
 62
     3
  5
CF
 10
0.0
 20
-128.071429
 30
0.0
 40
39.5
 50
280.404215
 51
283.595785
  0
ARC
  8
0
  6
CONTINUOUS
 62
     3
  5
D0
 10
0.0
 20
-128.071429
 30
0.0
 40
58.0
 50
280.913291
 51
283.086709
  0
LINE
  8
0
  6
CONTINUOUS
 62
     3
  5
D1
 10
17.491741
 20
-185.465148
 30
0.0
 11
11.155275
 21
-165.96351
 31
0.0
  0
LINE
  8
0
  6
CONTINUOUS
 62
     3
  5
D2
 10
19.584066
 20
-184.78531
 30
0.0
 11
13.247599
 21
-165.283673
 31
0.0
  0
ARC
  8
0
  6
CONTINUOUS
 62
     3
  5
D3
 10
0.0
 20
-128.071429
 30
0.0
 40
39.5
 50
286.404215
 51
289.595785
  0
ARC
  8
0
  6
CONTINUOUS
 62
     3
  5
D4
 10
0.0
 20
-128.071429
 30
0.0
 40
58.0
 50
286.913291
 51
289.086709
  0
LINE
  8
0
  6
CONTINUOUS
 62
     3
  5
D5
 10
29.04233
 20
-180.57422
 30
0.0
 11
25.256819
 21
-174.017523
 31
0.0
  0
LINE
  8
0
  6
CONTINUOUS
 62
     3
  5
D6
 10
30.947586
 20
-179.47422
 30
0.0
 11
27.162075
 21
-172.917523
 31
0.0
  0
ARC
  8
0
  6
CONTINUOUS
 62
     3
  5
D7
 10
0.0
 20
-128.071429
 30
0.0
 40
58.0
 50
298.913291
 51
301.086709
  0
LINE
  8
0
  6
CONTINUOUS
 62
     3
  5
D8
 10
34.371269
 20
-177.250854
 30
0.0
 11
29.281644
 21
-170.245586
 31
0.0
  0
LINE
  8
0
  6
CONTINUOUS
 62
     3
  5
D9
 10
36.151106
 20
-175.957726
 30
0.0
 11
29.987562
 21
-167.474335
 31
0.0
  0
ARC
  8
0
  6
CONTINUOUS
 62
     3
  5
DA
 10
0.0
 20
-128.071429
 30
0.0
 40
58.0
 50
304.913291
 51
307.086709
  0
ARC
  8
0
  6
CONTINUOUS
 62
     3
  5
DB
 10
0.0
 20
-128.071429
 30
0.0
 40
58.0
 50
310.913291
 51
313.086709
  0
ARC
  8
0
  6
CONTINUOUS
 62
     3
  5
DC
 10
0.0
 20
-128.071429
 30
0.0
 40
39.5
 50
310.404215
 51
313.595785
  0
LINE
  8
0
  6
CONTINUOUS
 62
     3
  5
DD
 10
40.958548
 20
-171.91658
 30
0.0
 11
27.237868
 21
-156.678221
 31
0.0
  0
LINE
  8
0
  6
CONTINUOUS
 62
     3
  5
DE
 10
39.323629
 20
-173.388668
 30
0.0
 11
25.602949
 21
-158.150308
 31
0.0
  0
ARC
  8
0
  6
CONTINUOUS
 62
     3
  5
DF
 10
0.0
 20
-128.071429
 30
0.0
 40
39.5
 50
268.404215
 51
271.595785
  0
LINE
  8
0
  6
CONTINUOUS
 62
     3
  5
E0
 10
1.1
 20
-188.061344
 30
0.0
 11
1.1
 21
-167.556109
 31
0.0
  0
LINE
  8
0
  6
CONTINUOUS
 62
     3
  5
E1
 10
-1.1
 20
-188.061344
 30
0.0
 11
-1.1
 21
-167.556109
 31
0.0
  0
LINE
  8
0
  6
CONTINUOUS
 62
     3
  5
E2
 10
-5.17668
 20
-187.847695
 30
0.0
 11
-3.033299
 21
-167.454789
 31
0.0
  0
LINE
  8
0
  6
CONTINUOUS
 62
     3
  5
E3
 10
-7.364628
 20
-187.617732
 30
0.0
 11
-5.221247
 21
-167.224827
 31
0.0
  0
LINE
  8
0
  6
CONTINUOUS
 62
     3
  5
E4
 10
-29.04233
 20
-75.568638
 30
0.0
 11
-18.789712
 21
-93.326692
 31
0.0
  0
LINE
  8
0
  6
CONTINUOUS
 62
     3
  5
E5
 10
-30.947586
 20
-76.668638
 30
0.0
 11
-20.694968
 21
-94.426692
 31
0.0
  0
ARC
  8
0
  6
CONTINUOUS
 62
     3
  5
E6
 10
0.0
 20
-128.071429
 30
0.0
 40
39.5
 50
118.404215
 51
121.595785
  0
ARC
  8
0
  6
CONTINUOUS
 62
     3
  5
E7
 10
0.0
 20
-128.071429
 30
0.0
 40
58.0
 50
118.913291
 51
121.086709
  0
LINE
  8
0
  6
CONTINUOUS
 62
     3
  5
E8
 10
-34.371269
 20
-78.892003
 30
0.0
 11
-22.318594
 21
-95.481087
 31
0.0
  0
LINE
  8
0
  6
CONTINUOUS
 62
     3
  5
E9
 10
-36.151106
 20
-80.185131
 30
0.0
 11
-24.098432
 21
-96.774215
 31
0.0
  0
ARC
  8
0
  6
CONTINUOUS
 62
     3
  5
EA
 10
0.0
 20
-128.071429
 30
0.0
 40
39.5
 50
124.404215
 51
127.595785
  0
ARC
  8
0
  6
CONTINUOUS
 62
     3
  5
EB
 10
0.0
 20
-128.071429
 30
0.0
 40
58.0
 50
124.913291
 51
127.086709
  0
LINE
  8
0
  6
CONTINUOUS
 62
     3
  5
EC
 10
-39.323629
 20
-82.754189
 30
0.0
 11
-25.602949
 21
-97.992549
 31
0.0
  0
LINE
  8
0
  6
CONTINUOUS
 62
     3
  5
ED
 10
-40.958548
 20
-84.226277
 30
0.0
 11
-27.237868
 21
-99.464636
 31
0.0
  0
ARC
  8
0
  6
CONTINUOUS
 62
     3
  5
EE
 10
0.0
 20
-128.071429
 30
0.0
 40
39.5
 50
130.404215
 51
133.595785
  0
ARC
  8
0
  6
CONTINUOUS
 62
     3
  5
EF
 10
0.0
 20
-128.071429
 30
0.0
 40
58.0
 50
130.913291
 51
133.086709
  0
LINE
  8
0
  6
CONTINUOUS
 62
     3
  5
F0
 10
-43.845152
 20
-87.112881
 30
0.0
 11
-28.606792
 21
-100.833561
 31
0.0
  0
LINE
  8
0
  6
CONTINUOUS
 62
     3
  5
F1
 10
-45.317239
 20
-88.747799
 30
0.0
 11
-30.07888
 21
-102.46848
 31
0.0
  0
ARC
  8
0
  6
CONTINUOUS
 62
     3
  5
F2
 10
0.0
 20
-128.071429
 30
0.0
 40
39.5
 50
136.404215
 51
139.595785
  0
ARC
  8
0
  6
CONTINUOUS
 62
     3
  5
F3
 10
0.0
 20
-128.071429
 30
0.0
 40
58.0
 50
136.913291
 51
139.086709
  0
LINE
  8
0
  6
CONTINUOUS
 62
     3
  5
F4
 10
-23.395197
 20
-72.820503
 30
0.0
 11
-15.054966
 21
-91.552968
 31
0.0
  0
LINE
  8
0
  6
CONTINUOUS
 62
     3
  5
F5
 10
-25.404997
 20
-73.715324
 30
0.0
 11
-17.064766
 21
-92.447788
 31
0.0
  0
ARC
  8
0
  6
CONTINUOUS
 62
     3
  5
F6
 10
0.0
 20
-128.071429
 30
0.0
 40
58.0
 50
112.913291
 51
115.086709
  0
ARC
  8
0
  6
CONTINUOUS
 62
     3
  5
F7
 10
0.0
 20
-128.071429
 30
0.0
 40
39.5
 50
112.404215
 51
115.595785
  0
LINE
  8
0
  6
CONTINUOUS
 62
     3
  5
F8
 10
-17.491741
 20
-70.67771
 30
0.0
 11
-11.155275
 21
-90.179347
 31
0.0
  0
LINE
  8
0
  6
CONTINUOUS
 62
     3
  5
F9
 10
-19.584066
 20
-71.357547
 30
0.0
 11
-13.247599
 21
-90.859185
 31
0.0
  0
ARC
  8
0
  6
CONTINUOUS
 62
     3
  5
FA
 10
0.0
 20
-128.071429
 30
0.0
 40
58.0
 50
106.913291
 51
109.086709
  0
ARC
  8
0
  6
CONTINUOUS
 62
     3
  5
FB
 10
0.0
 20
-128.071429
 30
0.0
 40
39.5
 50
106.404215
 51
109.595785
  0
ARC
  8
0
  6
CONTINUOUS
 62
     3
  5
FC
 10
0.0
 20
-128.071429
 30
0.0
 40
39.5
 50
142.404215
 51
145.595785
  0
ARC
  8
0
  6
CONTINUOUS
 62
     3
  5
FD
 10
0.0
 20
-128.071429
 30
0.0
 40
58.0
 50
148.913291
 51
151.086709
  0
LINE
  8
0
  6
CONTINUOUS
 62
     3
  5
FE
 10
-54.356105
 20
-102.666432
 30
0.0
 11
-35.62364
 21
-111.006662
 31
0.0
  0
LINE
  8
0
  6
CONTINUOUS
 62
     3
  5
FF
 10
-55.250925
 20
-104.676232
 30
0.0
 11
-36.518461
 21
-113.016462
 31
0.0
  0
ARC
  8
0
  6
CONTINUOUS
 62
     3
  5
100
 10
0.0
 20
-128.071429
 30
0.0
 40
39.5
 50
154.404215
 51
157.595785
  0
ARC
  8
0
  6
CONTINUOUS
 62
     3
  5
101
 10
0.0
 20
-128.071429
 30
0.0
 40
58.0
 50
154.913291
 51
157.086709
  0
LINE
  8
0
  6
CONTINUOUS
 62
     3
  5
102
 10
-56.713882
 20
-108.487363
 30
0.0
 11
-37.212244
 21
-114.823829
 31
0.0
  0
LINE
  8
0
  6
CONTINUOUS
 62
     3
  5
103
 10
-57.393719
 20
-110.579687
 30
0.0
 11
-37.892081
 21
-116.916153
 31
0.0
  0
ARC
  8
0
  6
CONTINUOUS
 62
     3
  5
104
 10
0.0
 20
-128.071429
 30
0.0
 40
39.5
 50
160.404215
 51
163.595785
  0
ARC
  8
0
  6
CONTINUOUS
 62
     3
  5
105
 10
0.0
 20
-128.071429
 30
0.0
 40
58.0
 50
160.913291
 51
163.086709
  0
LINE
  8
0
  6
CONTINUOUS
 62
     3
  5
106
 10
-58.450289
 20
-114.522861
 30
0.0
 11
-38.393143
 21
-118.78614
 31
0.0
  0
LINE
  8
0
  6
CONTINUOUS
 62
     3
  5
107
 10
-58.907695
 20
-116.674786
 30
0.0
 11
-38.850548
 21
-120.938064
 31
0.0
  0
ARC
  8
0
  6
CONTINUOUS
 62
     3
  5
108
 10
0.0
 20
-128.071429
 30
0.0
 40
39.5
 50
166.404215
 51
169.595785
  0
ARC
  8
0
  6
CONTINUOUS
 62
     3
  5
109
 10
0.0
 20
-128.071429
 30
0.0
 40
58.0
 50
166.913291
 51
169.086709
  0
LINE
  8
0
  6
CONTINUOUS
 62
     3
  5
10A
 10
-59.546303
 20
-120.706801
 30
0.0
 11
-39.153398
 21
-122.850182
 31
0.0
  0
LINE
  8
0
  6
CONTINUOUS
 62
     3
  5
10B
 10
-59.776266
 20
-122.894749
 30
0.0
 11
-39.383361
 21
-125.03813
 31
0.0
  0
ARC
  8
0
  6
CONTINUOUS
 62
     3
  5
10C
 10
0.0
 20
-128.071429
 30
0.0
 40
39.5
 50
172.404215
 51
175.595785
  0
ARC
  8
0
  6
CONTINUOUS
 62
     3
  5
10D
 10
0.0
 20
-128.071429
 30
0.0
 40
58.0
 50
172.913291
 51
175.086709
  0
LINE
  8
0
  6
CONTINUOUS
 62
     3
  5
10E
 10
-59.989916
 20
-126.971429
 30
0.0
 11
-39.484681
 21
-126.971429
 31
0.0
  0
LINE
  8
0
  6
CONTINUOUS
 62
     3
  5
10F
 10
-59.989916
 20
-129.171429
 30
0.0
 11
-39.484681
 21
-129.171429
 31
0.0
  0
ARC
  8
0
  6
CONTINUOUS
 62
     3
  5
110
 10
0.0
 20
-128.071429
 30
0.0
 40
39.5
 50
178.404215
 51
181.595785
  0
ARC
  8
0
  6
CONTINUOUS
 62
     3
  5
111
 10
0.0
 20
-128.071429
 30
0.0
 40
58.0
 50
178.913291
 51
181.086709
  0
LINE
  8
0
  6
CONTINUOUS
 62
     3
  5
112
 10
-59.776266
 20
-133.248108
 30
0.0
 11
-39.383361
 21
-131.104727
 31
0.0
  0
LINE
  8
0
  6
CONTINUOUS
 62
     3
  5
113
 10
-59.546303
 20
-135.436056
 30
0.0
 11
-39.153398
 21
-133.292676
 31
0.0
  0
ARC
  8
0
  6
CONTINUOUS
 62
     3
  5
114
 10
0.0
 20
-128.071429
 30
0.0
 40
39.5
 50
184.404215
 51
187.595785
  0
ARC
  8
0
  6
CONTINUOUS
 62
     3
  5
115
 10
0.0
 20
-128.071429
 30
0.0
 40
58.0
 50
184.913291
 51
187.086709
  0
ARC
  8
0
  6
CONTINUOUS
 62
     3
  5
116
 10
0.0
 20
-128.071429
 30
0.0
 40
58.0
 50
190.913291
 51
193.086709
  0
ARC
  8
0
  6
CONTINUOUS
 62
     3
  5
117
 10
0.0
 20
-128.071429
 30
0.0
 40
39.5
 50
190.404215
 51
193.595785
  0
LINE
  8
0
  6
CONTINUOUS
 62
     3
  5
118
 10
-58.450289
 20
-141.619996
 30
0.0
 11
-38.393143
 21
-137.356718
 31
0.0
  0
LINE
  8
0
  6
CONTINUOUS
 62
     3
  5
119
 10
-58.907695
 20
-139.468071
 30
0.0
 11
-38.850548
 21
-135.204793
 31
0.0
  0
ARC
  8
0
  6
CONTINUOUS
 62
     3
  5
11A
 10
0.0
 20
-128.071429
 30
0.0
 40
39.5
 50
148.404215
 51
151.595785
  0
LINE
  8
0
  6
CONTINUOUS
 62
     3
  5
11B
 10
-52.502791
 20
-99.029099
 30
0.0
 11
-34.744736
 21
-109.281716
 31
0.0
  0
LINE
  8
0
  6
CONTINUOUS
 62
     3
  5
11C
 10
-51.402791
 20
-97.123843
 30
0.0
 11
-33.644736
 21
-107.37646
 31
0.0
  0
LINE
  8
0
  6
CONTINUOUS
 62
     3
  5
11D
 10
-49.179425
 20
-93.700159
 30
0.0
 11
-32.590341
 21
-105.752834
 31
0.0
  0
LINE
  8
0
  6
CONTINUOUS
 62
     3
  5
11E
 10
-47.886298
 20
-91.920322
 30
0.0
 11
-31.297214
 21
-103.972997
 31
0.0
  0
ARC
  8
0
  6
CONTINUOUS
 62
     3
  5
11F
 10
0.0
 20
-128.071429
 30
0.0
 40
39.5
 50
346.404215
 51
349.595785
  0
ARC
  8
0
  6
CONTINUOUS
 62
     3
  5
120
 10
0.0
 20
-128.071429
 30
0.0
 40
58.0
 50
346.913291
 51
349.086709
  0
LINE
  8
0
  6
CONTINUOUS
 62
     3
  5
121
 10
58.907695
 20
-139.468071
 30
0.0
 11
38.850548
 21
-135.204793
 31
0.0
  0
LINE
  8
0
  6
CONTINUOUS
 62
     3
  5
122
 10
58.450289
 20
-141.619996
 30
0.0
 11
38.393143
 21
-137.356718
 31
0.0
  0
ARC
  8
0
  6
CONTINUOUS
 62
     3
  5
123
 10
0.0
 20
-128.071429
 30
0.0
 40
39.5
 50
352.404215
 51
355.595785
  0
ARC
  8
0
  6
CONTINUOUS
 62
     3
  5
124
 10
0.0
 20
-128.071429
 30
0.0
 40
58.0
 50
352.913291
 51
355.086709
  0
LINE
  8
0
  6
CONTINUOUS
 62
     3
  5
125
 10
59.776266
 20
-133.248108
 30
0.0
 11
39.383361
 21
-131.104727
 31
0.0
  0
LINE
  8
0
  6
CONTINUOUS
 62
     3
  5
126
 10
59.546303
 20
-135.436056
 30
0.0
 11
39.153398
 21
-133.292676
 31
0.0
  0
ARC
  8
0
  6
CONTINUOUS
 62
     3
  5
127
 10
0.0
 20
-128.071429
 30
0.0
 40
58.0
 50
70.913291
 51
73.086709
  0
ARC
  8
0
  6
CONTINUOUS
 62
     3
  5
128
 10
0.0
 20
-128.071429
 30
0.0
 40
39.5
 50
70.404215
 51
73.595785
  0
LINE
  8
0
  6
CONTINUOUS
 62
     3
  5
129
 10
17.491741
 20
-70.67771
 30
0.0
 11
11.155275
 21
-90.179347
 31
0.0
  0
LINE
  8
0
  6
CONTINUOUS
 62
     3
  5
12A
 10
19.584066
 20
-71.357547
 30
0.0
 11
13.247599
 21
-90.859185
 31
0.0
  0
ARC
  8
0
  6
CONTINUOUS
 62
     3
  5
12B
 10
0.0
 20
-128.071429
 30
0.0
 40
58.0
 50
64.913291
 51
67.086709
  0
ARC
  8
0
  6
CONTINUOUS
 62
     3
  5
12C
 10
0.0
 20
-128.071429
 30
0.0
 40
39.5
 50
64.404215
 51
67.595785
  0
LINE
  8
0
  6
CONTINUOUS
 62
     3
  5
12D
 10
23.395197
 20
-72.820503
 30
0.0
 11
15.054966
 21
-91.552968
 31
0.0
  0
LINE
  8
0
  6
CONTINUOUS
 62
     3
  5
12E
 10
25.404997
 20
-73.715324
 30
0.0
 11
17.064766
 21
-92.447788
 31
0.0
  0
ARC
  8
0
  6
CONTINUOUS
 62
     3
  5
12F
 10
0.0
 20
-128.071429
 30
0.0
 40
58.0
 50
58.913291
 51
61.086709
  0
ARC
  8
0
  6
CONTINUOUS
 62
     3
  5
130
 10
0.0
 20
-128.071429
 30
0.0
 40
39.5
 50
58.404215
 51
61.595785
  0
LINE
  8
0
  6
CONTINUOUS
 62
     3
  5
131
 10
29.04233
 20
-75.568638
 30
0.0
 11
18.789712
 21
-93.326692
 31
0.0
  0
LINE
  8
0
  6
CONTINUOUS
 62
     3
  5
132
 10
30.947586
 20
-76.668638
 30
0.0
 11
20.694968
 21
-94.426692
 31
0.0
  0
ARC
  8
0
  6
CONTINUOUS
 62
     3
  5
133
 10
0.0
 20
-128.071429
 30
0.0
 40
58.0
 50
52.913291
 51
55.086709
  0
ARC
  8
0
  6
CONTINUOUS
 62
     3
  5
134
 10
0.0
 20
-128.071429
 30
0.0
 40
39.5
 50
52.404215
 51
55.595785
  0
LINE
  8
0
  6
CONTINUOUS
 62
     3
  5
135
 10
34.371269
 20
-78.892003
 30
0.0
 11
22.318594
 21
-95.481087
 31
0.0
  0
LINE
  8
0
  6
CONTINUOUS
 62
     3
  5
136
 10
36.151106
 20
-80.185131
 30
0.0
 11
24.098432
 21
-96.774215
 31
0.0
  0
ARC
  8
0
  6
CONTINUOUS
 62
     3
  5
137
 10
0.0
 20
-128.071429
 30
0.0
 40
58.0
 50
46.913291
 51
49.086709
  0
ARC
  8
0
  6
CONTINUOUS
 62
     3
  5
138
 10
0.0
 20
-128.071429
 30
0.0
 40
39.5
 50
46.404215
 51
49.595785
  0
LINE
  8
0
  6
CONTINUOUS
 62
     3
  5
139
 10
39.323629
 20
-82.754189
 30
0.0
 11
25.602949
 21
-97.992549
 31
0.0
  0
LINE
  8
0
  6
CONTINUOUS
 62
     3
  5
13A
 10
40.958548
 20
-84.226277
 30
0.0
 11
27.237868
 21
-99.464636
 31
0.0
  0
ARC
  8
0
  6
CONTINUOUS
 62
     3
  5
13B
 10
0.0
 20
-128.071429
 30
0.0
 40
58.0
 50
40.913291
 51
43.086709
  0
ARC
  8
0
  6
CONTINUOUS
 62
     3
  5
13C
 10
0.0
 20
-128.071429
 30
0.0
 40
39.5
 50
40.404215
 51
43.595785
  0
LINE
  8
0
  6
CONTINUOUS
 62
     3
  5
13D
 10
43.845152
 20
-87.112881
 30
0.0
 11
28.606792
 21
-100.833561
 31
0.0
  0
LINE
  8
0
  6
CONTINUOUS
 62
     3
  5
13E
 10
45.317239
 20
-88.747799
 30
0.0
 11
30.07888
 21
-102.46848
 31
0.0
  0
ARC
  8
0
  6
CONTINUOUS
 62
     3
  5
13F
 10
0.0
 20
-128.071429
 30
0.0
 40
58.0
 50
34.913291
 51
37.086709
  0
ARC
  8
0
  6
CONTINUOUS
 62
     3
  5
140
 10
0.0
 20
-128.071429
 30
0.0
 40
39.5
 50
34.404215
 51
37.595785
  0
LINE
  8
0
  6
CONTINUOUS
 62
     3
  5
141
 10
47.886298
 20
-91.920322
 30
0.0
 11
31.297214
 21
-103.972997
 31
0.0
  0
LINE
  8
0
  6
CONTINUOUS
 62
     3
  5
142
 10
49.179425
 20
-93.700159
 30
0.0
 11
32.590341
 21
-105.752834
 31
0.0
  0
ARC
  8
0
  6
CONTINUOUS
 62
     3
  5
143
 10
0.0
 20
-128.071429
 30
0.0
 40
58.0
 50
28.913291
 51
31.086709
  0
ARC
  8
0
  6
CONTINUOUS
 62
     3
  5
144
 10
0.0
 20
-128.071429
 30
0.0
 40
39.5
 50
28.404215
 51
31.595785
  0
LINE
  8
0
  6
CONTINUOUS
 62
     3
  5
145
 10
51.402791
 20
-97.123843
 30
0.0
 11
33.644736
 21
-107.37646
 31
0.0
  0
LINE
  8
0
  6
CONTINUOUS
 62
     3
  5
146
 10
52.502791
 20
-99.029099
 30
0.0
 11
34.744736
 21
-109.281716
 31
0.0
  0
ARC
  8
0
  6
CONTINUOUS
 62
     3
  5
147
 10
0.0
 20
-128.071429
 30
0.0
 40
58.0
 50
22.913291
 51
25.086709
  0
ARC
  8
0
  6
CONTINUOUS
 62
     3
  5
148
 10
0.0
 20
-128.071429
 30
0.0
 40
39.5
 50
22.404215
 51
25.595785
  0
LINE
  8
0
  6
CONTINUOUS
 62
     3
  5
149
 10
54.356105
 20
-102.666432
 30
0.0
 11
35.62364
 21
-111.006662
 31
0.0
  0
LINE
  8
0
  6
CONTINUOUS
 62
     3
  5
14A
 10
55.250925
 20
-104.676232
 30
0.0
 11
36.518461
 21
-113.016462
 31
0.0
  0
ARC
  8
0
  6
CONTINUOUS
 62
     3
  5
14B
 10
0.0
 20
-128.071429
 30
0.0
 40
58.0
 50
16.913291
 51
19.086709
  0
ARC
  8
0
  6
CONTINUOUS
 62
     3
  5
14C
 10
0.0
 20
-128.071429
 30
0.0
 40
39.5
 50
16.404215
 51
19.595785
  0
LINE
  8
0
  6
CONTINUOUS
 62
     3
  5
14D
 10
56.713882
 20
-108.487363
 30
0.0
 11
37.212244
 21
-114.823829
 31
0.0
  0
LINE
  8
0
  6
CONTINUOUS
 62
     3
  5
14E
 10
57.393719
 20
-110.579687
 30
0.0
 11
37.892081
 21
-116.916153
 31
0.0
  0
ARC
  8
0
  6
CONTINUOUS
 62
     3
  5
14F
 10
0.0
 20
-128.071429
 30
0.0
 40
58.0
 50
10.913291
 51
13.086709
  0
ARC
  8
0
  6
CONTINUOUS
 62
     3
  5
150
 10
0.0
 20
-128.071429
 30
0.0
 40
39.5
 50
10.404215
 51
13.595785
  0
LINE
  8
0
  6
CONTINUOUS
 62
     3
  5
151
 10
58.450289
 20
-114.522861
 30
0.0
 11
38.393143
 21
-118.78614
 31
0.0
  0
LINE
  8
0
  6
CONTINUOUS
 62
     3
  5
152
 10
58.907695
 20
-116.674786
 30
0.0
 11
38.850548
 21
-120.938064
 31
0.0
  0
ARC
  8
0
  6
CONTINUOUS
 62
     3
  5
153
 10
0.0
 20
-128.071429
 30
0.0
 40
58.0
 50
4.913291
 51
7.086709
  0
ARC
  8
0
  6
CONTINUOUS
 62
     3
  5
154
 10
0.0
 20
-128.071429
 30
0.0
 40
39.5
 50
4.404215
 51
7.595785
  0
LINE
  8
0
  6
CONTINUOUS
 62
     3
  5
155
 10
59.546303
 20
-120.706801
 30
0.0
 11
39.153398
 21
-122.850182
 31
0.0
  0
LINE
  8
0
  6
CONTINUOUS
 62
     3
  5
156
 10
59.776266
 20
-122.894749
 30
0.0
 11
39.383361
 21
-125.03813
 31
0.0
  0
ARC
  8
0
  6
CONTINUOUS
 62
     3
  5
157
 10
0.0
 20
-128.071429
 30
0.0
 40
58.0
 50
358.913291
 51
1.086709
  0
ARC
  8
0
  6
CONTINUOUS
 62
     3
  5
158
 10
0.0
 20
-128.071429
 30
0.0
 40
39.5
 50
358.404215
 51
1.595785
  0
LINE
  8
0
  6
CONTINUOUS
 62
     3
  5
159
 10
59.989916
 20
-126.971429
 30
0.0
 11
39.484681
 21
-126.971429
 31
0.0
  0
LINE
  8
0
  6
CONTINUOUS
 62
     3
  5
15A
 10
59.989916
 20
-129.171429
 30
0.0
 11
39.484681
 21
-129.171429
 31
0.0
  0
LINE
  8
0
  6
CONTINUOUS
 62
     3
  5
15B
 10
2.0
 20
-131.53553
 30
0.0
 11
2.0
 21
-146.463003
 31
0.0
  0
LINE
  8
0
  6
CONTINUOUS
 62
     3
  5
15C
 10
4.0
 20
-128.071429
 30
0.0
 11
16.92757
 21
-135.535165
 31
0.0
  0
LINE
  8
0
  6
CONTINUOUS
 62
     3
  5
15D
 10
4.0
 20
-128.071429
 30
0.0
 11
16.92757
 21
-120.607692
 31
0.0
  0
LINE
  8
0
  6
CONTINUOUS
 62
     3
  5
15E
 10
2.0
 20
-131.53553
 30
0.0
 11
14.92757
 21
-138.999266
 31
0.0
  0
LINE
  8
0
  6
CONTINUOUS
 62
     3
  5
15F
 10
2.0
 20
-124.607327
 30
0.0
 11
14.92757
 21
-117.143591
 31
0.0
  0
LINE
  8
0
  6
CONTINUOUS
 62
     3
  5
160
 10
-2.0
 20
-131.53553
 30
0.0
 11
-2.0
 21
-146.463003
 31
0.0
  0
ARC
  8
0
  6
CONTINUOUS
 62
     3
  5
161
 10
0.0
 20
-128.071429
 30
0.0
 40
37.25
 50
92.777193
 51
207.222807
  0
ARC
  8
0
  6
CONTINUOUS
 62
     3
  5
162
 10
0.0
 20
-128.071429
 30
0.0
 40
37.25
 50
212.777193
 51
327.222807
  0
ARC
  8
0
  6
CONTINUOUS
 62
     3
  5
163
 10
0.0
 20
-128.071429
 30
0.0
 40
34.75
 50
333.299422
 51
26.700578
  0
ARC
  8
0
  6
CONTINUOUS
 62
     3
  5
164
 10
0.0
 20
-128.071429
 30
0.0
 40
34.75
 50
273.299422
 51
326.700578
  0
ARC
  8
0
  6
CONTINUOUS
 62
     3
  5
165
 10
0.0
 20
-128.071429
 30
0.0
 40
34.75
 50
213.299422
 51
266.700578
  0
ARC
  8
0
  6
CONTINUOUS
 62
     3
  5
166
 10
0.0
 20
-128.071429
 30
0.0
 40
34.75
 50
153.299422
 51
206.700578
  0
ARC
  8
0
  6
CONTINUOUS
 62
     3
  5
167
 10
0.0
 20
-128.071429
 30
0.0
 40
34.75
 50
93.299422
 51
146.700578
  0
LINE
  8
0
  6
CONTINUOUS
 62
     3
  5
168
 10
19.538811
 20
-137.042765
 30
0.0
 11
31.044498
 21
-143.685577
 31
0.0
  0
LINE
  8
0
  6
CONTINUOUS
 62
     3
  5
169
 10
17.538811
 20
-140.506867
 30
0.0
 11
29.044498
 21
-147.149679
 31
0.0
  0
LINE
  8
0
  6
CONTINUOUS
 62
     3
  5
16A
 10
2.0
 20
-149.478203
 30
0.0
 11
2.0
 21
-162.763827
 31
0.0
  0
LINE
  8
0
  6
CONTINUOUS
 62
     3
  5
16B
 10
-2.0
 20
-149.478203
 30
0.0
 11
-2.0
 21
-162.763827
 31
0.0
  0
LINE
  8
0
  6
CONTINUOUS
 62
     3
  5
16C
 10
-14.92757
 20
-138.999266
 30
0.0
 11
-2.0
 21
-131.53553
 31
0.0
  0
LINE
  8
0
  6
CONTINUOUS
 62
     3
  5
16D
 10
-16.92757
 20
-135.535165
 30
0.0
 11
-4.0
 21
-128.071429
 31
0.0
  0
LINE
  8
0
  6
CONTINUOUS
 62
     3
  5
16E
 10
-16.92757
 20
-120.607692
 30
0.0
 11
-4.0
 21
-128.071429
 31
0.0
  0
LINE
  8
0
  6
CONTINUOUS
 62
     3
  5
16F
 10
-14.92757
 20
-117.143591
 30
0.0
 11
-2.0
 21
-124.607327
 31
0.0
  0
LINE
  8
0
  6
CONTINUOUS
 62
     3
  5
170
 10
-2.0
 20
-109.679854
 30
0.0
 11
-2.0
 21
-124.607327
 31
0.0
  0
LINE
  8
0
  6
CONTINUOUS
 62
     3
  5
171
 10
2.0
 20
-109.679854
 30
0.0
 11
2.0
 21
-124.607327
 31
0.0
  0
LINE
  8
0
  6
CONTINUOUS
 62
     3
  5
172
 10
17.538811
 20
-115.63599
 30
0.0
 11
29.044498
 21
-108.993179
 31
0.0
  0
LINE
  8
0
  6
CONTINUOUS
 62
     3
  5
173
 10
19.538811
 20
-119.100092
 30
0.0
 11
31.044498
 21
-112.45728
 31
0.0
  0
ARC
  8
0
  6
CONTINUOUS
 62
     3
  5
174
 10
0.0
 20
-128.071429
 30
0.0
 40
18.5
 50
336.206268
 51
23.793732
  0
ARC
  8
0
  6
CONTINUOUS
 62
     3
  5
175
 10
0.0
 20
-128.071429
 30
0.0
 40
21.5
 50
335.337557
 51
24.662443
  0
ARC
  8
0
  6
CONTINUOUS
 62
     3
  5
176
 10
0.0
 20
-128.071429
 30
0.0
 40
18.5
 50
36.206268
 51
83.793732
  0
ARC
  8
0
  6
CONTINUOUS
 62
     3
  5
177
 10
0.0
 20
-128.071429
 30
0.0
 40
21.5
 50
35.337557
 51
84.662443
  0
ARC
  8
0
  6
CONTINUOUS
 62
     3
  5
178
 10
0.0
 20
-128.071429
 30
0.0
 40
18.5
 50
276.206268
 51
323.793732
  0
ARC
  8
0
  6
CONTINUOUS
 62
     3
  5
179
 10
0.0
 20
-128.071429
 30
0.0
 40
21.5
 50
275.337557
 51
324.662443
  0
ARC
  8
0
  6
CONTINUOUS
 62
     3
  5
17A
 10
0.0
 20
-128.071429
 30
0.0
 40
18.5
 50
216.206268
 51
263.793732
  0
ARC
  8
0
  6
CONTINUOUS
 62
     3
  5
17B
 10
0.0
 20
-128.071429
 30
0.0
 40
21.5
 50
215.337557
 51
264.662443
  0
ARC
  8
0
  6
CONTINUOUS
 62
     3
  5
17C
 10
0.0
 20
-128.071429
 30
0.0
 40
18.5
 50
156.206268
 51
203.793732
  0
ARC
  8
0
  6
CONTINUOUS
 62
     3
  5
17D
 10
0.0
 20
-128.071429
 30
0.0
 40
21.5
 50
155.337557
 51
204.662443
  0
ARC
  8
0
  6
CONTINUOUS
 62
     3
  5
17E
 10
0.0
 20
-128.071429
 30
0.0
 40
18.5
 50
96.206268
 51
143.793732
  0
ARC
  8
0
  6
CONTINUOUS
 62
     3
  5
17F
 10
0.0
 20
-128.071429
 30
0.0
 40
21.5
 50
95.337557
 51
144.662443
  0
LINE
  8
0
  6
CONTINUOUS
 62
     3
  5
180
 10
-31.044498
 20
-143.685577
 30
0.0
 11
-19.538811
 21
-137.042765
 31
0.0
  0
LINE
  8
0
  6
CONTINUOUS
 62
     3
  5
181
 10
-29.044498
 20
-147.149679
 30
0.0
 11
-17.538811
 21
-140.506867
 31
0.0
  0
LINE
  8
0
  6
CONTINUOUS
 62
     3
  5
182
 10
-29.044498
 20
-108.993179
 30
0.0
 11
-17.538811
 21
-115.63599
 31
0.0
  0
LINE
  8
0
  6
CONTINUOUS
 62
     3
  5
183
 10
-31.044498
 20
-112.45728
 30
0.0
 11
-19.538811
 21
-119.100092
 31
0.0
  0
LINE
  8
0
  6
CONTINUOUS
 62
     3
  5
184
 10
-2.0
 20
-93.37903
 30
0.0
 11
-2.0
 21
-106.664654
 31
0.0
  0
LINE
  8
0
  6
CONTINUOUS
 62
     3
  5
185
 10
2.0
 20
-93.37903
 30
0.0
 11
2.0
 21
-106.664654
 31
0.0
  0
ARC
  8
0
  6
CONTINUOUS
 62
     3
  5
186
 10
0.0
 20
-128.071429
 30
0.0
 40
34.75
 50
33.299422
 51
86.700578
  0
ARC
  8
0
  6
CONTINUOUS
 62
     3
  5
187
 10
0.0
 20
-128.071429
 30
0.0
 40
37.25
 50
332.777193
 51
87.222807
  0
CIRCLE
  8
0
  6
CONTINUOUS
 62
     3
  5
188
 10
38.971143
 20
-150.571429
 30
0.0
 40
8.0
  0
CIRCLE
  8
0
  6
CONTINUOUS
 62
     3
  5
189
 10
-38.971143
 20
-150.571429
 30
0.0
 40
8.0
  0
CIRCLE
  8
0
  6
CONTINUOUS
 62
     3
  5
18A
 10
0.0
 20
-83.071429
 30
0.0
 40
8.0
  0
ARC
  8
0
  6
CONTINUOUS
 62
     3
  5
18B
 10
0.0
 20
-128.071429
 30
0.0
 40
60.0
 50
294.361978
 51
289.724634
  0
ARC
  8
0
  6
CONTINUOUS
 62
     3
  5
18C
 10
0.0
 20
135.0
 30
0.0
 40
50.0
 50
0.0
 51
180.0
  0
LINE
  8
0
  6
CONTINUOUS
 62
     3
  5
18D
 10
52.0
 20
96.0
 30
0.0
 11
-52.0
 21
96.0
 31
0.0
  0
LINE
  8
0
  6
CONTINUOUS
 62
     3
  5
18E
 10
-59.0
 20
92.0
 30
0.0
 11
59.0
 21
92.0
 31
0.0
  0
LINE
  8
0
  6
CONTINUOUS
 62
     3
  5
18F
 10
-59.0
 20
92.0
 30
0.0
 11
-52.0
 21
96.0
 31
0.0
  0
LINE
  8
0
  6
CONTINUOUS
 62
     3
  5
190
 10
59.0
 20
92.0
 30
0.0
 11
52.0
 21
96.0
 31
0.0
  0
LINE
  8
0
  6
CONTINUOUS
 62
    80
  5
191
 10
14.493867
 20
42.0
 30
0.0
 11
14.493867
 21
92.0
 31
0.0
  0
LINE
  8
0
  6
CONTINUOUS
 62
    80
  5
192
 10
-55.786903
 20
92.0
 30
0.0
 11
-55.786903
 21
42.0
 31
0.0
  0
LINE
  8
0
  6
CONTINUOUS
 62
    80
  5
193
 10
42.628352
 20
42.0
 30
0.0
 11
42.628352
 21
92.0
 31
0.0
  0
LINE
  8
0
  6
CONTINUOUS
 62
    80
  5
194
 10
52.622787
 20
42.0
 30
0.0
 11
52.622787
 21
92.0
 31
0.0
  0
LINE
  8
0
  6
CONTINUOUS
 62
    80
  5
195
 10
50.753236
 20
92.0
 30
0.0
 11
50.753236
 21
42.0
 31
0.0
  0
LINE
  8
0
  6
CONTINUOUS
 62
    80
  5
196
 10
55.786903
 20
92.0
 30
0.0
 11
55.786903
 21
42.0
 31
0.0
  0
LINE
  8
0
  6
CONTINUOUS
 62
    80
  5
197
 10
45.872514
 20
92.0
 30
0.0
 11
45.872514
 21
42.0
 31
0.0
  0
LINE
  8
0
  6
CONTINUOUS
 62
    80
  5
198
 10
4.879338
 20
42.0
 30
0.0
 11
4.879338
 21
92.0
 31
0.0
  0
LINE
  8
0
  6
CONTINUOUS
 62
    80
  5
199
 10
0.0
 20
42.0
 30
0.0
 11
0.0
 21
92.0
 31
0.0
  0
LINE
  8
0
  6
CONTINUOUS
 62
    80
  5
19A
 10
9.721573
 20
92.0
 30
0.0
 11
9.721573
 21
42.0
 31
0.0
  0
LINE
  8
0
  6
CONTINUOUS
 62
    80
  5
19B
 10
39.59798
 20
92.0
 30
0.0
 11
39.59798
 21
42.0
 31
0.0
  0
LINE
  8
0
  6
CONTINUOUS
 62
    80
  5
19C
 10
-4.879338
 20
42.0
 30
0.0
 11
-4.879338
 21
92.0
 31
0.0
  0
LINE
  8
0
  6
CONTINUOUS
 62
    80
  5
19D
 10
-9.721573
 20
92.0
 30
0.0
 11
-9.721573
 21
42.0
 31
0.0
  0
LINE
  8
0
  6
CONTINUOUS
 62
    80
  5
19E
 10
19.153128
 20
42.0
 30
0.0
 11
19.153128
 21
92.0
 31
0.0
  0
LINE
  8
0
  6
CONTINUOUS
 62
    80
  5
19F
 10
48.497423
 20
42.0
 30
0.0
 11
48.497423
 21
92.0
 31
0.0
  0
LINE
  8
0
  6
CONTINUOUS
 62
     3
  5
1A0
 10
60.0
 20
42.0
 30
0.0
 11
59.0
 21
92.0
 31
0.0
  0
LINE
  8
0
  6
CONTINUOUS
 62
     3
  5
1A1
 10
-60.0
 20
42.0
 30
0.0
 11
-59.0
 21
92.0
 31
0.0
  0
LINE
  8
0
  6
CONTINUOUS
 62
     3
  5
1A2
 10
-52.0
 20
96.0
 30
0.0
 11
-50.0
 21
135.0
 31
0.0
  0
LINE
  8
0
  6
CONTINUOUS
 62
     3
  5
1A3
 10
52.0
 20
96.0
 30
0.0
 11
50.0
 21
135.0
 31
0.0
  0
LINE
  8
0
  6
CONTINUOUS
 62
    80
  5
1A4
 10
-14.493867
 20
42.0
 30
0.0
 11
-14.493867
 21
92.0
 31
0.0
  0
LINE
  8
0
  6
CONTINUOUS
 62
    80
  5
1A5
 10
-19.153128
 20
42.0
 30
0.0
 11
-19.153128
 21
92.0
 31
0.0
  0
LINE
  8
0
  6
CONTINUOUS
 62
    80
  5
1A6
 10
-23.666623
 20
92.0
 30
0.0
 11
-23.666623
 21
42.0
 31
0.0
  0
LINE
  8
0
  6
CONTINUOUS
 62
    80
  5
1A7
 10
-28.0
 20
42.0
 30
0.0
 11
-28.0
 21
92.0
 31
0.0
  0
LINE
  8
0
  6
CONTINUOUS
 62
    80
  5
1A8
 10
-32.12028
 20
92.0
 30
0.0
 11
-32.12028
 21
42.0
 31
0.0
  0
LINE
  8
0
  6
CONTINUOUS
 62
    80
  5
1A9
 10
35.996106
 20
42.0
 30
0.0
 11
35.996106
 21
92.0
 31
0.0
  0
LINE
  8
0
  6
CONTINUOUS
 62
    80
  5
1AA
 10
32.12028
 20
92.0
 30
0.0
 11
32.12028
 21
42.0
 31
0.0
  0
LINE
  8
0
  6
CONTINUOUS
 62
    80
  5
1AB
 10
-35.996106
 20
42.0
 30
0.0
 11
-35.996106
 21
92.0
 31
0.0
  0
LINE
  8
0
  6
CONTINUOUS
 62
    80
  5
1AC
 10
56.0
 20
42.0
 30
0.0
 11
56.0
 21
92.0
 31
0.0
  0
LINE
  8
0
  6
CONTINUOUS
 62
    80
  5
1AD
 10
-56.0
 20
42.0
 30
0.0
 11
-56.0
 21
92.0
 31
0.0
  0
LINE
  8
0
  6
CONTINUOUS
 62
    80
  5
1AE
 10
-39.59798
 20
92.0
 30
0.0
 11
-39.59798
 21
42.0
 31
0.0
  0
LINE
  8
0
  6
CONTINUOUS
 62
    80
  5
1AF
 10
-42.628352
 20
42.0
 30
0.0
 11
-42.628352
 21
92.0
 31
0.0
  0
LINE
  8
0
  6
CONTINUOUS
 62
    80
  5
1B0
 10
-45.872514
 20
92.0
 30
0.0
 11
-45.872514
 21
42.0
 31
0.0
  0
LINE
  8
0
  6
CONTINUOUS
 62
    80
  5
1B1
 10
-48.497423
 20
42.0
 30
0.0
 11
-48.497423
 21
92.0
 31
0.0
  0
LINE
  8
0
  6
CONTINUOUS
 62
    80
  5
1B2
 10
28.0
 20
42.0
 30
0.0
 11
28.0
 21
92.0
 31
0.0
  0
LINE
  8
0
  6
CONTINUOUS
 62
    80
  5
1B3
 10
-50.753236
 20
92.0
 30
0.0
 11
-50.753236
 21
42.0
 31
0.0
  0
LINE
  8
0
  6
CONTINUOUS
 62
    80
  5
1B4
 10
-52.622787
 20
42.0
 30
0.0
 11
-52.622787
 21
92.0
 31
0.0
  0
LINE
  8
0
  6
CONTINUOUS
 62
    80
  5
1B5
 10
-54.091846
 20
92.0
 30
0.0
 11
-54.091846
 21
42.0
 31
0.0
  0
LINE
  8
0
  6
CONTINUOUS
 62
    80
  5
1B6
 10
-55.149234
 20
42.0
 30
0.0
 11
-55.149234
 21
92.0
 31
0.0
  0
LINE
  8
0
  6
CONTINUOUS
 62
    80
  5
1B7
 10
23.666623
 20
92.0
 30
0.0
 11
23.666623
 21
42.0
 31
0.0
  0
LINE
  8
0
  6
CONTINUOUS
 62
    80
  5
1B8
 10
55.149234
 20
42.0
 30
0.0
 11
55.149234
 21
92.0
 31
0.0
  0
LINE
  8
0
  6
CONTINUOUS
 62
    80
  5
1B9
 10
54.091846
 20
92.0
 30
0.0
 11
54.091846
 21
42.0
 31
0.0
  0
LINE
  8
0
  6
CONTINUOUS
 62
     3
  5
1BA
 10
51.247377
 20
27.0
 30
0.0
 11
51.247377
 21
22.0
 31
0.0
  0
LINE
  8
0
  6
CONTINUOUS
 62
     3
  5
1BB
 10
-56.615231
 20
27.0
 30
0.0
 11
-56.615231
 21
22.0
 31
0.0
  0
LINE
  8
0
  6
CONTINUOUS
 62
     3
  5
1BC
 10
-60.0
 20
42.0
 30
0.0
 11
60.0
 21
42.0
 31
0.0
  0
LINE
  8
0
  6
CONTINUOUS
 62
     3
  5
1BD
 10
60.0
 20
42.0
 30
0.0
 11
60.0
 21
22.0
 31
0.0
  0
LINE
  8
0
  6
CONTINUOUS
 62
     3
  5
1BE
 10
40.0
 20
2.0
 30
0.0
 11
7.5
 21
2.0
 31
0.0
  0
LINE
  8
0
  6
CONTINUOUS
 62
     3
  5
1BF
 10
-60.0
 20
22.0
 30
0.0
 11
-60.0
 21
42.0
 31
0.0
  0
ARC
  8
0
  6
CONTINUOUS
 62
     3
  5
1C0
 10
-40.0
 20
22.0
 30
0.0
 40
20.0
 50
180.0
 51
270.0
  0
ARC
  8
0
  6
CONTINUOUS
 62
     3
  5
1C1
 10
40.0
 20
22.0
 30
0.0
 40
20.0
 50
270.0
 51
0.0
  0
LINE
  8
0
  6
CONTINUOUS
 62
     3
  5
1C2
 10
-55.367235
 20
27.0
 30
0.0
 11
-55.367235
 21
22.0
 31
0.0
  0
LINE
  8
0
  6
CONTINUOUS
 62
     3
  5
1C3
 10
57.480479
 20
27.0
 30
0.0
 11
57.480479
 21
22.0
 31
0.0
  0
LINE
  8
0
  6
CONTINUOUS
 62
     3
  5
1C4
 10
-37.5
 20
2.0
 30
0.0
 11
-37.5
 21
0.0
 31
0.0
  0
LINE
  8
0
  6
CONTINUOUS
 62
     3
  5
1C5
 10
-37.5
 20
0.0
 30
0.0
 11
37.5
 21
0.0
 31
0.0
  0
LINE
  8
0
  6
CONTINUOUS
 62
     3
  5
1C6
 10
37.5
 20
0.0
 30
0.0
 11
37.5
 21
2.0
 31
0.0
  0
LINE
  8
0
  6
CONTINUOUS
 62
     3
  5
1C7
 10
-54.228373
 20
27.0
 30
0.0
 11
-54.228373
 21
22.0
 31
0.0
  0
LINE
  8
0
  6
CONTINUOUS
 62
     3
  5
1C8
 10
-7.5
 20
2.0
 30
0.0
 11
-7.5
 21
0.0
 31
0.0
  0
LINE
  8
0
  6
CONTINUOUS
 62
     3
  5
1C9
 10
7.5
 20
2.0
 30
0.0
 11
7.5
 21
0.0
 31
0.0
  0
ARC
  8
0
  6
CONTINUOUS
 62
     3
  5
1CA
 10
38.959251
 20
22.0
 30
0.0
 40
20.004703
 50
271.24243
 51
0.0
  0
LINE
  8
0
  6
CONTINUOUS
 62
     3
  5
1CB
 10
47.704905
 20
27.0
 30
0.0
 11
49.350703
 21
27.0
 31
0.0
  0
ARC
  8
0
  6
CONTINUOUS
 62
     3
  5
1CC
 10
23.09663
 20
22.0
 30
0.0
 40
20.543137
 50
283.204455
 51
0.0
  0
LINE
  8
0
  6
CONTINUOUS
 62
     3
  5
1CD
 10
-46.471143
 20
3.075827
 30
0.0
 11
-46.471143
 21
0.0
 31
0.0
  0
LINE
  8
0
  6
CONTINUOUS
 62
     3
  5
1CE
 10
-46.471143
 20
0.0
 30
0.0
 11
-37.5
 21
0.0
 31
0.0
  0
LINE
  8
0
  6
CONTINUOUS
 62
     3
  5
1CF
 10
46.471143
 20
3.075827
 30
0.0
 11
46.471143
 21
0.0
 31
0.0
  0
LINE
  8
0
  6
CONTINUOUS
 62
     3
  5
1D0
 10
46.471143
 20
0.0
 30
0.0
 11
37.5
 21
0.0
 31
0.0
  0
LINE
  8
0
  6
CONTINUOUS
 62
     3
  5
1D1
 10
-52.647377
 20
27.0
 30
0.0
 11
-52.647377
 21
22.0
 31
0.0
  0
LINE
  8
0
  6
CONTINUOUS
 62
     3
  5
1D2
 10
-51.247377
 20
27.0
 30
0.0
 11
-51.247377
 21
22.0
 31
0.0
  0
LINE
  8
0
  6
CONTINUOUS
 62
     3
  5
1D3
 10
-49.350703
 20
27.0
 30
0.0
 11
-49.350703
 21
22.0
 31
0.0
  0
LINE
  8
0
  6
CONTINUOUS
 62
     3
  5
1D4
 10
-47.704905
 20
27.0
 30
0.0
 11
-47.704905
 21
22.0
 31
0.0
  0
LINE
  8
0
  6
CONTINUOUS
 62
     3
  5
1D5
 10
-45.513333
 20
27.0
 30
0.0
 11
-45.513333
 21
22.0
 31
0.0
  0
LINE
  8
0
  6
CONTINUOUS
 62
     3
  5
1D6
 10
-43.639767
 20
27.0
 30
0.0
 11
-43.639767
 21
22.0
 31
0.0
  0
LINE
  8
0
  6
CONTINUOUS
 62
     3
  5
1D7
 10
-41.177309
 20
27.0
 30
0.0
 11
-41.177309
 21
22.0
 31
0.0
  0
LINE
  8
0
  6
CONTINUOUS
 62
     3
  5
1D8
 10
-39.096503
 20
27.0
 30
0.0
 11
-39.096503
 21
22.0
 31
0.0
  0
LINE
  8
0
  6
CONTINUOUS
 62
     3
  5
1D9
 10
-36.390137
 20
27.0
 30
0.0
 11
-36.390137
 21
22.0
 31
0.0
  0
LINE
  8
0
  6
CONTINUOUS
 62
     3
  5
1DA
 10
-34.12489
 20
27.0
 30
0.0
 11
-34.12489
 21
22.0
 31
0.0
  0
LINE
  8
0
  6
CONTINUOUS
 62
     3
  5
1DB
 10
-31.204268
 20
27.0
 30
0.0
 11
-31.204268
 21
22.0
 31
0.0
  0
LINE
  8
0
  6
CONTINUOUS
 62
     3
  5
1DC
 10
-28.779397
 20
27.0
 30
0.0
 11
-28.779397
 21
22.0
 31
0.0
  0
LINE
  8
0
  6
CONTINUOUS
 62
     3
  5
1DD
 10
-25.676518
 20
27.0
 30
0.0
 11
-25.676518
 21
22.0
 31
0.0
  0
LINE
  8
0
  6
CONTINUOUS
 62
     3
  5
1DE
 10
28.779397
 20
27.0
 30
0.0
 11
31.204268
 21
27.0
 31
0.0
  0
ARC
  8
0
  6
CONTINUOUS
 62
     3
  5
1DF
 10
-5.526329
 20
22.0
 30
0.0
 40
28.64492
 50
315.716906
 51
0.0
  0
ARC
  8
0
  6
CONTINUOUS
 62
     3
  5
1E0
 10
15.571444
 20
22.0
 30
0.0
 40
35.438895
 50
180.0
 51
214.357283
  0
ARC
  8
0
  6
CONTINUOUS
 62
     3
  5
1E1
 10
18.234403
 20
22.0
 30
0.0
 40
35.438895
 50
180.0
 51
214.357283
  0
LINE
  8
0
  6
CONTINUOUS
 62
     3
  5
1E2
 10
-23.118591
 20
27.0
 30
0.0
 11
-23.118591
 21
22.0
 31
0.0
  0
ARC
  8
0
  6
CONTINUOUS
 62
     3
  5
1E3
 10
35.286156
 20
22.0
 30
0.0
 40
20.081079
 50
275.15045
 51
0.0
  0
ARC
  8
0
  6
CONTINUOUS
 62
     3
  5
1E4
 10
31.041295
 20
22.0
 30
0.0
 40
20.206082
 50
278.190044
 51
0.0
  0
ARC
  8
0
  6
CONTINUOUS
 62
     3
  5
1E5
 10
32.441295
 20
22.0
 30
0.0
 40
20.206082
 50
278.190044
 51
0.0
  0
ARC
  8
0
  6
CONTINUOUS
 62
     3
  5
1E6
 10
37.4557
 20
22.0
 30
0.0
 40
20.024779
 50
272.850622
 51
0.0
  0
LINE
  8
0
  6
CONTINUOUS
 62
     3
  5
1E7
 10
58.963954
 20
27.0
 30
0.0
 11
58.963954
 21
22.0
 31
0.0
  0
LINE
  8
0
  6
CONTINUOUS
 62
     3
  5
1E8
 10
58.381801
 20
27.0
 30
0.0
 11
58.381801
 21
22.0
 31
0.0
  0
ARC
  8
0
  6
CONTINUOUS
 62
     3
  5
1E9
 10
24.628017
 20
22.0
 30
0.0
 40
20.885316
 50
286.742197
 51
0.0
  0
ARC
  8
0
  6
CONTINUOUS
 62
     3
  5
1EA
 10
11.238568
 20
22.0
 30
0.0
 40
22.886322
 50
299.086779
 51
0.0
  0
ARC
  8
0
  6
CONTINUOUS
 62
     3
  5
1EB
 10
34.147294
 20
22.0
 30
0.0
 40
20.081079
 50
275.15045
 51
0.0
  0
ARC
  8
0
  6
CONTINUOUS
 62
     3
  5
1EC
 10
20.513686
 20
22.0
 30
0.0
 40
20.663622
 50
284.560092
 51
0.0
  0
ARC
  8
0
  6
CONTINUOUS
 62
     3
  5
1ED
 10
13.710948
 20
22.0
 30
0.0
 40
22.679189
 50
298.131745
 51
0.0
  0
LINE
  8
0
  6
CONTINUOUS
 62
     3
  5
1EE
 10
51.247377
 20
27.0
 30
0.0
 11
52.647377
 21
27.0
 31
0.0
  0
ARC
  8
0
  6
CONTINUOUS
 62
     3
  5
1EF
 10
-3.785522
 20
22.0
 30
0.0
 40
24.993874
 50
180.0
 51
233.14883
  0
ARC
  8
0
  6
CONTINUOUS
 62
     3
  5
1F0
 10
18.038379
 20
22.0
 30
0.0
 40
21.058124
 50
288.24028
 51
0.0
  0
ARC
  8
0
  6
CONTINUOUS
 62
     3
  5
1F1
 10
38.377098
 20
22.0
 30
0.0
 40
20.004703
 50
271.24243
 51
0.0
  0
ARC
  8
0
  6
CONTINUOUS
 62
     3
  5
1F2
 10
36.590452
 20
22.0
 30
0.0
 40
20.024779
 50
272.850622
 51
0.0
  0
LINE
  8
0
  6
CONTINUOUS
 62
     3
  5
1F3
 10
58.381801
 20
27.0
 30
0.0
 11
58.963954
 21
27.0
 31
0.0
  0
LINE
  8
0
  6
CONTINUOUS
 62
     3
  5
1F4
 10
54.228373
 20
27.0
 30
0.0
 11
55.367235
 21
27.0
 31
0.0
  0
LINE
  8
0
  6
CONTINUOUS
 62
     3
  5
1F5
 10
34.12489
 20
27.0
 30
0.0
 11
36.390137
 21
27.0
 31
0.0
  0
LINE
  8
0
  6
CONTINUOUS
 62
     3
  5
1F6
 10
39.096503
 20
27.0
 30
0.0
 11
41.177309
 21
27.0
 31
0.0
  0
LINE
  8
0
  6
CONTINUOUS
 62
     3
  5
1F7
 10
19.867451
 20
27.0
 30
0.0
 11
17.204493
 21
27.0
 31
0.0
  0
LINE
  8
0
  6
CONTINUOUS
 62
     3
  5
1F8
 10
23.118591
 20
27.0
 30
0.0
 11
25.676518
 21
27.0
 31
0.0
  0
ARC
  8
0
  6
CONTINUOUS
 62
     3
  5
1F9
 10
6.210393
 20
22.0
 30
0.0
 40
24.993874
 50
306.85117
 51
0.0
  0
ARC
  8
0
  6
CONTINUOUS
 62
     3
  5
1FA
 10
27.255798
 20
22.0
 30
0.0
 40
20.449107
 50
282.030214
 51
0.0
  0
ARC
  8
0
  6
CONTINUOUS
 62
     3
  5
1FB
 10
-2.968402
 20
22.0
 30
0.0
 40
28.64492
 50
315.716906
 51
0.0
  0
LINE
  8
0
  6
CONTINUOUS
 62
     3
  5
1FC
 10
23.118591
 20
27.0
 30
0.0
 11
23.118591
 21
22.0
 31
0.0
  0
LINE
  8
0
  6
CONTINUOUS
 62
     3
  5
1FD
 10
28.779397
 20
27.0
 30
0.0
 11
28.779397
 21
22.0
 31
0.0
  0
LINE
  8
0
  6
CONTINUOUS
 62
     3
  5
1FE
 10
41.177309
 20
27.0
 30
0.0
 11
41.177309
 21
22.0
 31
0.0
  0
LINE
  8
0
  6
CONTINUOUS
 62
     3
  5
1FF
 10
45.513333
 20
27.0
 30
0.0
 11
45.513333
 21
22.0
 31
0.0
  0
LINE
  8
0
  6
CONTINUOUS
 62
     3
  5
200
 10
-7.5
 20
5.5
 30
0.0
 11
-7.5
 21
2.0
 31
0.0
  0
LINE
  8
0
  6
CONTINUOUS
 62
     3
  5
201
 10
-19.867451
 20
27.0
 30
0.0
 11
-19.867451
 21
22.0
 31
0.0
  0
LINE
  8
0
  6
CONTINUOUS
 62
     3
  5
202
 10
-17.204493
 20
27.0
 30
0.0
 11
-17.204493
 21
22.0
 31
0.0
  0
ARC
  8
0
  6
CONTINUOUS
 62
     3
  5
203
 10
28.901596
 20
22.0
 30
0.0
 40
20.449107
 50
282.030214
 51
0.0
  0
LINE
  8
0
  6
CONTINUOUS
 62
     3
  5
204
 10
43.639767
 20
27.0
 30
0.0
 11
45.513333
 21
27.0
 31
0.0
  0
LINE
  8
0
  6
CONTINUOUS
 62
     3
  5
205
 10
56.615231
 20
27.0
 30
0.0
 11
57.480479
 21
27.0
 31
0.0
  0
ARC
  8
0
  6
CONTINUOUS
 62
     3
  5
206
 10
2.968402
 20
22.0
 30
0.0
 40
28.64492
 50
180.0
 51
224.283094
  0
ARC
  8
0
  6
CONTINUOUS
 62
     3
  5
207
 10
-6.210393
 20
22.0
 30
0.0
 40
24.993874
 50
180.0
 51
233.14883
  0
ARC
  8
0
  6
CONTINUOUS
 62
     3
  5
208
 10
-23.09663
 20
22.0
 30
0.0
 40
20.543137
 50
180.0
 51
256.795545
  0
ARC
  8
0
  6
CONTINUOUS
 62
     3
  5
209
 10
-27.255798
 20
22.0
 30
0.0
 40
20.449107
 50
180.0
 51
257.969786
  0
ARC
  8
0
  6
CONTINUOUS
 62
     3
  5
20A
 10
-28.901596
 20
22.0
 30
0.0
 40
20.449107
 50
180.0
 51
257.969786
  0
ARC
  8
0
  6
CONTINUOUS
 62
     3
  5
20B
 10
-18.038379
 20
22.0
 30
0.0
 40
21.058124
 50
180.0
 51
251.75972
  0
ARC
  8
0
  6
CONTINUOUS
 62
     3
  5
20C
 10
-36.590452
 20
22.0
 30
0.0
 40
20.024779
 50
180.0
 51
267.149378
  0
ARC
  8
0
  6
CONTINUOUS
 62
     3
  5
20D
 10
-38.377098
 20
22.0
 30
0.0
 40
20.004703
 50
180.0
 51
268.75757
  0
LINE
  8
0
  6
CONTINUOUS
 62
     3
  5
20E
 10
52.647377
 20
27.0
 30
0.0
 11
52.647377
 21
22.0
 31
0.0
  0
LINE
  8
0
  6
CONTINUOUS
 62
     3
  5
20F
 10
19.867451
 20
27.0
 30
0.0
 11
19.867451
 21
22.0
 31
0.0
  0
LINE
  8
0
  6
CONTINUOUS
 62
     3
  5
210
 10
36.390137
 20
27.0
 30
0.0
 11
36.390137
 21
22.0
 31
0.0
  0
ARC
  8
0
  6
CONTINUOUS
 62
     3
  5
211
 10
-15.571444
 20
22.0
 30
0.0
 40
35.438895
 50
325.642717
 51
0.0
  0
LINE
  8
0
  6
CONTINUOUS
 62
     3
  5
212
 10
34.12489
 20
27.0
 30
0.0
 11
34.12489
 21
22.0
 31
0.0
  0
LINE
  8
0
  6
CONTINUOUS
 62
     3
  5
213
 10
39.096503
 20
27.0
 30
0.0
 11
39.096503
 21
22.0
 31
0.0
  0
LINE
  8
0
  6
CONTINUOUS
 62
     3
  5
214
 10
43.639767
 20
27.0
 30
0.0
 11
43.639767
 21
22.0
 31
0.0
  0
LINE
  8
0
  6
CONTINUOUS
 62
     3
  5
215
 10
-19.867451
 20
27.0
 30
0.0
 11
-17.204493
 21
27.0
 31
0.0
  0
LINE
  8
0
  6
CONTINUOUS
 62
     3
  5
216
 10
-23.118591
 20
27.0
 30
0.0
 11
-25.676518
 21
27.0
 31
0.0
  0
LINE
  8
0
  6
CONTINUOUS
 62
     3
  5
217
 10
-28.779397
 20
27.0
 30
0.0
 11
-31.204268
 21
27.0
 31
0.0
  0
LINE
  8
0
  6
CONTINUOUS
 62
     3
  5
218
 10
-34.12489
 20
27.0
 30
0.0
 11
-36.390137
 21
27.0
 31
0.0
  0
LINE
  8
0
  6
CONTINUOUS
 62
     3
  5
219
 10
-39.096503
 20
27.0
 30
0.0
 11
-41.177309
 21
27.0
 31
0.0
  0
LINE
  8
0
  6
CONTINUOUS
 62
     3
  5
21A
 10
-43.639767
 20
27.0
 30
0.0
 11
-45.513333
 21
27.0
 31
0.0
  0
LINE
  8
0
  6
CONTINUOUS
 62
     3
  5
21B
 10
-47.704905
 20
27.0
 30
0.0
 11
-49.350703
 21
27.0
 31
0.0
  0
LINE
  8
0
  6
CONTINUOUS
 62
     3
  5
21C
 10
-51.247377
 20
27.0
 30
0.0
 11
-52.647377
 21
27.0
 31
0.0
  0
LINE
  8
0
  6
CONTINUOUS
 62
     3
  5
21D
 10
-54.228373
 20
27.0
 30
0.0
 11
-55.367235
 21
27.0
 31
0.0
  0
LINE
  8
0
  6
CONTINUOUS
 62
     3
  5
21E
 10
-56.615231
 20
27.0
 30
0.0
 11
-57.480479
 21
27.0
 31
0.0
  0
LINE
  8
0
  6
CONTINUOUS
 62
     3
  5
21F
 10
-58.381801
 20
27.0
 30
0.0
 11
-58.963954
 21
27.0
 31
0.0
  0
LINE
  8
0
  6
CONTINUOUS
 62
     3
  5
220
 10
55.367235
 20
27.0
 30
0.0
 11
55.367235
 21
22.0
 31
0.0
  0
LINE
  8
0
  6
CONTINUOUS
 62
     3
  5
221
 10
56.615231
 20
27.0
 30
0.0
 11
56.615231
 21
22.0
 31
0.0
  0
ARC
  8
0
  6
CONTINUOUS
 62
     3
  5
222
 10
-13.710948
 20
22.0
 30
0.0
 40
22.679189
 50
180.0
 51
241.868255
  0
ARC
  8
0
  6
CONTINUOUS
 62
     3
  5
223
 10
-11.238568
 20
22.0
 30
0.0
 40
22.886322
 50
180.0
 51
240.913221
  0
ARC
  8
0
  6
CONTINUOUS
 62
     3
  5
224
 10
5.526329
 20
22.0
 30
0.0
 40
28.64492
 50
180.0
 51
224.283094
  0
ARC
  8
0
  6
CONTINUOUS
 62
     3
  5
225
 10
-20.513686
 20
22.0
 30
0.0
 40
20.663622
 50
180.0
 51
255.439908
  0
ARC
  8
0
  6
CONTINUOUS
 62
     3
  5
226
 10
-34.147294
 20
22.0
 30
0.0
 40
20.081079
 50
180.0
 51
264.84955
  0
ARC
  8
0
  6
CONTINUOUS
 62
     3
  5
227
 10
-24.628017
 20
22.0
 30
0.0
 40
20.885316
 50
180.0
 51
253.257803
  0
ARC
  8
0
  6
CONTINUOUS
 62
     3
  5
228
 10
-31.041295
 20
22.0
 30
0.0
 40
20.206082
 50
180.0
 51
261.809956
  0
ARC
  8
0
  6
CONTINUOUS
 62
     3
  5
229
 10
-32.441295
 20
22.0
 30
0.0
 40
20.206082
 50
180.0
 51
261.809956
  0
ARC
  8
0
  6
CONTINUOUS
 62
     3
  5
22A
 10
-35.286156
 20
22.0
 30
0.0
 40
20.081079
 50
180.0
 51
264.84955
  0
ARC
  8
0
  6
CONTINUOUS
 62
     3
  5
22B
 10
-37.4557
 20
22.0
 30
0.0
 40
20.024779
 50
180.0
 51
267.149378
  0
ARC
  8
0
  6
CONTINUOUS
 62
     3
  5
22C
 10
-38.959251
 20
22.0
 30
0.0
 40
20.004703
 50
180.0
 51
268.75757
  0
ARC
  8
0
  6
CONTINUOUS
 62
     3
  5
22D
 10
3.785522
 20
22.0
 30
0.0
 40
24.993874
 50
306.85117
 51
0.0
  0
LINE
  8
0
  6
CONTINUOUS
 62
     3
  5
22E
 10
17.204493
 20
27.0
 30
0.0
 11
17.204493
 21
22.0
 31
0.0
  0
ARC
  8
0
  6
CONTINUOUS
 62
     3
  5
22F
 10
-18.234403
 20
22.0
 30
0.0
 40
35.438895
 50
325.642717
 51
0.0
  0
LINE
  8
0
  6
CONTINUOUS
 62
     3
  5
230
 10
31.204268
 20
27.0
 30
0.0
 11
31.204268
 21
22.0
 31
0.0
  0
LINE
  8
0
  6
CONTINUOUS
 62
     3
  5
231
 10
25.676518
 20
27.0
 30
0.0
 11
25.676518
 21
22.0
 31
0.0
  0
LINE
  8
0
  6
CONTINUOUS
 62
     3
  5
232
 10
54.228373
 20
27.0
 30
0.0
 11
54.228373
 21
22.0
 31
0.0
  0
LINE
  8
0
  6
CONTINUOUS
 62
     3
  5
233
 10
31.471143
 20
-10.0
 30
0.0
 11
46.471143
 21
-10.0
 31
0.0
  0
LINE
  8
0
  6
CONTINUOUS
 62
     3
  5
234
 10
46.471143
 20
-10.0
 30
0.0
 11
46.471143
 21
0.0
 31
0.0
  0
LINE
  8
0
  6
CONTINUOUS
 62
     3
  5
235
 10
49.350703
 20
27.0
 30
0.0
 11
49.350703
 21
22.0
 31
0.0
  0
LINE
  8
0
  6
CONTINUOUS
 62
     3
  5
236
 10
47.704905
 20
27.0
 30
0.0
 11
47.704905
 21
22.0
 31
0.0
  0
LINE
  8
0
  6
CONTINUOUS
 62
     3
  5
237
 10
31.471143
 20
0.0
 30
0.0
 11
31.471143
 21
-10.0
 31
0.0
  0
ARC
  8
0
  6
CONTINUOUS
 62
     3
  5
238
 10
0.0
 20
-0.785714
 30
0.0
 40
9.785714
 50
39.966213
 51
140.033787
  0
LINE
  8
0
  6
CONTINUOUS
 62
     3
  5
239
 10
-57.480479
 20
27.0
 30
0.0
 11
-57.480479
 21
22.0
 31
0.0
  0
LINE
  8
0
  6
CONTINUOUS
 62
     3
  5
23A
 10
-58.381801
 20
27.0
 30
0.0
 11
-58.381801
 21
22.0
 31
0.0
  0
LINE
  8
0
  6
CONTINUOUS
 62
     3
  5
23B
 10
-58.963954
 20
27.0
 30
0.0
 11
-58.963954
 21
22.0
 31
0.0
  0
LINE
  8
0
  6
CONTINUOUS
 62
     3
  5
23C
 10
-7.5
 20
2.0
 30
0.0
 11
-40.0
 21
2.0
 31
0.0
  0
LINE
  8
0
  6
CONTINUOUS
 62
     3
  5
23D
 10
7.5
 20
5.5
 30
0.0
 11
7.5
 21
2.0
 31
0.0
  0
LINE
  8
0
  6
CONTINUOUS
 62
     3
  5
23E
 10
31.471143
 20
-10.0
 30
0.0
 11
31.471143
 21
-11.0
 31
0.0
  0
LINE
  8
0
  6
CONTINUOUS
 62
     3
  5
23F
 10
31.471143
 20
-11.0
 30
0.0
 11
46.471143
 21
-11.0
 31
0.0
  0
LINE
  8
0
  6
CONTINUOUS
 62
     3
  5
240
 10
46.471143
 20
-11.0
 30
0.0
 11
46.471143
 21
-10.0
 31
0.0
  0
LINE
  8
0
  6
CONTINUOUS
 62
     3
  5
241
 10
36.471143
 20
-25.5
 30
0.0
 11
36.971143
 21
-26.0
 31
0.0
  0
LINE
  8
0
  6
CONTINUOUS
 62
    80
  5
242
 10
36.471143
 20
-25.5
 30
0.0
 11
41.471143
 21
-25.5
 31
0.0
  0
LINE
  8
0
  6
CONTINUOUS
 62
    80
  5
243
 10
40.971143
 20
-15.329004
 30
0.0
 11
40.971143
 21
-26.0
 31
0.0
  0
LINE
  8
0
  6
CONTINUOUS
 62
    80
  5
244
 10
36.971143
 20
-15.329004
 30
0.0
 11
36.971143
 21
-26.0
 31
0.0
  0
LINE
  8
0
  6
CONTINUOUS
 62
     3
  5
245
 10
41.471143
 20
-25.5
 30
0.0
 11
41.471143
 21
-15.329004
 31
0.0
  0
LINE
  8
0
  6
CONTINUOUS
 62
     3
  5
246
 10
36.971143
 20
-26.0
 30
0.0
 11
40.971143
 21
-26.0
 31
0.0
  0
LINE
  8
0
  6
CONTINUOUS
 62
     3
  5
247
 10
36.471143
 20
-15.329004
 30
0.0
 11
36.471143
 21
-25.5
 31
0.0
  0
LINE
  8
0
  6
CONTINUOUS
 62
     3
  5
248
 10
41.471143
 20
-25.5
 30
0.0
 11
40.971143
 21
-26.0
 31
0.0
  0
ENDSEC
  0
EOF
