  0
SECTION
  2
HEADER
  9
$ACADVER
  1
AC1009
  9
$DWGCODEPAGE
  3
dos932
  9
$INSBASE
 10
0.0
 20
0.0
 30
0.0
  9
$EXTMIN
 10
-317.5
 20
-46.379867
 30
0.0
  9
$EXTMAX
 10
256.250003
 20
477.5
 30
0.0
  9
$LIMMIN
 10
-317.5
 20
-46.379867
  9
$LIMMAX
 10
256.250003
 20
477.5
  9
$ORTHOMODE
 70
     0
  9
$REGENMODE
 70
     1
  9
$FILLMODE
 70
     1
  9
$QTEXTMODE
 70
     0
  9
$MIRRTEXT
 70
     1
  9
$DRAGMODE
 70
     2
  9
$LTSCALE
 40
1.0
  9
$OSMODE
 70
     0
  9
$ATTMODE
 70
     1
  9
$TEXTSIZE
 40
4.1656
  9
$TRACEWID
 40
0.05
  9
$TEXTSTYLE
  7
MX_NOTE_STANDARD
  9
$CLAYER
  8
0
  9
$CELTYPE
  6
CONTINUOUS
  9
$CECOLOR
 62
   256
  9
$DIMSCALE
 40
1.0
  9
$DIMASZ
 40
2.5
  9
$DIMEXO
 40
0.5
  9
$DIMDLI
 40
3.75
  9
$DIMRND
 40
0.0
  9
$DIMDLE
 40
0.0
  9
$DIMEXE
 40
1.0
  9
$DIMTP
 40
0.0
  9
$DIMTM
 40
0.0
  9
$DIMTXT
 40
2.5
  9
$DIMCEN
 40
2.5
  9
$DIMTSZ
 40
0.0
  9
$DIMTOL
 70
     0
  9
$DIMLIM
 70
     0
  9
$DIMTIH
 70
     0
  9
$DIMTOH
 70
     0
  9
$DIMSE1
 70
     0
  9
$DIMSE2
 70
     0
  9
$DIMTAD
 70
     1
  9
$DIMZIN
 70
     8
  9
$DIMBLK
  1

  9
$DIMASO
 70
     1
  9
$DIMSHO
 70
     1
  9
$DIMPOST
  1

  9
$DIMAPOST
  1

  9
$DIMALT
 70
     0
  9
$DIMALTD
 70
     4
  9
$DIMALTF
 40
0.03937
  9
$DIMLFAC
 40
1.0
  9
$DIMTOFL
 70
     1
  9
$DIMTVP
 40
0.0
  9
$DIMTIX
 70
     0
  9
$DIMSOXD
 70
     0
  9
$DIMSAH
 70
     0
  9
$DIMBLK1
  1

  9
$DIMBLK2
  1

  9
$DIMSTYLE
  2
MXDIMSTYLE
  9
$DIMCLRD
 70
     0
  9
$DIMCLRE
 70
     0
  9
$DIMCLRT
 70
     0
  9
$DIMTFAC
 40
1.0
  9
$DIMGAP
 40
1.0
  9
$LUNITS
 70
     2
  9
$LUPREC
 70
     4
  9
$AXISMODE
 70
     0
  9
$AXISUNIT
 10
0.0
 20
0.0
  9
$SKETCHINC
 40
0.1
  9
$FILLETRAD
 40
0.0
  9
$AUNITS
 70
     0
  9
$AUPREC
 70
     0
  9
$MENU
  1
acad
  9
$ELEVATION
 40
0.0
  9
$PELEVATION
 40
0.0
  9
$THICKNESS
 40
0.0
  9
$LIMCHECK
 70
     0
  9
$BLIPMODE
 70
     1
  9
$CHAMFERA
 40
0.0
  9
$CHAMFERB
 40
0.0
  9
$SKPOLY
 70
     0
  9
$TDCREATE
 40
2453781.727800926
  9
$TDUPDATE
 40
2453781.727800926
  9
$TDINDWG
 40
0.0000000000
  9
$TDUSRTIMER
 40
0.0000000000
  9
$USRTIMER
 70
     1
  9
$ANGBASE
 50
0.0
  9
$ANGDIR
 70
     0
  9
$PDMODE
 70
     0
  9
$PDSIZE
 40
0.0
  9
$PLINEWID
 40
0.0
  9
$COORDS
 70
     1
  9
$SPLFRAME
 70
     0
  9
$SPLINETYPE
 70
     6
  9
$SPLINESEGS
 70
     8
  9
$ATTDIA
 70
     0
  9
$ATTREQ
 70
     1
  9
$HANDLING
 70
     1
  9
$HANDSEED
  5
341
  9
$SURFTAB1
 70
     6
  9
$SURFTAB2
 70
     6
  9
$SURFTYPE
 70
     6
  9
$SURFU
 70
     6
  9
$SURFV
 70
     6
  9
$UCSNAME
  2

  9
$UCSORG
 10
0.0
 20
0.0
 30
0.0
  9
$UCSXDIR
 10
1.0
 20
0.0
 30
0.0
  9
$UCSYDIR
 10
0.0
 20
1.0
 30
0.0
  9
$PUCSNAME
  2

  9
$PUCSORG
 10
0.0
 20
0.0
 30
0.0
  9
$PUCSXDIR
 10
1.0
 20
0.0
 30
0.0
  9
$PUCSYDIR
 10
0.0
 20
1.0
 30
0.0
  9
$USERI1
 70
     0
  9
$USERI2
 70
     0
  9
$USERI3
 70
     0
  9
$USERI4
 70
     0
  9
$USERI5
 70
     0
  9
$USERR1
 40
0.0
  9
$USERR2
 40
0.0
  9
$USERR3
 40
0.0
  9
$USERR4
 40
0.0
  9
$USERR5
 40
0.0
  9
$WORLDVIEW
 70
     1
  9
$SHADEDGE
 70
     3
  9
$SHADEDIF
 70
    70
  9
$TILEMODE
 70
     1
  9
$MAXACTVP
 70
    16
  9
$PINSBASE
 10
0.0
 20
0.0
 30
0.0
  9
$PLIMCHECK
 70
     0
  9
$PEXTMIN
 10
1.000000E+20
 20
1.000000E+20
 30
1.000000E+20
  9
$PEXTMAX
 10
-1.000000E+20
 20
-1.000000E+20
 30
-1.000000E+20
  9
$PLIMMIN
 10
0.0
 20
0.0
  9
$PLIMMAX
 10
12.0
 20
9.0
  9
$UNITMODE
 70
     0
  9
$VISRETAIN
 70
     0
  9
$PLINEGEN
 70
     1
  9
$PSLTSCALE
 70
     0
  9
$TREEDEPTH
 70
  3020
  9
$DWGCODEPAGE
  3
dos932
  0
ENDSEC
  0
SECTION
  2
TABLES
  0
TABLE
  2
VPORT
 70
     1
  0
VPORT
  2
*ACTIVE
 70
     0
 10
0.0
 20
0.0
 11
1.0
 21
1.0
 12
-30.624999
 22
215.560067
 13
0.0
 23
0.0
 14
1.0
 24
1.0
 15
0.0
 25
0.0
 16
0.0
 26
0.0
 36
1.0
 17
0.0
 27
0.0
 37
0.0
 40
529.118666
 41
1.732051
 42
50.0
 43
0.0
 44
0.0
 50
0.0
 51
0.0
 71
     0
 72
   100
 73
     1
 74
     1
 75
     0
 76
     0
 77
     0
 78
     0
  0
ENDTAB
  0
TABLE
  2
LTYPE
 70
     2
  0
LTYPE
  2
CONTINUOUS
 70
    64
  3
Solid line
 72
    65
 73
     0
 40
0.0
  0
LTYPE
  2
DASHED
 70
    64
  3
Dashed __ __ __ __ __ __ __ __ __ __ __ __ __ _
 72
    65
 73
     2
 40
19.05
 49
12.7
 49
-6.35
  0
ENDTAB
  0
TABLE
  2
LAYER
 70
     5
  0
LAYER
  2
0
 70
     0
 62
     7
  6
CONTINUOUS
  0
LAYER
  2
1
 70
     0
 62
     7
  6
CONTINUOUS
  0
LAYER
  2
30
 70
     0
 62
     7
  6
CONTINUOUS
  0
LAYER
  2
_CONSTR
 70
     0
 62
     5
  6
CONTINUOUS
  0
LAYER
  2
DEFPOINTS
 70
     0
 62
     7
  6
CONTINUOUS
  0
ENDTAB
  0
TABLE
  2
STYLE
 70
     1
  0
STYLE
  2
MX_NOTE_STANDARD
 70
     0
 40
0.0
 41
1.0
 50
0.0
 71
     0
 42
4.1656
  3
txt.shx
  4
extfont.shx
  0
ENDTAB
  0
TABLE
  2
VIEW
 70
     0
  0
ENDTAB
  0
TABLE
  2
UCS
 70
     0
  0
ENDTAB
  0
TABLE
  2
APPID
 70
     1
  0
APPID
  2
ACAD
 70
     0
  0
ENDTAB
  0
TABLE
  2
DIMSTYLE
 70
     1
  0
DIMSTYLE
  2
MXDIMSTYLE
 70
     0
  3

  4

  5

  6

  7

 40
1.0
 41
2.5
 42
0.5
 43
3.75
 44
1.0
 45
0.0
 46
0.0
 47
0.0
 48
0.0
 71
     0
 72
     0
 73
     0
 74
     0
 75
     0
 76
     0
 77
     1
 78
     8
140
2.5
141
2.5
142
0.0
143
0.03937
144
1.0
145
0.0
146
1.0
147
1.0
170
     0
171
     4
172
     1
173
     0
174
     0
175
     0
176
     0
177
     0
178
     0
  0
ENDTAB
  0
ENDSEC
  0
SECTION
  2
BLOCKS
  0
ENDSEC
  0
SECTION
  2
ENTITIES
  0
TEXT
  8
0
  6
CONTINUOUS
 62
   255
  5
21
 10
146.875003
 20
452.5
 30
0.0
 40
20.0
  1
FSS*-S
 41
0.9375
  7
MX_NOTE_STANDARD
 11
146.875003
 21
462.5
 31
0.0
 73
     2
  0
TEXT
  8
0
  6
CONTINUOUS
 62
   255
  5
22
 10
-253.124997
 20
452.5
 30
0.0
 40
20.0
  1
FSS*-M
 41
0.9375
  7
MX_NOTE_STANDARD
 11
-253.124997
 21
462.5
 31
0.0
 73
     2
  0
TEXT
  8
0
  6
CONTINUOUS
 62
   255
  5
23
 10
-53.124997
 20
452.5
 30
0.0
 40
20.0
  1
FSS*-G
 41
0.9375
  7
MX_NOTE_STANDARD
 11
-53.124997
 21
462.5
 31
0.0
 73
     2
  0
ARC
  8
0
  6
CONTINUOUS
 62
     3
  5
24
 10
200.0
 20
0.0
 30
0.0
 40
3.5
 50
310.005201
 51
120.0
  0
ARC
  8
0
  6
CONTINUOUS
 62
     3
  5
25
 10
-200.0
 20
0.0
 30
0.0
 40
3.5
 50
310.005201
 51
120.0
  0
ARC
  8
0
  6
CONTINUOUS
 62
     3
  5
26
 10
-200.0
 20
0.0
 30
0.0
 40
32.75
 50
273.939454
 51
302.275015
  0
ARC
  8
0
  6
CONTINUOUS
 62
     3
  5
27
 10
-200.0
 20
0.0
 30
0.0
 40
35.0
 50
273.685842
 51
306.26158
  0
ARC
  8
0
  6
CONTINUOUS
 62
     3
  5
28
 10
-200.0
 20
-20.0
 30
0.0
 40
4.0
 50
304.228866
 51
55.771134
  0
ARC
  8
0
  6
CONTINUOUS
 62
     3
  5
29
 10
-200.0
 20
-20.0
 30
0.0
 40
4.0
 50
124.228866
 51
136.690619
  0
ARC
  8
0
  6
CONTINUOUS
 62
     3
  5
2A
 10
200.0
 20
0.0
 30
0.0
 40
35.0
 50
273.685842
 51
274.3654
  0
LINE
  8
0
  6
CONTINUOUS
 62
    10
  5
2B
 10
197.75
 20
-29.045735
 30
0.0
 11
197.75
 21
-35.754867
 31
0.0
  0
LINE
  8
0
  6
CONTINUOUS
 62
    10
  5
2C
 10
202.25
 20
-8.720535
 30
0.0
 11
202.25
 21
0.0
 31
0.0
  0
LINE
  8
0
  6
CONTINUOUS
 62
    10
  5
2D
 10
200.0
 20
-10.880305
 30
0.0
 11
200.0
 21
0.0
 31
0.0
  0
ARC
  8
0
  6
CONTINUOUS
 62
    10
  5
2E
 10
207.25
 20
-35.754867
 30
0.0
 40
9.5
 50
180.0
 51
270.0
  0
ARC
  8
0
  6
CONTINUOUS
 62
    10
  5
2F
 10
207.25
 20
-35.754867
 30
0.0
 40
7.25
 50
180.0
 51
270.0
  0
ARC
  8
0
  6
CONTINUOUS
 62
    10
  5
30
 10
207.25
 20
-35.754867
 30
0.0
 40
5.0
 50
180.0
 51
270.0
  0
ARC
  8
0
  6
CONTINUOUS
 62
    10
  5
31
 10
224.367957
 20
-44.692367
 30
0.0
 40
2.109375
 50
306.869898
 51
53.130102
  0
ARC
  8
0
  6
CONTINUOUS
 62
    10
  5
32
 10
226.899207
 20
-41.317367
 30
0.0
 40
2.109375
 50
126.869898
 51
233.130102
  0
LINE
  8
0
  6
CONTINUOUS
 62
    10
  5
33
 10
207.25
 20
-45.254867
 30
0.0
 11
226.400949
 21
-45.254867
 31
0.0
  0
LINE
  8
0
  6
CONTINUOUS
 62
    10
  5
34
 10
224.866215
 20
-40.754867
 30
0.0
 11
207.25
 21
-40.754867
 31
0.0
  0
LINE
  8
0
  6
CONTINUOUS
 62
    10
  5
35
 10
225.633582
 20
-43.004867
 30
0.0
 11
207.25
 21
-43.004867
 31
0.0
  0
ARC
  8
0
  6
CONTINUOUS
 62
    10
  5
36
 10
200.0
 20
0.0
 30
0.0
 40
2.25
 50
0.0
 51
180.0
  0
LINE
  8
0
  6
CONTINUOUS
 62
    10
  5
37
 10
197.75
 20
0.0
 30
0.0
 11
197.75
 21
-14.255535
 31
0.0
  0
LINE
  8
0
  6
CONTINUOUS
 62
    10
  5
38
 10
202.25
 20
-35.754867
 30
0.0
 11
202.25
 21
-34.580736
 31
0.0
  0
LINE
  8
0
  6
CONTINUOUS
 62
    10
  5
39
 10
200.0
 20
-35.754867
 30
0.0
 11
200.0
 21
-32.420965
 31
0.0
  0
ARC
  8
0
  6
CONTINUOUS
 62
    10
  5
3A
 10
-192.75
 20
-35.754867
 30
0.0
 40
9.5
 50
180.0
 51
270.0
  0
ARC
  8
0
  6
CONTINUOUS
 62
    10
  5
3B
 10
-192.75
 20
-35.754867
 30
0.0
 40
7.25
 50
180.0
 51
270.0
  0
ARC
  8
0
  6
CONTINUOUS
 62
    10
  5
3C
 10
-192.75
 20
-35.754867
 30
0.0
 40
5.0
 50
180.0
 51
270.0
  0
ARC
  8
0
  6
CONTINUOUS
 62
    10
  5
3D
 10
-175.632043
 20
-44.692367
 30
0.0
 40
2.109375
 50
306.869898
 51
53.130102
  0
ARC
  8
0
  6
CONTINUOUS
 62
    10
  5
3E
 10
-173.100793
 20
-41.317367
 30
0.0
 40
2.109375
 50
126.869898
 51
233.130102
  0
LINE
  8
0
  6
CONTINUOUS
 62
    10
  5
3F
 10
-192.75
 20
-45.254867
 30
0.0
 11
-173.599051
 21
-45.254867
 31
0.0
  0
LINE
  8
0
  6
CONTINUOUS
 62
    10
  5
40
 10
-175.133785
 20
-40.754867
 30
0.0
 11
-192.75
 21
-40.754867
 31
0.0
  0
LINE
  8
0
  6
CONTINUOUS
 62
    10
  5
41
 10
-174.366418
 20
-43.004867
 30
0.0
 11
-192.75
 21
-43.004867
 31
0.0
  0
ARC
  8
0
  6
CONTINUOUS
 62
    10
  5
42
 10
-200.0
 20
0.0
 30
0.0
 40
2.25
 50
0.0
 51
180.0
  0
LINE
  8
0
  6
CONTINUOUS
 62
    10
  5
43
 10
-202.25
 20
0.0
 30
0.0
 11
-202.25
 21
-35.754867
 31
0.0
  0
LINE
  8
0
  6
CONTINUOUS
 62
    10
  5
44
 10
-197.75
 20
-35.754867
 30
0.0
 11
-197.75
 21
0.0
 31
0.0
  0
LINE
  8
0
  6
CONTINUOUS
 62
    10
  5
45
 10
-200.0
 20
-35.754867
 30
0.0
 11
-200.0
 21
0.0
 31
0.0
  0
LINE
  8
0
  6
DASHED
 62
    80
  5
47
 10
161.0
 20
-35.0
 30
0.0
 11
166.0
 21
-33.0
 31
0.0
  0
LINE
  8
0
  6
DASHED
 62
    80
  5
48
 10
166.0
 20
-33.0
 30
0.0
 11
188.338096
 21
-33.0
 31
0.0
  0
LINE
  8
0
  6
DASHED
 62
    80
  5
49
 10
161.0
 20
35.0
 30
0.0
 11
166.0
 21
33.0
 31
0.0
  0
LINE
  8
0
  6
DASHED
 62
    80
  5
4A
 10
166.0
 20
33.0
 30
0.0
 11
188.338096
 21
33.0
 31
0.0
  0
LINE
  8
0
  6
DASHED
 62
    80
  5
4B
 10
150.0
 20
33.5
 30
0.0
 11
150.0
 21
33.25
 31
0.0
  0
ARC
  8
0
  6
DASHED
 62
    80
  5
4C
 10
151.5
 20
33.5
 30
0.0
 40
1.5
 50
90.0
 51
180.0
  0
LINE
  8
0
  6
DASHED
 62
    80
  5
4D
 10
151.5
 20
35.0
 30
0.0
 11
161.0
 21
35.0
 31
0.0
  0
LINE
  8
0
  6
DASHED
 62
    80
  5
4E
 10
150.0
 20
33.25
 30
0.0
 11
113.5
 21
32.7
 31
0.0
  0
ARC
  8
0
  6
DASHED
 62
    80
  5
4F
 10
92.917359
 20
-9.573134
 30
0.0
 40
10.0
 50
184.99268
 51
204.943477
  0
ARC
  8
0
  6
DASHED
 62
    80
  5
50
 10
92.91736
 20
9.573136
 30
0.0
 40
10.0
 50
155.056519
 51
175.007317
  0
ARC
  8
0
  6
DASHED
 62
    80
  5
51
 10
202.5
 20
-0.000003
 30
0.0
 40
120.0
 50
175.007317
 51
180.0
  0
ARC
  8
0
  6
DASHED
 62
    80
  5
52
 10
202.5
 20
-0.000003
 30
0.0
 40
120.0
 50
180.0
 51
184.99268
  0
ARC
  8
0
  6
DASHED
 62
    80
  5
53
 10
113.5
 20
0.0
 30
0.0
 40
32.7
 50
204.943477
 51
270.0
  0
LINE
  8
0
  6
DASHED
 62
    80
  5
54
 10
113.5
 20
-32.7
 30
0.0
 11
150.0
 21
-33.25
 31
0.0
  0
ARC
  8
0
  6
DASHED
 62
    80
  5
55
 10
151.5
 20
-33.5
 30
0.0
 40
1.5
 50
180.0
 51
270.0
  0
LINE
  8
0
  6
DASHED
 62
    80
  5
56
 10
150.0
 20
-33.25
 30
0.0
 11
150.0
 21
-33.5
 31
0.0
  0
LINE
  8
0
  6
DASHED
 62
    80
  5
57
 10
151.5
 20
-35.0
 30
0.0
 11
161.0
 21
-35.0
 31
0.0
  0
ARC
  8
0
  6
DASHED
 62
    80
  5
58
 10
113.5
 20
0.0
 30
0.0
 40
32.7
 50
90.0
 51
155.056519
  0
LINE
  8
0
  6
DASHED
 62
    80
  5
59
 10
-239.0
 20
-35.0
 30
0.0
 11
-234.0
 21
-33.0
 31
0.0
  0
LINE
  8
0
  6
DASHED
 62
    80
  5
5A
 10
-234.0
 20
-33.0
 30
0.0
 11
-211.661904
 21
-33.0
 31
0.0
  0
LINE
  8
0
  6
DASHED
 62
    80
  5
5B
 10
-239.0
 20
35.0
 30
0.0
 11
-234.0
 21
33.0
 31
0.0
  0
LINE
  8
0
  6
DASHED
 62
    80
  5
5C
 10
-234.0
 20
33.0
 30
0.0
 11
-211.661904
 21
33.0
 31
0.0
  0
LINE
  8
0
  6
DASHED
 62
    80
  5
5D
 10
-250.0
 20
33.5
 30
0.0
 11
-250.0
 21
33.25
 31
0.0
  0
ARC
  8
0
  6
DASHED
 62
    80
  5
5E
 10
-248.5
 20
33.5
 30
0.0
 40
1.5
 50
90.0
 51
180.0
  0
LINE
  8
0
  6
DASHED
 62
    80
  5
5F
 10
-248.5
 20
35.0
 30
0.0
 11
-239.0
 21
35.0
 31
0.0
  0
LINE
  8
0
  6
DASHED
 62
    80
  5
60
 10
-250.0
 20
33.25
 30
0.0
 11
-286.5
 21
32.7
 31
0.0
  0
ARC
  8
0
  6
DASHED
 62
    80
  5
61
 10
-307.082641
 20
-9.573134
 30
0.0
 40
10.0
 50
184.99268
 51
204.943477
  0
ARC
  8
0
  6
DASHED
 62
    80
  5
62
 10
-307.08264
 20
9.573136
 30
0.0
 40
10.0
 50
155.056519
 51
175.007317
  0
ARC
  8
0
  6
DASHED
 62
    80
  5
63
 10
-197.5
 20
-0.000003
 30
0.0
 40
120.0
 50
175.007317
 51
180.0
  0
ARC
  8
0
  6
DASHED
 62
    80
  5
64
 10
-197.5
 20
-0.000003
 30
0.0
 40
120.0
 50
180.0
 51
184.99268
  0
ARC
  8
0
  6
DASHED
 62
    80
  5
65
 10
-286.5
 20
0.0
 30
0.0
 40
32.7
 50
204.943477
 51
270.0
  0
LINE
  8
0
  6
DASHED
 62
    80
  5
66
 10
-286.5
 20
-32.7
 30
0.0
 11
-250.0
 21
-33.25
 31
0.0
  0
ARC
  8
0
  6
DASHED
 62
    80
  5
67
 10
-248.5
 20
-33.5
 30
0.0
 40
1.5
 50
180.0
 51
270.0
  0
LINE
  8
0
  6
DASHED
 62
    80
  5
68
 10
-250.0
 20
-33.25
 30
0.0
 11
-250.0
 21
-33.5
 31
0.0
  0
LINE
  8
0
  6
DASHED
 62
    80
  5
69
 10
-248.5
 20
-35.0
 30
0.0
 11
-239.0
 21
-35.0
 31
0.0
  0
ARC
  8
0
  6
DASHED
 62
    80
  5
6A
 10
-286.5
 20
0.0
 30
0.0
 40
32.7
 50
90.0
 51
155.056519
  0
CIRCLE
  8
0
  6
CONTINUOUS
 62
     3
  5
6B
 10
12.5
 20
21.650635
 30
0.0
 40
6.75
  0
CIRCLE
  8
0
  6
CONTINUOUS
 62
     3
  5
6C
 10
12.5
 20
21.650635
 30
0.0
 40
6.25
  0
LINE
  8
0
  6
CONTINUOUS
 62
     3
  5
6D
 10
-30.0
 20
-10.0
 30
0.0
 11
-25.980762
 21
-10.0
 31
0.0
  0
LINE
  8
0
  6
CONTINUOUS
 62
     3
  5
6E
 10
-20.0
 20
7.030097
 30
0.0
 11
-20.0
 21
4.534589
 31
0.0
  0
CIRCLE
  8
0
  6
CONTINUOUS
 62
     3
  5
6F
 10
12.5
 20
-21.650635
 30
0.0
 40
6.25
  0
LINE
  8
0
  6
CONTINUOUS
 62
     3
  5
70
 10
-30.0
 20
4.534589
 30
0.0
 11
-30.0
 21
10.0
 31
0.0
  0
CIRCLE
  8
0
  6
CONTINUOUS
 62
     3
  5
71
 10
-25.0
 20
0.0
 30
0.0
 40
6.75
  0
ARC
  8
0
  6
CONTINUOUS
 62
     3
  5
72
 10
17.320508
 20
10.0
 30
0.0
 40
4.0
 50
334.337215
 51
256.690619
  0
ARC
  8
0
  6
CONTINUOUS
 62
     3
  5
73
 10
20.0
 20
0.0
 30
0.0
 40
2.5
 50
180.0
 51
0.0
  0
ARC
  8
0
  6
CONTINUOUS
 62
     3
  5
74
 10
0.0
 20
0.0
 30
0.0
 40
17.5
 50
18.86336
 51
20.425937
  0
LINE
  8
0
  6
CONTINUOUS
 62
     3
  5
75
 10
11.07293
 20
28.248057
 30
0.0
 11
6.339746
 21
30.980762
 31
0.0
  0
LINE
  8
0
  6
CONTINUOUS
 62
     3
  5
76
 10
6.339746
 20
30.980762
 30
0.0
 11
4.330127
 21
27.5
 31
0.0
  0
ARC
  8
0
  6
CONTINUOUS
 62
     3
  5
77
 10
0.0
 20
0.0
 30
0.0
 40
3.5
 50
310.005201
 51
229.994799
  0
CIRCLE
  8
0
  6
CONTINUOUS
 62
     3
  5
78
 10
12.5
 20
21.650635
 30
0.0
 40
4.75
  0
CIRCLE
  8
0
  6
CONTINUOUS
 62
     3
  5
79
 10
-25.0
 20
0.0
 30
0.0
 40
4.75
  0
CIRCLE
  8
0
  6
CONTINUOUS
 62
     3
  5
7A
 10
12.5
 20
-21.650635
 30
0.0
 40
4.75
  0
CIRCLE
  8
0
  6
CONTINUOUS
 62
     3
  5
7B
 10
-10.0
 20
-17.320508
 30
0.0
 40
2.5
  0
ARC
  8
0
  6
CONTINUOUS
 62
     3
  5
7C
 10
-3.75
 20
-30.520485
 30
0.0
 40
2.0
 50
262.995274
 51
318.590378
  0
ARC
  8
0
  6
CONTINUOUS
 62
     3
  5
7D
 10
3.75
 20
-30.520485
 30
0.0
 40
2.0
 50
221.409622
 51
277.004726
  0
ARC
  8
0
  6
CONTINUOUS
 62
     3
  5
7E
 10
0.0
 20
0.0
 30
0.0
 40
22.5
 50
19.778658
 51
21.558657
  0
ARC
  8
0
  6
CONTINUOUS
 62
     3
  5
7F
 10
-10.0
 20
17.320508
 30
0.0
 40
2.5
 50
300.0
 51
120.0
  0
ARC
  8
0
  6
CONTINUOUS
 62
     3
  5
80
 10
0.0
 20
0.0
 30
0.0
 40
17.5
 50
138.86336
 51
140.425937
  0
ARC
  8
0
  6
CONTINUOUS
 62
     3
  5
81
 10
0.0
 20
0.0
 30
0.0
 40
22.5
 50
139.778658
 51
141.558657
  0
ARC
  8
0
  6
CONTINUOUS
 62
     3
  5
82
 10
-17.320508
 20
10.0
 30
0.0
 40
4.0
 50
94.337215
 51
16.690619
  0
ARC
  8
0
  6
CONTINUOUS
 62
     3
  5
83
 10
21.160254
 20
16.650635
 30
0.0
 40
5.0
 50
267.730698
 51
60.0
  0
LINE
  8
0
  6
CONTINUOUS
 62
     3
  5
84
 10
13.92707
 20
-15.053213
 30
0.0
 11
16.737953
 21
-13.430349
 31
0.0
  0
LINE
  8
0
  6
CONTINUOUS
 62
     3
  5
85
 10
23.660254
 20
-20.980762
 30
0.0
 11
18.92707
 21
-23.713467
 31
0.0
  0
CIRCLE
  8
0
  6
CONTINUOUS
 62
     3
  5
86
 10
12.5
 20
-21.650635
 30
0.0
 40
6.75
  0
ARC
  8
0
  6
CONTINUOUS
 62
     3
  5
87
 10
-25.0
 20
10.0
 30
0.0
 40
5.0
 50
27.730698
 51
180.0
  0
ARC
  8
0
  6
CONTINUOUS
 62
     3
  5
88
 10
3.839746
 20
-26.650635
 30
0.0
 40
5.0
 50
251.461054
 51
300.0
  0
LINE
  8
0
  6
CONTINUOUS
 62
     3
  5
89
 10
-20.0
 20
-7.780317
 30
0.0
 11
-20.0
 21
-4.534589
 31
0.0
  0
LINE
  8
0
  6
CONTINUOUS
 62
     3
  5
8A
 10
-30.0
 20
-4.534589
 30
0.0
 11
-30.0
 21
-10.0
 31
0.0
  0
LINE
  8
0
  6
CONTINUOUS
 62
     3
  5
8B
 10
21.650635
 20
-17.5
 30
0.0
 11
23.660254
 21
-20.980762
 31
0.0
  0
LINE
  8
0
  6
CONTINUOUS
 62
     3
  5
8C
 10
6.339746
 20
-30.980762
 30
0.0
 11
11.07293
 21
-28.248057
 31
0.0
  0
LINE
  8
0
  6
CONTINUOUS
 62
     3
  5
8D
 10
6.07293
 20
-19.587803
 30
0.0
 11
2.25
 21
-21.794973
 31
0.0
  0
LINE
  8
0
  6
CONTINUOUS
 62
     3
  5
8E
 10
18.92707
 20
23.713467
 30
0.0
 11
23.660254
 21
20.980762
 31
0.0
  0
LINE
  8
0
  6
CONTINUOUS
 62
     3
  5
8F
 10
16.088243
 20
13.80546
 30
0.0
 11
13.92707
 21
15.053213
 31
0.0
  0
CIRCLE
  8
0
  6
CONTINUOUS
 62
     3
  5
90
 10
-25.0
 20
0.0
 30
0.0
 40
6.25
  0
LINE
  8
0
  6
CONTINUOUS
 62
     3
  5
91
 10
3.262047
 20
21.210667
 30
0.0
 11
6.07293
 21
19.587803
 31
0.0
  0
ARC
  8
0
  6
CONTINUOUS
 62
     3
  5
92
 10
0.0
 20
25.0
 30
0.0
 40
5.0
 50
30.0
 51
310.723515
  0
ARC
  8
0
  6
CONTINUOUS
 62
     3
  5
93
 10
0.0
 20
0.0
 30
0.0
 40
17.5
 50
0.0
 51
18.86336
  0
ARC
  8
0
  6
CONTINUOUS
 62
     3
  5
94
 10
0.0
 20
0.0
 30
0.0
 40
22.5
 50
0.0
 51
19.778658
  0
ARC
  8
0
  6
CONTINUOUS
 62
     3
  5
95
 10
0.0
 20
0.0
 30
0.0
 40
32.75
 50
277.004726
 51
262.995274
  0
ARC
  8
0
  6
CONTINUOUS
 62
     3
  5
96
 10
-21.650635
 20
-12.5
 30
0.0
 40
5.0
 50
150.0
 51
70.723515
  0
ARC
  8
0
  6
CONTINUOUS
 62
     3
  5
97
 10
0.0
 20
0.0
 30
0.0
 40
22.5
 50
120.0
 51
139.778658
  0
ARC
  8
0
  6
CONTINUOUS
 62
     3
  5
98
 10
0.0
 20
0.0
 30
0.0
 40
17.5
 50
120.0
 51
138.86336
  0
ARC
  8
0
  6
CONTINUOUS
 62
     3
  5
99
 10
0.0
 20
0.0
 30
0.0
 40
35.0
 50
274.3654
 51
266.314158
  0
ARC
  8
0
  6
CONTINUOUS
 62
     3
  5
9A
 10
21.650635
 20
-12.5
 30
0.0
 40
5.0
 50
270.0
 51
190.723515
  0
LINE
  8
0
  6
CONTINUOUS
 62
     3
  5
9B
 10
-2.75
 20
26.587708
 30
0.0
 11
-2.75
 21
23.412292
 31
0.0
  0
LINE
  8
0
  6
CONTINUOUS
 62
     3
  5
9C
 10
-2.749987
 20
26.587725
 30
0.0
 11
0.000003
 21
28.175433
 31
0.0
  0
LINE
  8
0
  6
CONTINUOUS
 62
     3
  5
9D
 10
2.750016
 20
26.587715
 30
0.0
 11
0.000026
 21
28.175422
 31
0.0
  0
LINE
  8
0
  6
CONTINUOUS
 62
     3
  5
9E
 10
2.75
 20
26.587708
 30
0.0
 11
2.75
 21
23.412292
 31
0.0
  0
LINE
  8
0
  6
CONTINUOUS
 62
     3
  5
9F
 10
0.000013
 20
21.824585
 30
0.0
 11
2.750003
 21
23.412293
 31
0.0
  0
LINE
  8
0
  6
CONTINUOUS
 62
     3
  5
A0
 10
0.000016
 20
21.824575
 30
0.0
 11
-2.749974
 21
23.412283
 31
0.0
  0
CIRCLE
  8
0
  6
CONTINUOUS
 62
     3
  5
A1
 10
0.0
 20
25.0
 30
0.0
 40
1.5
  0
CIRCLE
  8
0
  6
CONTINUOUS
 62
     3
  5
A2
 10
0.0
 20
25.0
 30
0.0
 40
2.75
  0
LINE
  8
0
  6
CONTINUOUS
 62
     3
  5
A3
 10
-24.400635
 20
-10.912292
 30
0.0
 11
-24.400635
 21
-14.087708
 31
0.0
  0
LINE
  8
0
  6
CONTINUOUS
 62
     3
  5
A4
 10
-24.400622
 20
-10.912275
 30
0.0
 11
-21.650632
 21
-9.324567
 31
0.0
  0
LINE
  8
0
  6
CONTINUOUS
 62
     3
  5
A5
 10
-18.900619
 20
-10.912285
 30
0.0
 11
-21.650609
 21
-9.324578
 31
0.0
  0
LINE
  8
0
  6
CONTINUOUS
 62
     3
  5
A6
 10
-18.900635
 20
-10.912292
 30
0.0
 11
-18.900635
 21
-14.087708
 31
0.0
  0
LINE
  8
0
  6
CONTINUOUS
 62
     3
  5
A7
 10
-21.650622
 20
-15.675415
 30
0.0
 11
-18.900632
 21
-14.087707
 31
0.0
  0
LINE
  8
0
  6
CONTINUOUS
 62
     3
  5
A8
 10
-21.650619
 20
-15.675425
 30
0.0
 11
-24.400609
 21
-14.087717
 31
0.0
  0
CIRCLE
  8
0
  6
CONTINUOUS
 62
     3
  5
A9
 10
-21.650635
 20
-12.5
 30
0.0
 40
1.5
  0
CIRCLE
  8
0
  6
CONTINUOUS
 62
     3
  5
AA
 10
-21.650635
 20
-12.5
 30
0.0
 40
2.75
  0
LINE
  8
0
  6
CONTINUOUS
 62
     3
  5
AB
 10
18.900635
 20
-10.912292
 30
0.0
 11
18.900635
 21
-14.087708
 31
0.0
  0
LINE
  8
0
  6
CONTINUOUS
 62
     3
  5
AC
 10
18.900648
 20
-10.912275
 30
0.0
 11
21.650638
 21
-9.324567
 31
0.0
  0
LINE
  8
0
  6
CONTINUOUS
 62
     3
  5
AD
 10
24.400651
 20
-10.912285
 30
0.0
 11
21.650661
 21
-9.324578
 31
0.0
  0
LINE
  8
0
  6
CONTINUOUS
 62
     3
  5
AE
 10
24.400635
 20
-10.912292
 30
0.0
 11
24.400635
 21
-14.087708
 31
0.0
  0
LINE
  8
0
  6
CONTINUOUS
 62
     3
  5
AF
 10
21.650648
 20
-15.675415
 30
0.0
 11
24.400638
 21
-14.087707
 31
0.0
  0
LINE
  8
0
  6
CONTINUOUS
 62
     3
  5
B0
 10
21.650651
 20
-15.675425
 30
0.0
 11
18.900661
 21
-14.087717
 31
0.0
  0
CIRCLE
  8
0
  6
CONTINUOUS
 62
     3
  5
B1
 10
21.650635
 20
-12.5
 30
0.0
 40
1.5
  0
CIRCLE
  8
0
  6
CONTINUOUS
 62
     3
  5
B2
 10
21.650635
 20
-12.5
 30
0.0
 40
2.75
  0
CIRCLE
  8
0
  6
CONTINUOUS
 62
     3
  5
B3
 10
0.0
 20
25.0
 30
0.0
 40
4.0
  0
CIRCLE
  8
0
  6
CONTINUOUS
 62
     3
  5
B4
 10
-21.650635
 20
-12.5
 30
0.0
 40
4.0
  0
CIRCLE
  8
0
  6
CONTINUOUS
 62
     3
  5
B5
 10
21.650635
 20
-12.5
 30
0.0
 40
4.0
  0
LINE
  8
0
  6
CONTINUOUS
 62
    10
  5
B6
 10
-2.25
 20
0.0
 30
0.0
 11
-2.25
 21
-35.754867
 31
0.0
  0
LINE
  8
0
  6
CONTINUOUS
 62
    10
  5
B7
 10
7.25
 20
-45.254867
 30
0.0
 11
26.400949
 21
-45.254867
 31
0.0
  0
LINE
  8
0
  6
CONTINUOUS
 62
    10
  5
B8
 10
2.25
 20
-35.754867
 30
0.0
 11
2.25
 21
0.0
 31
0.0
  0
LINE
  8
0
  6
CONTINUOUS
 62
    10
  5
B9
 10
0.0
 20
-35.754867
 30
0.0
 11
0.0
 21
0.0
 31
0.0
  0
LINE
  8
0
  6
CONTINUOUS
 62
    10
  5
BA
 10
24.866215
 20
-40.754867
 30
0.0
 11
7.25
 21
-40.754867
 31
0.0
  0
LINE
  8
0
  6
CONTINUOUS
 62
    10
  5
BB
 10
25.633582
 20
-43.004867
 30
0.0
 11
7.25
 21
-43.004867
 31
0.0
  0
ARC
  8
0
  6
CONTINUOUS
 62
    10
  5
BC
 10
26.899207
 20
-41.317367
 30
0.0
 40
2.109375
 50
126.869898
 51
233.130102
  0
ARC
  8
0
  6
CONTINUOUS
 62
    10
  5
BD
 10
7.25
 20
-35.754867
 30
0.0
 40
9.5
 50
180.0
 51
270.0
  0
ARC
  8
0
  6
CONTINUOUS
 62
    10
  5
BE
 10
7.25
 20
-35.754867
 30
0.0
 40
7.25
 50
180.0
 51
270.0
  0
ARC
  8
0
  6
CONTINUOUS
 62
    10
  5
BF
 10
7.25
 20
-35.754867
 30
0.0
 40
5.0
 50
180.0
 51
270.0
  0
ARC
  8
0
  6
CONTINUOUS
 62
    10
  5
C0
 10
24.367957
 20
-44.692367
 30
0.0
 40
2.109375
 50
306.869898
 51
53.130102
  0
ARC
  8
0
  6
CONTINUOUS
 62
    10
  5
C1
 10
0.0
 20
0.0
 30
0.0
 40
2.25
 50
0.0
 51
180.0
  0
ARC
  8
0
  6
CONTINUOUS
 62
     3
  5
C2
 10
0.0
 20
0.0
 30
0.0
 40
35.0
 50
273.685842
 51
274.3654
  0
LINE
  8
0
  6
DASHED
 62
    80
  5
C3
 10
-50.0
 20
-33.25
 30
0.0
 11
-50.0
 21
-33.5
 31
0.0
  0
LINE
  8
0
  6
DASHED
 62
    80
  5
C4
 10
-34.0
 20
-33.0
 30
0.0
 11
-11.661904
 21
-33.0
 31
0.0
  0
LINE
  8
0
  6
DASHED
 62
    80
  5
C5
 10
-39.0
 20
35.0
 30
0.0
 11
-34.0
 21
33.0
 31
0.0
  0
LINE
  8
0
  6
DASHED
 62
    80
  5
C6
 10
-34.0
 20
33.0
 30
0.0
 11
-11.661904
 21
33.0
 31
0.0
  0
ARC
  8
0
  6
DASHED
 62
    80
  5
C7
 10
-48.5
 20
33.5
 30
0.0
 40
1.5
 50
90.0
 51
180.0
  0
LINE
  8
0
  6
DASHED
 62
    80
  5
C8
 10
-48.5
 20
35.0
 30
0.0
 11
-39.0
 21
35.0
 31
0.0
  0
LINE
  8
0
  6
DASHED
 62
    80
  5
C9
 10
-39.0
 20
-35.0
 30
0.0
 11
-34.0
 21
-33.0
 31
0.0
  0
ARC
  8
0
  6
DASHED
 62
    80
  5
CA
 10
-48.5
 20
-33.5
 30
0.0
 40
1.5
 50
180.0
 51
270.0
  0
LINE
  8
0
  6
DASHED
 62
    80
  5
CB
 10
-48.5
 20
-35.0
 30
0.0
 11
-39.0
 21
-35.0
 31
0.0
  0
LINE
  8
0
  6
DASHED
 62
    80
  5
CC
 10
-50.0
 20
33.5
 30
0.0
 11
-50.0
 21
33.25
 31
0.0
  0
LINE
  8
0
  6
DASHED
 62
    80
  5
CD
 10
-86.5
 20
-32.7
 30
0.0
 11
-50.0
 21
-33.25
 31
0.0
  0
ARC
  8
0
  6
DASHED
 62
    80
  5
CE
 10
-86.5
 20
0.0
 30
0.0
 40
32.7
 50
204.943477
 51
270.0
  0
ARC
  8
0
  6
DASHED
 62
    80
  5
CF
 10
2.5
 20
-0.000003
 30
0.0
 40
120.0
 50
180.0
 51
184.99268
  0
ARC
  8
0
  6
DASHED
 62
    80
  5
D0
 10
2.5
 20
-0.000003
 30
0.0
 40
120.0
 50
175.007317
 51
180.0
  0
ARC
  8
0
  6
DASHED
 62
    80
  5
D1
 10
-107.08264
 20
9.573136
 30
0.0
 40
10.0
 50
155.056519
 51
175.007317
  0
ARC
  8
0
  6
DASHED
 62
    80
  5
D2
 10
-107.082641
 20
-9.573134
 30
0.0
 40
10.0
 50
184.99268
 51
204.943477
  0
ARC
  8
0
  6
DASHED
 62
    80
  5
D3
 10
-86.5
 20
0.0
 30
0.0
 40
32.7
 50
90.0
 51
155.056519
  0
LINE
  8
0
  6
DASHED
 62
    80
  5
D4
 10
-50.0
 20
33.25
 30
0.0
 11
-86.5
 21
32.7
 31
0.0
  0
LINE
  8
0
  6
CONTINUOUS
 62
     3
  5
D5
 10
-162.599365
 20
260.0
 30
0.0
 11
-237.400635
 21
260.0
 31
0.0
  0
LINE
  8
0
  6
CONTINUOUS
 62
     3
  5
D6
 10
-235.400635
 20
265.0
 30
0.0
 11
-164.599365
 21
265.0
 31
0.0
  0
ARC
  8
0
  6
CONTINUOUS
 62
     3
  5
D7
 10
-182.849365
 20
265.5
 30
0.0
 40
0.5
 50
180.0
 51
270.0
  0
ARC
  8
0
  6
CONTINUOUS
 62
     3
  5
D8
 10
-173.849365
 20
265.5
 30
0.0
 40
0.5
 50
270.0
 51
0.0
  0
ARC
  8
0
  6
CONTINUOUS
 62
     3
  5
D9
 10
-217.150635
 20
265.5
 30
0.0
 40
0.5
 50
270.0
 51
0.0
  0
ARC
  8
0
  6
CONTINUOUS
 62
     3
  5
DA
 10
-226.150635
 20
265.5
 30
0.0
 40
0.5
 50
180.0
 51
270.0
  0
ARC
  8
0
  6
CONTINUOUS
 62
     3
  5
DB
 10
-204.5
 20
265.5
 30
0.0
 40
0.5
 50
180.0
 51
270.0
  0
ARC
  8
0
  6
CONTINUOUS
 62
     3
  5
DC
 10
-195.5
 20
265.5
 30
0.0
 40
0.5
 50
270.0
 51
0.0
  0
LINE
  8
0
  6
CONTINUOUS
 62
     3
  5
DD
 10
-184.25
 20
263.0
 30
0.0
 11
-184.25
 21
260.0
 31
0.0
  0
LINE
  8
0
  6
CONTINUOUS
 62
     3
  5
DE
 10
-237.400635
 20
260.0
 30
0.0
 11
-237.400635
 21
263.0
 31
0.0
  0
LINE
  8
0
  6
CONTINUOUS
 62
     3
  5
DF
 10
-162.599365
 20
263.0
 30
0.0
 11
-162.599365
 21
260.0
 31
0.0
  0
ARC
  8
0
  6
CONTINUOUS
 62
     3
  5
E0
 10
-235.400635
 20
263.0
 30
0.0
 40
2.0
 50
90.0
 51
180.0
  0
ARC
  8
0
  6
CONTINUOUS
 62
     3
  5
E1
 10
-164.599365
 20
263.0
 30
0.0
 40
2.0
 50
0.0
 51
90.0
  0
LINE
  8
0
  6
CONTINUOUS
 62
     3
  5
E2
 10
-215.75
 20
260.0
 30
0.0
 11
-215.75
 21
263.0
 31
0.0
  0
ARC
  8
0
  6
CONTINUOUS
 62
     3
  5
E3
 10
-213.75
 20
263.0
 30
0.0
 40
2.0
 50
90.0
 51
180.0
  0
ARC
  8
0
  6
CONTINUOUS
 62
     3
  5
E4
 10
-186.25
 20
263.0
 30
0.0
 40
2.0
 50
0.0
 51
90.0
  0
LINE
  8
0
  6
CONTINUOUS
 62
     3
  5
E5
 10
167.0
 20
267.5
 30
0.0
 11
183.0
 21
267.5
 31
0.0
  0
LINE
  8
0
  6
CONTINUOUS
 62
     3
  5
E6
 10
167.0
 20
267.5
 30
0.0
 11
158.5
 21
262.0
 31
0.0
  0
LINE
  8
0
  6
CONTINUOUS
 62
     3
  5
E7
 10
158.5
 20
262.0
 30
0.0
 11
191.5
 21
262.0
 31
0.0
  0
LINE
  8
0
  6
CONTINUOUS
 62
     3
  5
E8
 10
191.5
 20
262.0
 30
0.0
 11
183.0
 21
267.5
 31
0.0
  0
LINE
  8
0
  6
CONTINUOUS
 62
     3
  5
E9
 10
229.0
 20
262.0
 30
0.0
 11
220.5
 21
267.5
 31
0.0
  0
LINE
  8
0
  6
CONTINUOUS
 62
     3
  5
EA
 10
196.0
 20
262.0
 30
0.0
 11
229.0
 21
262.0
 31
0.0
  0
LINE
  8
0
  6
CONTINUOUS
 62
     3
  5
EB
 10
204.5
 20
267.5
 30
0.0
 11
196.0
 21
262.0
 31
0.0
  0
LINE
  8
0
  6
CONTINUOUS
 62
     3
  5
EC
 10
204.5
 20
267.5
 30
0.0
 11
220.5
 21
267.5
 31
0.0
  0
LINE
  8
0
  6
CONTINUOUS
 62
     3
  5
ED
 10
204.5
 20
269.0
 30
0.0
 11
204.5
 21
267.5
 31
0.0
  0
LINE
  8
0
  6
CONTINUOUS
 62
     3
  5
EE
 10
220.5
 20
267.5
 30
0.0
 11
220.5
 21
269.0
 31
0.0
  0
LINE
  8
0
  6
CONTINUOUS
 62
     3
  5
EF
 10
183.0
 20
267.5
 30
0.0
 11
183.0
 21
269.0
 31
0.0
  0
LINE
  8
0
  6
CONTINUOUS
 62
     3
  5
F0
 10
167.0
 20
269.0
 30
0.0
 11
167.0
 21
267.5
 31
0.0
  0
LINE
  8
0
  6
CONTINUOUS
 62
     3
  5
F1
 10
-183.349365
 20
269.0
 30
0.0
 11
-183.349365
 21
265.5
 31
0.0
  0
LINE
  8
0
  6
CONTINUOUS
 62
     3
  5
F2
 10
-216.650635
 20
265.5
 30
0.0
 11
-216.650635
 21
269.0
 31
0.0
  0
LINE
  8
0
  6
CONTINUOUS
 62
     3
  5
F3
 10
-173.349365
 20
265.5
 30
0.0
 11
-173.349365
 21
269.0
 31
0.0
  0
LINE
  8
0
  6
CONTINUOUS
 62
     3
  5
F4
 10
-226.650635
 20
269.0
 30
0.0
 11
-226.650635
 21
265.5
 31
0.0
  0
LINE
  8
0
  6
CONTINUOUS
 62
     3
  5
F5
 10
-205.0
 20
269.0
 30
0.0
 11
-205.0
 21
265.5
 31
0.0
  0
LINE
  8
0
  6
CONTINUOUS
 62
     3
  5
F6
 10
-195.0
 20
265.5
 30
0.0
 11
-195.0
 21
269.0
 31
0.0
  0
LINE
  8
0
  6
CONTINUOUS
 62
     3
  5
F7
 10
235.0
 20
279.37868
 30
0.0
 11
165.0
 21
279.37868
 31
0.0
  0
LINE
  8
0
  6
CONTINUOUS
 62
     3
  5
F8
 10
234.56066
 20
280.43934
 30
0.0
 11
233.43934
 21
281.56066
 31
0.0
  0
LINE
  8
0
  6
CONTINUOUS
 62
     3
  5
F9
 10
235.0
 20
270.0
 30
0.0
 11
235.0
 21
279.37868
 31
0.0
  0
ARC
  8
0
  6
CONTINUOUS
 62
     3
  5
FA
 10
233.5
 20
279.37868
 30
0.0
 40
1.5
 50
0.0
 51
45.0
  0
LINE
  8
0
  6
CONTINUOUS
 62
     3
  5
FB
 10
166.0
 20
269.0
 30
0.0
 11
234.0
 21
269.0
 31
0.0
  0
ARC
  8
0
  6
CONTINUOUS
 62
     3
  5
FC
 10
234.5
 20
282.62132
 30
0.0
 40
1.5
 50
180.0
 51
225.0
  0
LINE
  8
0
  6
CONTINUOUS
 62
     3
  5
FD
 10
165.0
 20
270.0
 30
0.0
 11
165.0
 21
279.37868
 31
0.0
  0
ARC
  8
0
  6
CONTINUOUS
 62
     3
  5
FE
 10
166.5
 20
279.37868
 30
0.0
 40
1.5
 50
135.0
 51
180.0
  0
ARC
  8
0
  6
CONTINUOUS
 62
     3
  5
FF
 10
166.0
 20
270.0
 30
0.0
 40
1.0
 50
180.0
 51
270.0
  0
ARC
  8
0
  6
CONTINUOUS
 62
     3
  5
100
 10
234.0
 20
270.0
 30
0.0
 40
1.0
 50
270.0
 51
0.0
  0
LINE
  8
0
  6
CONTINUOUS
 62
     3
  5
101
 10
150.0
 20
198.5
 30
0.0
 11
150.0
 21
131.5
 31
0.0
  0
LINE
  8
0
  6
CONTINUOUS
 62
     3
  5
102
 10
166.0
 20
198.0
 30
0.0
 11
166.0
 21
132.0
 31
0.0
  0
ARC
  8
0
  6
CONTINUOUS
 62
     3
  5
103
 10
202.5
 20
164.999997
 30
0.0
 40
120.0
 50
180.0
 51
184.99268
  0
ARC
  8
0
  6
CONTINUOUS
 62
     3
  5
104
 10
113.5
 20
165.0
 30
0.0
 40
32.7
 50
204.943477
 51
270.0
  0
LINE
  8
0
  6
CONTINUOUS
 62
     3
  5
105
 10
113.5
 20
132.3
 30
0.0
 11
150.0
 21
131.75
 31
0.0
  0
LINE
  8
0
  6
CONTINUOUS
 62
     3
  5
106
 10
150.0
 20
198.25
 30
0.0
 11
113.5
 21
197.7
 31
0.0
  0
ARC
  8
0
  6
CONTINUOUS
 62
     3
  5
107
 10
202.5
 20
164.999997
 30
0.0
 40
120.0
 50
175.007317
 51
180.0
  0
ARC
  8
0
  6
CONTINUOUS
 62
     3
  5
108
 10
113.5
 20
165.0
 30
0.0
 40
32.7
 50
90.0
 51
155.056519
  0
ARC
  8
0
  6
CONTINUOUS
 62
     3
  5
109
 10
92.917359
 20
155.426866
 30
0.0
 40
10.0
 50
184.99268
 51
204.943477
  0
ARC
  8
0
  6
CONTINUOUS
 62
     3
  5
10A
 10
92.91736
 20
174.573136
 30
0.0
 40
10.0
 50
155.056519
 51
175.007317
  0
LINE
  8
0
  6
CONTINUOUS
 62
     3
  5
10B
 10
200.0
 20
165.0
 30
0.0
 11
165.43934
 21
130.43934
 31
0.0
  0
LINE
  8
0
  6
CONTINUOUS
 62
     3
  5
10C
 10
234.56066
 20
130.43934
 30
0.0
 11
233.43934
 21
131.56066
 31
0.0
  0
LINE
  8
0
  6
CONTINUOUS
 62
     3
  5
10D
 10
233.0
 20
132.62132
 30
0.0
 11
233.0
 21
198.0
 31
0.0
  0
ARC
  8
0
  6
CONTINUOUS
 62
     3
  5
10E
 10
234.5
 20
132.62132
 30
0.0
 40
1.5
 50
180.0
 51
225.0
  0
LINE
  8
0
  6
CONTINUOUS
 62
     3
  5
10F
 10
200.0
 20
165.0
 30
0.0
 11
233.0
 21
198.0
 31
0.0
  0
LINE
  8
0
  6
CONTINUOUS
 62
     3
  5
110
 10
166.0
 20
132.0
 30
0.0
 11
167.0
 21
132.0
 31
0.0
  0
LINE
  8
0
  6
CONTINUOUS
 62
     3
  5
111
 10
151.5
 20
130.0
 30
0.0
 11
161.0
 21
130.0
 31
0.0
  0
LINE
  8
0
  6
CONTINUOUS
 62
     3
  5
112
 10
166.0
 20
198.0
 30
0.0
 11
233.0
 21
198.0
 31
0.0
  0
LINE
  8
0
  6
CONTINUOUS
 62
     3
  5
113
 10
151.5
 20
200.0
 30
0.0
 11
161.0
 21
200.0
 31
0.0
  0
LINE
  8
0
  6
CONTINUOUS
 62
     3
  5
114
 10
161.0
 20
200.0
 30
0.0
 11
166.0
 21
198.0
 31
0.0
  0
LINE
  8
0
  6
CONTINUOUS
 62
     3
  5
115
 10
161.0
 20
130.0
 30
0.0
 11
166.0
 21
132.0
 31
0.0
  0
ARC
  8
0
  6
CONTINUOUS
 62
     3
  5
116
 10
151.5
 20
131.5
 30
0.0
 40
1.5
 50
180.0
 51
270.0
  0
ARC
  8
0
  6
CONTINUOUS
 62
     3
  5
117
 10
151.5
 20
198.5
 30
0.0
 40
1.5
 50
90.0
 51
180.0
  0
LINE
  8
0
  6
CONTINUOUS
 62
     3
  5
118
 10
161.0
 20
200.0
 30
0.0
 11
161.0
 21
130.0
 31
0.0
  0
LINE
  8
0
  6
CONTINUOUS
 62
     3
  5
119
 10
166.5
 20
365.0
 30
0.0
 11
233.5
 21
365.0
 31
0.0
  0
LINE
  8
0
  6
CONTINUOUS
 62
     3
  5
11A
 10
167.0
 20
349.0
 30
0.0
 11
233.0
 21
349.0
 31
0.0
  0
ARC
  8
0
  6
CONTINUOUS
 62
     3
  5
11B
 10
200.000003
 20
312.5
 30
0.0
 40
120.0
 50
85.00732
 51
90.0
  0
ARC
  8
0
  6
CONTINUOUS
 62
     3
  5
11C
 10
200.0
 20
401.5
 30
0.0
 40
32.7
 50
0.0
 51
65.056523
  0
LINE
  8
0
  6
CONTINUOUS
 62
     3
  5
11D
 10
232.7
 20
401.5
 30
0.0
 11
233.25
 21
365.0
 31
0.0
  0
LINE
  8
0
  6
CONTINUOUS
 62
     3
  5
11E
 10
166.75
 20
365.0
 30
0.0
 11
167.3
 21
401.5
 31
0.0
  0
ARC
  8
0
  6
CONTINUOUS
 62
     3
  5
11F
 10
200.000003
 20
312.5
 30
0.0
 40
120.0
 50
90.0
 51
94.992683
  0
ARC
  8
0
  6
CONTINUOUS
 62
     3
  5
120
 10
200.0
 20
401.5
 30
0.0
 40
32.7
 50
114.943481
 51
180.0
  0
ARC
  8
0
  6
CONTINUOUS
 62
     3
  5
121
 10
209.573134
 20
422.082641
 30
0.0
 40
10.0
 50
65.056523
 51
85.00732
  0
ARC
  8
0
  6
CONTINUOUS
 62
     3
  5
122
 10
190.426864
 20
422.08264
 30
0.0
 40
10.0
 50
94.992683
 51
114.943481
  0
LINE
  8
0
  6
CONTINUOUS
 62
     3
  5
123
 10
233.0
 20
349.0
 30
0.0
 11
233.0
 21
348.0
 31
0.0
  0
LINE
  8
0
  6
CONTINUOUS
 62
     3
  5
124
 10
235.0
 20
363.5
 30
0.0
 11
235.0
 21
354.0
 31
0.0
  0
LINE
  8
0
  6
CONTINUOUS
 62
     3
  5
125
 10
165.0
 20
363.5
 30
0.0
 11
165.0
 21
354.0
 31
0.0
  0
LINE
  8
0
  6
CONTINUOUS
 62
     3
  5
126
 10
165.0
 20
354.0
 30
0.0
 11
167.0
 21
349.0
 31
0.0
  0
LINE
  8
0
  6
CONTINUOUS
 62
     3
  5
127
 10
235.0
 20
354.0
 30
0.0
 11
233.0
 21
349.0
 31
0.0
  0
ARC
  8
0
  6
CONTINUOUS
 62
     3
  5
128
 10
233.5
 20
363.5
 30
0.0
 40
1.5
 50
0.0
 51
90.0
  0
ARC
  8
0
  6
CONTINUOUS
 62
     3
  5
129
 10
166.5
 20
363.5
 30
0.0
 40
1.5
 50
90.0
 51
180.0
  0
LINE
  8
0
  6
CONTINUOUS
 62
     3
  5
12A
 10
165.0
 20
354.0
 30
0.0
 11
235.0
 21
354.0
 31
0.0
  0
LINE
  8
0
  6
CONTINUOUS
 62
     3
  5
12B
 10
167.0
 20
349.0
 30
0.0
 11
167.0
 21
282.0
 31
0.0
  0
LINE
  8
0
  6
CONTINUOUS
 62
     3
  5
12C
 10
165.43934
 20
280.43934
 30
0.0
 11
233.0
 21
348.0
 31
0.0
  0
LINE
  8
0
  6
CONTINUOUS
 62
     3
  5
12D
 10
233.0
 20
282.62132
 30
0.0
 11
233.0
 21
348.0
 31
0.0
  0
ARC
  8
0
  6
CONTINUOUS
 62
     3
  5
12E
 10
166.5
 20
129.37868
 30
0.0
 40
1.5
 50
135.0
 51
180.0
  0
ARC
  8
0
  6
CONTINUOUS
 62
     3
  5
12F
 10
233.5
 20
129.37868
 30
0.0
 40
1.5
 50
0.0
 51
45.0
  0
LINE
  8
0
  6
CONTINUOUS
 62
     3
  5
130
 10
-165.0
 20
279.37868
 30
0.0
 11
-235.0
 21
279.37868
 31
0.0
  0
LINE
  8
0
  6
CONTINUOUS
 62
     3
  5
131
 10
-165.43934
 20
280.43934
 30
0.0
 11
-166.56066
 21
281.56066
 31
0.0
  0
LINE
  8
0
  6
CONTINUOUS
 62
     3
  5
132
 10
-165.0
 20
270.0
 30
0.0
 11
-165.0
 21
279.37868
 31
0.0
  0
ARC
  8
0
  6
CONTINUOUS
 62
     3
  5
133
 10
-166.5
 20
279.37868
 30
0.0
 40
1.5
 50
0.0
 51
45.0
  0
LINE
  8
0
  6
CONTINUOUS
 62
     3
  5
134
 10
-234.0
 20
269.0
 30
0.0
 11
-166.0
 21
269.0
 31
0.0
  0
ARC
  8
0
  6
CONTINUOUS
 62
     3
  5
135
 10
-165.5
 20
282.62132
 30
0.0
 40
1.5
 50
180.0
 51
225.0
  0
LINE
  8
0
  6
CONTINUOUS
 62
     3
  5
136
 10
-235.0
 20
270.0
 30
0.0
 11
-235.0
 21
279.37868
 31
0.0
  0
ARC
  8
0
  6
CONTINUOUS
 62
     3
  5
137
 10
-233.5
 20
279.37868
 30
0.0
 40
1.5
 50
135.0
 51
180.0
  0
ARC
  8
0
  6
CONTINUOUS
 62
     3
  5
138
 10
-234.0
 20
270.0
 30
0.0
 40
1.0
 50
180.0
 51
270.0
  0
ARC
  8
0
  6
CONTINUOUS
 62
     3
  5
139
 10
-166.0
 20
270.0
 30
0.0
 40
1.0
 50
270.0
 51
0.0
  0
LINE
  8
0
  6
CONTINUOUS
 62
     3
  5
13A
 10
-250.0
 20
198.5
 30
0.0
 11
-250.0
 21
131.5
 31
0.0
  0
LINE
  8
0
  6
CONTINUOUS
 62
     3
  5
13B
 10
-234.0
 20
198.0
 30
0.0
 11
-234.0
 21
132.0
 31
0.0
  0
ARC
  8
0
  6
CONTINUOUS
 62
     3
  5
13C
 10
-197.5
 20
164.999997
 30
0.0
 40
120.0
 50
180.0
 51
184.99268
  0
ARC
  8
0
  6
CONTINUOUS
 62
     3
  5
13D
 10
-286.5
 20
165.0
 30
0.0
 40
32.7
 50
204.943477
 51
270.0
  0
LINE
  8
0
  6
CONTINUOUS
 62
     3
  5
13E
 10
-286.5
 20
132.3
 30
0.0
 11
-250.0
 21
131.75
 31
0.0
  0
LINE
  8
0
  6
CONTINUOUS
 62
     3
  5
13F
 10
-250.0
 20
198.25
 30
0.0
 11
-286.5
 21
197.7
 31
0.0
  0
ARC
  8
0
  6
CONTINUOUS
 62
     3
  5
140
 10
-197.5
 20
164.999997
 30
0.0
 40
120.0
 50
175.007317
 51
180.0
  0
ARC
  8
0
  6
CONTINUOUS
 62
     3
  5
141
 10
-286.5
 20
165.0
 30
0.0
 40
32.7
 50
90.0
 51
155.056519
  0
ARC
  8
0
  6
CONTINUOUS
 62
     3
  5
142
 10
-307.082641
 20
155.426866
 30
0.0
 40
10.0
 50
184.99268
 51
204.943477
  0
ARC
  8
0
  6
CONTINUOUS
 62
     3
  5
143
 10
-307.08264
 20
174.573136
 30
0.0
 40
10.0
 50
155.056519
 51
175.007317
  0
LINE
  8
0
  6
CONTINUOUS
 62
     3
  5
144
 10
-200.0
 20
165.0
 30
0.0
 11
-234.56066
 21
130.43934
 31
0.0
  0
LINE
  8
0
  6
CONTINUOUS
 62
     3
  5
145
 10
-165.43934
 20
130.43934
 30
0.0
 11
-166.56066
 21
131.56066
 31
0.0
  0
LINE
  8
0
  6
CONTINUOUS
 62
     3
  5
146
 10
-167.0
 20
132.62132
 30
0.0
 11
-167.0
 21
198.0
 31
0.0
  0
ARC
  8
0
  6
CONTINUOUS
 62
     3
  5
147
 10
-165.5
 20
132.62132
 30
0.0
 40
1.5
 50
180.0
 51
225.0
  0
LINE
  8
0
  6
CONTINUOUS
 62
     3
  5
148
 10
-200.0
 20
165.0
 30
0.0
 11
-167.0
 21
198.0
 31
0.0
  0
LINE
  8
0
  6
CONTINUOUS
 62
     3
  5
149
 10
-234.0
 20
132.0
 30
0.0
 11
-233.0
 21
132.0
 31
0.0
  0
LINE
  8
0
  6
CONTINUOUS
 62
     3
  5
14A
 10
-248.5
 20
130.0
 30
0.0
 11
-239.0
 21
130.0
 31
0.0
  0
LINE
  8
0
  6
CONTINUOUS
 62
     3
  5
14B
 10
-234.0
 20
198.0
 30
0.0
 11
-167.0
 21
198.0
 31
0.0
  0
LINE
  8
0
  6
CONTINUOUS
 62
     3
  5
14C
 10
-248.5
 20
200.0
 30
0.0
 11
-239.0
 21
200.0
 31
0.0
  0
LINE
  8
0
  6
CONTINUOUS
 62
     3
  5
14D
 10
-239.0
 20
200.0
 30
0.0
 11
-234.0
 21
198.0
 31
0.0
  0
LINE
  8
0
  6
CONTINUOUS
 62
     3
  5
14E
 10
-239.0
 20
130.0
 30
0.0
 11
-234.0
 21
132.0
 31
0.0
  0
ARC
  8
0
  6
CONTINUOUS
 62
     3
  5
14F
 10
-248.5
 20
131.5
 30
0.0
 40
1.5
 50
180.0
 51
270.0
  0
ARC
  8
0
  6
CONTINUOUS
 62
     3
  5
150
 10
-248.5
 20
198.5
 30
0.0
 40
1.5
 50
90.0
 51
180.0
  0
LINE
  8
0
  6
CONTINUOUS
 62
     3
  5
151
 10
-239.0
 20
200.0
 30
0.0
 11
-239.0
 21
130.0
 31
0.0
  0
LINE
  8
0
  6
CONTINUOUS
 62
     3
  5
152
 10
-233.5
 20
365.0
 30
0.0
 11
-166.5
 21
365.0
 31
0.0
  0
LINE
  8
0
  6
CONTINUOUS
 62
     3
  5
153
 10
-233.0
 20
349.0
 30
0.0
 11
-167.0
 21
349.0
 31
0.0
  0
ARC
  8
0
  6
CONTINUOUS
 62
     3
  5
154
 10
-199.999997
 20
312.5
 30
0.0
 40
120.0
 50
85.00732
 51
90.0
  0
ARC
  8
0
  6
CONTINUOUS
 62
     3
  5
155
 10
-200.0
 20
401.5
 30
0.0
 40
32.7
 50
0.0
 51
65.056523
  0
LINE
  8
0
  6
CONTINUOUS
 62
     3
  5
156
 10
-167.3
 20
401.5
 30
0.0
 11
-166.75
 21
365.0
 31
0.0
  0
LINE
  8
0
  6
CONTINUOUS
 62
     3
  5
157
 10
-233.25
 20
365.0
 30
0.0
 11
-232.7
 21
401.5
 31
0.0
  0
ARC
  8
0
  6
CONTINUOUS
 62
     3
  5
158
 10
-199.999997
 20
312.5
 30
0.0
 40
120.0
 50
90.0
 51
94.992683
  0
ARC
  8
0
  6
CONTINUOUS
 62
     3
  5
159
 10
-200.0
 20
401.5
 30
0.0
 40
32.7
 50
114.943481
 51
180.0
  0
ARC
  8
0
  6
CONTINUOUS
 62
     3
  5
15A
 10
-190.426866
 20
422.082641
 30
0.0
 40
10.0
 50
65.056523
 51
85.00732
  0
ARC
  8
0
  6
CONTINUOUS
 62
     3
  5
15B
 10
-209.573136
 20
422.08264
 30
0.0
 40
10.0
 50
94.992683
 51
114.943481
  0
LINE
  8
0
  6
CONTINUOUS
 62
     3
  5
15C
 10
-167.0
 20
349.0
 30
0.0
 11
-167.0
 21
348.0
 31
0.0
  0
LINE
  8
0
  6
CONTINUOUS
 62
     3
  5
15D
 10
-165.0
 20
363.5
 30
0.0
 11
-165.0
 21
354.0
 31
0.0
  0
LINE
  8
0
  6
CONTINUOUS
 62
     3
  5
15E
 10
-235.0
 20
363.5
 30
0.0
 11
-235.0
 21
354.0
 31
0.0
  0
LINE
  8
0
  6
CONTINUOUS
 62
     3
  5
15F
 10
-235.0
 20
354.0
 30
0.0
 11
-233.0
 21
349.0
 31
0.0
  0
LINE
  8
0
  6
CONTINUOUS
 62
     3
  5
160
 10
-165.0
 20
354.0
 30
0.0
 11
-167.0
 21
349.0
 31
0.0
  0
ARC
  8
0
  6
CONTINUOUS
 62
     3
  5
161
 10
-166.5
 20
363.5
 30
0.0
 40
1.5
 50
0.0
 51
90.0
  0
ARC
  8
0
  6
CONTINUOUS
 62
     3
  5
162
 10
-233.5
 20
363.5
 30
0.0
 40
1.5
 50
90.0
 51
180.0
  0
LINE
  8
0
  6
CONTINUOUS
 62
     3
  5
163
 10
-235.0
 20
354.0
 30
0.0
 11
-165.0
 21
354.0
 31
0.0
  0
LINE
  8
0
  6
CONTINUOUS
 62
     3
  5
164
 10
-233.0
 20
349.0
 30
0.0
 11
-233.0
 21
282.0
 31
0.0
  0
LINE
  8
0
  6
CONTINUOUS
 62
     3
  5
165
 10
-234.56066
 20
280.43934
 30
0.0
 11
-167.0
 21
348.0
 31
0.0
  0
LINE
  8
0
  6
CONTINUOUS
 62
     3
  5
166
 10
-167.0
 20
282.62132
 30
0.0
 11
-167.0
 21
348.0
 31
0.0
  0
ARC
  8
0
  6
CONTINUOUS
 62
     3
  5
167
 10
-233.5
 20
129.37868
 30
0.0
 40
1.5
 50
135.0
 51
180.0
  0
ARC
  8
0
  6
CONTINUOUS
 62
     3
  5
168
 10
-166.5
 20
129.37868
 30
0.0
 40
1.5
 50
0.0
 51
45.0
  0
LINE
  8
0
  6
CONTINUOUS
 62
     3
  5
169
 10
33.0
 20
282.62132
 30
0.0
 11
33.0
 21
348.0
 31
0.0
  0
LINE
  8
0
  6
CONTINUOUS
 62
     3
  5
16A
 10
-34.56066
 20
280.43934
 30
0.0
 11
33.0
 21
348.0
 31
0.0
  0
LINE
  8
0
  6
CONTINUOUS
 62
     3
  5
16B
 10
-33.0
 20
349.0
 30
0.0
 11
-33.0
 21
282.0
 31
0.0
  0
LINE
  8
0
  6
CONTINUOUS
 62
     3
  5
16C
 10
-35.0
 20
354.0
 30
0.0
 11
35.0
 21
354.0
 31
0.0
  0
ARC
  8
0
  6
CONTINUOUS
 62
     3
  5
16D
 10
-33.5
 20
363.5
 30
0.0
 40
1.5
 50
90.0
 51
180.0
  0
ARC
  8
0
  6
CONTINUOUS
 62
     3
  5
16E
 10
33.5
 20
363.5
 30
0.0
 40
1.5
 50
0.0
 51
90.0
  0
LINE
  8
0
  6
CONTINUOUS
 62
     3
  5
16F
 10
35.0
 20
354.0
 30
0.0
 11
33.0
 21
349.0
 31
0.0
  0
LINE
  8
0
  6
CONTINUOUS
 62
     3
  5
170
 10
-35.0
 20
354.0
 30
0.0
 11
-33.0
 21
349.0
 31
0.0
  0
LINE
  8
0
  6
CONTINUOUS
 62
     3
  5
171
 10
-35.0
 20
363.5
 30
0.0
 11
-35.0
 21
354.0
 31
0.0
  0
LINE
  8
0
  6
CONTINUOUS
 62
     3
  5
172
 10
35.0
 20
363.5
 30
0.0
 11
35.0
 21
354.0
 31
0.0
  0
LINE
  8
0
  6
CONTINUOUS
 62
     3
  5
173
 10
33.0
 20
349.0
 30
0.0
 11
33.0
 21
348.0
 31
0.0
  0
ARC
  8
0
  6
CONTINUOUS
 62
     3
  5
174
 10
-9.573136
 20
422.08264
 30
0.0
 40
10.0
 50
94.992683
 51
114.943481
  0
ARC
  8
0
  6
CONTINUOUS
 62
     3
  5
175
 10
9.573134
 20
422.082641
 30
0.0
 40
10.0
 50
65.056523
 51
85.00732
  0
ARC
  8
0
  6
CONTINUOUS
 62
     3
  5
176
 10
0.0
 20
401.5
 30
0.0
 40
32.7
 50
114.943481
 51
180.0
  0
ARC
  8
0
  6
CONTINUOUS
 62
     3
  5
177
 10
0.000003
 20
312.5
 30
0.0
 40
120.0
 50
90.0
 51
94.992683
  0
LINE
  8
0
  6
CONTINUOUS
 62
     3
  5
178
 10
-33.25
 20
365.0
 30
0.0
 11
-32.7
 21
401.5
 31
0.0
  0
LINE
  8
0
  6
CONTINUOUS
 62
     3
  5
179
 10
32.7
 20
401.5
 30
0.0
 11
33.25
 21
365.0
 31
0.0
  0
ARC
  8
0
  6
CONTINUOUS
 62
     3
  5
17A
 10
0.0
 20
401.5
 30
0.0
 40
32.7
 50
0.0
 51
65.056523
  0
ARC
  8
0
  6
CONTINUOUS
 62
     3
  5
17B
 10
0.000003
 20
312.5
 30
0.0
 40
120.0
 50
85.00732
 51
90.0
  0
LINE
  8
0
  6
CONTINUOUS
 62
     3
  5
17C
 10
-33.0
 20
349.0
 30
0.0
 11
33.0
 21
349.0
 31
0.0
  0
LINE
  8
0
  6
CONTINUOUS
 62
     3
  5
17D
 10
-33.5
 20
365.0
 30
0.0
 11
33.5
 21
365.0
 31
0.0
  0
LINE
  8
0
  6
CONTINUOUS
 62
     3
  5
17E
 10
-39.0
 20
200.0
 30
0.0
 11
-39.0
 21
130.0
 31
0.0
  0
ARC
  8
0
  6
CONTINUOUS
 62
     3
  5
17F
 10
-48.5
 20
198.5
 30
0.0
 40
1.5
 50
90.0
 51
180.0
  0
ARC
  8
0
  6
CONTINUOUS
 62
     3
  5
180
 10
-48.5
 20
131.5
 30
0.0
 40
1.5
 50
180.0
 51
270.0
  0
LINE
  8
0
  6
CONTINUOUS
 62
     3
  5
181
 10
-39.0
 20
130.0
 30
0.0
 11
-34.0
 21
132.0
 31
0.0
  0
LINE
  8
0
  6
CONTINUOUS
 62
     3
  5
182
 10
-39.0
 20
200.0
 30
0.0
 11
-34.0
 21
198.0
 31
0.0
  0
LINE
  8
0
  6
CONTINUOUS
 62
     3
  5
183
 10
-48.5
 20
200.0
 30
0.0
 11
-39.0
 21
200.0
 31
0.0
  0
LINE
  8
0
  6
CONTINUOUS
 62
     3
  5
184
 10
-34.0
 20
198.0
 30
0.0
 11
33.0
 21
198.0
 31
0.0
  0
LINE
  8
0
  6
CONTINUOUS
 62
     3
  5
185
 10
-48.5
 20
130.0
 30
0.0
 11
-39.0
 21
130.0
 31
0.0
  0
LINE
  8
0
  6
CONTINUOUS
 62
     3
  5
186
 10
-34.0
 20
132.0
 30
0.0
 11
-33.0
 21
132.0
 31
0.0
  0
ARC
  8
0
  6
CONTINUOUS
 62
     3
  5
187
 10
34.0
 20
120.0
 30
0.0
 40
1.0
 50
270.0
 51
0.0
  0
ARC
  8
0
  6
CONTINUOUS
 62
     3
  5
188
 10
-34.0
 20
120.0
 30
0.0
 40
1.0
 50
180.0
 51
270.0
  0
ARC
  8
0
  6
CONTINUOUS
 62
     3
  5
189
 10
-33.5
 20
129.37868
 30
0.0
 40
1.5
 50
135.0
 51
180.0
  0
LINE
  8
0
  6
CONTINUOUS
 62
     3
  5
18A
 10
0.0
 20
165.0
 30
0.0
 11
33.0
 21
198.0
 31
0.0
  0
LINE
  8
0
  6
CONTINUOUS
 62
     3
  5
18B
 10
-35.0
 20
120.0
 30
0.0
 11
-35.0
 21
129.37868
 31
0.0
  0
ARC
  8
0
  6
CONTINUOUS
 62
     3
  5
18C
 10
34.5
 20
132.62132
 30
0.0
 40
1.5
 50
180.0
 51
225.0
  0
LINE
  8
0
  6
CONTINUOUS
 62
     3
  5
18D
 10
-34.0
 20
119.0
 30
0.0
 11
34.0
 21
119.0
 31
0.0
  0
ARC
  8
0
  6
CONTINUOUS
 62
     3
  5
18E
 10
33.5
 20
129.37868
 30
0.0
 40
1.5
 50
0.0
 51
45.0
  0
LINE
  8
0
  6
CONTINUOUS
 62
     3
  5
18F
 10
33.0
 20
132.62132
 30
0.0
 11
33.0
 21
198.0
 31
0.0
  0
LINE
  8
0
  6
CONTINUOUS
 62
     3
  5
190
 10
35.0
 20
120.0
 30
0.0
 11
35.0
 21
129.37868
 31
0.0
  0
LINE
  8
0
  6
CONTINUOUS
 62
     3
  5
191
 10
34.56066
 20
130.43934
 30
0.0
 11
33.43934
 21
131.56066
 31
0.0
  0
LINE
  8
0
  6
CONTINUOUS
 62
     3
  5
192
 10
0.0
 20
165.0
 30
0.0
 11
-34.56066
 21
130.43934
 31
0.0
  0
ARC
  8
0
  6
CONTINUOUS
 62
     3
  5
193
 10
-107.08264
 20
174.573136
 30
0.0
 40
10.0
 50
155.056519
 51
175.007317
  0
ARC
  8
0
  6
CONTINUOUS
 62
     3
  5
194
 10
-107.082641
 20
155.426866
 30
0.0
 40
10.0
 50
184.99268
 51
204.943477
  0
ARC
  8
0
  6
CONTINUOUS
 62
     3
  5
195
 10
-86.5
 20
165.0
 30
0.0
 40
32.7
 50
90.0
 51
155.056519
  0
ARC
  8
0
  6
CONTINUOUS
 62
     3
  5
196
 10
2.5
 20
164.999997
 30
0.0
 40
120.0
 50
175.007317
 51
180.0
  0
LINE
  8
0
  6
CONTINUOUS
 62
     3
  5
197
 10
-50.0
 20
198.25
 30
0.0
 11
-86.5
 21
197.7
 31
0.0
  0
LINE
  8
0
  6
CONTINUOUS
 62
     3
  5
198
 10
-86.5
 20
132.3
 30
0.0
 11
-50.0
 21
131.75
 31
0.0
  0
ARC
  8
0
  6
CONTINUOUS
 62
     3
  5
199
 10
-86.5
 20
165.0
 30
0.0
 40
32.7
 50
204.943477
 51
270.0
  0
ARC
  8
0
  6
CONTINUOUS
 62
     3
  5
19A
 10
2.5
 20
164.999997
 30
0.0
 40
120.0
 50
180.0
 51
184.99268
  0
LINE
  8
0
  6
CONTINUOUS
 62
     3
  5
19B
 10
35.0
 20
129.37868
 30
0.0
 11
-35.0
 21
129.37868
 31
0.0
  0
LINE
  8
0
  6
CONTINUOUS
 62
     3
  5
19C
 10
-34.0
 20
198.0
 30
0.0
 11
-34.0
 21
132.0
 31
0.0
  0
ARC
  8
0
  6
CONTINUOUS
 62
    80
  5
19D
 10
0.0
 20
113.79618
 30
0.0
 40
2.5
 50
233.130102
 51
270.0
  0
ARC
  8
0
  6
CONTINUOUS
 62
    80
  5
19E
 10
0.0
 20
113.79618
 30
0.0
 40
2.5
 50
270.0
 51
306.869898
  0
ARC
  8
0
  6
CONTINUOUS
 62
     3
  5
19F
 10
-2.175
 20
112.001283
 30
0.0
 40
0.705473
 50
196.901684
 51
271.857043
  0
LINE
  8
0
  6
CONTINUOUS
 62
     3
  5
1A0
 10
1.5
 20
104.5
 30
0.0
 11
1.0
 21
104.0
 31
0.0
  0
LINE
  8
0
  6
CONTINUOUS
 62
     3
  5
1A1
 10
1.5
 20
113.866857
 30
0.0
 11
1.5
 21
113.49618
 31
0.0
  0
LINE
  8
0
  6
CONTINUOUS
 62
     3
  5
1A2
 10
-24.500635
 20
113.49618
 30
0.0
 11
-24.500635
 21
111.79618
 31
0.0
  0
LINE
  8
0
  6
CONTINUOUS
 62
     3
  5
1A3
 10
-24.500635
 20
113.49618
 30
0.0
 11
-18.800635
 21
113.49618
 31
0.0
  0
ARC
  8
0
  6
CONTINUOUS
 62
     3
  5
1A4
 10
17.55239
 20
115.5
 30
0.0
 40
0.5
 50
180.0
 51
270.0
  0
ARC
  8
0
  6
CONTINUOUS
 62
     3
  5
1A5
 10
26.55239
 20
115.5
 30
0.0
 40
0.5
 50
270.0
 51
0.0
  0
ARC
  8
0
  6
CONTINUOUS
 62
     3
  5
1A6
 10
-17.150635
 20
115.5
 30
0.0
 40
0.5
 50
270.0
 51
0.0
  0
ARC
  8
0
  6
CONTINUOUS
 62
     3
  5
1A7
 10
-26.150635
 20
115.5
 30
0.0
 40
0.5
 50
180.0
 51
270.0
  0
LINE
  8
0
  6
CONTINUOUS
 62
     3
  5
1A8
 10
-26.150635
 20
115.0
 30
0.0
 11
-17.150635
 21
115.0
 31
0.0
  0
LINE
  8
0
  6
CONTINUOUS
 62
     3
  5
1A9
 10
-26.650635
 20
119.0
 30
0.0
 11
-26.650635
 21
115.5
 31
0.0
  0
LINE
  8
0
  6
CONTINUOUS
 62
     3
  5
1AA
 10
27.05239
 20
115.5
 30
0.0
 11
27.05239
 21
119.0
 31
0.0
  0
LINE
  8
0
  6
CONTINUOUS
 62
     3
  5
1AB
 10
-16.650635
 20
115.5
 30
0.0
 11
-16.650635
 21
119.0
 31
0.0
  0
LINE
  8
0
  6
CONTINUOUS
 62
     3
  5
1AC
 10
17.55239
 20
115.0
 30
0.0
 11
26.55239
 21
115.0
 31
0.0
  0
LINE
  8
0
  6
CONTINUOUS
 62
     3
  5
1AD
 10
17.05239
 20
119.0
 30
0.0
 11
17.05239
 21
115.5
 31
0.0
  0
LINE
  8
0
  6
CONTINUOUS
 62
    80
  5
1AE
 10
-1.5
 20
113.49618
 30
0.0
 11
-1.5
 21
111.79618
 31
0.0
  0
LINE
  8
0
  6
CONTINUOUS
 62
     3
  5
1AF
 10
2.85
 20
113.49618
 30
0.0
 11
2.85
 21
111.79618
 31
0.0
  0
ARC
  8
0
  6
CONTINUOUS
 62
     3
  5
1B0
 10
-19.475635
 20
112.001283
 30
0.0
 40
0.705473
 50
268.142957
 51
343.098316
  0
ARC
  8
0
  6
CONTINUOUS
 62
    80
  5
1B1
 10
-23.825635
 20
112.001283
 30
0.0
 40
0.705473
 50
268.142957
 51
343.098316
  0
LINE
  8
0
  6
CONTINUOUS
 62
    80
  5
1B2
 10
-20.150635
 20
113.49618
 30
0.0
 11
-20.150635
 21
111.79618
 31
0.0
  0
LINE
  8
0
  6
CONTINUOUS
 62
     3
  5
1B3
 10
-22.650635
 20
104.0
 30
0.0
 11
-23.150635
 21
104.5
 31
0.0
  0
LINE
  8
0
  6
CONTINUOUS
 62
     3
  5
1B4
 10
-23.802774
 20
111.29618
 30
0.0
 11
-19.452774
 21
111.29618
 31
0.0
  0
LINE
  8
0
  6
CONTINUOUS
 62
     3
  5
1B5
 10
-20.151602
 20
113.752783
 30
0.0
 11
-18.900635
 21
113.757496
 31
0.0
  0
LINE
  8
0
  6
CONTINUOUS
 62
     3
  5
1B6
 10
-18.800635
 20
113.49618
 30
0.0
 11
-18.800635
 21
111.79618
 31
0.0
  0
LINE
  8
0
  6
CONTINUOUS
 62
    80
  5
1B7
 10
-23.150635
 20
113.49618
 30
0.0
 11
-23.150635
 21
111.79618
 31
0.0
  0
LINE
  8
0
  6
CONTINUOUS
 62
     3
  5
1B8
 10
-20.150635
 20
113.866857
 30
0.0
 11
-20.150635
 21
113.49618
 31
0.0
  0
LINE
  8
0
  6
CONTINUOUS
 62
     3
  5
1B9
 10
-20.150635
 20
104.5
 30
0.0
 11
-20.650635
 21
104.0
 31
0.0
  0
ARC
  8
0
  6
CONTINUOUS
 62
     3
  5
1BA
 10
-23.825635
 20
112.001283
 30
0.0
 40
0.705473
 50
196.901684
 51
271.857043
  0
ARC
  8
0
  6
CONTINUOUS
 62
    80
  5
1BB
 10
-21.650635
 20
113.79618
 30
0.0
 40
2.5
 50
270.0
 51
306.869898
  0
ARC
  8
0
  6
CONTINUOUS
 62
    80
  5
1BC
 10
-21.650635
 20
113.79618
 30
0.0
 40
2.5
 50
233.130102
 51
270.0
  0
ARC
  8
0
  6
CONTINUOUS
 62
    80
  5
1BD
 10
-19.475635
 20
112.001668
 30
0.0
 40
0.705585
 50
196.931609
 51
270.952225
  0
LINE
  8
0
  6
CONTINUOUS
 62
     3
  5
1BE
 10
-23.150635
 20
104.5
 30
0.0
 11
-23.150635
 21
111.29618
 31
0.0
  0
LINE
  8
0
  6
CONTINUOUS
 62
     3
  5
1BF
 10
-20.650635
 20
104.0
 30
0.0
 11
-22.650635
 21
104.0
 31
0.0
  0
LINE
  8
0
  6
CONTINUOUS
 62
     3
  5
1C0
 10
-20.150635
 20
111.29618
 30
0.0
 11
-20.150635
 21
104.5
 31
0.0
  0
LINE
  8
0
  6
CONTINUOUS
 62
     3
  5
1C1
 10
-20.150635
 20
114.5
 30
0.0
 11
-20.150635
 21
114.368767
 31
0.0
  0
LINE
  8
0
  6
CONTINUOUS
 62
     3
  5
1C2
 10
-23.150635
 20
114.5
 30
0.0
 11
-23.150635
 21
114.129323
 31
0.0
  0
LINE
  8
0
  6
CONTINUOUS
 62
     3
  5
1C3
 10
-25.500635
 20
115.0
 30
0.0
 11
-25.500635
 21
114.65
 31
0.0
  0
LINE
  8
0
  6
CONTINUOUS
 62
     3
  5
1C4
 10
-25.350635
 20
114.5
 30
0.0
 11
-17.950635
 21
114.5
 31
0.0
  0
LINE
  8
0
  6
CONTINUOUS
 62
     3
  5
1C5
 10
-17.800635
 20
114.65
 30
0.0
 11
-17.800635
 21
115.0
 31
0.0
  0
ARC
  8
0
  6
CONTINUOUS
 62
     3
  5
1C6
 10
-17.950635
 20
114.65
 30
0.0
 40
0.15
 50
270.0
 51
0.0
  0
ARC
  8
0
  6
CONTINUOUS
 62
     3
  5
1C7
 10
-25.350635
 20
114.65
 30
0.0
 40
0.15
 50
180.0
 51
270.0
  0
LINE
  8
0
  6
CONTINUOUS
 62
     3
  5
1C8
 10
-21.650635
 20
113.99809
 30
0.0
 11
-18.900635
 21
113.757496
 31
0.0
  0
LINE
  8
0
  6
CONTINUOUS
 62
     3
  5
1C9
 10
-18.900635
 20
113.757496
 30
0.0
 11
-18.900635
 21
114.259406
 31
0.0
  0
LINE
  8
0
  6
CONTINUOUS
 62
     3
  5
1CA
 10
-18.900635
 20
114.259406
 30
0.0
 11
-21.650635
 21
114.5
 31
0.0
  0
LINE
  8
0
  6
CONTINUOUS
 62
     3
  5
1CB
 10
-21.650635
 20
114.5
 30
0.0
 11
-21.650635
 21
113.49618
 31
0.0
  0
LINE
  8
0
  6
CONTINUOUS
 62
     3
  5
1CC
 10
-21.650635
 20
113.49618
 30
0.0
 11
-24.400635
 21
113.736774
 31
0.0
  0
LINE
  8
0
  6
CONTINUOUS
 62
     3
  5
1CD
 10
-24.400635
 20
113.736774
 30
0.0
 11
-24.400635
 21
114.238684
 31
0.0
  0
LINE
  8
0
  6
CONTINUOUS
 62
     3
  5
1CE
 10
-24.400635
 20
114.238684
 30
0.0
 11
-21.650635
 21
113.99809
 31
0.0
  0
LINE
  8
0
  6
CONTINUOUS
 62
     3
  5
1CF
 10
-24.400635
 20
114.238684
 30
0.0
 11
-23.150635
 21
114.243394
 31
0.0
  0
LINE
  8
0
  6
CONTINUOUS
 62
     3
  5
1D0
 10
-21.650635
 20
113.747135
 30
0.0
 11
-21.65045
 21
113.747136
 31
0.0
  0
LINE
  8
0
  6
CONTINUOUS
 62
     3
  5
1D1
 10
23.55239
 20
104.5
 30
0.0
 11
23.05239
 21
104.0
 31
0.0
  0
LINE
  8
0
  6
CONTINUOUS
 62
     3
  5
1D2
 10
21.05239
 20
104.0
 30
0.0
 11
20.55239
 21
104.5
 31
0.0
  0
LINE
  8
0
  6
CONTINUOUS
 62
     3
  5
1D3
 10
23.55239
 20
113.866857
 30
0.0
 11
23.55239
 21
113.49618
 31
0.0
  0
LINE
  8
0
  6
CONTINUOUS
 62
     3
  5
1D4
 10
23.551424
 20
113.752783
 30
0.0
 11
24.80239
 21
113.757496
 31
0.0
  0
LINE
  8
0
  6
CONTINUOUS
 62
    80
  5
1D5
 10
23.55239
 20
113.49618
 30
0.0
 11
23.55239
 21
111.79618
 31
0.0
  0
LINE
  8
0
  6
CONTINUOUS
 62
    80
  5
1D6
 10
20.55239
 20
113.49618
 30
0.0
 11
20.55239
 21
111.79618
 31
0.0
  0
LINE
  8
0
  6
CONTINUOUS
 62
     3
  5
1D7
 10
19.900252
 20
111.29618
 30
0.0
 11
24.250252
 21
111.29618
 31
0.0
  0
LINE
  8
0
  6
CONTINUOUS
 62
     3
  5
1D8
 10
19.20239
 20
113.49618
 30
0.0
 11
19.20239
 21
111.79618
 31
0.0
  0
LINE
  8
0
  6
CONTINUOUS
 62
     3
  5
1D9
 10
19.20239
 20
113.49618
 30
0.0
 11
24.90239
 21
113.49618
 31
0.0
  0
LINE
  8
0
  6
CONTINUOUS
 62
     3
  5
1DA
 10
24.90239
 20
113.49618
 30
0.0
 11
24.90239
 21
111.79618
 31
0.0
  0
ARC
  8
0
  6
CONTINUOUS
 62
    80
  5
1DB
 10
19.87739
 20
112.001283
 30
0.0
 40
0.705473
 50
268.142957
 51
343.098316
  0
ARC
  8
0
  6
CONTINUOUS
 62
     3
  5
1DC
 10
24.22739
 20
112.001283
 30
0.0
 40
0.705473
 50
268.142957
 51
343.098316
  0
ARC
  8
0
  6
CONTINUOUS
 62
     3
  5
1DD
 10
19.87739
 20
112.001283
 30
0.0
 40
0.705473
 50
196.901684
 51
271.857043
  0
ARC
  8
0
  6
CONTINUOUS
 62
    80
  5
1DE
 10
22.05239
 20
113.79618
 30
0.0
 40
2.5
 50
270.0
 51
306.869898
  0
ARC
  8
0
  6
CONTINUOUS
 62
    80
  5
1DF
 10
22.05239
 20
113.79618
 30
0.0
 40
2.5
 50
233.130102
 51
270.0
  0
ARC
  8
0
  6
CONTINUOUS
 62
    80
  5
1E0
 10
24.22739
 20
112.001668
 30
0.0
 40
0.705585
 50
196.931609
 51
270.952225
  0
LINE
  8
0
  6
CONTINUOUS
 62
     3
  5
1E1
 10
20.55239
 20
104.5
 30
0.0
 11
20.55239
 21
111.29618
 31
0.0
  0
LINE
  8
0
  6
CONTINUOUS
 62
     3
  5
1E2
 10
23.05239
 20
104.0
 30
0.0
 11
21.05239
 21
104.0
 31
0.0
  0
LINE
  8
0
  6
CONTINUOUS
 62
     3
  5
1E3
 10
23.55239
 20
111.29618
 30
0.0
 11
23.55239
 21
104.5
 31
0.0
  0
LINE
  8
0
  6
CONTINUOUS
 62
     3
  5
1E4
 10
23.55239
 20
114.5
 30
0.0
 11
23.55239
 21
114.368767
 31
0.0
  0
LINE
  8
0
  6
CONTINUOUS
 62
     3
  5
1E5
 10
20.55239
 20
114.5
 30
0.0
 11
20.55239
 21
114.129323
 31
0.0
  0
LINE
  8
0
  6
CONTINUOUS
 62
     3
  5
1E6
 10
18.20239
 20
115.0
 30
0.0
 11
18.20239
 21
114.65
 31
0.0
  0
LINE
  8
0
  6
CONTINUOUS
 62
     3
  5
1E7
 10
18.35239
 20
114.5
 30
0.0
 11
25.75239
 21
114.5
 31
0.0
  0
LINE
  8
0
  6
CONTINUOUS
 62
     3
  5
1E8
 10
25.90239
 20
114.65
 30
0.0
 11
25.90239
 21
115.0
 31
0.0
  0
ARC
  8
0
  6
CONTINUOUS
 62
     3
  5
1E9
 10
25.75239
 20
114.65
 30
0.0
 40
0.15
 50
270.0
 51
0.0
  0
ARC
  8
0
  6
CONTINUOUS
 62
     3
  5
1EA
 10
18.35239
 20
114.65
 30
0.0
 40
0.15
 50
180.0
 51
270.0
  0
LINE
  8
0
  6
CONTINUOUS
 62
     3
  5
1EB
 10
22.05239
 20
113.99809
 30
0.0
 11
24.80239
 21
113.757496
 31
0.0
  0
LINE
  8
0
  6
CONTINUOUS
 62
     3
  5
1EC
 10
24.80239
 20
113.757496
 30
0.0
 11
24.80239
 21
114.259406
 31
0.0
  0
LINE
  8
0
  6
CONTINUOUS
 62
     3
  5
1ED
 10
24.80239
 20
114.259406
 30
0.0
 11
22.05239
 21
114.5
 31
0.0
  0
LINE
  8
0
  6
CONTINUOUS
 62
     3
  5
1EE
 10
22.05239
 20
114.5
 30
0.0
 11
22.05239
 21
113.49618
 31
0.0
  0
LINE
  8
0
  6
CONTINUOUS
 62
     3
  5
1EF
 10
22.05239
 20
113.49618
 30
0.0
 11
19.30239
 21
113.736774
 31
0.0
  0
LINE
  8
0
  6
CONTINUOUS
 62
     3
  5
1F0
 10
19.30239
 20
113.736774
 30
0.0
 11
19.30239
 21
114.238684
 31
0.0
  0
LINE
  8
0
  6
CONTINUOUS
 62
     3
  5
1F1
 10
19.30239
 20
114.238684
 30
0.0
 11
22.05239
 21
113.99809
 31
0.0
  0
LINE
  8
0
  6
CONTINUOUS
 62
     3
  5
1F2
 10
19.30239
 20
114.238684
 30
0.0
 11
20.55239
 21
114.243394
 31
0.0
  0
LINE
  8
0
  6
CONTINUOUS
 62
     3
  5
1F3
 10
22.05239
 20
113.747135
 30
0.0
 11
22.052575
 21
113.747136
 31
0.0
  0
LINE
  8
0
  6
CONTINUOUS
 62
     3
  5
1F4
 10
1.499033
 20
113.752783
 30
0.0
 11
2.75
 21
113.757496
 31
0.0
  0
LINE
  8
0
  6
CONTINUOUS
 62
     3
  5
1F5
 10
-2.152139
 20
111.29618
 30
0.0
 11
2.197861
 21
111.29618
 31
0.0
  0
LINE
  8
0
  6
CONTINUOUS
 62
     3
  5
1F6
 10
-1.0
 20
104.0
 30
0.0
 11
-1.5
 21
104.5
 31
0.0
  0
LINE
  8
0
  6
CONTINUOUS
 62
    80
  5
1F7
 10
1.5
 20
113.49618
 30
0.0
 11
1.5
 21
111.79618
 31
0.0
  0
ARC
  8
0
  6
CONTINUOUS
 62
    80
  5
1F8
 10
-2.175
 20
112.001283
 30
0.0
 40
0.705473
 50
268.142957
 51
343.098316
  0
ARC
  8
0
  6
CONTINUOUS
 62
     3
  5
1F9
 10
2.175
 20
112.001283
 30
0.0
 40
0.705473
 50
268.142957
 51
343.098316
  0
LINE
  8
0
  6
CONTINUOUS
 62
     3
  5
1FA
 10
5.0
 20
115.5
 30
0.0
 11
5.0
 21
119.0
 31
0.0
  0
LINE
  8
0
  6
CONTINUOUS
 62
     3
  5
1FB
 10
-5.0
 20
119.0
 30
0.0
 11
-5.0
 21
115.5
 31
0.0
  0
LINE
  8
0
  6
CONTINUOUS
 62
     3
  5
1FC
 10
-4.5
 20
115.0
 30
0.0
 11
4.5
 21
115.0
 31
0.0
  0
ARC
  8
0
  6
CONTINUOUS
 62
     3
  5
1FD
 10
-4.5
 20
115.5
 30
0.0
 40
0.5
 50
180.0
 51
270.0
  0
ARC
  8
0
  6
CONTINUOUS
 62
     3
  5
1FE
 10
4.5
 20
115.5
 30
0.0
 40
0.5
 50
270.0
 51
0.0
  0
LINE
  8
0
  6
CONTINUOUS
 62
     3
  5
1FF
 10
-2.85
 20
113.49618
 30
0.0
 11
2.85
 21
113.49618
 31
0.0
  0
LINE
  8
0
  6
CONTINUOUS
 62
     3
  5
200
 10
-2.85
 20
113.49618
 30
0.0
 11
-2.85
 21
111.79618
 31
0.0
  0
ARC
  8
0
  6
CONTINUOUS
 62
    80
  5
201
 10
2.175
 20
112.001668
 30
0.0
 40
0.705585
 50
196.931609
 51
270.952225
  0
LINE
  8
0
  6
CONTINUOUS
 62
     3
  5
202
 10
-1.5
 20
104.5
 30
0.0
 11
-1.5
 21
111.29618
 31
0.0
  0
LINE
  8
0
  6
CONTINUOUS
 62
     3
  5
203
 10
1.0
 20
104.0
 30
0.0
 11
-1.0
 21
104.0
 31
0.0
  0
LINE
  8
0
  6
CONTINUOUS
 62
     3
  5
204
 10
1.5
 20
111.29618
 30
0.0
 11
1.5
 21
104.5
 31
0.0
  0
LINE
  8
0
  6
CONTINUOUS
 62
     3
  5
205
 10
1.5
 20
114.5
 30
0.0
 11
1.5
 21
114.368767
 31
0.0
  0
LINE
  8
0
  6
CONTINUOUS
 62
     3
  5
206
 10
-1.5
 20
114.5
 30
0.0
 11
-1.5
 21
114.129323
 31
0.0
  0
LINE
  8
0
  6
CONTINUOUS
 62
     3
  5
207
 10
-3.85
 20
115.0
 30
0.0
 11
-3.85
 21
114.65
 31
0.0
  0
LINE
  8
0
  6
CONTINUOUS
 62
     3
  5
208
 10
-3.7
 20
114.5
 30
0.0
 11
3.7
 21
114.5
 31
0.0
  0
LINE
  8
0
  6
CONTINUOUS
 62
     3
  5
209
 10
3.85
 20
114.65
 30
0.0
 11
3.85
 21
115.0
 31
0.0
  0
ARC
  8
0
  6
CONTINUOUS
 62
     3
  5
20A
 10
3.7
 20
114.65
 30
0.0
 40
0.15
 50
270.0
 51
0.0
  0
ARC
  8
0
  6
CONTINUOUS
 62
     3
  5
20B
 10
-3.7
 20
114.65
 30
0.0
 40
0.15
 50
180.0
 51
270.0
  0
LINE
  8
0
  6
CONTINUOUS
 62
     3
  5
20C
 10
0.0
 20
113.99809
 30
0.0
 11
2.75
 21
113.757496
 31
0.0
  0
LINE
  8
0
  6
CONTINUOUS
 62
     3
  5
20D
 10
2.75
 20
113.757496
 30
0.0
 11
2.75
 21
114.259406
 31
0.0
  0
LINE
  8
0
  6
CONTINUOUS
 62
     3
  5
20E
 10
2.75
 20
114.259406
 30
0.0
 11
0.0
 21
114.5
 31
0.0
  0
LINE
  8
0
  6
CONTINUOUS
 62
     3
  5
20F
 10
0.0
 20
114.5
 30
0.0
 11
0.0
 21
113.49618
 31
0.0
  0
LINE
  8
0
  6
CONTINUOUS
 62
     3
  5
210
 10
0.0
 20
113.49618
 30
0.0
 11
-2.75
 21
113.736774
 31
0.0
  0
LINE
  8
0
  6
CONTINUOUS
 62
     3
  5
211
 10
-2.75
 20
113.736774
 30
0.0
 11
-2.75
 21
114.238684
 31
0.0
  0
LINE
  8
0
  6
CONTINUOUS
 62
     3
  5
212
 10
-2.75
 20
114.238684
 30
0.0
 11
0.0
 21
113.99809
 31
0.0
  0
LINE
  8
0
  6
CONTINUOUS
 62
     3
  5
213
 10
-2.75
 20
114.238684
 30
0.0
 11
-1.5
 21
114.243394
 31
0.0
  0
LINE
  8
0
  6
CONTINUOUS
 62
     3
  5
214
 10
0.0
 20
113.747135
 30
0.0
 11
0.000185
 21
113.747136
 31
0.0
  0
LINE
  8
0
  6
CONTINUOUS
 62
    80
  5
215
 10
1.5
 20
104.5
 30
0.0
 11
-1.5
 21
104.5
 31
0.0
  0
LINE
  8
0
  6
CONTINUOUS
 62
    80
  5
216
 10
-1.0
 20
104.0
 30
0.0
 11
-1.0
 21
111.29618
 31
0.0
  0
LINE
  8
0
  6
CONTINUOUS
 62
    80
  5
217
 10
1.0
 20
104.0
 30
0.0
 11
1.0
 21
111.29618
 31
0.0
  0
LINE
  8
0
  6
CONTINUOUS
 62
    80
  5
218
 10
-22.650635
 20
104.0
 30
0.0
 11
-22.650635
 21
111.29618
 31
0.0
  0
LINE
  8
0
  6
CONTINUOUS
 62
    80
  5
219
 10
-20.650635
 20
104.0
 30
0.0
 11
-20.650635
 21
111.29618
 31
0.0
  0
LINE
  8
0
  6
CONTINUOUS
 62
    80
  5
21A
 10
-20.150635
 20
104.5
 30
0.0
 11
-23.150635
 21
104.5
 31
0.0
  0
LINE
  8
0
  6
CONTINUOUS
 62
    80
  5
21B
 10
21.05239
 20
104.0
 30
0.0
 11
21.05239
 21
111.29618
 31
0.0
  0
LINE
  8
0
  6
CONTINUOUS
 62
    80
  5
21C
 10
23.05239
 20
104.0
 30
0.0
 11
23.05239
 21
111.29618
 31
0.0
  0
LINE
  8
0
  6
CONTINUOUS
 62
    80
  5
21D
 10
23.55239
 20
104.5
 30
0.0
 11
20.55239
 21
104.5
 31
0.0
  0
LINE
  8
0
  6
CONTINUOUS
 62
     3
  5
21E
 10
-50.0
 20
198.5
 30
0.0
 11
-50.0
 21
131.5
 31
0.0
  0
ARC
  8
0
  6
CONTINUOUS
 62
     3
  5
21F
 10
34.0
 20
270.0
 30
0.0
 40
1.0
 50
270.0
 51
0.0
  0
ARC
  8
0
  6
CONTINUOUS
 62
     3
  5
220
 10
-34.0
 20
270.0
 30
0.0
 40
1.0
 50
180.0
 51
270.0
  0
ARC
  8
0
  6
CONTINUOUS
 62
     3
  5
221
 10
-33.5
 20
279.37868
 30
0.0
 40
1.5
 50
135.0
 51
180.0
  0
LINE
  8
0
  6
CONTINUOUS
 62
     3
  5
222
 10
-35.0
 20
270.0
 30
0.0
 11
-35.0
 21
279.37868
 31
0.0
  0
ARC
  8
0
  6
CONTINUOUS
 62
     3
  5
223
 10
34.5
 20
282.62132
 30
0.0
 40
1.5
 50
180.0
 51
225.0
  0
LINE
  8
0
  6
CONTINUOUS
 62
     3
  5
224
 10
-34.0
 20
269.0
 30
0.0
 11
34.0
 21
269.0
 31
0.0
  0
ARC
  8
0
  6
CONTINUOUS
 62
     3
  5
225
 10
33.5
 20
279.37868
 30
0.0
 40
1.5
 50
0.0
 51
45.0
  0
LINE
  8
0
  6
CONTINUOUS
 62
     3
  5
226
 10
35.0
 20
270.0
 30
0.0
 11
35.0
 21
279.37868
 31
0.0
  0
LINE
  8
0
  6
CONTINUOUS
 62
     3
  5
227
 10
34.56066
 20
280.43934
 30
0.0
 11
33.43934
 21
281.56066
 31
0.0
  0
LINE
  8
0
  6
CONTINUOUS
 62
     3
  5
228
 10
35.0
 20
279.37868
 30
0.0
 11
-35.0
 21
279.37868
 31
0.0
  0
LINE
  8
0
  6
CONTINUOUS
 62
     3
  5
229
 10
-2.85
 20
263.49618
 30
0.0
 11
2.85
 21
263.49618
 31
0.0
  0
ARC
  8
0
  6
CONTINUOUS
 62
     3
  5
22A
 10
4.5
 20
265.5
 30
0.0
 40
0.5
 50
270.0
 51
0.0
  0
ARC
  8
0
  6
CONTINUOUS
 62
     3
  5
22B
 10
-4.5
 20
265.5
 30
0.0
 40
0.5
 50
180.0
 51
270.0
  0
LINE
  8
0
  6
CONTINUOUS
 62
     3
  5
22C
 10
-4.5
 20
265.0
 30
0.0
 11
4.5
 21
265.0
 31
0.0
  0
LINE
  8
0
  6
CONTINUOUS
 62
     3
  5
22D
 10
24.80239
 20
263.757496
 30
0.0
 11
24.80239
 21
264.259406
 31
0.0
  0
LINE
  8
0
  6
CONTINUOUS
 62
     3
  5
22E
 10
-17.800635
 20
264.65
 30
0.0
 11
-17.800635
 21
265.0
 31
0.0
  0
LINE
  8
0
  6
CONTINUOUS
 62
     3
  5
22F
 10
22.05239
 20
263.99809
 30
0.0
 11
24.80239
 21
263.757496
 31
0.0
  0
ARC
  8
0
  6
CONTINUOUS
 62
     3
  5
230
 10
18.35239
 20
264.65
 30
0.0
 40
0.15
 50
180.0
 51
270.0
  0
ARC
  8
0
  6
CONTINUOUS
 62
     3
  5
231
 10
25.75239
 20
264.65
 30
0.0
 40
0.15
 50
270.0
 51
0.0
  0
LINE
  8
0
  6
CONTINUOUS
 62
     3
  5
232
 10
25.90239
 20
264.65
 30
0.0
 11
25.90239
 21
265.0
 31
0.0
  0
LINE
  8
0
  6
CONTINUOUS
 62
     3
  5
233
 10
-25.350635
 20
264.5
 30
0.0
 11
-17.950635
 21
264.5
 31
0.0
  0
LINE
  8
0
  6
CONTINUOUS
 62
     3
  5
234
 10
-25.500635
 20
265.0
 30
0.0
 11
-25.500635
 21
264.65
 31
0.0
  0
LINE
  8
0
  6
CONTINUOUS
 62
     3
  5
235
 10
-23.150635
 20
264.5
 30
0.0
 11
-23.150635
 21
264.129323
 31
0.0
  0
LINE
  8
0
  6
CONTINUOUS
 62
     3
  5
236
 10
18.35239
 20
264.5
 30
0.0
 11
25.75239
 21
264.5
 31
0.0
  0
LINE
  8
0
  6
CONTINUOUS
 62
     3
  5
237
 10
18.20239
 20
265.0
 30
0.0
 11
18.20239
 21
264.65
 31
0.0
  0
LINE
  8
0
  6
CONTINUOUS
 62
     3
  5
238
 10
-5.0
 20
269.0
 30
0.0
 11
-5.0
 21
265.5
 31
0.0
  0
LINE
  8
0
  6
CONTINUOUS
 62
     3
  5
239
 10
5.0
 20
265.5
 30
0.0
 11
5.0
 21
269.0
 31
0.0
  0
ARC
  8
0
  6
CONTINUOUS
 62
     3
  5
23A
 10
2.175
 20
262.001283
 30
0.0
 40
0.705473
 50
268.142957
 51
343.098316
  0
LINE
  8
0
  6
CONTINUOUS
 62
     3
  5
23B
 10
20.55239
 20
264.5
 30
0.0
 11
20.55239
 21
264.129323
 31
0.0
  0
LINE
  8
0
  6
CONTINUOUS
 62
     3
  5
23C
 10
23.55239
 20
264.5
 30
0.0
 11
23.55239
 21
264.368767
 31
0.0
  0
LINE
  8
0
  6
CONTINUOUS
 62
     3
  5
23D
 10
23.55239
 20
261.29618
 30
0.0
 11
23.55239
 21
254.5
 31
0.0
  0
LINE
  8
0
  6
CONTINUOUS
 62
     3
  5
23E
 10
23.05239
 20
254.0
 30
0.0
 11
21.05239
 21
254.0
 31
0.0
  0
LINE
  8
0
  6
CONTINUOUS
 62
     3
  5
23F
 10
20.55239
 20
254.5
 30
0.0
 11
20.55239
 21
261.29618
 31
0.0
  0
ARC
  8
0
  6
CONTINUOUS
 62
    80
  5
240
 10
24.22739
 20
262.001668
 30
0.0
 40
0.705585
 50
196.931609
 51
270.952225
  0
ARC
  8
0
  6
CONTINUOUS
 62
    80
  5
241
 10
22.05239
 20
263.79618
 30
0.0
 40
2.5
 50
233.130102
 51
270.0
  0
ARC
  8
0
  6
CONTINUOUS
 62
    80
  5
242
 10
22.05239
 20
263.79618
 30
0.0
 40
2.5
 50
270.0
 51
306.869898
  0
LINE
  8
0
  6
CONTINUOUS
 62
     3
  5
243
 10
-20.150635
 20
264.5
 30
0.0
 11
-20.150635
 21
264.368767
 31
0.0
  0
LINE
  8
0
  6
CONTINUOUS
 62
     3
  5
244
 10
-20.150635
 20
261.29618
 30
0.0
 11
-20.150635
 21
254.5
 31
0.0
  0
ARC
  8
0
  6
CONTINUOUS
 62
     3
  5
245
 10
19.87739
 20
262.001283
 30
0.0
 40
0.705473
 50
196.901684
 51
271.857043
  0
ARC
  8
0
  6
CONTINUOUS
 62
     3
  5
246
 10
24.22739
 20
262.001283
 30
0.0
 40
0.705473
 50
268.142957
 51
343.098316
  0
ARC
  8
0
  6
CONTINUOUS
 62
    80
  5
247
 10
19.87739
 20
262.001283
 30
0.0
 40
0.705473
 50
268.142957
 51
343.098316
  0
LINE
  8
0
  6
CONTINUOUS
 62
     3
  5
248
 10
24.90239
 20
263.49618
 30
0.0
 11
24.90239
 21
261.79618
 31
0.0
  0
LINE
  8
0
  6
CONTINUOUS
 62
     3
  5
249
 10
19.20239
 20
263.49618
 30
0.0
 11
24.90239
 21
263.49618
 31
0.0
  0
ARC
  8
0
  6
CONTINUOUS
 62
    80
  5
24A
 10
-2.175
 20
262.001283
 30
0.0
 40
0.705473
 50
268.142957
 51
343.098316
  0
LINE
  8
0
  6
CONTINUOUS
 62
    80
  5
24B
 10
1.5
 20
263.49618
 30
0.0
 11
1.5
 21
261.79618
 31
0.0
  0
LINE
  8
0
  6
CONTINUOUS
 62
     3
  5
24C
 10
-1.0
 20
254.0
 30
0.0
 11
-1.5
 21
254.5
 31
0.0
  0
LINE
  8
0
  6
CONTINUOUS
 62
     3
  5
24D
 10
-2.152139
 20
261.29618
 30
0.0
 11
2.197861
 21
261.29618
 31
0.0
  0
LINE
  8
0
  6
CONTINUOUS
 62
     3
  5
24E
 10
1.499033
 20
263.752783
 30
0.0
 11
2.75
 21
263.757496
 31
0.0
  0
LINE
  8
0
  6
CONTINUOUS
 62
     3
  5
24F
 10
22.05239
 20
263.747135
 30
0.0
 11
22.052575
 21
263.747136
 31
0.0
  0
LINE
  8
0
  6
CONTINUOUS
 62
     3
  5
250
 10
19.30239
 20
264.238684
 30
0.0
 11
20.55239
 21
264.243394
 31
0.0
  0
LINE
  8
0
  6
CONTINUOUS
 62
     3
  5
251
 10
19.20239
 20
263.49618
 30
0.0
 11
19.20239
 21
261.79618
 31
0.0
  0
LINE
  8
0
  6
CONTINUOUS
 62
     3
  5
252
 10
19.900252
 20
261.29618
 30
0.0
 11
24.250252
 21
261.29618
 31
0.0
  0
LINE
  8
0
  6
CONTINUOUS
 62
    80
  5
253
 10
20.55239
 20
263.49618
 30
0.0
 11
20.55239
 21
261.79618
 31
0.0
  0
LINE
  8
0
  6
CONTINUOUS
 62
    80
  5
254
 10
23.55239
 20
263.49618
 30
0.0
 11
23.55239
 21
261.79618
 31
0.0
  0
LINE
  8
0
  6
CONTINUOUS
 62
     3
  5
255
 10
23.551424
 20
263.752783
 30
0.0
 11
24.80239
 21
263.757496
 31
0.0
  0
LINE
  8
0
  6
CONTINUOUS
 62
     3
  5
256
 10
19.30239
 20
264.238684
 30
0.0
 11
22.05239
 21
263.99809
 31
0.0
  0
LINE
  8
0
  6
CONTINUOUS
 62
     3
  5
257
 10
19.30239
 20
263.736774
 30
0.0
 11
19.30239
 21
264.238684
 31
0.0
  0
LINE
  8
0
  6
CONTINUOUS
 62
     3
  5
258
 10
23.55239
 20
263.866857
 30
0.0
 11
23.55239
 21
263.49618
 31
0.0
  0
LINE
  8
0
  6
CONTINUOUS
 62
     3
  5
259
 10
21.05239
 20
254.0
 30
0.0
 11
20.55239
 21
254.5
 31
0.0
  0
LINE
  8
0
  6
CONTINUOUS
 62
     3
  5
25A
 10
23.55239
 20
254.5
 30
0.0
 11
23.05239
 21
254.0
 31
0.0
  0
LINE
  8
0
  6
CONTINUOUS
 62
     3
  5
25B
 10
-21.650635
 20
263.747135
 30
0.0
 11
-21.65045
 21
263.747136
 31
0.0
  0
LINE
  8
0
  6
CONTINUOUS
 62
     3
  5
25C
 10
-24.400635
 20
264.238684
 30
0.0
 11
-23.150635
 21
264.243394
 31
0.0
  0
LINE
  8
0
  6
CONTINUOUS
 62
     3
  5
25D
 10
-24.400635
 20
264.238684
 30
0.0
 11
-21.650635
 21
263.99809
 31
0.0
  0
LINE
  8
0
  6
CONTINUOUS
 62
     3
  5
25E
 10
-24.400635
 20
263.736774
 30
0.0
 11
-24.400635
 21
264.238684
 31
0.0
  0
LINE
  8
0
  6
CONTINUOUS
 62
     3
  5
25F
 10
-21.650635
 20
263.49618
 30
0.0
 11
-24.400635
 21
263.736774
 31
0.0
  0
LINE
  8
0
  6
CONTINUOUS
 62
     3
  5
260
 10
-21.650635
 20
264.5
 30
0.0
 11
-21.650635
 21
263.49618
 31
0.0
  0
LINE
  8
0
  6
CONTINUOUS
 62
     3
  5
261
 10
-18.900635
 20
264.259406
 30
0.0
 11
-21.650635
 21
264.5
 31
0.0
  0
LINE
  8
0
  6
CONTINUOUS
 62
     3
  5
262
 10
-18.900635
 20
263.757496
 30
0.0
 11
-18.900635
 21
264.259406
 31
0.0
  0
LINE
  8
0
  6
CONTINUOUS
 62
     3
  5
263
 10
-21.650635
 20
263.99809
 30
0.0
 11
-18.900635
 21
263.757496
 31
0.0
  0
ARC
  8
0
  6
CONTINUOUS
 62
     3
  5
264
 10
-25.350635
 20
264.65
 30
0.0
 40
0.15
 50
180.0
 51
270.0
  0
ARC
  8
0
  6
CONTINUOUS
 62
     3
  5
265
 10
-17.950635
 20
264.65
 30
0.0
 40
0.15
 50
270.0
 51
0.0
  0
LINE
  8
0
  6
CONTINUOUS
 62
     3
  5
266
 10
22.05239
 20
263.49618
 30
0.0
 11
19.30239
 21
263.736774
 31
0.0
  0
LINE
  8
0
  6
CONTINUOUS
 62
     3
  5
267
 10
22.05239
 20
264.5
 30
0.0
 11
22.05239
 21
263.49618
 31
0.0
  0
LINE
  8
0
  6
CONTINUOUS
 62
     3
  5
268
 10
-20.650635
 20
254.0
 30
0.0
 11
-22.650635
 21
254.0
 31
0.0
  0
LINE
  8
0
  6
CONTINUOUS
 62
     3
  5
269
 10
-23.150635
 20
254.5
 30
0.0
 11
-23.150635
 21
261.29618
 31
0.0
  0
ARC
  8
0
  6
CONTINUOUS
 62
    80
  5
26A
 10
-19.475635
 20
262.001668
 30
0.0
 40
0.705585
 50
196.931609
 51
270.952225
  0
ARC
  8
0
  6
CONTINUOUS
 62
    80
  5
26B
 10
-21.650635
 20
263.79618
 30
0.0
 40
2.5
 50
233.130102
 51
270.0
  0
ARC
  8
0
  6
CONTINUOUS
 62
    80
  5
26C
 10
-21.650635
 20
263.79618
 30
0.0
 40
2.5
 50
270.0
 51
306.869898
  0
ARC
  8
0
  6
CONTINUOUS
 62
     3
  5
26D
 10
-23.825635
 20
262.001283
 30
0.0
 40
0.705473
 50
196.901684
 51
271.857043
  0
LINE
  8
0
  6
CONTINUOUS
 62
     3
  5
26E
 10
-20.150635
 20
254.5
 30
0.0
 11
-20.650635
 21
254.0
 31
0.0
  0
LINE
  8
0
  6
CONTINUOUS
 62
     3
  5
26F
 10
-20.150635
 20
263.866857
 30
0.0
 11
-20.150635
 21
263.49618
 31
0.0
  0
LINE
  8
0
  6
CONTINUOUS
 62
    80
  5
270
 10
-23.150635
 20
263.49618
 30
0.0
 11
-23.150635
 21
261.79618
 31
0.0
  0
LINE
  8
0
  6
CONTINUOUS
 62
     3
  5
271
 10
-18.800635
 20
263.49618
 30
0.0
 11
-18.800635
 21
261.79618
 31
0.0
  0
LINE
  8
0
  6
CONTINUOUS
 62
     3
  5
272
 10
-20.151602
 20
263.752783
 30
0.0
 11
-18.900635
 21
263.757496
 31
0.0
  0
LINE
  8
0
  6
CONTINUOUS
 62
     3
  5
273
 10
-23.802774
 20
261.29618
 30
0.0
 11
-19.452774
 21
261.29618
 31
0.0
  0
LINE
  8
0
  6
CONTINUOUS
 62
     3
  5
274
 10
-22.650635
 20
254.0
 30
0.0
 11
-23.150635
 21
254.5
 31
0.0
  0
LINE
  8
0
  6
CONTINUOUS
 62
    80
  5
275
 10
-20.150635
 20
263.49618
 30
0.0
 11
-20.150635
 21
261.79618
 31
0.0
  0
ARC
  8
0
  6
CONTINUOUS
 62
    80
  5
276
 10
-23.825635
 20
262.001283
 30
0.0
 40
0.705473
 50
268.142957
 51
343.098316
  0
ARC
  8
0
  6
CONTINUOUS
 62
     3
  5
277
 10
-19.475635
 20
262.001283
 30
0.0
 40
0.705473
 50
268.142957
 51
343.098316
  0
LINE
  8
0
  6
CONTINUOUS
 62
     3
  5
278
 10
2.85
 20
263.49618
 30
0.0
 11
2.85
 21
261.79618
 31
0.0
  0
LINE
  8
0
  6
CONTINUOUS
 62
    80
  5
279
 10
-1.5
 20
263.49618
 30
0.0
 11
-1.5
 21
261.79618
 31
0.0
  0
LINE
  8
0
  6
CONTINUOUS
 62
     3
  5
27A
 10
17.05239
 20
269.0
 30
0.0
 11
17.05239
 21
265.5
 31
0.0
  0
LINE
  8
0
  6
CONTINUOUS
 62
     3
  5
27B
 10
17.55239
 20
265.0
 30
0.0
 11
26.55239
 21
265.0
 31
0.0
  0
LINE
  8
0
  6
CONTINUOUS
 62
     3
  5
27C
 10
-16.650635
 20
265.5
 30
0.0
 11
-16.650635
 21
269.0
 31
0.0
  0
LINE
  8
0
  6
CONTINUOUS
 62
     3
  5
27D
 10
27.05239
 20
265.5
 30
0.0
 11
27.05239
 21
269.0
 31
0.0
  0
LINE
  8
0
  6
CONTINUOUS
 62
     3
  5
27E
 10
-26.650635
 20
269.0
 30
0.0
 11
-26.650635
 21
265.5
 31
0.0
  0
LINE
  8
0
  6
CONTINUOUS
 62
     3
  5
27F
 10
-26.150635
 20
265.0
 30
0.0
 11
-17.150635
 21
265.0
 31
0.0
  0
ARC
  8
0
  6
CONTINUOUS
 62
     3
  5
280
 10
-26.150635
 20
265.5
 30
0.0
 40
0.5
 50
180.0
 51
270.0
  0
ARC
  8
0
  6
CONTINUOUS
 62
     3
  5
281
 10
-17.150635
 20
265.5
 30
0.0
 40
0.5
 50
270.0
 51
0.0
  0
ARC
  8
0
  6
CONTINUOUS
 62
     3
  5
282
 10
26.55239
 20
265.5
 30
0.0
 40
0.5
 50
270.0
 51
0.0
  0
ARC
  8
0
  6
CONTINUOUS
 62
     3
  5
283
 10
17.55239
 20
265.5
 30
0.0
 40
0.5
 50
180.0
 51
270.0
  0
LINE
  8
0
  6
CONTINUOUS
 62
     3
  5
284
 10
-24.500635
 20
263.49618
 30
0.0
 11
-18.800635
 21
263.49618
 31
0.0
  0
LINE
  8
0
  6
CONTINUOUS
 62
     3
  5
285
 10
-24.500635
 20
263.49618
 30
0.0
 11
-24.500635
 21
261.79618
 31
0.0
  0
LINE
  8
0
  6
CONTINUOUS
 62
     3
  5
286
 10
1.5
 20
263.866857
 30
0.0
 11
1.5
 21
263.49618
 31
0.0
  0
LINE
  8
0
  6
CONTINUOUS
 62
     3
  5
287
 10
1.5
 20
254.5
 30
0.0
 11
1.0
 21
254.0
 31
0.0
  0
ARC
  8
0
  6
CONTINUOUS
 62
     3
  5
288
 10
-2.175
 20
262.001283
 30
0.0
 40
0.705473
 50
196.901684
 51
271.857043
  0
ARC
  8
0
  6
CONTINUOUS
 62
    80
  5
289
 10
0.0
 20
263.79618
 30
0.0
 40
2.5
 50
270.0
 51
306.869898
  0
ARC
  8
0
  6
CONTINUOUS
 62
    80
  5
28A
 10
0.0
 20
263.79618
 30
0.0
 40
2.5
 50
233.130102
 51
270.0
  0
LINE
  8
0
  6
CONTINUOUS
 62
     3
  5
28B
 10
24.80239
 20
264.259406
 30
0.0
 11
22.05239
 21
264.5
 31
0.0
  0
LINE
  8
0
  6
CONTINUOUS
 62
     3
  5
28C
 10
-2.85
 20
263.49618
 30
0.0
 11
-2.85
 21
261.79618
 31
0.0
  0
ARC
  8
0
  6
CONTINUOUS
 62
    80
  5
28D
 10
2.175
 20
262.001668
 30
0.0
 40
0.705585
 50
196.931609
 51
270.952225
  0
LINE
  8
0
  6
CONTINUOUS
 62
     3
  5
28E
 10
-1.5
 20
254.5
 30
0.0
 11
-1.5
 21
261.29618
 31
0.0
  0
LINE
  8
0
  6
CONTINUOUS
 62
     3
  5
28F
 10
1.0
 20
254.0
 30
0.0
 11
-1.0
 21
254.0
 31
0.0
  0
LINE
  8
0
  6
CONTINUOUS
 62
     3
  5
290
 10
1.5
 20
261.29618
 30
0.0
 11
1.5
 21
254.5
 31
0.0
  0
LINE
  8
0
  6
CONTINUOUS
 62
     3
  5
291
 10
1.5
 20
264.5
 30
0.0
 11
1.5
 21
264.368767
 31
0.0
  0
LINE
  8
0
  6
CONTINUOUS
 62
     3
  5
292
 10
-1.5
 20
264.5
 30
0.0
 11
-1.5
 21
264.129323
 31
0.0
  0
LINE
  8
0
  6
CONTINUOUS
 62
     3
  5
293
 10
-3.85
 20
265.0
 30
0.0
 11
-3.85
 21
264.65
 31
0.0
  0
LINE
  8
0
  6
CONTINUOUS
 62
     3
  5
294
 10
-3.7
 20
264.5
 30
0.0
 11
3.7
 21
264.5
 31
0.0
  0
LINE
  8
0
  6
CONTINUOUS
 62
     3
  5
295
 10
3.85
 20
264.65
 30
0.0
 11
3.85
 21
265.0
 31
0.0
  0
ARC
  8
0
  6
CONTINUOUS
 62
     3
  5
296
 10
3.7
 20
264.65
 30
0.0
 40
0.15
 50
270.0
 51
0.0
  0
ARC
  8
0
  6
CONTINUOUS
 62
     3
  5
297
 10
-3.7
 20
264.65
 30
0.0
 40
0.15
 50
180.0
 51
270.0
  0
LINE
  8
0
  6
CONTINUOUS
 62
     3
  5
298
 10
0.0
 20
263.99809
 30
0.0
 11
2.75
 21
263.757496
 31
0.0
  0
LINE
  8
0
  6
CONTINUOUS
 62
     3
  5
299
 10
2.75
 20
263.757496
 30
0.0
 11
2.75
 21
264.259406
 31
0.0
  0
LINE
  8
0
  6
CONTINUOUS
 62
     3
  5
29A
 10
2.75
 20
264.259406
 30
0.0
 11
0.0
 21
264.5
 31
0.0
  0
LINE
  8
0
  6
CONTINUOUS
 62
     3
  5
29B
 10
0.0
 20
264.5
 30
0.0
 11
0.0
 21
263.49618
 31
0.0
  0
LINE
  8
0
  6
CONTINUOUS
 62
     3
  5
29C
 10
0.0
 20
263.49618
 30
0.0
 11
-2.75
 21
263.736774
 31
0.0
  0
LINE
  8
0
  6
CONTINUOUS
 62
     3
  5
29D
 10
-2.75
 20
263.736774
 30
0.0
 11
-2.75
 21
264.238684
 31
0.0
  0
LINE
  8
0
  6
CONTINUOUS
 62
     3
  5
29E
 10
-2.75
 20
264.238684
 30
0.0
 11
0.0
 21
263.99809
 31
0.0
  0
LINE
  8
0
  6
CONTINUOUS
 62
     3
  5
29F
 10
-2.75
 20
264.238684
 30
0.0
 11
-1.5
 21
264.243394
 31
0.0
  0
LINE
  8
0
  6
CONTINUOUS
 62
     3
  5
2A0
 10
0.0
 20
263.747135
 30
0.0
 11
0.000185
 21
263.747136
 31
0.0
  0
LINE
  8
0
  6
CONTINUOUS
 62
    80
  5
2A1
 10
21.05239
 20
254.0
 30
0.0
 11
21.05239
 21
261.29618
 31
0.0
  0
LINE
  8
0
  6
CONTINUOUS
 62
    80
  5
2A2
 10
23.05239
 20
254.0
 30
0.0
 11
23.05239
 21
261.29618
 31
0.0
  0
LINE
  8
0
  6
CONTINUOUS
 62
    80
  5
2A3
 10
23.55239
 20
254.5
 30
0.0
 11
20.55239
 21
254.5
 31
0.0
  0
LINE
  8
0
  6
CONTINUOUS
 62
    80
  5
2A4
 10
-1.0
 20
254.0
 30
0.0
 11
-1.0
 21
261.29618
 31
0.0
  0
LINE
  8
0
  6
CONTINUOUS
 62
    80
  5
2A5
 10
1.0
 20
254.0
 30
0.0
 11
1.0
 21
261.29618
 31
0.0
  0
LINE
  8
0
  6
CONTINUOUS
 62
    80
  5
2A6
 10
1.5
 20
254.5
 30
0.0
 11
-1.5
 21
254.5
 31
0.0
  0
LINE
  8
0
  6
CONTINUOUS
 62
    80
  5
2A7
 10
-22.650635
 20
254.0
 30
0.0
 11
-22.650635
 21
261.29618
 31
0.0
  0
LINE
  8
0
  6
CONTINUOUS
 62
    80
  5
2A8
 10
-20.650635
 20
254.0
 30
0.0
 11
-20.650635
 21
261.29618
 31
0.0
  0
LINE
  8
0
  6
CONTINUOUS
 62
    80
  5
2A9
 10
-20.150635
 20
254.5
 30
0.0
 11
-23.150635
 21
254.5
 31
0.0
  0
LINE
  8
0
  6
CONTINUOUS
 62
     3
  5
2AA
 10
-165.0
 20
129.37868
 30
0.0
 11
-235.0
 21
129.37868
 31
0.0
  0
LINE
  8
0
  6
CONTINUOUS
 62
     3
  5
2AB
 10
235.0
 20
129.37868
 30
0.0
 11
165.0
 21
129.37868
 31
0.0
  0
ARC
  8
0
  6
CONTINUOUS
 62
     3
  5
2AC
 10
200.0
 20
0.0
 30
0.0
 40
17.5
 50
0.0
 51
18.86336
  0
ARC
  8
0
  6
CONTINUOUS
 62
     3
  5
2AD
 10
200.0
 20
0.0
 30
0.0
 40
22.5
 50
0.0
 51
19.778658
  0
ARC
  8
0
  6
CONTINUOUS
 62
     3
  5
2AE
 10
200.0
 20
25.0
 30
0.0
 40
5.0
 50
113.061435
 51
216.938565
  0
ARC
  8
0
  6
CONTINUOUS
 62
     3
  5
2AF
 10
200.0
 20
0.0
 30
0.0
 40
32.75
 50
329.492535
 51
30.507465
  0
ARC
  8
0
  6
CONTINUOUS
 62
     3
  5
2B0
 10
200.0
 20
0.0
 30
0.0
 40
32.75
 50
209.492535
 51
266.060546
  0
ARC
  8
0
  6
CONTINUOUS
 62
     3
  5
2B1
 10
200.0
 20
0.0
 30
0.0
 40
22.5
 50
240.0
 51
259.778658
  0
ARC
  8
0
  6
CONTINUOUS
 62
     3
  5
2B2
 10
200.0
 20
0.0
 30
0.0
 40
17.5
 50
240.0
 51
258.86336
  0
ARC
  8
0
  6
CONTINUOUS
 62
     3
  5
2B3
 10
221.650635
 20
-12.5
 30
0.0
 40
5.0
 50
353.061435
 51
96.938565
  0
ARC
  8
0
  6
CONTINUOUS
 62
     3
  5
2B4
 10
178.349365
 20
-12.5
 30
0.0
 40
5.0
 50
233.061435
 51
336.938565
  0
CIRCLE
  8
0
  6
DASHED
 62
    80
  5
2B5
 10
212.5
 20
21.650635
 30
0.0
 40
6.25
  0
CIRCLE
  8
0
  6
DASHED
 62
    80
  5
2B6
 10
175.0
 20
0.0
 30
0.0
 40
6.75
  0
ARC
  8
0
  6
CONTINUOUS
 62
     3
  5
2B7
 10
220.0
 20
0.0
 30
0.0
 40
2.5
 50
180.0
 51
0.0
  0
ARC
  8
0
  6
CONTINUOUS
 62
     3
  5
2B8
 10
175.443485
 20
18.507838
 30
0.0
 40
2.0
 50
142.995274
 51
240.0
  0
LINE
  8
0
  6
CONTINUOUS
 62
     3
  5
2B9
 10
196.5
 20
0.0
 30
0.0
 11
191.215462
 21
3.051029
 31
0.0
  0
LINE
  8
0
  6
CONTINUOUS
 62
     3
  5
2BA
 10
198.25
 20
3.031089
 30
0.0
 11
189.328515
 21
8.181911
 31
0.0
  0
CIRCLE
  8
0
  6
CONTINUOUS
 62
     3
  5
2BB
 10
190.0
 20
17.320508
 30
0.0
 40
2.5
  0
CIRCLE
  8
0
  6
DASHED
 62
    80
  5
2BC
 10
175.0
 20
0.0
 30
0.0
 40
4.75
  0
CIRCLE
  8
0
  6
DASHED
 62
    80
  5
2BD
 10
212.5
 20
21.650635
 30
0.0
 40
4.75
  0
CIRCLE
  8
0
  6
DASHED
 62
    80
  5
2BE
 10
212.5
 20
-21.650635
 30
0.0
 40
4.75
  0
ARC
  8
0
  6
CONTINUOUS
 62
     3
  5
2BF
 10
200.0
 20
0.0
 30
0.0
 40
3.5
 50
180.0
 51
229.994799
  0
ARC
  8
0
  6
CONTINUOUS
 62
     3
  5
2C0
 10
200.0
 20
0.0
 30
0.0
 40
32.75
 50
90.0
 51
142.995274
  0
ARC
  8
0
  6
CONTINUOUS
 62
     3
  5
2C1
 10
190.0
 20
-17.320508
 30
0.0
 40
2.5
 50
60.0
 51
240.0
  0
CIRCLE
  8
0
  6
DASHED
 62
    80
  5
2C2
 10
212.5
 20
21.650635
 30
0.0
 40
6.75
  0
CIRCLE
  8
0
  6
DASHED
 62
    80
  5
2C3
 10
175.0
 20
0.0
 30
0.0
 40
6.25
  0
CIRCLE
  8
0
  6
DASHED
 62
    80
  5
2C4
 10
212.5
 20
-21.650635
 30
0.0
 40
6.25
  0
CIRCLE
  8
0
  6
DASHED
 62
    80
  5
2C5
 10
212.5
 20
-21.650635
 30
0.0
 40
6.75
  0
ARC
  8
0
  6
CONTINUOUS
 62
     3
  5
2C6
 10
200.0
 20
0.0
 30
0.0
 40
35.0
 50
85.634601
 51
154.3654
  0
ARC
  8
0
  6
CONTINUOUS
 62
     3
  5
2C7
 10
200.0
 20
0.0
 30
0.0
 40
35.0
 50
325.6346
 51
34.365399
  0
CIRCLE
  8
0
  6
CONTINUOUS
 62
     3
  5
2C8
 10
212.5
 20
21.650635
 30
0.0
 40
16.5
  0
CIRCLE
  8
0
  6
CONTINUOUS
 62
     3
  5
2C9
 10
212.5
 20
-21.650635
 30
0.0
 40
16.5
  0
ARC
  8
0
  6
CONTINUOUS
 62
     3
  5
2CA
 10
200.0
 20
0.0
 30
0.0
 40
35.0
 50
205.634601
 51
266.314158
  0
CIRCLE
  8
0
  6
CONTINUOUS
 62
     3
  5
2CB
 10
175.0
 20
0.0
 30
0.0
 40
16.5
  0
LINE
  8
0
  6
CONTINUOUS
 62
     3
  5
2CC
 10
204.5
 20
119.0
 30
0.0
 11
204.5
 21
117.5
 31
0.0
  0
LINE
  8
0
  6
CONTINUOUS
 62
     3
  5
2CD
 10
204.5
 20
117.5
 30
0.0
 11
220.5
 21
117.5
 31
0.0
  0
LINE
  8
0
  6
CONTINUOUS
 62
     3
  5
2CE
 10
220.5
 20
117.5
 30
0.0
 11
220.5
 21
119.0
 31
0.0
  0
LINE
  8
0
  6
CONTINUOUS
 62
     3
  5
2CF
 10
204.5
 20
117.5
 30
0.0
 11
196.0
 21
112.0
 31
0.0
  0
LINE
  8
0
  6
CONTINUOUS
 62
     3
  5
2D0
 10
196.0
 20
112.0
 30
0.0
 11
229.0
 21
112.0
 31
0.0
  0
LINE
  8
0
  6
CONTINUOUS
 62
     3
  5
2D1
 10
229.0
 20
112.0
 30
0.0
 11
220.5
 21
117.5
 31
0.0
  0
LINE
  8
0
  6
CONTINUOUS
 62
     3
  5
2D2
 10
191.5
 20
112.0
 30
0.0
 11
183.0
 21
117.5
 31
0.0
  0
LINE
  8
0
  6
CONTINUOUS
 62
     3
  5
2D3
 10
158.5
 20
112.0
 30
0.0
 11
191.5
 21
112.0
 31
0.0
  0
LINE
  8
0
  6
CONTINUOUS
 62
     3
  5
2D4
 10
167.0
 20
117.5
 30
0.0
 11
158.5
 21
112.0
 31
0.0
  0
LINE
  8
0
  6
CONTINUOUS
 62
     3
  5
2D5
 10
183.0
 20
117.5
 30
0.0
 11
183.0
 21
119.0
 31
0.0
  0
LINE
  8
0
  6
CONTINUOUS
 62
     3
  5
2D6
 10
167.0
 20
117.5
 30
0.0
 11
183.0
 21
117.5
 31
0.0
  0
LINE
  8
0
  6
CONTINUOUS
 62
     3
  5
2D7
 10
167.0
 20
119.0
 30
0.0
 11
167.0
 21
117.5
 31
0.0
  0
LINE
  8
0
  6
CONTINUOUS
 62
     3
  5
2D8
 10
166.0
 20
119.0
 30
0.0
 11
234.0
 21
119.0
 31
0.0
  0
ARC
  8
0
  6
CONTINUOUS
 62
     3
  5
2D9
 10
166.0
 20
120.0
 30
0.0
 40
1.0
 50
180.0
 51
270.0
  0
ARC
  8
0
  6
CONTINUOUS
 62
     3
  5
2DA
 10
234.0
 20
120.0
 30
0.0
 40
1.0
 50
270.0
 51
0.0
  0
LINE
  8
0
  6
CONTINUOUS
 62
     3
  5
2DB
 10
165.0
 20
120.0
 30
0.0
 11
165.0
 21
129.37868
 31
0.0
  0
LINE
  8
0
  6
CONTINUOUS
 62
     3
  5
2DC
 10
235.0
 20
120.0
 30
0.0
 11
235.0
 21
129.37868
 31
0.0
  0
ARC
  8
0
  6
CONTINUOUS
 62
     3
  5
2DD
 10
-200.0
 20
0.0
 30
0.0
 40
32.75
 50
237.724985
 51
266.060546
  0
ARC
  8
0
  6
CONTINUOUS
 62
    80
  5
2DE
 10
-187.5
 20
21.650635
 30
0.0
 40
6.25
 50
269.877081
 51
60.122919
  0
CIRCLE
  8
0
  6
CONTINUOUS
 62
    80
  5
2DF
 10
-178.349365
 20
-12.5
 30
0.0
 40
14.25
  0
ARC
  8
0
  6
CONTINUOUS
 62
     3
  5
2E0
 10
-200.0
 20
0.0
 30
0.0
 40
32.75
 50
357.724985
 51
62.275015
  0
CIRCLE
  8
0
  6
CONTINUOUS
 62
     3
  5
2E1
 10
-221.650635
 20
-12.5
 30
0.0
 40
5.0
  0
LINE
  8
0
  6
CONTINUOUS
 62
     3
  5
2E2
 10
-203.5
 20
25.0
 30
0.0
 11
-201.75
 21
21.968911
 31
0.0
  0
ARC
  8
0
  6
CONTINUOUS
 62
     3
  5
2E3
 10
-200.0
 20
0.0
 30
0.0
 40
32.75
 50
157.004726
 51
182.275015
  0
CIRCLE
  8
0
  6
CONTINUOUS
 62
     3
  5
2E4
 10
-178.349365
 20
-12.5
 30
0.0
 40
5.0
  0
ARC
  8
0
  6
CONTINUOUS
 62
    80
  5
2E5
 10
-187.5
 20
-21.650635
 30
0.0
 40
6.25
 50
149.877081
 51
300.122919
  0
ARC
  8
0
  6
CONTINUOUS
 62
     3
  5
2E6
 10
-187.5
 20
-21.650635
 30
0.0
 40
6.75
 50
146.567482
 51
303.432518
  0
LINE
  8
0
  6
CONTINUOUS
 62
     3
  5
2E7
 10
-201.75
 20
28.031089
 30
0.0
 11
-203.5
 21
25.0
 31
0.0
  0
LINE
  8
0
  6
CONTINUOUS
 62
     3
  5
2E8
 10
-198.25
 20
28.031089
 30
0.0
 11
-201.75
 21
28.031089
 31
0.0
  0
CIRCLE
  8
0
  6
CONTINUOUS
 62
    80
  5
2E9
 10
-200.0
 20
25.0
 30
0.0
 40
14.75
  0
LINE
  8
0
  6
CONTINUOUS
 62
     3
  5
2EA
 10
-198.25
 20
21.968911
 30
0.0
 11
-196.5
 21
25.0
 31
0.0
  0
LINE
  8
0
  6
CONTINUOUS
 62
     3
  5
2EB
 10
-223.400635
 20
-9.468911
 30
0.0
 11
-225.150635
 21
-12.5
 31
0.0
  0
LINE
  8
0
  6
CONTINUOUS
 62
     3
  5
2EC
 10
-219.900635
 20
-9.468911
 30
0.0
 11
-223.400635
 21
-9.468911
 31
0.0
  0
CIRCLE
  8
0
  6
CONTINUOUS
 62
     3
  5
2ED
 10
-200.0
 20
25.0
 30
0.0
 40
1.5
  0
LINE
  8
0
  6
CONTINUOUS
 62
     3
  5
2EE
 10
-196.088243
 20
-20.835557
 30
0.0
 11
-193.92707
 21
-19.587803
 31
0.0
  0
LINE
  8
0
  6
CONTINUOUS
 62
     3
  5
2EF
 10
-188.92707
 20
-28.248057
 30
0.0
 11
-193.660254
 21
-30.980762
 31
0.0
  0
LINE
  8
0
  6
CONTINUOUS
 62
     3
  5
2F0
 10
-220.0
 20
4.534589
 30
0.0
 11
-220.0
 21
9.526279
 31
0.0
  0
LINE
  8
0
  6
CONTINUOUS
 62
     3
  5
2F1
 10
-230.0
 20
10.0
 30
0.0
 11
-230.0
 21
4.534589
 31
0.0
  0
LINE
  8
0
  6
CONTINUOUS
 62
     3
  5
2F2
 10
-196.5
 20
25.0
 30
0.0
 11
-198.25
 21
28.031089
 31
0.0
  0
ARC
  8
0
  6
CONTINUOUS
 62
     3
  5
2F3
 10
-225.0
 20
10.0
 30
0.0
 40
5.0
 50
127.044017
 51
180.0
  0
ARC
  8
0
  6
CONTINUOUS
 62
     3
  5
2F4
 10
-178.839746
 20
16.650635
 30
0.0
 40
5.0
 50
267.730698
 51
60.0
  0
ARC
  8
0
  6
CONTINUOUS
 62
     3
  5
2F5
 10
-225.0
 20
0.0
 30
0.0
 40
6.75
 50
26.567482
 51
180.0
  0
LINE
  8
0
  6
CONTINUOUS
 62
     3
  5
2F6
 10
-201.75
 20
21.968911
 30
0.0
 11
-198.25
 21
21.968911
 31
0.0
  0
LINE
  8
0
  6
CONTINUOUS
 62
     3
  5
2F7
 10
-180.099365
 20
-15.531089
 30
0.0
 11
-176.599365
 21
-15.531089
 31
0.0
  0
ARC
  8
0
  6
CONTINUOUS
 62
     3
  5
2F8
 10
-196.160254
 20
-26.650635
 30
0.0
 40
5.0
 50
251.461054
 51
300.0
  0
ARC
  8
0
  6
CONTINUOUS
 62
     3
  5
2F9
 10
-182.679492
 20
10.0
 30
0.0
 40
4.0
 50
334.337215
 51
256.690619
  0
ARC
  8
0
  6
CONTINUOUS
 62
     3
  5
2FA
 10
-200.0
 20
0.0
 30
0.0
 40
22.5
 50
8.274183
 51
21.558657
  0
ARC
  8
0
  6
CONTINUOUS
 62
     3
  5
2FB
 10
-200.0
 20
0.0
 30
0.0
 40
17.5
 50
8.667429
 51
20.425937
  0
CIRCLE
  8
0
  6
CONTINUOUS
 62
     3
  5
2FC
 10
-178.349365
 20
-12.5
 30
0.0
 40
1.5
  0
ARC
  8
0
  6
CONTINUOUS
 62
     3
  5
2FD
 10
-200.0
 20
0.0
 30
0.0
 40
22.5
 50
248.274183
 51
261.558657
  0
ARC
  8
0
  6
CONTINUOUS
 62
     3
  5
2FE
 10
-228.306515
 20
12.012647
 30
0.0
 40
2.0
 50
60.0
 51
157.004726
  0
ARC
  8
0
  6
CONTINUOUS
 62
     3
  5
2FF
 10
-224.556515
 20
18.507838
 30
0.0
 40
2.0
 50
142.995274
 51
240.0
  0
LINE
  8
0
  6
CONTINUOUS
 62
     3
  5
300
 10
-203.5
 20
0.0
 30
0.0
 11
-227.306515
 21
13.744698
 31
0.0
  0
LINE
  8
0
  6
CONTINUOUS
 62
     3
  5
301
 10
-201.75
 20
3.031089
 30
0.0
 11
-225.556515
 21
16.775787
 31
0.0
  0
LINE
  8
0
  6
CONTINUOUS
 62
     3
  5
302
 10
-181.849365
 20
-12.5
 30
0.0
 11
-180.099365
 21
-15.531089
 31
0.0
  0
CIRCLE
  8
0
  6
CONTINUOUS
 62
     3
  5
303
 10
-221.650635
 20
-12.5
 30
0.0
 40
1.5
  0
CIRCLE
  8
0
  6
CONTINUOUS
 62
    80
  5
304
 10
-221.650635
 20
-12.5
 30
0.0
 40
3.031089
  0
CIRCLE
  8
0
  6
CONTINUOUS
 62
    80
  5
305
 10
-178.349365
 20
-12.5
 30
0.0
 40
3.031089
  0
ARC
  8
0
  6
CONTINUOUS
 62
     3
  5
306
 10
-225.0
 20
0.0
 30
0.0
 40
4.75
 50
43.166591
 51
166.833409
  0
ARC
  8
0
  6
CONTINUOUS
 62
     3
  5
307
 10
-187.5
 20
21.650635
 30
0.0
 40
4.75
 50
283.166591
 51
46.833409
  0
CIRCLE
  8
0
  6
CONTINUOUS
 62
    80
  5
308
 10
-221.650635
 20
-12.5
 30
0.0
 40
14.25
  0
ARC
  8
0
  6
CONTINUOUS
 62
     3
  5
309
 10
-200.0
 20
0.0
 30
0.0
 40
3.5
 50
180.0
 51
229.994799
  0
ARC
  8
0
  6
CONTINUOUS
 62
     3
  5
30A
 10
-200.0
 20
0.0
 30
0.0
 40
32.75
 50
117.724985
 51
142.995274
  0
CIRCLE
  8
0
  6
CONTINUOUS
 62
    80
  5
30B
 10
-200.0
 20
25.0
 30
0.0
 40
3.031089
  0
LINE
  8
0
  6
CONTINUOUS
 62
     3
  5
30C
 10
-180.099365
 20
-9.468911
 30
0.0
 11
-181.849365
 21
-12.5
 31
0.0
  0
ARC
  8
0
  6
CONTINUOUS
 62
     3
  5
30D
 10
-200.0
 20
0.0
 30
0.0
 40
17.5
 50
248.667429
 51
260.425937
  0
LINE
  8
0
  6
CONTINUOUS
 62
     3
  5
30E
 10
-174.849365
 20
-12.5
 30
0.0
 11
-176.599365
 21
-9.468911
 31
0.0
  0
ARC
  8
0
  6
CONTINUOUS
 62
     3
  5
30F
 10
-200.0
 20
-20.0
 30
0.0
 40
4.0
 50
214.337215
 51
235.771134
  0
CIRCLE
  8
0
  6
CONTINUOUS
 62
    80
  5
310
 10
-200.0
 20
25.0
 30
0.0
 40
14.25
  0
LINE
  8
0
  6
CONTINUOUS
 62
     3
  5
311
 10
-176.599365
 20
-9.468911
 30
0.0
 11
-180.099365
 21
-9.468911
 31
0.0
  0
ARC
  8
0
  6
CONTINUOUS
 62
    80
  5
312
 10
-225.0
 20
0.0
 30
0.0
 40
6.25
 50
29.877081
 51
180.122919
  0
LINE
  8
0
  6
CONTINUOUS
 62
     3
  5
313
 10
-183.911757
 20
13.80546
 30
0.0
 11
-186.07293
 21
15.053213
 31
0.0
  0
LINE
  8
0
  6
CONTINUOUS
 62
     3
  5
314
 10
-181.07293
 20
23.713467
 30
0.0
 11
-176.339746
 21
20.980762
 31
0.0
  0
ARC
  8
0
  6
CONTINUOUS
 62
     3
  5
315
 10
-187.5
 20
21.650635
 30
0.0
 40
6.75
 50
266.567482
 51
63.432518
  0
LINE
  8
0
  6
CONTINUOUS
 62
     3
  5
316
 10
-176.599365
 20
-15.531089
 30
0.0
 11
-174.849365
 21
-12.5
 31
0.0
  0
LINE
  8
0
  6
CONTINUOUS
 62
     3
  5
317
 10
-218.150635
 20
-12.5
 30
0.0
 11
-219.900635
 21
-9.468911
 31
0.0
  0
CIRCLE
  8
0
  6
CONTINUOUS
 62
    80
  5
318
 10
-221.650635
 20
-12.5
 30
0.0
 40
14.75
  0
CIRCLE
  8
0
  6
CONTINUOUS
 62
    80
  5
319
 10
-178.349365
 20
-12.5
 30
0.0
 40
14.75
  0
LINE
  8
0
  6
CONTINUOUS
 62
     3
  5
31A
 10
-219.900635
 20
-15.531089
 30
0.0
 11
-218.150635
 21
-12.5
 31
0.0
  0
ARC
  8
0
  6
CONTINUOUS
 62
     3
  5
31B
 10
-200.0
 20
0.0
 30
0.0
 40
35.0
 50
353.73842
 51
66.26158
  0
LINE
  8
0
  6
CONTINUOUS
 62
     3
  5
31C
 10
-223.400635
 20
-15.531089
 30
0.0
 11
-219.900635
 21
-15.531089
 31
0.0
  0
ARC
  8
0
  6
CONTINUOUS
 62
     3
  5
31D
 10
-200.0
 20
0.0
 30
0.0
 40
35.0
 50
233.73842
 51
266.314158
  0
CIRCLE
  8
0
  6
CONTINUOUS
 62
     3
  5
31E
 10
-200.0
 20
25.0
 30
0.0
 40
5.0
  0
CIRCLE
  8
0
  6
CONTINUOUS
 62
     3
  5
31F
 10
-178.349365
 20
-12.5
 30
0.0
 40
15.75
  0
CIRCLE
  8
0
  6
CONTINUOUS
 62
     3
  5
320
 10
-221.650635
 20
-12.5
 30
0.0
 40
15.75
  0
CIRCLE
  8
0
  6
CONTINUOUS
 62
     3
  5
321
 10
-200.0
 20
25.0
 30
0.0
 40
15.75
  0
LINE
  8
0
  6
CONTINUOUS
 62
     3
  5
322
 10
-225.150635
 20
-12.5
 30
0.0
 11
-223.400635
 21
-15.531089
 31
0.0
  0
ARC
  8
0
  6
CONTINUOUS
 62
     3
  5
323
 10
-200.0
 20
0.0
 30
0.0
 40
35.0
 50
113.73842
 51
186.26158
  0
ARC
  8
0
  6
CONTINUOUS
 62
     3
  5
324
 10
-186.25
 20
113.0
 30
0.0
 40
2.0
 50
0.0
 51
90.0
  0
ARC
  8
0
  6
CONTINUOUS
 62
     3
  5
325
 10
-213.75
 20
113.0
 30
0.0
 40
2.0
 50
90.0
 51
180.0
  0
LINE
  8
0
  6
CONTINUOUS
 62
     3
  5
326
 10
-215.75
 20
110.0
 30
0.0
 11
-215.75
 21
113.0
 31
0.0
  0
ARC
  8
0
  6
CONTINUOUS
 62
     3
  5
327
 10
-164.599365
 20
113.0
 30
0.0
 40
2.0
 50
0.0
 51
90.0
  0
ARC
  8
0
  6
CONTINUOUS
 62
     3
  5
328
 10
-235.400635
 20
113.0
 30
0.0
 40
2.0
 50
90.0
 51
180.0
  0
LINE
  8
0
  6
CONTINUOUS
 62
     3
  5
329
 10
-162.599365
 20
113.0
 30
0.0
 11
-162.599365
 21
110.0
 31
0.0
  0
LINE
  8
0
  6
CONTINUOUS
 62
     3
  5
32A
 10
-237.400635
 20
110.0
 30
0.0
 11
-237.400635
 21
113.0
 31
0.0
  0
LINE
  8
0
  6
CONTINUOUS
 62
     3
  5
32B
 10
-184.25
 20
113.0
 30
0.0
 11
-184.25
 21
110.0
 31
0.0
  0
ARC
  8
0
  6
CONTINUOUS
 62
     3
  5
32C
 10
-195.5
 20
115.5
 30
0.0
 40
0.5
 50
270.0
 51
0.0
  0
ARC
  8
0
  6
CONTINUOUS
 62
     3
  5
32D
 10
-204.5
 20
115.5
 30
0.0
 40
0.5
 50
180.0
 51
270.0
  0
LINE
  8
0
  6
CONTINUOUS
 62
     3
  5
32E
 10
-183.349365
 20
119.0
 30
0.0
 11
-183.349365
 21
115.5
 31
0.0
  0
LINE
  8
0
  6
CONTINUOUS
 62
     3
  5
32F
 10
-216.650635
 20
115.5
 30
0.0
 11
-216.650635
 21
119.0
 31
0.0
  0
LINE
  8
0
  6
CONTINUOUS
 62
     3
  5
330
 10
-173.349365
 20
115.5
 30
0.0
 11
-173.349365
 21
119.0
 31
0.0
  0
LINE
  8
0
  6
CONTINUOUS
 62
     3
  5
331
 10
-226.650635
 20
119.0
 30
0.0
 11
-226.650635
 21
115.5
 31
0.0
  0
ARC
  8
0
  6
CONTINUOUS
 62
     3
  5
332
 10
-226.150635
 20
115.5
 30
0.0
 40
0.5
 50
180.0
 51
270.0
  0
ARC
  8
0
  6
CONTINUOUS
 62
     3
  5
333
 10
-217.150635
 20
115.5
 30
0.0
 40
0.5
 50
270.0
 51
0.0
  0
ARC
  8
0
  6
CONTINUOUS
 62
     3
  5
334
 10
-173.849365
 20
115.5
 30
0.0
 40
0.5
 50
270.0
 51
0.0
  0
ARC
  8
0
  6
CONTINUOUS
 62
     3
  5
335
 10
-182.849365
 20
115.5
 30
0.0
 40
0.5
 50
180.0
 51
270.0
  0
LINE
  8
0
  6
CONTINUOUS
 62
     3
  5
336
 10
-205.0
 20
119.0
 30
0.0
 11
-205.0
 21
115.5
 31
0.0
  0
LINE
  8
0
  6
CONTINUOUS
 62
     3
  5
337
 10
-195.0
 20
115.5
 30
0.0
 11
-195.0
 21
119.0
 31
0.0
  0
LINE
  8
0
  6
CONTINUOUS
 62
     3
  5
338
 10
-234.0
 20
119.0
 30
0.0
 11
-166.0
 21
119.0
 31
0.0
  0
ARC
  8
0
  6
CONTINUOUS
 62
     3
  5
339
 10
-234.0
 20
120.0
 30
0.0
 40
1.0
 50
180.0
 51
270.0
  0
ARC
  8
0
  6
CONTINUOUS
 62
     3
  5
33A
 10
-166.0
 20
120.0
 30
0.0
 40
1.0
 50
270.0
 51
0.0
  0
LINE
  8
0
  6
CONTINUOUS
 62
     3
  5
33B
 10
-235.400635
 20
115.0
 30
0.0
 11
-164.599365
 21
115.0
 31
0.0
  0
LINE
  8
0
  6
CONTINUOUS
 62
     3
  5
33C
 10
-162.599365
 20
110.0
 30
0.0
 11
-237.400635
 21
110.0
 31
0.0
  0
LINE
  8
0
  6
CONTINUOUS
 62
     3
  5
33D
 10
-235.0
 20
120.0
 30
0.0
 11
-235.0
 21
129.37868
 31
0.0
  0
LINE
  8
0
  6
CONTINUOUS
 62
     3
  5
33E
 10
-165.0
 20
120.0
 30
0.0
 11
-165.0
 21
129.37868
 31
0.0
  0
ENDSEC
  0
EOF
