  0
SECTION
  2
HEADER
  9
$ACADVER
  1
AC1009
  9
$DWGCODEPAGE
  3
dos932
  9
$INSBASE
 10
0.0
 20
0.0
 30
0.0
  9
$EXTMIN
 10
-85.0
 20
-231.245396
 30
0.0
  9
$EXTMAX
 10
85.0
 20
427.490792
 30
0.0
  9
$LIMMIN
 10
-85.0
 20
-231.245396
  9
$LIMMAX
 10
85.0
 20
427.490792
  9
$ORTHOMODE
 70
     0
  9
$REGENMODE
 70
     1
  9
$FILLMODE
 70
     1
  9
$QTEXTMODE
 70
     0
  9
$MIRRTEXT
 70
     1
  9
$DRAGMODE
 70
     2
  9
$LTSCALE
 40
1.0
  9
$OSMODE
 70
     0
  9
$ATTMODE
 70
     1
  9
$TEXTSIZE
 40
4.1656
  9
$TRACEWID
 40
0.05
  9
$TEXTSTYLE
  7
MX_NOTE_STANDARD
  9
$CLAYER
  8
0
  9
$CELTYPE
  6
CONTINUOUS
  9
$CECOLOR
 62
   256
  9
$DIMSCALE
 40
1.0
  9
$DIMASZ
 40
2.5
  9
$DIMEXO
 40
0.5
  9
$DIMDLI
 40
3.75
  9
$DIMRND
 40
0.0
  9
$DIMDLE
 40
0.0
  9
$DIMEXE
 40
1.0
  9
$DIMTP
 40
0.0
  9
$DIMTM
 40
0.0
  9
$DIMTXT
 40
2.5
  9
$DIMCEN
 40
2.5
  9
$DIMTSZ
 40
0.0
  9
$DIMTOL
 70
     0
  9
$DIMLIM
 70
     0
  9
$DIMTIH
 70
     0
  9
$DIMTOH
 70
     0
  9
$DIMSE1
 70
     0
  9
$DIMSE2
 70
     0
  9
$DIMTAD
 70
     1
  9
$DIMZIN
 70
     8
  9
$DIMBLK
  1

  9
$DIMASO
 70
     1
  9
$DIMSHO
 70
     1
  9
$DIMPOST
  1

  9
$DIMAPOST
  1

  9
$DIMALT
 70
     0
  9
$DIMALTD
 70
     4
  9
$DIMALTF
 40
0.03937
  9
$DIMLFAC
 40
1.0
  9
$DIMTOFL
 70
     1
  9
$DIMTVP
 40
0.0
  9
$DIMTIX
 70
     0
  9
$DIMSOXD
 70
     0
  9
$DIMSAH
 70
     0
  9
$DIMBLK1
  1

  9
$DIMBLK2
  1

  9
$DIMSTYLE
  2
MXDIMSTYLE
  9
$DIMCLRD
 70
     0
  9
$DIMCLRE
 70
     0
  9
$DIMCLRT
 70
     0
  9
$DIMTFAC
 40
1.0
  9
$DIMGAP
 40
1.0
  9
$LUNITS
 70
     2
  9
$LUPREC
 70
     4
  9
$AXISMODE
 70
     0
  9
$AXISUNIT
 10
0.0
 20
0.0
  9
$SKETCHINC
 40
0.1
  9
$FILLETRAD
 40
0.0
  9
$AUNITS
 70
     0
  9
$AUPREC
 70
     0
  9
$MENU
  1
acad
  9
$ELEVATION
 40
0.0
  9
$PELEVATION
 40
0.0
  9
$THICKNESS
 40
0.0
  9
$LIMCHECK
 70
     0
  9
$BLIPMODE
 70
     1
  9
$CHAMFERA
 40
0.0
  9
$CHAMFERB
 40
0.0
  9
$SKPOLY
 70
     0
  9
$TDCREATE
 40
2453858.567291667
  9
$TDUPDATE
 40
2453858.567291667
  9
$TDINDWG
 40
0.0000000000
  9
$TDUSRTIMER
 40
0.0000000000
  9
$USRTIMER
 70
     1
  9
$ANGBASE
 50
0.0
  9
$ANGDIR
 70
     0
  9
$PDMODE
 70
     0
  9
$PDSIZE
 40
0.0
  9
$PLINEWID
 40
0.0
  9
$COORDS
 70
     1
  9
$SPLFRAME
 70
     0
  9
$SPLINETYPE
 70
     6
  9
$SPLINESEGS
 70
     8
  9
$ATTDIA
 70
     0
  9
$ATTREQ
 70
     1
  9
$HANDLING
 70
     1
  9
$HANDSEED
  5
24D
  9
$SURFTAB1
 70
     6
  9
$SURFTAB2
 70
     6
  9
$SURFTYPE
 70
     6
  9
$SURFU
 70
     6
  9
$SURFV
 70
     6
  9
$UCSNAME
  2

  9
$UCSORG
 10
0.0
 20
0.0
 30
0.0
  9
$UCSXDIR
 10
1.0
 20
0.0
 30
0.0
  9
$UCSYDIR
 10
0.0
 20
1.0
 30
0.0
  9
$PUCSNAME
  2

  9
$PUCSORG
 10
0.0
 20
0.0
 30
0.0
  9
$PUCSXDIR
 10
1.0
 20
0.0
 30
0.0
  9
$PUCSYDIR
 10
0.0
 20
1.0
 30
0.0
  9
$USERI1
 70
     0
  9
$USERI2
 70
     0
  9
$USERI3
 70
     0
  9
$USERI4
 70
     0
  9
$USERI5
 70
     0
  9
$USERR1
 40
0.0
  9
$USERR2
 40
0.0
  9
$USERR3
 40
0.0
  9
$USERR4
 40
0.0
  9
$USERR5
 40
0.0
  9
$WORLDVIEW
 70
     1
  9
$SHADEDGE
 70
     3
  9
$SHADEDIF
 70
    70
  9
$TILEMODE
 70
     1
  9
$MAXACTVP
 70
    16
  9
$PINSBASE
 10
0.0
 20
0.0
 30
0.0
  9
$PLIMCHECK
 70
     0
  9
$PEXTMIN
 10
1.000000E+20
 20
1.000000E+20
 30
1.000000E+20
  9
$PEXTMAX
 10
-1.000000E+20
 20
-1.000000E+20
 30
-1.000000E+20
  9
$PLIMMIN
 10
0.0
 20
0.0
  9
$PLIMMAX
 10
12.0
 20
9.0
  9
$UNITMODE
 70
     0
  9
$VISRETAIN
 70
     0
  9
$PLINEGEN
 70
     1
  9
$PSLTSCALE
 70
     0
  9
$TREEDEPTH
 70
  3020
  9
$DWGCODEPAGE
  3
dos932
  0
ENDSEC
  0
SECTION
  2
TABLES
  0
TABLE
  2
VPORT
 70
     1
  0
VPORT
  2
*ACTIVE
 70
     0
 10
0.0
 20
0.0
 11
1.0
 21
1.0
 12
0.0
 22
98.122698
 13
0.0
 23
0.0
 14
1.0
 24
1.0
 15
0.0
 25
0.0
 16
0.0
 26
0.0
 36
1.0
 17
0.0
 27
0.0
 37
0.0
 40
665.32355
 41
1.732051
 42
50.0
 43
0.0
 44
0.0
 50
0.0
 51
0.0
 71
     0
 72
   100
 73
     1
 74
     1
 75
     0
 76
     0
 77
     0
 78
     0
  0
ENDTAB
  0
TABLE
  2
LTYPE
 70
     1
  0
LTYPE
  2
CONTINUOUS
 70
    64
  3
Solid line
 72
    65
 73
     0
 40
0.0
  0
ENDTAB
  0
TABLE
  2
LAYER
 70
     5
  0
LAYER
  2
0
 70
     0
 62
     7
  6
CONTINUOUS
  0
LAYER
  2
1
 70
     0
 62
     7
  6
CONTINUOUS
  0
LAYER
  2
30
 70
     0
 62
     7
  6
CONTINUOUS
  0
LAYER
  2
_CONSTR
 70
     0
 62
     5
  6
CONTINUOUS
  0
LAYER
  2
DEFPOINTS
 70
     0
 62
     7
  6
CONTINUOUS
  0
ENDTAB
  0
TABLE
  2
STYLE
 70
     1
  0
STYLE
  2
MX_NOTE_STANDARD
 70
     0
 40
0.0
 41
1.0
 50
0.0
 71
     0
 42
4.1656
  3
txt.shx
  4
extfont.shx
  0
ENDTAB
  0
TABLE
  2
VIEW
 70
     0
  0
ENDTAB
  0
TABLE
  2
UCS
 70
     0
  0
ENDTAB
  0
TABLE
  2
APPID
 70
     1
  0
APPID
  2
ACAD
 70
     0
  0
ENDTAB
  0
TABLE
  2
DIMSTYLE
 70
     1
  0
DIMSTYLE
  2
MXDIMSTYLE
 70
     0
  3

  4

  5

  6

  7

 40
1.0
 41
2.5
 42
0.5
 43
3.75
 44
1.0
 45
0.0
 46
0.0
 47
0.0
 48
0.0
 71
     0
 72
     0
 73
     0
 74
     0
 75
     0
 76
     0
 77
     1
 78
     8
140
2.5
141
2.5
142
0.0
143
0.03937
144
1.0
145
0.0
146
1.0
147
1.0
170
     0
171
     4
172
     1
173
     0
174
     0
175
     0
176
     0
177
     0
178
     0
  0
ENDTAB
  0
ENDSEC
  0
SECTION
  2
BLOCKS
  0
BLOCK
  8
0
  5
24
  2
MS_1
 70
     0
 10
0.0
 20
0.0
 30
0.0
  3
MS_1
  0
ARC
  8
0
  6
CONTINUOUS
 62
     3
  5
25
 10
-20.490637
 20
106.400253
 30
0.0
 40
25.105342
 50
261.964565
 51
299.836658
  0
ARC
  8
0
  6
CONTINUOUS
 62
     3
  5
26
 10
0.0
 20
107.248203
 30
0.0
 40
23.998203
 50
250.527263
 51
289.472737
  0
ARC
  8
0
  6
CONTINUOUS
 62
     3
  5
27
 10
20.490637
 20
106.400253
 30
0.0
 40
25.105342
 50
240.163342
 51
278.035435
  0
CIRCLE
  8
0
  6
CONTINUOUS
 62
     3
  5
28
 10
0.0
 20
0.0
 30
0.0
 40
78.0
  0
ARC
  8
0
  6
CONTINUOUS
 62
     3
  5
29
 10
81.900004
 20
-70.945539
 30
0.0
 40
25.105342
 50
120.163342
 51
158.035435
  0
ARC
  8
0
  6
CONTINUOUS
 62
     3
  5
2A
 10
92.879669
 20
-53.624102
 30
0.0
 40
23.998203
 50
130.527263
 51
169.472737
  0
ARC
  8
0
  6
CONTINUOUS
 62
     3
  5
2B
 10
102.390641
 20
-35.454714
 30
0.0
 40
25.105342
 50
141.964565
 51
179.836658
  0
ARC
  8
0
  6
CONTINUOUS
 62
     3
  5
2C
 10
-81.900004
 20
-70.945539
 30
0.0
 40
25.105342
 50
21.964565
 51
59.836658
  0
ARC
  8
0
  6
CONTINUOUS
 62
     3
  5
2D
 10
-92.879669
 20
-53.624102
 30
0.0
 40
23.998203
 50
10.527263
 51
49.472737
  0
ARC
  8
0
  6
CONTINUOUS
 62
     3
  5
2E
 10
-102.390641
 20
-35.454714
 30
0.0
 40
25.105342
 50
0.163342
 51
38.035435
  0
CIRCLE
  8
0
  6
CONTINUOUS
 62
     3
  5
2F
 10
0.0
 20
0.0
 30
0.0
 40
85.0
  0
ENDBLK
  8
0
  5
30
  0
BLOCK
  8
0
  5
31
  2
MS_2
 70
     0
 10
0.0
 20
0.0
 30
0.0
  3
MS_2
  0
ARC
  8
0
  6
CONTINUOUS
 62
     3
  5
32
 10
472.906778
 20
70.0
 30
0.0
 40
550.906778
 50
169.087105
 51
180.0
  0
LINE
  8
0
  6
CONTINUOUS
 62
     3
  5
33
 10
-78.0
 20
70.0
 30
0.0
 11
-85.0
 21
65.733333
 31
0.0
  0
LINE
  8
0
  6
CONTINUOUS
 62
     3
  5
34
 10
-51.95704
 20
-11.5
 30
0.0
 11
-51.95704
 21
-15.0
 31
0.0
  0
LINE
  8
0
  6
CONTINUOUS
 62
     3
  5
35
 10
51.966008
 20
-11.5
 30
0.0
 11
51.966008
 21
-15.0
 31
0.0
  0
LINE
  8
0
  6
CONTINUOUS
 62
     3
  5
36
 10
0.0
 20
-15.0
 30
0.0
 11
0.0
 21
-11.5
 31
0.0
  0
LINE
  8
0
  6
CONTINUOUS
 62
     3
  5
37
 10
78.0
 20
70.0
 30
0.0
 11
85.0
 21
65.733333
 31
0.0
  0
ARC
  8
0
  6
CONTINUOUS
 62
     3
  5
38
 10
-472.906778
 20
70.0
 30
0.0
 40
550.906778
 50
0.0
 51
10.912895
  0
ARC
  8
0
  6
CONTINUOUS
 62
     3
  5
39
 10
-40.543821
 20
168.99485
 30
0.0
 40
28.0
 50
98.478141
 51
169.539579
  0
LINE
  8
0
  6
CONTINUOUS
 62
     3
  5
3A
 10
77.950106
 20
5.2
 30
0.0
 11
68.327833
 21
5.2
 31
0.0
  0
LINE
  8
0
  6
CONTINUOUS
 62
     3
  5
3B
 10
83.576667
 20
5.2
 30
0.0
 11
83.576667
 21
65.733333
 31
0.0
  0
LINE
  8
0
  6
CONTINUOUS
 62
     3
  5
3C
 10
77.950106
 20
5.2
 30
0.0
 11
83.576667
 21
5.2
 31
0.0
  0
LINE
  8
0
  6
CONTINUOUS
 62
     3
  5
3D
 10
77.950106
 20
65.733333
 30
0.0
 11
77.950106
 21
5.2
 31
0.0
  0
LINE
  8
0
  6
CONTINUOUS
 62
     3
  5
3E
 10
68.327833
 20
5.2
 30
0.0
 11
68.327833
 21
65.733333
 31
0.0
  0
LINE
  8
0
  6
CONTINUOUS
 62
     3
  5
3F
 10
55.203084
 20
5.2
 30
0.0
 11
68.327833
 21
5.2
 31
0.0
  0
LINE
  8
0
  6
CONTINUOUS
 62
     3
  5
40
 10
55.203084
 20
65.733333
 30
0.0
 11
55.203084
 21
5.2
 31
0.0
  0
LINE
  8
0
  6
CONTINUOUS
 62
     3
  5
41
 10
-83.576667
 20
5.2
 30
0.0
 11
-83.576667
 21
65.733333
 31
0.0
  0
LINE
  8
0
  6
CONTINUOUS
 62
     3
  5
42
 10
-77.950106
 20
5.2
 30
0.0
 11
-77.950106
 21
65.733333
 31
0.0
  0
LINE
  8
0
  6
CONTINUOUS
 62
     3
  5
43
 10
-68.327833
 20
5.2
 30
0.0
 11
-83.576667
 21
5.2
 31
0.0
  0
LINE
  8
0
  6
CONTINUOUS
 62
     3
  5
44
 10
-68.327833
 20
5.2
 30
0.0
 11
-68.327833
 21
65.733333
 31
0.0
  0
LINE
  8
0
  6
CONTINUOUS
 62
     3
  5
45
 10
-55.387393
 20
5.2
 30
0.0
 11
-68.327833
 21
5.2
 31
0.0
  0
LINE
  8
0
  6
CONTINUOUS
 62
     3
  5
46
 10
-55.387393
 20
65.733333
 30
0.0
 11
-55.387393
 21
5.2
 31
0.0
  0
LINE
  8
0
  6
CONTINUOUS
 62
    80
  5
47
 10
-4.0
 20
-29.0
 30
0.0
 11
4.0
 21
-29.0
 31
0.0
  0
LINE
  8
0
  6
CONTINUOUS
 62
    80
  5
48
 10
3.0
 20
-30.0
 30
0.0
 11
3.0
 21
-21.5
 31
0.0
  0
LINE
  8
0
  6
CONTINUOUS
 62
    80
  5
49
 10
-3.0
 20
-21.5
 30
0.0
 11
-3.0
 21
-30.0
 31
0.0
  0
LINE
  8
0
  6
CONTINUOUS
 62
     3
  5
4A
 10
-4.0
 20
-29.0
 30
0.0
 11
-3.0
 21
-30.0
 31
0.0
  0
LINE
  8
0
  6
CONTINUOUS
 62
     3
  5
4B
 10
3.0
 20
-30.0
 30
0.0
 11
4.0
 21
-29.0
 31
0.0
  0
LINE
  8
0
  6
CONTINUOUS
 62
     3
  5
4C
 10
-78.0
 20
70.0
 30
0.0
 11
78.0
 21
70.0
 31
0.0
  0
LINE
  8
0
  6
CONTINUOUS
 62
     3
  5
4D
 10
85.0
 20
65.733333
 30
0.0
 11
85.0
 21
0.0
 31
0.0
  0
ARC
  8
0
  6
CONTINUOUS
 62
     3
  5
4E
 10
40.543821
 20
168.99485
 30
0.0
 40
28.0
 50
10.460421
 51
81.521859
  0
ARC
  8
0
  6
CONTINUOUS
 62
     3
  5
4F
 10
0.0
 20
-103.0
 30
0.0
 40
303.0
 50
81.521859
 51
90.0
  0
LINE
  8
0
  6
CONTINUOUS
 62
     3
  5
50
 10
-49.289413
 20
19.4
 30
0.0
 11
-49.289413
 21
0.0
 31
0.0
  0
ARC
  8
0
  6
CONTINUOUS
 62
     3
  5
51
 10
-60.958301
 20
-0.488341
 30
0.0
 40
23.058817
 50
2.207866
 51
59.598998
  0
LINE
  8
0
  6
CONTINUOUS
 62
     3
  5
52
 10
-11.0
 20
-10.0
 30
0.0
 11
-11.0
 21
-11.5
 31
0.0
  0
LINE
  8
0
  6
CONTINUOUS
 62
     3
  5
53
 10
-11.0
 20
-11.5
 30
0.0
 11
11.0
 21
-11.5
 31
0.0
  0
LINE
  8
0
  6
CONTINUOUS
 62
     3
  5
54
 10
11.0
 20
-11.5
 30
0.0
 11
11.0
 21
-10.0
 31
0.0
  0
LINE
  8
0
  6
CONTINUOUS
 62
     3
  5
55
 10
-11.5
 20
0.0
 30
0.0
 11
-11.5
 21
-10.0
 31
0.0
  0
LINE
  8
0
  6
CONTINUOUS
 62
     3
  5
56
 10
-7.5
 20
-11.5
 30
0.0
 11
-7.5
 21
-13.5
 31
0.0
  0
LINE
  8
0
  6
CONTINUOUS
 62
     3
  5
57
 10
-7.5
 20
-13.5
 30
0.0
 11
0.0
 21
-15.0
 31
0.0
  0
LINE
  8
0
  6
CONTINUOUS
 62
     3
  5
58
 10
0.0
 20
-13.0
 30
0.0
 11
-7.5
 21
-11.5
 31
0.0
  0
LINE
  8
0
  6
CONTINUOUS
 62
     3
  5
59
 10
0.0
 20
-13.5
 30
0.0
 11
7.5
 21
-15.0
 31
0.0
  0
LINE
  8
0
  6
CONTINUOUS
 62
     3
  5
5A
 10
7.5
 20
-15.0
 30
0.0
 11
7.5
 21
-13.0
 31
0.0
  0
LINE
  8
0
  6
CONTINUOUS
 62
     3
  5
5B
 10
7.5
 20
-13.0
 30
0.0
 11
0.0
 21
-11.5
 31
0.0
  0
LINE
  8
0
  6
CONTINUOUS
 62
     3
  5
5C
 10
-7.25
 20
-15.715036
 30
0.0
 11
-7.25
 21
-20.784964
 31
0.0
  0
LINE
  8
0
  6
CONTINUOUS
 62
     3
  5
5D
 10
-6.011522
 20
-21.5
 30
0.0
 11
6.011522
 21
-21.5
 31
0.0
  0
LINE
  8
0
  6
CONTINUOUS
 62
     3
  5
5E
 10
7.25
 20
-20.784964
 30
0.0
 11
7.25
 21
-15.715036
 31
0.0
  0
LINE
  8
0
  6
CONTINUOUS
 62
     3
  5
5F
 10
6.011522
 20
-15.0
 30
0.0
 11
-6.011522
 21
-15.0
 31
0.0
  0
ARC
  8
0
  6
CONTINUOUS
 62
    80
  5
60
 10
5.4375
 20
-17.142279
 30
0.0
 40
2.142279
 50
32.214144
 51
147.785856
  0
ARC
  8
0
  6
CONTINUOUS
 62
    80
  5
61
 10
0.0
 20
-22.068723
 30
0.0
 40
7.068723
 50
59.147984
 51
120.852016
  0
ARC
  8
0
  6
CONTINUOUS
 62
    80
  5
62
 10
0.0
 20
-14.431277
 30
0.0
 40
7.068723
 50
239.147984
 51
300.852016
  0
ARC
  8
0
  6
CONTINUOUS
 62
    80
  5
63
 10
-5.4375
 20
-17.142279
 30
0.0
 40
2.142279
 50
32.214144
 51
147.785856
  0
LINE
  8
0
  6
CONTINUOUS
 62
     3
  5
64
 10
51.260687
 20
19.4
 30
0.0
 11
51.260687
 21
0.0
 31
0.0
  0
LINE
  8
0
  6
CONTINUOUS
 62
     3
  5
65
 10
-51.260687
 20
19.4
 30
0.0
 11
-51.260687
 21
0.0
 31
0.0
  0
LINE
  8
0
  6
CONTINUOUS
 62
     3
  5
66
 10
49.289413
 20
19.4
 30
0.0
 11
49.289413
 21
0.0
 31
0.0
  0
ARC
  8
0
  6
CONTINUOUS
 62
     3
  5
67
 10
60.958301
 20
-0.488341
 30
0.0
 40
23.058817
 50
120.401002
 51
177.792134
  0
LINE
  8
0
  6
CONTINUOUS
 62
     3
  5
68
 10
-51.260687
 20
19.4
 30
0.0
 11
51.260687
 21
19.4
 31
0.0
  0
LINE
  8
0
  6
CONTINUOUS
 62
     3
  5
69
 10
55.966008
 20
-15.0
 30
0.0
 11
55.966008
 21
-14.3
 31
0.0
  0
LINE
  8
0
  6
CONTINUOUS
 62
     3
  5
6A
 10
55.966008
 20
-12.3
 30
0.0
 11
55.966008
 21
-11.5
 31
0.0
  0
LINE
  8
0
  6
CONTINUOUS
 62
     3
  5
6B
 10
47.966008
 20
-12.2
 30
0.0
 11
47.966008
 21
-11.5
 31
0.0
  0
LINE
  8
0
  6
CONTINUOUS
 62
     3
  5
6C
 10
47.966008
 20
-15.0
 30
0.0
 11
47.966008
 21
-14.2
 31
0.0
  0
LINE
  8
0
  6
CONTINUOUS
 62
     3
  5
6D
 10
55.966008
 20
-29.0
 30
0.0
 11
55.966008
 21
-21.5
 31
0.0
  0
LINE
  8
0
  6
CONTINUOUS
 62
     3
  5
6E
 10
48.966008
 20
-30.0
 30
0.0
 11
54.966008
 21
-30.0
 31
0.0
  0
LINE
  8
0
  6
CONTINUOUS
 62
     3
  5
6F
 10
47.966008
 20
-21.5
 30
0.0
 11
47.966008
 21
-29.0
 31
0.0
  0
LINE
  8
0
  6
CONTINUOUS
 62
     3
  5
70
 10
45.954486
 20
-15.0
 30
0.0
 11
44.716008
 21
-15.715036
 31
0.0
  0
LINE
  8
0
  6
CONTINUOUS
 62
     3
  5
71
 10
59.216008
 20
-15.715036
 30
0.0
 11
57.97753
 21
-15.0
 31
0.0
  0
LINE
  8
0
  6
CONTINUOUS
 62
     3
  5
72
 10
57.97753
 20
-21.5
 30
0.0
 11
59.216008
 21
-20.784964
 31
0.0
  0
LINE
  8
0
  6
CONTINUOUS
 62
     3
  5
73
 10
44.716008
 20
-20.784964
 30
0.0
 11
45.954486
 21
-21.5
 31
0.0
  0
LINE
  8
0
  6
CONTINUOUS
 62
    80
  5
74
 10
55.591008
 20
-16.000262
 30
0.0
 11
55.591008
 21
-20.499738
 31
0.0
  0
LINE
  8
0
  6
CONTINUOUS
 62
     3
  5
75
 10
-85.0
 20
65.733333
 30
0.0
 11
85.0
 21
65.733333
 31
0.0
  0
LINE
  8
0
  6
CONTINUOUS
 62
     3
  5
76
 10
-85.0
 20
0.0
 30
0.0
 11
85.0
 21
0.0
 31
0.0
  0
LINE
  8
0
  6
CONTINUOUS
 62
    80
  5
77
 10
48.341008
 20
-16.000262
 30
0.0
 11
48.341008
 21
-20.499738
 31
0.0
  0
ARC
  8
0
  6
CONTINUOUS
 62
    80
  5
78
 10
57.403508
 20
-19.357721
 30
0.0
 40
2.142279
 50
212.214144
 51
327.785856
  0
ARC
  8
0
  6
CONTINUOUS
 62
    80
  5
79
 10
46.528508
 20
-19.357721
 30
0.0
 40
2.142279
 50
212.214144
 51
327.785856
  0
ARC
  8
0
  6
CONTINUOUS
 62
    80
  5
7A
 10
46.528508
 20
-17.142279
 30
0.0
 40
2.142279
 50
32.214144
 51
147.785856
  0
ARC
  8
0
  6
CONTINUOUS
 62
    80
  5
7B
 10
51.966008
 20
-14.431277
 30
0.0
 40
7.068723
 50
239.147984
 51
300.852016
  0
LINE
  8
0
  6
CONTINUOUS
 62
     3
  5
7C
 10
63.466008
 20
0.0
 30
0.0
 11
63.466008
 21
-10.0
 31
0.0
  0
LINE
  8
0
  6
CONTINUOUS
 62
     3
  5
7D
 10
63.466008
 20
-10.0
 30
0.0
 11
40.466008
 21
-10.0
 31
0.0
  0
ARC
  8
0
  6
CONTINUOUS
 62
    80
  5
7E
 10
51.966008
 20
-22.068723
 30
0.0
 40
7.068723
 50
59.147984
 51
120.852016
  0
ARC
  8
0
  6
CONTINUOUS
 62
    80
  5
7F
 10
57.403508
 20
-17.142279
 30
0.0
 40
2.142279
 50
32.214144
 51
147.785856
  0
LINE
  8
0
  6
CONTINUOUS
 62
     3
  5
80
 10
57.97753
 20
-15.0
 30
0.0
 11
45.954486
 21
-15.0
 31
0.0
  0
LINE
  8
0
  6
CONTINUOUS
 62
     3
  5
81
 10
59.216008
 20
-20.784964
 30
0.0
 11
59.216008
 21
-15.715036
 31
0.0
  0
LINE
  8
0
  6
CONTINUOUS
 62
     3
  5
82
 10
45.954486
 20
-21.5
 30
0.0
 11
57.97753
 21
-21.5
 31
0.0
  0
LINE
  8
0
  6
CONTINUOUS
 62
     3
  5
83
 10
44.716008
 20
-15.715036
 30
0.0
 11
44.716008
 21
-20.784964
 31
0.0
  0
LINE
  8
0
  6
CONTINUOUS
 62
     3
  5
84
 10
-47.95704
 20
-15.0
 30
0.0
 11
-47.95704
 21
-14.3
 31
0.0
  0
LINE
  8
0
  6
CONTINUOUS
 62
     3
  5
85
 10
-47.95704
 20
-12.3
 30
0.0
 11
-47.95704
 21
-11.5
 31
0.0
  0
LINE
  8
0
  6
CONTINUOUS
 62
     3
  5
86
 10
-55.95704
 20
-12.2
 30
0.0
 11
-55.95704
 21
-11.5
 31
0.0
  0
LINE
  8
0
  6
CONTINUOUS
 62
     3
  5
87
 10
-55.95704
 20
-15.0
 30
0.0
 11
-55.95704
 21
-14.2
 31
0.0
  0
LINE
  8
0
  6
CONTINUOUS
 62
     3
  5
88
 10
-47.95704
 20
-29.0
 30
0.0
 11
-47.95704
 21
-21.5
 31
0.0
  0
LINE
  8
0
  6
CONTINUOUS
 62
     3
  5
89
 10
-54.95704
 20
-30.0
 30
0.0
 11
-48.95704
 21
-30.0
 31
0.0
  0
LINE
  8
0
  6
CONTINUOUS
 62
     3
  5
8A
 10
-55.95704
 20
-21.5
 30
0.0
 11
-55.95704
 21
-29.0
 31
0.0
  0
LINE
  8
0
  6
CONTINUOUS
 62
     3
  5
8B
 10
-57.968562
 20
-15.0
 30
0.0
 11
-59.20704
 21
-15.715036
 31
0.0
  0
LINE
  8
0
  6
CONTINUOUS
 62
     3
  5
8C
 10
-44.70704
 20
-15.715036
 30
0.0
 11
-45.945518
 21
-15.0
 31
0.0
  0
LINE
  8
0
  6
CONTINUOUS
 62
     3
  5
8D
 10
-45.945518
 20
-21.5
 30
0.0
 11
-44.70704
 21
-20.784964
 31
0.0
  0
LINE
  8
0
  6
CONTINUOUS
 62
     3
  5
8E
 10
-59.20704
 20
-20.784964
 30
0.0
 11
-57.968562
 21
-21.5
 31
0.0
  0
LINE
  8
0
  6
CONTINUOUS
 62
    80
  5
8F
 10
-48.33204
 20
-16.000262
 30
0.0
 11
-48.33204
 21
-20.499738
 31
0.0
  0
LINE
  8
0
  6
CONTINUOUS
 62
    80
  5
90
 10
-55.58204
 20
-16.000262
 30
0.0
 11
-55.58204
 21
-20.499738
 31
0.0
  0
ARC
  8
0
  6
CONTINUOUS
 62
    80
  5
91
 10
-46.51954
 20
-19.357721
 30
0.0
 40
2.142279
 50
212.214144
 51
327.785856
  0
ARC
  8
0
  6
CONTINUOUS
 62
    80
  5
92
 10
-57.39454
 20
-19.357721
 30
0.0
 40
2.142279
 50
212.214144
 51
327.785856
  0
LINE
  8
0
  6
CONTINUOUS
 62
     3
  5
93
 10
-40.45704
 20
0.0
 30
0.0
 11
-40.45704
 21
-10.0
 31
0.0
  0
LINE
  8
0
  6
CONTINUOUS
 62
     3
  5
94
 10
-40.45704
 20
-10.0
 30
0.0
 11
-63.45704
 21
-10.0
 31
0.0
  0
ARC
  8
0
  6
CONTINUOUS
 62
    80
  5
95
 10
-57.39454
 20
-17.142279
 30
0.0
 40
2.142279
 50
32.214144
 51
147.785856
  0
ARC
  8
0
  6
CONTINUOUS
 62
    80
  5
96
 10
-51.95704
 20
-14.431277
 30
0.0
 40
7.068723
 50
239.147984
 51
300.852016
  0
ARC
  8
0
  6
CONTINUOUS
 62
    80
  5
97
 10
-51.95704
 20
-22.068723
 30
0.0
 40
7.068723
 50
59.147984
 51
120.852016
  0
ARC
  8
0
  6
CONTINUOUS
 62
    80
  5
98
 10
-46.51954
 20
-17.142279
 30
0.0
 40
2.142279
 50
32.214144
 51
147.785856
  0
LINE
  8
0
  6
CONTINUOUS
 62
     3
  5
99
 10
-45.945518
 20
-15.0
 30
0.0
 11
-57.968562
 21
-15.0
 31
0.0
  0
LINE
  8
0
  6
CONTINUOUS
 62
     3
  5
9A
 10
-44.70704
 20
-20.784964
 30
0.0
 11
-44.70704
 21
-15.715036
 31
0.0
  0
LINE
  8
0
  6
CONTINUOUS
 62
     3
  5
9B
 10
-57.968562
 20
-21.5
 30
0.0
 11
-45.945518
 21
-21.5
 31
0.0
  0
ARC
  8
0
  6
CONTINUOUS
 62
    80
  5
9C
 10
-5.4375
 20
-19.357721
 30
0.0
 40
2.142279
 50
212.214144
 51
327.785856
  0
LINE
  8
0
  6
CONTINUOUS
 62
     3
  5
9D
 10
11.5
 20
-10.0
 30
0.0
 11
-11.5
 21
-10.0
 31
0.0
  0
LINE
  8
0
  6
CONTINUOUS
 62
     3
  5
9E
 10
11.5
 20
0.0
 30
0.0
 11
11.5
 21
-10.0
 31
0.0
  0
ARC
  8
0
  6
CONTINUOUS
 62
    80
  5
9F
 10
5.4375
 20
-19.357721
 30
0.0
 40
2.142279
 50
212.214144
 51
327.785856
  0
LINE
  8
0
  6
CONTINUOUS
 62
    80
  5
A0
 10
-3.625
 20
-16.000262
 30
0.0
 11
-3.625
 21
-20.499738
 31
0.0
  0
LINE
  8
0
  6
CONTINUOUS
 62
    80
  5
A1
 10
3.625
 20
-16.000262
 30
0.0
 11
3.625
 21
-20.499738
 31
0.0
  0
LINE
  8
0
  6
CONTINUOUS
 62
     3
  5
A2
 10
-7.25
 20
-20.784964
 30
0.0
 11
-6.011522
 21
-21.5
 31
0.0
  0
LINE
  8
0
  6
CONTINUOUS
 62
     3
  5
A3
 10
6.011522
 20
-21.5
 30
0.0
 11
7.25
 21
-20.784964
 31
0.0
  0
LINE
  8
0
  6
CONTINUOUS
 62
     3
  5
A4
 10
7.25
 20
-15.715036
 30
0.0
 11
6.011522
 21
-15.0
 31
0.0
  0
LINE
  8
0
  6
CONTINUOUS
 62
     3
  5
A5
 10
-6.011522
 20
-15.0
 30
0.0
 11
-7.25
 21
-15.715036
 31
0.0
  0
LINE
  8
0
  6
CONTINUOUS
 62
     3
  5
A6
 10
-4.0
 20
-21.5
 30
0.0
 11
-4.0
 21
-29.0
 31
0.0
  0
LINE
  8
0
  6
CONTINUOUS
 62
     3
  5
A7
 10
-3.0
 20
-30.0
 30
0.0
 11
3.0
 21
-30.0
 31
0.0
  0
LINE
  8
0
  6
CONTINUOUS
 62
     3
  5
A8
 10
4.0
 20
-29.0
 30
0.0
 11
4.0
 21
-21.5
 31
0.0
  0
LINE
  8
0
  6
CONTINUOUS
 62
     3
  5
A9
 10
-4.0
 20
-15.0
 30
0.0
 11
-4.0
 21
-14.2
 31
0.0
  0
LINE
  8
0
  6
CONTINUOUS
 62
     3
  5
AA
 10
-4.0
 20
-12.2
 30
0.0
 11
-4.0
 21
-11.5
 31
0.0
  0
LINE
  8
0
  6
CONTINUOUS
 62
     3
  5
AB
 10
4.0
 20
-12.3
 30
0.0
 11
4.0
 21
-11.5
 31
0.0
  0
LINE
  8
0
  6
CONTINUOUS
 62
     3
  5
AC
 10
4.0
 20
-15.0
 30
0.0
 11
4.0
 21
-14.3
 31
0.0
  0
ARC
  8
0
  6
CONTINUOUS
 62
     3
  5
AD
 10
0.0
 20
-103.0
 30
0.0
 40
303.0
 50
90.0
 51
98.478141
  0
LINE
  8
0
  6
CONTINUOUS
 62
     3
  5
AE
 10
-59.20704
 20
-15.715036
 30
0.0
 11
-59.20704
 21
-20.784964
 31
0.0
  0
LINE
  8
0
  6
CONTINUOUS
 62
     3
  5
AF
 10
-44.45704
 20
-13.0
 30
0.0
 11
-51.95704
 21
-11.5
 31
0.0
  0
LINE
  8
0
  6
CONTINUOUS
 62
     3
  5
B0
 10
-44.45704
 20
-15.0
 30
0.0
 11
-44.45704
 21
-13.0
 31
0.0
  0
LINE
  8
0
  6
CONTINUOUS
 62
     3
  5
B1
 10
-51.95704
 20
-13.5
 30
0.0
 11
-44.45704
 21
-15.0
 31
0.0
  0
LINE
  8
0
  6
CONTINUOUS
 62
     3
  5
B2
 10
-51.95704
 20
-13.0
 30
0.0
 11
-59.45704
 21
-11.5
 31
0.0
  0
LINE
  8
0
  6
CONTINUOUS
 62
     3
  5
B3
 10
-59.45704
 20
-13.5
 30
0.0
 11
-51.95704
 21
-15.0
 31
0.0
  0
LINE
  8
0
  6
CONTINUOUS
 62
     3
  5
B4
 10
-59.45704
 20
-11.5
 30
0.0
 11
-59.45704
 21
-13.5
 31
0.0
  0
LINE
  8
0
  6
CONTINUOUS
 62
     3
  5
B5
 10
-40.95704
 20
-11.5
 30
0.0
 11
-40.95704
 21
-10.0
 31
0.0
  0
LINE
  8
0
  6
CONTINUOUS
 62
     3
  5
B6
 10
-62.95704
 20
-11.5
 30
0.0
 11
-40.95704
 21
-11.5
 31
0.0
  0
LINE
  8
0
  6
CONTINUOUS
 62
     3
  5
B7
 10
-62.95704
 20
-10.0
 30
0.0
 11
-62.95704
 21
-11.5
 31
0.0
  0
LINE
  8
0
  6
CONTINUOUS
 62
     3
  5
B8
 10
-48.95704
 20
-30.0
 30
0.0
 11
-47.95704
 21
-29.0
 31
0.0
  0
LINE
  8
0
  6
CONTINUOUS
 62
     3
  5
B9
 10
-55.95704
 20
-29.0
 30
0.0
 11
-54.95704
 21
-30.0
 31
0.0
  0
LINE
  8
0
  6
CONTINUOUS
 62
    80
  5
BA
 10
-54.95704
 20
-21.5
 30
0.0
 11
-54.95704
 21
-30.0
 31
0.0
  0
LINE
  8
0
  6
CONTINUOUS
 62
    80
  5
BB
 10
-48.95704
 20
-30.0
 30
0.0
 11
-48.95704
 21
-21.5
 31
0.0
  0
LINE
  8
0
  6
CONTINUOUS
 62
    80
  5
BC
 10
-55.95704
 20
-29.0
 30
0.0
 11
-47.95704
 21
-29.0
 31
0.0
  0
LINE
  8
0
  6
CONTINUOUS
 62
     3
  5
BD
 10
-63.45704
 20
0.0
 30
0.0
 11
-63.45704
 21
-10.0
 31
0.0
  0
ARC
  8
0
  6
CONTINUOUS
 62
     3
  5
BE
 10
60.958301
 20
-0.888341
 30
0.0
 40
23.058817
 50
120.401002
 51
177.792134
  0
LINE
  8
0
  6
CONTINUOUS
 62
     3
  5
BF
 10
59.466008
 20
-13.0
 30
0.0
 11
51.966008
 21
-11.5
 31
0.0
  0
LINE
  8
0
  6
CONTINUOUS
 62
     3
  5
C0
 10
59.466008
 20
-15.0
 30
0.0
 11
59.466008
 21
-13.0
 31
0.0
  0
LINE
  8
0
  6
CONTINUOUS
 62
     3
  5
C1
 10
51.966008
 20
-13.5
 30
0.0
 11
59.466008
 21
-15.0
 31
0.0
  0
LINE
  8
0
  6
CONTINUOUS
 62
     3
  5
C2
 10
51.966008
 20
-13.0
 30
0.0
 11
44.466008
 21
-11.5
 31
0.0
  0
LINE
  8
0
  6
CONTINUOUS
 62
     3
  5
C3
 10
44.466008
 20
-13.5
 30
0.0
 11
51.966008
 21
-15.0
 31
0.0
  0
LINE
  8
0
  6
CONTINUOUS
 62
     3
  5
C4
 10
44.466008
 20
-11.5
 30
0.0
 11
44.466008
 21
-13.5
 31
0.0
  0
LINE
  8
0
  6
CONTINUOUS
 62
     3
  5
C5
 10
62.966008
 20
-11.5
 30
0.0
 11
62.966008
 21
-10.0
 31
0.0
  0
LINE
  8
0
  6
CONTINUOUS
 62
     3
  5
C6
 10
40.966008
 20
-11.5
 30
0.0
 11
62.966008
 21
-11.5
 31
0.0
  0
LINE
  8
0
  6
CONTINUOUS
 62
     3
  5
C7
 10
40.966008
 20
-10.0
 30
0.0
 11
40.966008
 21
-11.5
 31
0.0
  0
LINE
  8
0
  6
CONTINUOUS
 62
     3
  5
C8
 10
54.966008
 20
-30.0
 30
0.0
 11
55.966008
 21
-29.0
 31
0.0
  0
LINE
  8
0
  6
CONTINUOUS
 62
     3
  5
C9
 10
47.966008
 20
-29.0
 30
0.0
 11
48.966008
 21
-30.0
 31
0.0
  0
LINE
  8
0
  6
CONTINUOUS
 62
    80
  5
CA
 10
48.966008
 20
-21.5
 30
0.0
 11
48.966008
 21
-30.0
 31
0.0
  0
LINE
  8
0
  6
CONTINUOUS
 62
    80
  5
CB
 10
54.966008
 20
-30.0
 30
0.0
 11
54.966008
 21
-21.5
 31
0.0
  0
LINE
  8
0
  6
CONTINUOUS
 62
    80
  5
CC
 10
47.966008
 20
-29.0
 30
0.0
 11
55.966008
 21
-29.0
 31
0.0
  0
LINE
  8
0
  6
CONTINUOUS
 62
     3
  5
CD
 10
40.466008
 20
0.0
 30
0.0
 11
40.466008
 21
-10.0
 31
0.0
  0
ARC
  8
0
  6
CONTINUOUS
 62
     3
  5
CE
 10
-60.958301
 20
-0.888341
 30
0.0
 40
23.058817
 50
2.207866
 51
59.598998
  0
LINE
  8
0
  6
CONTINUOUS
 62
     3
  5
CF
 10
-85.0
 20
65.733333
 30
0.0
 11
-85.0
 21
0.0
 31
0.0
  0
ENDBLK
  8
0
  5
D0
  0
BLOCK
  8
0
  5
D1
  2
MS_3
 70
     0
 10
0.0
 20
0.0
 30
0.0
  3
MS_3
  0
ARC
  8
0
  6
CONTINUOUS
 62
     3
  5
D2
 10
0.0
 20
0.0
 30
0.0
 40
85.0
 50
233.250668
 51
228.033196
  0
LINE
  8
0
  6
CONTINUOUS
 62
     3
  5
D3
 10
-69.916602
 20
3.415952
 30
0.0
 11
-84.196408
 21
11.660401
 31
0.0
  0
LINE
  8
0
  6
CONTINUOUS
 62
     3
  5
D4
 10
-37.916602
 20
58.841578
 30
0.0
 11
-52.196408
 21
67.086027
 31
0.0
  0
ARC
  8
0
  6
CONTINUOUS
 62
     3
  5
D5
 10
0.0
 20
0.0
 30
0.0
 40
82.0
 50
234.210844
 51
228.907448
  0
LINE
  8
0
  6
CONTINUOUS
 62
     3
  5
D6
 10
-42.572323
 20
58.065457
 30
0.0
 11
-51.924769
 21
63.465095
 31
0.0
  0
LINE
  8
0
  6
CONTINUOUS
 62
     3
  5
D7
 10
-71.572323
 20
7.835984
 30
0.0
 11
-80.924769
 21
13.235622
 31
0.0
  0
ARC
  8
0
  6
CONTINUOUS
 62
     3
  5
D8
 10
0.0
 20
0.0
 30
0.0
 40
70.0
 50
177.202894
 51
231.487823
  0
LINE
  8
0
  6
CONTINUOUS
 62
     3
  5
D9
 10
-32.0
 20
-62.25753
 30
0.0
 11
-32.0
 21
-78.746429
 31
0.0
  0
LINE
  8
0
  6
CONTINUOUS
 62
     3
  5
DA
 10
32.0
 20
-62.25753
 30
0.0
 11
32.0
 21
-78.746429
 31
0.0
  0
LINE
  8
0
  6
CONTINUOUS
 62
     3
  5
DB
 10
69.916602
 20
3.415952
 30
0.0
 11
84.196408
 21
11.660401
 31
0.0
  0
LINE
  8
0
  6
CONTINUOUS
 62
     3
  5
DC
 10
37.916602
 20
58.841578
 30
0.0
 11
52.196408
 21
67.086027
 31
0.0
  0
ARC
  8
0
  6
CONTINUOUS
 62
     3
  5
DD
 10
0.0
 20
0.0
 30
0.0
 40
70.0
 50
297.202894
 51
2.797106
  0
ARC
  8
0
  6
CONTINUOUS
 62
     3
  5
DE
 10
0.0
 20
0.0
 30
0.0
 40
70.0
 50
57.202894
 51
122.797106
  0
CIRCLE
  8
0
  6
CONTINUOUS
 62
     3
  5
DF
 10
-51.961524
 20
30.0
 30
0.0
 40
11.5
  0
ARC
  8
0
  6
CONTINUOUS
 62
     3
  5
E0
 10
0.0
 20
0.0
 30
0.0
 40
72.0
 50
126.248054
 51
173.751946
  0
CIRCLE
  8
0
  6
CONTINUOUS
 62
    80
  5
E1
 10
-51.961524
 20
30.0
 30
0.0
 40
3.0
  0
CIRCLE
  8
0
  6
CONTINUOUS
 62
    80
  5
E2
 10
-51.961524
 20
30.0
 30
0.0
 40
6.278684
  0
LINE
  8
0
  6
CONTINUOUS
 62
     3
  5
E3
 10
-57.515346
 20
34.66021
 30
0.0
 11
-50.702575
 21
37.139856
 31
0.0
  0
CIRCLE
  8
0
  6
CONTINUOUS
 62
     3
  5
E4
 10
-51.961524
 20
30.0
 30
0.0
 40
4.0
  0
CIRCLE
  8
0
  6
CONTINUOUS
 62
     3
  5
E5
 10
-51.961524
 20
30.0
 30
0.0
 40
9.0
  0
LINE
  8
0
  6
CONTINUOUS
 62
     3
  5
E6
 10
-50.702575
 20
37.139856
 30
0.0
 11
-45.148753
 21
32.479646
 31
0.0
  0
LINE
  8
0
  6
CONTINUOUS
 62
     3
  5
E7
 10
-45.148753
 20
32.479646
 30
0.0
 11
-46.407702
 21
25.33979
 31
0.0
  0
LINE
  8
0
  6
CONTINUOUS
 62
     3
  5
E8
 10
-46.407702
 20
25.33979
 30
0.0
 11
-53.220474
 21
22.860144
 31
0.0
  0
LINE
  8
0
  6
CONTINUOUS
 62
     3
  5
E9
 10
-53.220474
 20
22.860144
 30
0.0
 11
-58.774296
 21
27.520354
 31
0.0
  0
LINE
  8
0
  6
CONTINUOUS
 62
     3
  5
EA
 10
-58.774296
 20
27.520354
 30
0.0
 11
-57.515346
 21
34.66021
 31
0.0
  0
CIRCLE
  8
0
  6
CONTINUOUS
 62
     3
  5
EB
 10
0.0
 20
-60.0
 30
0.0
 40
11.5
  0
ARC
  8
0
  6
CONTINUOUS
 62
     3
  5
EC
 10
0.0
 20
0.0
 30
0.0
 40
72.0
 50
246.248054
 51
293.751946
  0
LINE
  8
0
  6
CONTINUOUS
 62
     3
  5
ED
 10
5.553822
 20
-64.66021
 30
0.0
 11
-1.258949
 21
-67.139856
 31
0.0
  0
LINE
  8
0
  6
CONTINUOUS
 62
     3
  5
EE
 10
6.812772
 20
-57.520354
 30
0.0
 11
5.553822
 21
-64.66021
 31
0.0
  0
LINE
  8
0
  6
CONTINUOUS
 62
     3
  5
EF
 10
1.258949
 20
-52.860144
 30
0.0
 11
6.812771
 21
-57.520354
 31
0.0
  0
LINE
  8
0
  6
CONTINUOUS
 62
     3
  5
F0
 10
-5.553822
 20
-55.33979
 30
0.0
 11
1.258949
 21
-52.860144
 31
0.0
  0
LINE
  8
0
  6
CONTINUOUS
 62
     3
  5
F1
 10
-6.812771
 20
-62.479646
 30
0.0
 11
-5.553822
 21
-55.33979
 31
0.0
  0
CIRCLE
  8
0
  6
CONTINUOUS
 62
     3
  5
F2
 10
0.0
 20
-60.0
 30
0.0
 40
9.0
  0
CIRCLE
  8
0
  6
CONTINUOUS
 62
     3
  5
F3
 10
0.0
 20
-60.0
 30
0.0
 40
4.0
  0
LINE
  8
0
  6
CONTINUOUS
 62
     3
  5
F4
 10
-1.258949
 20
-67.139856
 30
0.0
 11
-6.812771
 21
-62.479646
 31
0.0
  0
CIRCLE
  8
0
  6
CONTINUOUS
 62
    80
  5
F5
 10
0.0
 20
-60.0
 30
0.0
 40
6.278684
  0
CIRCLE
  8
0
  6
CONTINUOUS
 62
    80
  5
F6
 10
0.0
 20
-60.0
 30
0.0
 40
3.0
  0
LINE
  8
0
  6
CONTINUOUS
 62
     3
  5
F7
 10
-29.0
 20
-65.901442
 30
0.0
 11
-29.0
 21
-76.700717
 31
0.0
  0
LINE
  8
0
  6
CONTINUOUS
 62
     3
  5
F8
 10
29.0
 20
-65.901442
 30
0.0
 11
29.0
 21
-76.700717
 31
0.0
  0
CIRCLE
  8
0
  6
CONTINUOUS
 62
     3
  5
F9
 10
51.961524
 20
30.0
 30
0.0
 40
11.5
  0
ARC
  8
0
  6
CONTINUOUS
 62
     3
  5
FA
 10
0.0
 20
0.0
 30
0.0
 40
72.0
 50
6.248054
 51
53.751946
  0
LINE
  8
0
  6
CONTINUOUS
 62
     3
  5
FB
 10
53.220473
 20
37.139856
 30
0.0
 11
58.774296
 21
32.479646
 31
0.0
  0
LINE
  8
0
  6
CONTINUOUS
 62
     3
  5
FC
 10
46.407702
 20
34.66021
 30
0.0
 11
53.220473
 21
37.139856
 31
0.0
  0
LINE
  8
0
  6
CONTINUOUS
 62
     3
  5
FD
 10
45.148753
 20
27.520354
 30
0.0
 11
46.407702
 21
34.66021
 31
0.0
  0
LINE
  8
0
  6
CONTINUOUS
 62
     3
  5
FE
 10
50.702575
 20
22.860144
 30
0.0
 11
45.148753
 21
27.520354
 31
0.0
  0
LINE
  8
0
  6
CONTINUOUS
 62
     3
  5
FF
 10
57.515346
 20
25.33979
 30
0.0
 11
50.702575
 21
22.860144
 31
0.0
  0
CIRCLE
  8
0
  6
CONTINUOUS
 62
     3
  5
100
 10
51.961524
 20
30.0
 30
0.0
 40
9.0
  0
CIRCLE
  8
0
  6
CONTINUOUS
 62
     3
  5
101
 10
51.961524
 20
30.0
 30
0.0
 40
4.0
  0
LINE
  8
0
  6
CONTINUOUS
 62
     3
  5
102
 10
58.774296
 20
32.479646
 30
0.0
 11
57.515346
 21
25.33979
 31
0.0
  0
CIRCLE
  8
0
  6
CONTINUOUS
 62
    80
  5
103
 10
51.961524
 20
30.0
 30
0.0
 40
6.278684
  0
CIRCLE
  8
0
  6
CONTINUOUS
 62
    80
  5
104
 10
51.961524
 20
30.0
 30
0.0
 40
3.0
  0
LINE
  8
0
  6
CONTINUOUS
 62
     3
  5
105
 10
71.572323
 20
7.835984
 30
0.0
 11
80.924769
 21
13.235622
 31
0.0
  0
LINE
  8
0
  6
CONTINUOUS
 62
     3
  5
106
 10
42.572323
 20
58.065457
 30
0.0
 11
51.924769
 21
63.465095
 31
0.0
  0
ARC
  8
0
  6
CONTINUOUS
 62
     3
  5
107
 10
-28.073909
 20
-40.025437
 30
0.0
 40
9.5
 50
261.334417
 51
217.949147
  0
ARC
  8
0
  6
CONTINUOUS
 62
     3
  5
108
 10
-28.073909
 20
-40.025437
 30
0.0
 40
3.5
 50
334.271952
 51
154.271952
  0
ARC
  8
0
  6
CONTINUOUS
 62
     3
  5
109
 10
-77.379838
 20
-16.266361
 30
0.0
 40
51.231785
 50
281.363004
 51
334.271952
  0
ARC
  8
0
  6
CONTINUOUS
 62
     3
  5
10A
 10
-77.379838
 20
-16.266361
 30
0.0
 40
58.231785
 50
278.84761
 51
334.271952
  0
POLYLINE
  8
0
  6
CONTINUOUS
 62
     3
  5
10B
 66
     1
 10
0.0
 20
0.0
 30
0.0
  0
VERTEX
  8
0
  6
CONTINUOUS
 62
     3
  5
1E8
 10
-71.336211
 20
-62.997921
 30
0.0
  0
VERTEX
  8
0
  6
CONTINUOUS
 62
     3
  5
1E9
 10
-70.911986
 20
-63.25044
 30
0.0
  0
VERTEX
  8
0
  6
CONTINUOUS
 62
     3
  5
1EA
 10
-70.472409
 20
-63.531117
 30
0.0
  0
VERTEX
  8
0
  6
CONTINUOUS
 62
     3
  5
1EB
 10
-70.024734
 20
-63.837639
 30
0.0
  0
VERTEX
  8
0
  6
CONTINUOUS
 62
     3
  5
1EC
 10
-69.576216
 20
-64.167694
 30
0.0
  0
VERTEX
  8
0
  6
CONTINUOUS
 62
     3
  5
1ED
 10
-69.134109
 20
-64.518968
 30
0.0
  0
VERTEX
  8
0
  6
CONTINUOUS
 62
     3
  5
1EE
 10
-68.705669
 20
-64.88915
 30
0.0
  0
VERTEX
  8
0
  6
CONTINUOUS
 62
     3
  5
1EF
 10
-68.298151
 20
-65.275927
 30
0.0
  0
VERTEX
  8
0
  6
CONTINUOUS
 62
     3
  5
1F0
 10
-67.918808
 20
-65.676987
 30
0.0
  0
VERTEX
  8
0
  6
CONTINUOUS
 62
     3
  5
1F1
 10
-67.574897
 20
-66.090017
 30
0.0
  0
VERTEX
  8
0
  6
CONTINUOUS
 62
     3
  5
1F2
 10
-67.273671
 20
-66.512704
 30
0.0
  0
VERTEX
  8
0
  6
CONTINUOUS
 62
     3
  5
1F3
 10
-67.022387
 20
-66.942737
 30
0.0
  0
VERTEX
  8
0
  6
CONTINUOUS
 62
     3
  5
1F4
 10
-66.828298
 20
-67.377802
 30
0.0
  0
VERTEX
  8
0
  6
CONTINUOUS
 62
     3
  5
1F5
 10
-66.698659
 20
-67.815588
 30
0.0
  0
VERTEX
  8
0
  6
CONTINUOUS
 62
     3
  5
1F6
 10
-66.640726
 20
-68.253781
 30
0.0
  0
VERTEX
  8
0
  6
CONTINUOUS
 62
     3
  5
1F7
 10
-66.661753
 20
-68.69007
 30
0.0
  0
VERTEX
  8
0
  6
CONTINUOUS
 62
     3
  5
1F8
 10
-66.768994
 20
-69.122142
 30
0.0
  0
VERTEX
  8
0
  6
CONTINUOUS
 62
     3
  5
1F9
 10
-66.859039
 20
-69.341342
 30
0.0
  0
VERTEX
  8
0
  6
CONTINUOUS
 62
     3
  5
1FA
 10
-66.970253
 20
-69.558856
 30
0.0
  0
VERTEX
  8
0
  6
CONTINUOUS
 62
     3
  5
1FB
 10
-67.099234
 20
-69.774713
 30
0.0
  0
VERTEX
  8
0
  6
CONTINUOUS
 62
     3
  5
1FC
 10
-67.242581
 20
-69.988943
 30
0.0
  0
VERTEX
  8
0
  6
CONTINUOUS
 62
     3
  5
1FD
 10
-67.396891
 20
-70.201577
 30
0.0
  0
VERTEX
  8
0
  6
CONTINUOUS
 62
     3
  5
1FE
 10
-67.558764
 20
-70.412645
 30
0.0
  0
VERTEX
  8
0
  6
CONTINUOUS
 62
     3
  5
1FF
 10
-67.724797
 20
-70.622176
 30
0.0
  0
VERTEX
  8
0
  6
CONTINUOUS
 62
     3
  5
200
 10
-67.891588
 20
-70.8302
 30
0.0
  0
VERTEX
  8
0
  6
CONTINUOUS
 62
     3
  5
201
 10
-68.055736
 20
-71.036748
 30
0.0
  0
VERTEX
  8
0
  6
CONTINUOUS
 62
     3
  5
202
 10
-68.213838
 20
-71.241849
 30
0.0
  0
VERTEX
  8
0
  6
CONTINUOUS
 62
     3
  5
203
 10
-68.362493
 20
-71.445533
 30
0.0
  0
VERTEX
  8
0
  6
CONTINUOUS
 62
     3
  5
204
 10
-68.4983
 20
-71.647831
 30
0.0
  0
VERTEX
  8
0
  6
CONTINUOUS
 62
     3
  5
205
 10
-68.617856
 20
-71.848772
 30
0.0
  0
VERTEX
  8
0
  6
CONTINUOUS
 62
     3
  5
206
 10
-68.717759
 20
-72.048386
 30
0.0
  0
VERTEX
  8
0
  6
CONTINUOUS
 62
     3
  5
207
 10
-68.794609
 20
-72.246703
 30
0.0
  0
VERTEX
  8
0
  6
CONTINUOUS
 62
     3
  5
208
 10
-68.845002
 20
-72.443754
 30
0.0
  0
VERTEX
  8
0
  6
CONTINUOUS
 62
     3
  5
209
 10
-68.863162
 20
-72.791366
 30
0.0
  0
VERTEX
  8
0
  6
CONTINUOUS
 62
     3
  5
20A
 10
-68.794673
 20
-73.133675
 30
0.0
  0
VERTEX
  8
0
  6
CONTINUOUS
 62
     3
  5
20B
 10
-68.647573
 20
-73.4693
 30
0.0
  0
VERTEX
  8
0
  6
CONTINUOUS
 62
     3
  5
20C
 10
-68.429903
 20
-73.796859
 30
0.0
  0
VERTEX
  8
0
  6
CONTINUOUS
 62
     3
  5
20D
 10
-68.149701
 20
-74.114971
 30
0.0
  0
VERTEX
  8
0
  6
CONTINUOUS
 62
     3
  5
20E
 10
-67.815008
 20
-74.422257
 30
0.0
  0
VERTEX
  8
0
  6
CONTINUOUS
 62
     3
  5
20F
 10
-67.433864
 20
-74.717333
 30
0.0
  0
VERTEX
  8
0
  6
CONTINUOUS
 62
     3
  5
210
 10
-67.014308
 20
-74.99882
 30
0.0
  0
VERTEX
  8
0
  6
CONTINUOUS
 62
     3
  5
211
 10
-66.564379
 20
-75.265337
 30
0.0
  0
VERTEX
  8
0
  6
CONTINUOUS
 62
     3
  5
212
 10
-66.092117
 20
-75.515502
 30
0.0
  0
VERTEX
  8
0
  6
CONTINUOUS
 62
     3
  5
213
 10
-65.605562
 20
-75.747934
 30
0.0
  0
VERTEX
  8
0
  6
CONTINUOUS
 62
     3
  5
214
 10
-65.112755
 20
-75.961253
 30
0.0
  0
VERTEX
  8
0
  6
CONTINUOUS
 62
     3
  5
215
 10
-64.621733
 20
-76.154077
 30
0.0
  0
VERTEX
  8
0
  6
CONTINUOUS
 62
     3
  5
216
 10
-64.140537
 20
-76.325025
 30
0.0
  0
VERTEX
  8
0
  6
CONTINUOUS
 62
     3
  5
217
 10
-63.677207
 20
-76.472716
 30
0.0
  0
VERTEX
  8
0
  6
CONTINUOUS
 62
     3
  5
218
 10
-63.239782
 20
-76.595769
 30
0.0
  0
SEQEND
  8
0
  6
CONTINUOUS
 62
     3
  5
219
  0
ARC
  8
0
  6
CONTINUOUS
 62
     3
  5
10C
 10
0.0
 20
0.0
 30
0.0
 40
70.0
 50
237.355125
 51
242.797106
  0
ENDBLK
  8
0
  5
10D
  0
ENDSEC
  0
SECTION
  2
ENTITIES
  0
INSERT
  8
0
  6
BYBLOCK
  5
10E
  2
MS_1
 10
0.0
 20
342.490792
 30
0.0
  0
ARC
  8
0
  6
CONTINUOUS
 62
     3
  5
10F
 10
0.0
 20
-146.245396
 30
0.0
 40
70.0
 50
237.355125
 51
242.797106
  0
ARC
  8
0
  6
CONTINUOUS
 62
     3
  5
110
 10
-77.379838
 20
-162.511757
 30
0.0
 40
58.231785
 50
278.84761
 51
334.271952
  0
ARC
  8
0
  6
CONTINUOUS
 62
     3
  5
111
 10
-77.379838
 20
-162.511757
 30
0.0
 40
51.231785
 50
281.363004
 51
334.271952
  0
ARC
  8
0
  6
CONTINUOUS
 62
     3
  5
112
 10
-28.073909
 20
-186.270833
 30
0.0
 40
3.5
 50
334.271952
 51
154.271952
  0
ARC
  8
0
  6
CONTINUOUS
 62
     3
  5
113
 10
-28.073909
 20
-186.270833
 30
0.0
 40
9.5
 50
261.334417
 51
217.949147
  0
LINE
  8
0
  6
CONTINUOUS
 62
     3
  5
114
 10
42.572323
 20
-88.179938
 30
0.0
 11
51.924769
 21
-82.780301
 31
0.0
  0
LINE
  8
0
  6
CONTINUOUS
 62
     3
  5
115
 10
71.572323
 20
-138.409412
 30
0.0
 11
80.924769
 21
-133.009774
 31
0.0
  0
CIRCLE
  8
0
  6
CONTINUOUS
 62
    80
  5
116
 10
51.961524
 20
-116.245396
 30
0.0
 40
3.0
  0
CIRCLE
  8
0
  6
CONTINUOUS
 62
    80
  5
117
 10
51.961524
 20
-116.245396
 30
0.0
 40
6.278684
  0
LINE
  8
0
  6
CONTINUOUS
 62
     3
  5
118
 10
58.774296
 20
-113.76575
 30
0.0
 11
57.515346
 21
-120.905606
 31
0.0
  0
CIRCLE
  8
0
  6
CONTINUOUS
 62
     3
  5
119
 10
51.961524
 20
-116.245396
 30
0.0
 40
4.0
  0
CIRCLE
  8
0
  6
CONTINUOUS
 62
     3
  5
11A
 10
51.961524
 20
-116.245396
 30
0.0
 40
9.0
  0
LINE
  8
0
  6
CONTINUOUS
 62
     3
  5
11B
 10
57.515346
 20
-120.905606
 30
0.0
 11
50.702575
 21
-123.385252
 31
0.0
  0
LINE
  8
0
  6
CONTINUOUS
 62
     3
  5
11C
 10
50.702575
 20
-123.385252
 30
0.0
 11
45.148753
 21
-118.725042
 31
0.0
  0
LINE
  8
0
  6
CONTINUOUS
 62
     3
  5
11D
 10
45.148753
 20
-118.725042
 30
0.0
 11
46.407702
 21
-111.585186
 31
0.0
  0
LINE
  8
0
  6
CONTINUOUS
 62
     3
  5
11E
 10
46.407702
 20
-111.585186
 30
0.0
 11
53.220473
 21
-109.10554
 31
0.0
  0
LINE
  8
0
  6
CONTINUOUS
 62
     3
  5
11F
 10
53.220473
 20
-109.10554
 30
0.0
 11
58.774296
 21
-113.76575
 31
0.0
  0
ARC
  8
0
  6
CONTINUOUS
 62
     3
  5
120
 10
0.0
 20
-146.245396
 30
0.0
 40
72.0
 50
6.248054
 51
53.751946
  0
CIRCLE
  8
0
  6
CONTINUOUS
 62
     3
  5
121
 10
51.961524
 20
-116.245396
 30
0.0
 40
11.5
  0
LINE
  8
0
  6
CONTINUOUS
 62
     3
  5
122
 10
29.0
 20
-212.146837
 30
0.0
 11
29.0
 21
-222.946113
 31
0.0
  0
LINE
  8
0
  6
CONTINUOUS
 62
     3
  5
123
 10
-29.0
 20
-212.146837
 30
0.0
 11
-29.0
 21
-222.946113
 31
0.0
  0
CIRCLE
  8
0
  6
CONTINUOUS
 62
    80
  5
124
 10
0.0
 20
-206.245396
 30
0.0
 40
3.0
  0
CIRCLE
  8
0
  6
CONTINUOUS
 62
    80
  5
125
 10
0.0
 20
-206.245396
 30
0.0
 40
6.278684
  0
LINE
  8
0
  6
CONTINUOUS
 62
     3
  5
126
 10
-1.258949
 20
-213.385252
 30
0.0
 11
-6.812771
 21
-208.725042
 31
0.0
  0
CIRCLE
  8
0
  6
CONTINUOUS
 62
     3
  5
127
 10
0.0
 20
-206.245396
 30
0.0
 40
4.0
  0
CIRCLE
  8
0
  6
CONTINUOUS
 62
     3
  5
128
 10
0.0
 20
-206.245396
 30
0.0
 40
9.0
  0
LINE
  8
0
  6
CONTINUOUS
 62
     3
  5
129
 10
-6.812771
 20
-208.725042
 30
0.0
 11
-5.553822
 21
-201.585186
 31
0.0
  0
LINE
  8
0
  6
CONTINUOUS
 62
     3
  5
12A
 10
-5.553822
 20
-201.585186
 30
0.0
 11
1.258949
 21
-199.10554
 31
0.0
  0
LINE
  8
0
  6
CONTINUOUS
 62
     3
  5
12B
 10
1.258949
 20
-199.10554
 30
0.0
 11
6.812771
 21
-203.76575
 31
0.0
  0
LINE
  8
0
  6
CONTINUOUS
 62
     3
  5
12C
 10
6.812772
 20
-203.76575
 30
0.0
 11
5.553822
 21
-210.905606
 31
0.0
  0
LINE
  8
0
  6
CONTINUOUS
 62
     3
  5
12D
 10
5.553822
 20
-210.905606
 30
0.0
 11
-1.258949
 21
-213.385252
 31
0.0
  0
ARC
  8
0
  6
CONTINUOUS
 62
     3
  5
12E
 10
0.0
 20
-146.245396
 30
0.0
 40
72.0
 50
246.248054
 51
293.751946
  0
CIRCLE
  8
0
  6
CONTINUOUS
 62
     3
  5
12F
 10
0.0
 20
-206.245396
 30
0.0
 40
11.5
  0
LINE
  8
0
  6
CONTINUOUS
 62
     3
  5
130
 10
-58.774296
 20
-118.725042
 30
0.0
 11
-57.515346
 21
-111.585186
 31
0.0
  0
LINE
  8
0
  6
CONTINUOUS
 62
     3
  5
131
 10
-53.220474
 20
-123.385252
 30
0.0
 11
-58.774296
 21
-118.725042
 31
0.0
  0
LINE
  8
0
  6
CONTINUOUS
 62
     3
  5
132
 10
-46.407702
 20
-120.905606
 30
0.0
 11
-53.220474
 21
-123.385252
 31
0.0
  0
LINE
  8
0
  6
CONTINUOUS
 62
     3
  5
133
 10
-45.148753
 20
-113.76575
 30
0.0
 11
-46.407702
 21
-120.905606
 31
0.0
  0
LINE
  8
0
  6
CONTINUOUS
 62
     3
  5
134
 10
-50.702575
 20
-109.10554
 30
0.0
 11
-45.148753
 21
-113.76575
 31
0.0
  0
CIRCLE
  8
0
  6
CONTINUOUS
 62
     3
  5
135
 10
-51.961524
 20
-116.245396
 30
0.0
 40
9.0
  0
CIRCLE
  8
0
  6
CONTINUOUS
 62
     3
  5
136
 10
-51.961524
 20
-116.245396
 30
0.0
 40
4.0
  0
LINE
  8
0
  6
CONTINUOUS
 62
     3
  5
137
 10
-57.515346
 20
-111.585186
 30
0.0
 11
-50.702575
 21
-109.10554
 31
0.0
  0
CIRCLE
  8
0
  6
CONTINUOUS
 62
    80
  5
138
 10
-51.961524
 20
-116.245396
 30
0.0
 40
6.278684
  0
CIRCLE
  8
0
  6
CONTINUOUS
 62
    80
  5
139
 10
-51.961524
 20
-116.245396
 30
0.0
 40
3.0
  0
ARC
  8
0
  6
CONTINUOUS
 62
     3
  5
13A
 10
0.0
 20
-146.245396
 30
0.0
 40
72.0
 50
126.248054
 51
173.751946
  0
CIRCLE
  8
0
  6
CONTINUOUS
 62
     3
  5
13B
 10
-51.961524
 20
-116.245396
 30
0.0
 40
11.5
  0
ARC
  8
0
  6
CONTINUOUS
 62
     3
  5
13C
 10
0.0
 20
-146.245396
 30
0.0
 40
70.0
 50
57.202894
 51
122.797106
  0
ARC
  8
0
  6
CONTINUOUS
 62
     3
  5
13D
 10
0.0
 20
-146.245396
 30
0.0
 40
70.0
 50
297.202894
 51
2.797106
  0
LINE
  8
0
  6
CONTINUOUS
 62
     3
  5
13E
 10
37.916602
 20
-87.403818
 30
0.0
 11
52.196408
 21
-79.159369
 31
0.0
  0
LINE
  8
0
  6
CONTINUOUS
 62
     3
  5
13F
 10
69.916602
 20
-142.829444
 30
0.0
 11
84.196408
 21
-134.584995
 31
0.0
  0
LINE
  8
0
  6
CONTINUOUS
 62
     3
  5
140
 10
32.0
 20
-208.502926
 30
0.0
 11
32.0
 21
-224.991824
 31
0.0
  0
LINE
  8
0
  6
CONTINUOUS
 62
     3
  5
141
 10
-32.0
 20
-208.502926
 30
0.0
 11
-32.0
 21
-224.991824
 31
0.0
  0
ARC
  8
0
  6
CONTINUOUS
 62
     3
  5
142
 10
0.0
 20
-146.245396
 30
0.0
 40
70.0
 50
177.202894
 51
231.487823
  0
LINE
  8
0
  6
CONTINUOUS
 62
     3
  5
143
 10
-71.572323
 20
-138.409412
 30
0.0
 11
-80.924769
 21
-133.009774
 31
0.0
  0
LINE
  8
0
  6
CONTINUOUS
 62
     3
  5
144
 10
-42.572323
 20
-88.179938
 30
0.0
 11
-51.924769
 21
-82.780301
 31
0.0
  0
ARC
  8
0
  6
CONTINUOUS
 62
     3
  5
145
 10
0.0
 20
-146.245396
 30
0.0
 40
82.0
 50
234.210844
 51
228.907448
  0
LINE
  8
0
  6
CONTINUOUS
 62
     3
  5
146
 10
-37.916602
 20
-87.403818
 30
0.0
 11
-52.196408
 21
-79.159369
 31
0.0
  0
LINE
  8
0
  6
CONTINUOUS
 62
     3
  5
147
 10
-69.916602
 20
-142.829444
 30
0.0
 11
-84.196408
 21
-134.584995
 31
0.0
  0
ARC
  8
0
  6
CONTINUOUS
 62
     3
  5
148
 10
0.0
 20
-146.245396
 30
0.0
 40
85.0
 50
233.250668
 51
228.033196
  0
POLYLINE
  8
0
  6
CONTINUOUS
 62
     3
  5
149
 66
     1
 10
0.0
 20
0.0
 30
0.0
  0
VERTEX
  8
0
  6
CONTINUOUS
 62
     3
  5
21A
 10
-71.336211
 20
-209.243317
 30
0.0
  0
VERTEX
  8
0
  6
CONTINUOUS
 62
     3
  5
21B
 10
-70.911986
 20
-209.495836
 30
0.0
  0
VERTEX
  8
0
  6
CONTINUOUS
 62
     3
  5
21C
 10
-70.472409
 20
-209.776513
 30
0.0
  0
VERTEX
  8
0
  6
CONTINUOUS
 62
     3
  5
21D
 10
-70.024734
 20
-210.083035
 30
0.0
  0
VERTEX
  8
0
  6
CONTINUOUS
 62
     3
  5
21E
 10
-69.576216
 20
-210.41309
 30
0.0
  0
VERTEX
  8
0
  6
CONTINUOUS
 62
     3
  5
21F
 10
-69.134109
 20
-210.764364
 30
0.0
  0
VERTEX
  8
0
  6
CONTINUOUS
 62
     3
  5
220
 10
-68.705669
 20
-211.134546
 30
0.0
  0
VERTEX
  8
0
  6
CONTINUOUS
 62
     3
  5
221
 10
-68.298151
 20
-211.521323
 30
0.0
  0
VERTEX
  8
0
  6
CONTINUOUS
 62
     3
  5
222
 10
-67.918808
 20
-211.922383
 30
0.0
  0
VERTEX
  8
0
  6
CONTINUOUS
 62
     3
  5
223
 10
-67.574897
 20
-212.335412
 30
0.0
  0
VERTEX
  8
0
  6
CONTINUOUS
 62
     3
  5
224
 10
-67.273671
 20
-212.7581
 30
0.0
  0
VERTEX
  8
0
  6
CONTINUOUS
 62
     3
  5
225
 10
-67.022387
 20
-213.188133
 30
0.0
  0
VERTEX
  8
0
  6
CONTINUOUS
 62
     3
  5
226
 10
-66.828298
 20
-213.623198
 30
0.0
  0
VERTEX
  8
0
  6
CONTINUOUS
 62
     3
  5
227
 10
-66.698659
 20
-214.060984
 30
0.0
  0
VERTEX
  8
0
  6
CONTINUOUS
 62
     3
  5
228
 10
-66.640726
 20
-214.499177
 30
0.0
  0
VERTEX
  8
0
  6
CONTINUOUS
 62
     3
  5
229
 10
-66.661753
 20
-214.935466
 30
0.0
  0
VERTEX
  8
0
  6
CONTINUOUS
 62
     3
  5
22A
 10
-66.768994
 20
-215.367538
 30
0.0
  0
VERTEX
  8
0
  6
CONTINUOUS
 62
     3
  5
22B
 10
-66.859039
 20
-215.586738
 30
0.0
  0
VERTEX
  8
0
  6
CONTINUOUS
 62
     3
  5
22C
 10
-66.970253
 20
-215.804252
 30
0.0
  0
VERTEX
  8
0
  6
CONTINUOUS
 62
     3
  5
22D
 10
-67.099234
 20
-216.020109
 30
0.0
  0
VERTEX
  8
0
  6
CONTINUOUS
 62
     3
  5
22E
 10
-67.242581
 20
-216.234339
 30
0.0
  0
VERTEX
  8
0
  6
CONTINUOUS
 62
     3
  5
22F
 10
-67.396891
 20
-216.446973
 30
0.0
  0
VERTEX
  8
0
  6
CONTINUOUS
 62
     3
  5
230
 10
-67.558764
 20
-216.658041
 30
0.0
  0
VERTEX
  8
0
  6
CONTINUOUS
 62
     3
  5
231
 10
-67.724797
 20
-216.867572
 30
0.0
  0
VERTEX
  8
0
  6
CONTINUOUS
 62
     3
  5
232
 10
-67.891588
 20
-217.075596
 30
0.0
  0
VERTEX
  8
0
  6
CONTINUOUS
 62
     3
  5
233
 10
-68.055736
 20
-217.282143
 30
0.0
  0
VERTEX
  8
0
  6
CONTINUOUS
 62
     3
  5
234
 10
-68.213838
 20
-217.487244
 30
0.0
  0
VERTEX
  8
0
  6
CONTINUOUS
 62
     3
  5
235
 10
-68.362493
 20
-217.690929
 30
0.0
  0
VERTEX
  8
0
  6
CONTINUOUS
 62
     3
  5
236
 10
-68.4983
 20
-217.893227
 30
0.0
  0
VERTEX
  8
0
  6
CONTINUOUS
 62
     3
  5
237
 10
-68.617856
 20
-218.094167
 30
0.0
  0
VERTEX
  8
0
  6
CONTINUOUS
 62
     3
  5
238
 10
-68.717759
 20
-218.293782
 30
0.0
  0
VERTEX
  8
0
  6
CONTINUOUS
 62
     3
  5
239
 10
-68.794609
 20
-218.492099
 30
0.0
  0
VERTEX
  8
0
  6
CONTINUOUS
 62
     3
  5
23A
 10
-68.845002
 20
-218.68915
 30
0.0
  0
VERTEX
  8
0
  6
CONTINUOUS
 62
     3
  5
23B
 10
-68.863162
 20
-219.036762
 30
0.0
  0
VERTEX
  8
0
  6
CONTINUOUS
 62
     3
  5
23C
 10
-68.794673
 20
-219.379071
 30
0.0
  0
VERTEX
  8
0
  6
CONTINUOUS
 62
     3
  5
23D
 10
-68.647573
 20
-219.714695
 30
0.0
  0
VERTEX
  8
0
  6
CONTINUOUS
 62
     3
  5
23E
 10
-68.429903
 20
-220.042255
 30
0.0
  0
VERTEX
  8
0
  6
CONTINUOUS
 62
     3
  5
23F
 10
-68.149701
 20
-220.360367
 30
0.0
  0
VERTEX
  8
0
  6
CONTINUOUS
 62
     3
  5
240
 10
-67.815008
 20
-220.667652
 30
0.0
  0
VERTEX
  8
0
  6
CONTINUOUS
 62
     3
  5
241
 10
-67.433864
 20
-220.962729
 30
0.0
  0
VERTEX
  8
0
  6
CONTINUOUS
 62
     3
  5
242
 10
-67.014308
 20
-221.244216
 30
0.0
  0
VERTEX
  8
0
  6
CONTINUOUS
 62
     3
  5
243
 10
-66.564379
 20
-221.510733
 30
0.0
  0
VERTEX
  8
0
  6
CONTINUOUS
 62
     3
  5
244
 10
-66.092117
 20
-221.760898
 30
0.0
  0
VERTEX
  8
0
  6
CONTINUOUS
 62
     3
  5
245
 10
-65.605562
 20
-221.99333
 30
0.0
  0
VERTEX
  8
0
  6
CONTINUOUS
 62
     3
  5
246
 10
-65.112755
 20
-222.206649
 30
0.0
  0
VERTEX
  8
0
  6
CONTINUOUS
 62
     3
  5
247
 10
-64.621733
 20
-222.399472
 30
0.0
  0
VERTEX
  8
0
  6
CONTINUOUS
 62
     3
  5
248
 10
-64.140537
 20
-222.57042
 30
0.0
  0
VERTEX
  8
0
  6
CONTINUOUS
 62
     3
  5
249
 10
-63.677207
 20
-222.718112
 30
0.0
  0
VERTEX
  8
0
  6
CONTINUOUS
 62
     3
  5
24A
 10
-63.239782
 20
-222.841165
 30
0.0
  0
SEQEND
  8
0
  6
CONTINUOUS
 62
     3
  5
24B
  0
LINE
  8
0
  6
CONTINUOUS
 62
     3
  5
14A
 10
-85.0
 20
65.733333
 30
0.0
 11
-85.0
 21
0.0
 31
0.0
  0
ARC
  8
0
  6
CONTINUOUS
 62
     3
  5
14B
 10
-60.958301
 20
-0.888341
 30
0.0
 40
23.058817
 50
2.207866
 51
59.598998
  0
LINE
  8
0
  6
CONTINUOUS
 62
     3
  5
14C
 10
40.466008
 20
0.0
 30
0.0
 11
40.466008
 21
-10.0
 31
0.0
  0
LINE
  8
0
  6
CONTINUOUS
 62
    80
  5
14D
 10
47.966008
 20
-29.0
 30
0.0
 11
55.966008
 21
-29.0
 31
0.0
  0
LINE
  8
0
  6
CONTINUOUS
 62
    80
  5
14E
 10
54.966008
 20
-30.0
 30
0.0
 11
54.966008
 21
-21.5
 31
0.0
  0
LINE
  8
0
  6
CONTINUOUS
 62
    80
  5
14F
 10
48.966008
 20
-21.5
 30
0.0
 11
48.966008
 21
-30.0
 31
0.0
  0
LINE
  8
0
  6
CONTINUOUS
 62
     3
  5
150
 10
47.966008
 20
-29.0
 30
0.0
 11
48.966008
 21
-30.0
 31
0.0
  0
LINE
  8
0
  6
CONTINUOUS
 62
     3
  5
151
 10
54.966008
 20
-30.0
 30
0.0
 11
55.966008
 21
-29.0
 31
0.0
  0
LINE
  8
0
  6
CONTINUOUS
 62
     3
  5
152
 10
40.966008
 20
-10.0
 30
0.0
 11
40.966008
 21
-11.5
 31
0.0
  0
LINE
  8
0
  6
CONTINUOUS
 62
     3
  5
153
 10
40.966008
 20
-11.5
 30
0.0
 11
62.966008
 21
-11.5
 31
0.0
  0
LINE
  8
0
  6
CONTINUOUS
 62
     3
  5
154
 10
62.966008
 20
-11.5
 30
0.0
 11
62.966008
 21
-10.0
 31
0.0
  0
LINE
  8
0
  6
CONTINUOUS
 62
     3
  5
155
 10
44.466008
 20
-11.5
 30
0.0
 11
44.466008
 21
-13.5
 31
0.0
  0
LINE
  8
0
  6
CONTINUOUS
 62
     3
  5
156
 10
44.466008
 20
-13.5
 30
0.0
 11
51.966008
 21
-15.0
 31
0.0
  0
LINE
  8
0
  6
CONTINUOUS
 62
     3
  5
157
 10
51.966008
 20
-13.0
 30
0.0
 11
44.466008
 21
-11.5
 31
0.0
  0
LINE
  8
0
  6
CONTINUOUS
 62
     3
  5
158
 10
51.966008
 20
-13.5
 30
0.0
 11
59.466008
 21
-15.0
 31
0.0
  0
LINE
  8
0
  6
CONTINUOUS
 62
     3
  5
159
 10
59.466008
 20
-15.0
 30
0.0
 11
59.466008
 21
-13.0
 31
0.0
  0
LINE
  8
0
  6
CONTINUOUS
 62
     3
  5
15A
 10
59.466008
 20
-13.0
 30
0.0
 11
51.966008
 21
-11.5
 31
0.0
  0
ARC
  8
0
  6
CONTINUOUS
 62
     3
  5
15B
 10
60.958301
 20
-0.888341
 30
0.0
 40
23.058817
 50
120.401002
 51
177.792134
  0
LINE
  8
0
  6
CONTINUOUS
 62
     3
  5
15C
 10
-63.45704
 20
0.0
 30
0.0
 11
-63.45704
 21
-10.0
 31
0.0
  0
LINE
  8
0
  6
CONTINUOUS
 62
    80
  5
15D
 10
-55.95704
 20
-29.0
 30
0.0
 11
-47.95704
 21
-29.0
 31
0.0
  0
LINE
  8
0
  6
CONTINUOUS
 62
    80
  5
15E
 10
-48.95704
 20
-30.0
 30
0.0
 11
-48.95704
 21
-21.5
 31
0.0
  0
LINE
  8
0
  6
CONTINUOUS
 62
    80
  5
15F
 10
-54.95704
 20
-21.5
 30
0.0
 11
-54.95704
 21
-30.0
 31
0.0
  0
LINE
  8
0
  6
CONTINUOUS
 62
     3
  5
160
 10
-55.95704
 20
-29.0
 30
0.0
 11
-54.95704
 21
-30.0
 31
0.0
  0
LINE
  8
0
  6
CONTINUOUS
 62
     3
  5
161
 10
-48.95704
 20
-30.0
 30
0.0
 11
-47.95704
 21
-29.0
 31
0.0
  0
LINE
  8
0
  6
CONTINUOUS
 62
     3
  5
162
 10
-62.95704
 20
-10.0
 30
0.0
 11
-62.95704
 21
-11.5
 31
0.0
  0
LINE
  8
0
  6
CONTINUOUS
 62
     3
  5
163
 10
-62.95704
 20
-11.5
 30
0.0
 11
-40.95704
 21
-11.5
 31
0.0
  0
LINE
  8
0
  6
CONTINUOUS
 62
     3
  5
164
 10
-40.95704
 20
-11.5
 30
0.0
 11
-40.95704
 21
-10.0
 31
0.0
  0
LINE
  8
0
  6
CONTINUOUS
 62
     3
  5
165
 10
-59.45704
 20
-11.5
 30
0.0
 11
-59.45704
 21
-13.5
 31
0.0
  0
LINE
  8
0
  6
CONTINUOUS
 62
     3
  5
166
 10
-59.45704
 20
-13.5
 30
0.0
 11
-51.95704
 21
-15.0
 31
0.0
  0
LINE
  8
0
  6
CONTINUOUS
 62
     3
  5
167
 10
-51.95704
 20
-13.0
 30
0.0
 11
-59.45704
 21
-11.5
 31
0.0
  0
LINE
  8
0
  6
CONTINUOUS
 62
     3
  5
168
 10
-51.95704
 20
-13.5
 30
0.0
 11
-44.45704
 21
-15.0
 31
0.0
  0
LINE
  8
0
  6
CONTINUOUS
 62
     3
  5
169
 10
-44.45704
 20
-15.0
 30
0.0
 11
-44.45704
 21
-13.0
 31
0.0
  0
LINE
  8
0
  6
CONTINUOUS
 62
     3
  5
16A
 10
-44.45704
 20
-13.0
 30
0.0
 11
-51.95704
 21
-11.5
 31
0.0
  0
LINE
  8
0
  6
CONTINUOUS
 62
     3
  5
16B
 10
-59.20704
 20
-15.715036
 30
0.0
 11
-59.20704
 21
-20.784964
 31
0.0
  0
ARC
  8
0
  6
CONTINUOUS
 62
     3
  5
16C
 10
0.0
 20
-103.0
 30
0.0
 40
303.0
 50
90.0
 51
98.478141
  0
LINE
  8
0
  6
CONTINUOUS
 62
     3
  5
16D
 10
4.0
 20
-15.0
 30
0.0
 11
4.0
 21
-14.3
 31
0.0
  0
LINE
  8
0
  6
CONTINUOUS
 62
     3
  5
16E
 10
4.0
 20
-12.3
 30
0.0
 11
4.0
 21
-11.5
 31
0.0
  0
LINE
  8
0
  6
CONTINUOUS
 62
     3
  5
16F
 10
-4.0
 20
-12.2
 30
0.0
 11
-4.0
 21
-11.5
 31
0.0
  0
LINE
  8
0
  6
CONTINUOUS
 62
     3
  5
170
 10
-4.0
 20
-15.0
 30
0.0
 11
-4.0
 21
-14.2
 31
0.0
  0
LINE
  8
0
  6
CONTINUOUS
 62
     3
  5
171
 10
4.0
 20
-29.0
 30
0.0
 11
4.0
 21
-21.5
 31
0.0
  0
LINE
  8
0
  6
CONTINUOUS
 62
     3
  5
172
 10
-3.0
 20
-30.0
 30
0.0
 11
3.0
 21
-30.0
 31
0.0
  0
LINE
  8
0
  6
CONTINUOUS
 62
     3
  5
173
 10
-4.0
 20
-21.5
 30
0.0
 11
-4.0
 21
-29.0
 31
0.0
  0
LINE
  8
0
  6
CONTINUOUS
 62
     3
  5
174
 10
-6.011522
 20
-15.0
 30
0.0
 11
-7.25
 21
-15.715036
 31
0.0
  0
LINE
  8
0
  6
CONTINUOUS
 62
     3
  5
175
 10
7.25
 20
-15.715036
 30
0.0
 11
6.011522
 21
-15.0
 31
0.0
  0
LINE
  8
0
  6
CONTINUOUS
 62
     3
  5
176
 10
6.011522
 20
-21.5
 30
0.0
 11
7.25
 21
-20.784964
 31
0.0
  0
LINE
  8
0
  6
CONTINUOUS
 62
     3
  5
177
 10
-7.25
 20
-20.784964
 30
0.0
 11
-6.011522
 21
-21.5
 31
0.0
  0
LINE
  8
0
  6
CONTINUOUS
 62
    80
  5
178
 10
3.625
 20
-16.000262
 30
0.0
 11
3.625
 21
-20.499738
 31
0.0
  0
LINE
  8
0
  6
CONTINUOUS
 62
    80
  5
179
 10
-3.625
 20
-16.000262
 30
0.0
 11
-3.625
 21
-20.499738
 31
0.0
  0
ARC
  8
0
  6
CONTINUOUS
 62
    80
  5
17A
 10
5.4375
 20
-19.357721
 30
0.0
 40
2.142279
 50
212.214144
 51
327.785856
  0
LINE
  8
0
  6
CONTINUOUS
 62
     3
  5
17B
 10
11.5
 20
0.0
 30
0.0
 11
11.5
 21
-10.0
 31
0.0
  0
LINE
  8
0
  6
CONTINUOUS
 62
     3
  5
17C
 10
11.5
 20
-10.0
 30
0.0
 11
-11.5
 21
-10.0
 31
0.0
  0
ARC
  8
0
  6
CONTINUOUS
 62
    80
  5
17D
 10
-5.4375
 20
-19.357721
 30
0.0
 40
2.142279
 50
212.214144
 51
327.785856
  0
LINE
  8
0
  6
CONTINUOUS
 62
     3
  5
17E
 10
-57.968562
 20
-21.5
 30
0.0
 11
-45.945518
 21
-21.5
 31
0.0
  0
LINE
  8
0
  6
CONTINUOUS
 62
     3
  5
17F
 10
-44.70704
 20
-20.784964
 30
0.0
 11
-44.70704
 21
-15.715036
 31
0.0
  0
LINE
  8
0
  6
CONTINUOUS
 62
     3
  5
180
 10
-45.945518
 20
-15.0
 30
0.0
 11
-57.968562
 21
-15.0
 31
0.0
  0
ARC
  8
0
  6
CONTINUOUS
 62
    80
  5
181
 10
-46.51954
 20
-17.142279
 30
0.0
 40
2.142279
 50
32.214144
 51
147.785856
  0
ARC
  8
0
  6
CONTINUOUS
 62
    80
  5
182
 10
-51.95704
 20
-22.068723
 30
0.0
 40
7.068723
 50
59.147984
 51
120.852016
  0
ARC
  8
0
  6
CONTINUOUS
 62
    80
  5
183
 10
-51.95704
 20
-14.431277
 30
0.0
 40
7.068723
 50
239.147984
 51
300.852016
  0
ARC
  8
0
  6
CONTINUOUS
 62
    80
  5
184
 10
-57.39454
 20
-17.142279
 30
0.0
 40
2.142279
 50
32.214144
 51
147.785856
  0
LINE
  8
0
  6
CONTINUOUS
 62
     3
  5
185
 10
-40.45704
 20
-10.0
 30
0.0
 11
-63.45704
 21
-10.0
 31
0.0
  0
LINE
  8
0
  6
CONTINUOUS
 62
     3
  5
186
 10
-40.45704
 20
0.0
 30
0.0
 11
-40.45704
 21
-10.0
 31
0.0
  0
ARC
  8
0
  6
CONTINUOUS
 62
    80
  5
187
 10
-57.39454
 20
-19.357721
 30
0.0
 40
2.142279
 50
212.214144
 51
327.785856
  0
ARC
  8
0
  6
CONTINUOUS
 62
    80
  5
188
 10
-46.51954
 20
-19.357721
 30
0.0
 40
2.142279
 50
212.214144
 51
327.785856
  0
LINE
  8
0
  6
CONTINUOUS
 62
    80
  5
189
 10
-55.58204
 20
-16.000262
 30
0.0
 11
-55.58204
 21
-20.499738
 31
0.0
  0
LINE
  8
0
  6
CONTINUOUS
 62
    80
  5
18A
 10
-48.33204
 20
-16.000262
 30
0.0
 11
-48.33204
 21
-20.499738
 31
0.0
  0
LINE
  8
0
  6
CONTINUOUS
 62
     3
  5
18B
 10
-59.20704
 20
-20.784964
 30
0.0
 11
-57.968562
 21
-21.5
 31
0.0
  0
LINE
  8
0
  6
CONTINUOUS
 62
     3
  5
18C
 10
-45.945518
 20
-21.5
 30
0.0
 11
-44.70704
 21
-20.784964
 31
0.0
  0
LINE
  8
0
  6
CONTINUOUS
 62
     3
  5
18D
 10
-44.70704
 20
-15.715036
 30
0.0
 11
-45.945518
 21
-15.0
 31
0.0
  0
LINE
  8
0
  6
CONTINUOUS
 62
     3
  5
18E
 10
-57.968562
 20
-15.0
 30
0.0
 11
-59.20704
 21
-15.715036
 31
0.0
  0
LINE
  8
0
  6
CONTINUOUS
 62
     3
  5
18F
 10
-55.95704
 20
-21.5
 30
0.0
 11
-55.95704
 21
-29.0
 31
0.0
  0
LINE
  8
0
  6
CONTINUOUS
 62
     3
  5
190
 10
-54.95704
 20
-30.0
 30
0.0
 11
-48.95704
 21
-30.0
 31
0.0
  0
LINE
  8
0
  6
CONTINUOUS
 62
     3
  5
191
 10
-47.95704
 20
-29.0
 30
0.0
 11
-47.95704
 21
-21.5
 31
0.0
  0
LINE
  8
0
  6
CONTINUOUS
 62
     3
  5
192
 10
-55.95704
 20
-15.0
 30
0.0
 11
-55.95704
 21
-14.2
 31
0.0
  0
LINE
  8
0
  6
CONTINUOUS
 62
     3
  5
193
 10
-55.95704
 20
-12.2
 30
0.0
 11
-55.95704
 21
-11.5
 31
0.0
  0
LINE
  8
0
  6
CONTINUOUS
 62
     3
  5
194
 10
-47.95704
 20
-12.3
 30
0.0
 11
-47.95704
 21
-11.5
 31
0.0
  0
LINE
  8
0
  6
CONTINUOUS
 62
     3
  5
195
 10
-47.95704
 20
-15.0
 30
0.0
 11
-47.95704
 21
-14.3
 31
0.0
  0
LINE
  8
0
  6
CONTINUOUS
 62
     3
  5
196
 10
44.716008
 20
-15.715036
 30
0.0
 11
44.716008
 21
-20.784964
 31
0.0
  0
LINE
  8
0
  6
CONTINUOUS
 62
     3
  5
197
 10
45.954486
 20
-21.5
 30
0.0
 11
57.97753
 21
-21.5
 31
0.0
  0
LINE
  8
0
  6
CONTINUOUS
 62
     3
  5
198
 10
59.216008
 20
-20.784964
 30
0.0
 11
59.216008
 21
-15.715036
 31
0.0
  0
LINE
  8
0
  6
CONTINUOUS
 62
     3
  5
199
 10
57.97753
 20
-15.0
 30
0.0
 11
45.954486
 21
-15.0
 31
0.0
  0
ARC
  8
0
  6
CONTINUOUS
 62
    80
  5
19A
 10
57.403508
 20
-17.142279
 30
0.0
 40
2.142279
 50
32.214144
 51
147.785856
  0
ARC
  8
0
  6
CONTINUOUS
 62
    80
  5
19B
 10
51.966008
 20
-22.068723
 30
0.0
 40
7.068723
 50
59.147984
 51
120.852016
  0
LINE
  8
0
  6
CONTINUOUS
 62
     3
  5
19C
 10
63.466008
 20
-10.0
 30
0.0
 11
40.466008
 21
-10.0
 31
0.0
  0
LINE
  8
0
  6
CONTINUOUS
 62
     3
  5
19D
 10
63.466008
 20
0.0
 30
0.0
 11
63.466008
 21
-10.0
 31
0.0
  0
ARC
  8
0
  6
CONTINUOUS
 62
    80
  5
19E
 10
51.966008
 20
-14.431277
 30
0.0
 40
7.068723
 50
239.147984
 51
300.852016
  0
ARC
  8
0
  6
CONTINUOUS
 62
    80
  5
19F
 10
46.528508
 20
-17.142279
 30
0.0
 40
2.142279
 50
32.214144
 51
147.785856
  0
ARC
  8
0
  6
CONTINUOUS
 62
    80
  5
1A0
 10
46.528508
 20
-19.357721
 30
0.0
 40
2.142279
 50
212.214144
 51
327.785856
  0
ARC
  8
0
  6
CONTINUOUS
 62
    80
  5
1A1
 10
57.403508
 20
-19.357721
 30
0.0
 40
2.142279
 50
212.214144
 51
327.785856
  0
LINE
  8
0
  6
CONTINUOUS
 62
    80
  5
1A2
 10
48.341008
 20
-16.000262
 30
0.0
 11
48.341008
 21
-20.499738
 31
0.0
  0
LINE
  8
0
  6
CONTINUOUS
 62
     3
  5
1A3
 10
-85.0
 20
0.0
 30
0.0
 11
85.0
 21
0.0
 31
0.0
  0
LINE
  8
0
  6
CONTINUOUS
 62
     3
  5
1A4
 10
-85.0
 20
65.733333
 30
0.0
 11
85.0
 21
65.733333
 31
0.0
  0
LINE
  8
0
  6
CONTINUOUS
 62
    80
  5
1A5
 10
55.591008
 20
-16.000262
 30
0.0
 11
55.591008
 21
-20.499738
 31
0.0
  0
LINE
  8
0
  6
CONTINUOUS
 62
     3
  5
1A6
 10
44.716008
 20
-20.784964
 30
0.0
 11
45.954486
 21
-21.5
 31
0.0
  0
LINE
  8
0
  6
CONTINUOUS
 62
     3
  5
1A7
 10
57.97753
 20
-21.5
 30
0.0
 11
59.216008
 21
-20.784964
 31
0.0
  0
LINE
  8
0
  6
CONTINUOUS
 62
     3
  5
1A8
 10
59.216008
 20
-15.715036
 30
0.0
 11
57.97753
 21
-15.0
 31
0.0
  0
LINE
  8
0
  6
CONTINUOUS
 62
     3
  5
1A9
 10
45.954486
 20
-15.0
 30
0.0
 11
44.716008
 21
-15.715036
 31
0.0
  0
LINE
  8
0
  6
CONTINUOUS
 62
     3
  5
1AA
 10
47.966008
 20
-21.5
 30
0.0
 11
47.966008
 21
-29.0
 31
0.0
  0
LINE
  8
0
  6
CONTINUOUS
 62
     3
  5
1AB
 10
48.966008
 20
-30.0
 30
0.0
 11
54.966008
 21
-30.0
 31
0.0
  0
LINE
  8
0
  6
CONTINUOUS
 62
     3
  5
1AC
 10
55.966008
 20
-29.0
 30
0.0
 11
55.966008
 21
-21.5
 31
0.0
  0
LINE
  8
0
  6
CONTINUOUS
 62
     3
  5
1AD
 10
47.966008
 20
-15.0
 30
0.0
 11
47.966008
 21
-14.2
 31
0.0
  0
LINE
  8
0
  6
CONTINUOUS
 62
     3
  5
1AE
 10
47.966008
 20
-12.2
 30
0.0
 11
47.966008
 21
-11.5
 31
0.0
  0
LINE
  8
0
  6
CONTINUOUS
 62
     3
  5
1AF
 10
55.966008
 20
-12.3
 30
0.0
 11
55.966008
 21
-11.5
 31
0.0
  0
LINE
  8
0
  6
CONTINUOUS
 62
     3
  5
1B0
 10
55.966008
 20
-15.0
 30
0.0
 11
55.966008
 21
-14.3
 31
0.0
  0
LINE
  8
0
  6
CONTINUOUS
 62
     3
  5
1B1
 10
-51.260687
 20
19.4
 30
0.0
 11
51.260687
 21
19.4
 31
0.0
  0
ARC
  8
0
  6
CONTINUOUS
 62
     3
  5
1B2
 10
60.958301
 20
-0.488341
 30
0.0
 40
23.058817
 50
120.401002
 51
177.792134
  0
LINE
  8
0
  6
CONTINUOUS
 62
     3
  5
1B3
 10
49.289413
 20
19.4
 30
0.0
 11
49.289413
 21
0.0
 31
0.0
  0
LINE
  8
0
  6
CONTINUOUS
 62
     3
  5
1B4
 10
-51.260687
 20
19.4
 30
0.0
 11
-51.260687
 21
0.0
 31
0.0
  0
LINE
  8
0
  6
CONTINUOUS
 62
     3
  5
1B5
 10
51.260687
 20
19.4
 30
0.0
 11
51.260687
 21
0.0
 31
0.0
  0
ARC
  8
0
  6
CONTINUOUS
 62
    80
  5
1B6
 10
-5.4375
 20
-17.142279
 30
0.0
 40
2.142279
 50
32.214144
 51
147.785856
  0
ARC
  8
0
  6
CONTINUOUS
 62
    80
  5
1B7
 10
0.0
 20
-14.431277
 30
0.0
 40
7.068723
 50
239.147984
 51
300.852016
  0
ARC
  8
0
  6
CONTINUOUS
 62
    80
  5
1B8
 10
0.0
 20
-22.068723
 30
0.0
 40
7.068723
 50
59.147984
 51
120.852016
  0
ARC
  8
0
  6
CONTINUOUS
 62
    80
  5
1B9
 10
5.4375
 20
-17.142279
 30
0.0
 40
2.142279
 50
32.214144
 51
147.785856
  0
LINE
  8
0
  6
CONTINUOUS
 62
     3
  5
1BA
 10
6.011522
 20
-15.0
 30
0.0
 11
-6.011522
 21
-15.0
 31
0.0
  0
LINE
  8
0
  6
CONTINUOUS
 62
     3
  5
1BB
 10
7.25
 20
-20.784964
 30
0.0
 11
7.25
 21
-15.715036
 31
0.0
  0
LINE
  8
0
  6
CONTINUOUS
 62
     3
  5
1BC
 10
-6.011522
 20
-21.5
 30
0.0
 11
6.011522
 21
-21.5
 31
0.0
  0
LINE
  8
0
  6
CONTINUOUS
 62
     3
  5
1BD
 10
-7.25
 20
-15.715036
 30
0.0
 11
-7.25
 21
-20.784964
 31
0.0
  0
LINE
  8
0
  6
CONTINUOUS
 62
     3
  5
1BE
 10
7.5
 20
-13.0
 30
0.0
 11
0.0
 21
-11.5
 31
0.0
  0
LINE
  8
0
  6
CONTINUOUS
 62
     3
  5
1BF
 10
7.5
 20
-15.0
 30
0.0
 11
7.5
 21
-13.0
 31
0.0
  0
LINE
  8
0
  6
CONTINUOUS
 62
     3
  5
1C0
 10
0.0
 20
-13.5
 30
0.0
 11
7.5
 21
-15.0
 31
0.0
  0
LINE
  8
0
  6
CONTINUOUS
 62
     3
  5
1C1
 10
0.0
 20
-13.0
 30
0.0
 11
-7.5
 21
-11.5
 31
0.0
  0
LINE
  8
0
  6
CONTINUOUS
 62
     3
  5
1C2
 10
-7.5
 20
-13.5
 30
0.0
 11
0.0
 21
-15.0
 31
0.0
  0
LINE
  8
0
  6
CONTINUOUS
 62
     3
  5
1C3
 10
-7.5
 20
-11.5
 30
0.0
 11
-7.5
 21
-13.5
 31
0.0
  0
LINE
  8
0
  6
CONTINUOUS
 62
     3
  5
1C4
 10
-11.5
 20
0.0
 30
0.0
 11
-11.5
 21
-10.0
 31
0.0
  0
LINE
  8
0
  6
CONTINUOUS
 62
     3
  5
1C5
 10
11.0
 20
-11.5
 30
0.0
 11
11.0
 21
-10.0
 31
0.0
  0
LINE
  8
0
  6
CONTINUOUS
 62
     3
  5
1C6
 10
-11.0
 20
-11.5
 30
0.0
 11
11.0
 21
-11.5
 31
0.0
  0
LINE
  8
0
  6
CONTINUOUS
 62
     3
  5
1C7
 10
-11.0
 20
-10.0
 30
0.0
 11
-11.0
 21
-11.5
 31
0.0
  0
ARC
  8
0
  6
CONTINUOUS
 62
     3
  5
1C8
 10
-60.958301
 20
-0.488341
 30
0.0
 40
23.058817
 50
2.207866
 51
59.598998
  0
LINE
  8
0
  6
CONTINUOUS
 62
     3
  5
1C9
 10
-49.289413
 20
19.4
 30
0.0
 11
-49.289413
 21
0.0
 31
0.0
  0
ARC
  8
0
  6
CONTINUOUS
 62
     3
  5
1CA
 10
0.0
 20
-103.0
 30
0.0
 40
303.0
 50
81.521859
 51
90.0
  0
ARC
  8
0
  6
CONTINUOUS
 62
     3
  5
1CB
 10
40.543821
 20
168.99485
 30
0.0
 40
28.0
 50
10.460421
 51
81.521859
  0
LINE
  8
0
  6
CONTINUOUS
 62
     3
  5
1CC
 10
85.0
 20
65.733333
 30
0.0
 11
85.0
 21
0.0
 31
0.0
  0
LINE
  8
0
  6
CONTINUOUS
 62
     3
  5
1CD
 10
-78.0
 20
70.0
 30
0.0
 11
78.0
 21
70.0
 31
0.0
  0
LINE
  8
0
  6
CONTINUOUS
 62
     3
  5
1CE
 10
3.0
 20
-30.0
 30
0.0
 11
4.0
 21
-29.0
 31
0.0
  0
LINE
  8
0
  6
CONTINUOUS
 62
     3
  5
1CF
 10
-4.0
 20
-29.0
 30
0.0
 11
-3.0
 21
-30.0
 31
0.0
  0
LINE
  8
0
  6
CONTINUOUS
 62
    80
  5
1D0
 10
-3.0
 20
-21.5
 30
0.0
 11
-3.0
 21
-30.0
 31
0.0
  0
LINE
  8
0
  6
CONTINUOUS
 62
    80
  5
1D1
 10
3.0
 20
-30.0
 30
0.0
 11
3.0
 21
-21.5
 31
0.0
  0
LINE
  8
0
  6
CONTINUOUS
 62
    80
  5
1D2
 10
-4.0
 20
-29.0
 30
0.0
 11
4.0
 21
-29.0
 31
0.0
  0
LINE
  8
0
  6
CONTINUOUS
 62
     3
  5
1D3
 10
-55.387393
 20
65.733333
 30
0.0
 11
-55.387393
 21
5.2
 31
0.0
  0
LINE
  8
0
  6
CONTINUOUS
 62
     3
  5
1D4
 10
-55.387393
 20
5.2
 30
0.0
 11
-68.327833
 21
5.2
 31
0.0
  0
LINE
  8
0
  6
CONTINUOUS
 62
     3
  5
1D5
 10
-68.327833
 20
5.2
 30
0.0
 11
-68.327833
 21
65.733333
 31
0.0
  0
LINE
  8
0
  6
CONTINUOUS
 62
     3
  5
1D6
 10
-68.327833
 20
5.2
 30
0.0
 11
-83.576667
 21
5.2
 31
0.0
  0
LINE
  8
0
  6
CONTINUOUS
 62
     3
  5
1D7
 10
-77.950106
 20
5.2
 30
0.0
 11
-77.950106
 21
65.733333
 31
0.0
  0
LINE
  8
0
  6
CONTINUOUS
 62
     3
  5
1D8
 10
-83.576667
 20
5.2
 30
0.0
 11
-83.576667
 21
65.733333
 31
0.0
  0
LINE
  8
0
  6
CONTINUOUS
 62
     3
  5
1D9
 10
55.203084
 20
65.733333
 30
0.0
 11
55.203084
 21
5.2
 31
0.0
  0
LINE
  8
0
  6
CONTINUOUS
 62
     3
  5
1DA
 10
55.203084
 20
5.2
 30
0.0
 11
68.327833
 21
5.2
 31
0.0
  0
LINE
  8
0
  6
CONTINUOUS
 62
     3
  5
1DB
 10
68.327833
 20
5.2
 30
0.0
 11
68.327833
 21
65.733333
 31
0.0
  0
LINE
  8
0
  6
CONTINUOUS
 62
     3
  5
1DC
 10
77.950106
 20
65.733333
 30
0.0
 11
77.950106
 21
5.2
 31
0.0
  0
LINE
  8
0
  6
CONTINUOUS
 62
     3
  5
1DD
 10
77.950106
 20
5.2
 30
0.0
 11
83.576667
 21
5.2
 31
0.0
  0
LINE
  8
0
  6
CONTINUOUS
 62
     3
  5
1DE
 10
83.576667
 20
5.2
 30
0.0
 11
83.576667
 21
65.733333
 31
0.0
  0
LINE
  8
0
  6
CONTINUOUS
 62
     3
  5
1DF
 10
77.950106
 20
5.2
 30
0.0
 11
68.327833
 21
5.2
 31
0.0
  0
ARC
  8
0
  6
CONTINUOUS
 62
     3
  5
1E0
 10
-40.543821
 20
168.99485
 30
0.0
 40
28.0
 50
98.478141
 51
169.539579
  0
ARC
  8
0
  6
CONTINUOUS
 62
     3
  5
1E1
 10
-472.906778
 20
70.0
 30
0.0
 40
550.906778
 50
0.0
 51
10.912895
  0
LINE
  8
0
  6
CONTINUOUS
 62
     3
  5
1E2
 10
78.0
 20
70.0
 30
0.0
 11
85.0
 21
65.733333
 31
0.0
  0
LINE
  8
0
  6
CONTINUOUS
 62
     3
  5
1E3
 10
51.966008
 20
-11.5
 30
0.0
 11
51.966008
 21
-15.0
 31
0.0
  0
LINE
  8
0
  6
CONTINUOUS
 62
     3
  5
1E4
 10
-51.95704
 20
-11.5
 30
0.0
 11
-51.95704
 21
-15.0
 31
0.0
  0
LINE
  8
0
  6
CONTINUOUS
 62
     3
  5
1E5
 10
-78.0
 20
70.0
 30
0.0
 11
-85.0
 21
65.733333
 31
0.0
  0
ARC
  8
0
  6
CONTINUOUS
 62
     3
  5
1E6
 10
472.906778
 20
70.0
 30
0.0
 40
550.906778
 50
169.087105
 51
180.0
  0
ENDSEC
  0
EOF
