  0
SECTION
  2
HEADER
  9
$ACADVER
  1
AC1009
  9
$DWGCODEPAGE
  3
dos932
  9
$INSBASE
 10
0.0
 20
0.0
 30
0.0
  9
$EXTMIN
 10
-95.0
 20
-295.0
 30
0.0
  9
$EXTMAX
 10
95.0
 20
254.0
 30
0.0
  9
$LIMMIN
 10
-95.0
 20
-295.0
  9
$LIMMAX
 10
95.0
 20
254.0
  9
$ORTHOMODE
 70
     0
  9
$REGENMODE
 70
     1
  9
$FILLMODE
 70
     1
  9
$QTEXTMODE
 70
     0
  9
$MIRRTEXT
 70
     1
  9
$DRAGMODE
 70
     2
  9
$LTSCALE
 40
1.0
  9
$OSMODE
 70
     0
  9
$ATTMODE
 70
     1
  9
$TEXTSIZE
 40
4.1656
  9
$TRACEWID
 40
0.05
  9
$TEXTSTYLE
  7
MX_NOTE_STANDARD
  9
$CLAYER
  8
0
  9
$CELTYPE
  6
CONTINUOUS
  9
$CECOLOR
 62
   256
  9
$DIMSCALE
 40
1.0
  9
$DIMASZ
 40
2.5
  9
$DIMEXO
 40
0.5
  9
$DIMDLI
 40
3.75
  9
$DIMRND
 40
0.0
  9
$DIMDLE
 40
0.0
  9
$DIMEXE
 40
1.0
  9
$DIMTP
 40
0.0
  9
$DIMTM
 40
0.0
  9
$DIMTXT
 40
2.5
  9
$DIMCEN
 40
2.5
  9
$DIMTSZ
 40
0.0
  9
$DIMTOL
 70
     0
  9
$DIMLIM
 70
     0
  9
$DIMTIH
 70
     0
  9
$DIMTOH
 70
     0
  9
$DIMSE1
 70
     0
  9
$DIMSE2
 70
     0
  9
$DIMTAD
 70
     1
  9
$DIMZIN
 70
     8
  9
$DIMBLK
  1

  9
$DIMASO
 70
     1
  9
$DIMSHO
 70
     1
  9
$DIMPOST
  1

  9
$DIMAPOST
  1

  9
$DIMALT
 70
     0
  9
$DIMALTD
 70
     4
  9
$DIMALTF
 40
0.03937
  9
$DIMLFAC
 40
1.0
  9
$DIMTOFL
 70
     1
  9
$DIMTVP
 40
0.0
  9
$DIMTIX
 70
     0
  9
$DIMSOXD
 70
     0
  9
$DIMSAH
 70
     0
  9
$DIMBLK1
  1

  9
$DIMBLK2
  1

  9
$DIMSTYLE
  2
MXDIMSTYLE
  9
$DIMCLRD
 70
     0
  9
$DIMCLRE
 70
     0
  9
$DIMCLRT
 70
     0
  9
$DIMTFAC
 40
1.0
  9
$DIMGAP
 40
1.0
  9
$LUNITS
 70
     2
  9
$LUPREC
 70
     4
  9
$AXISMODE
 70
     0
  9
$AXISUNIT
 10
0.0
 20
0.0
  9
$SKETCHINC
 40
0.1
  9
$FILLETRAD
 40
0.0
  9
$AUNITS
 70
     0
  9
$AUPREC
 70
     0
  9
$MENU
  1
acad
  9
$ELEVATION
 40
0.0
  9
$PELEVATION
 40
0.0
  9
$THICKNESS
 40
0.0
  9
$LIMCHECK
 70
     0
  9
$BLIPMODE
 70
     1
  9
$CHAMFERA
 40
0.0
  9
$CHAMFERB
 40
0.0
  9
$SKPOLY
 70
     0
  9
$TDCREATE
 40
2453858.567488426
  9
$TDUPDATE
 40
2453858.567488426
  9
$TDINDWG
 40
0.0000000000
  9
$TDUSRTIMER
 40
0.0000000000
  9
$USRTIMER
 70
     1
  9
$ANGBASE
 50
0.0
  9
$ANGDIR
 70
     0
  9
$PDMODE
 70
     0
  9
$PDSIZE
 40
0.0
  9
$PLINEWID
 40
0.0
  9
$COORDS
 70
     1
  9
$SPLFRAME
 70
     0
  9
$SPLINETYPE
 70
     6
  9
$SPLINESEGS
 70
     8
  9
$ATTDIA
 70
     0
  9
$ATTREQ
 70
     1
  9
$HANDLING
 70
     1
  9
$HANDSEED
  5
261
  9
$SURFTAB1
 70
     6
  9
$SURFTAB2
 70
     6
  9
$SURFTYPE
 70
     6
  9
$SURFU
 70
     6
  9
$SURFV
 70
     6
  9
$UCSNAME
  2

  9
$UCSORG
 10
0.0
 20
0.0
 30
0.0
  9
$UCSXDIR
 10
1.0
 20
0.0
 30
0.0
  9
$UCSYDIR
 10
0.0
 20
1.0
 30
0.0
  9
$PUCSNAME
  2

  9
$PUCSORG
 10
0.0
 20
0.0
 30
0.0
  9
$PUCSXDIR
 10
1.0
 20
0.0
 30
0.0
  9
$PUCSYDIR
 10
0.0
 20
1.0
 30
0.0
  9
$USERI1
 70
     0
  9
$USERI2
 70
     0
  9
$USERI3
 70
     0
  9
$USERI4
 70
     0
  9
$USERI5
 70
     0
  9
$USERR1
 40
0.0
  9
$USERR2
 40
0.0
  9
$USERR3
 40
0.0
  9
$USERR4
 40
0.0
  9
$USERR5
 40
0.0
  9
$WORLDVIEW
 70
     1
  9
$SHADEDGE
 70
     3
  9
$SHADEDIF
 70
    70
  9
$TILEMODE
 70
     1
  9
$MAXACTVP
 70
    16
  9
$PINSBASE
 10
0.0
 20
0.0
 30
0.0
  9
$PLIMCHECK
 70
     0
  9
$PEXTMIN
 10
1.000000E+20
 20
1.000000E+20
 30
1.000000E+20
  9
$PEXTMAX
 10
-1.000000E+20
 20
-1.000000E+20
 30
-1.000000E+20
  9
$PLIMMIN
 10
0.0
 20
0.0
  9
$PLIMMAX
 10
12.0
 20
9.0
  9
$UNITMODE
 70
     0
  9
$VISRETAIN
 70
     0
  9
$PLINEGEN
 70
     1
  9
$PSLTSCALE
 70
     0
  9
$TREEDEPTH
 70
  3020
  9
$DWGCODEPAGE
  3
dos932
  0
ENDSEC
  0
SECTION
  2
TABLES
  0
TABLE
  2
VPORT
 70
     1
  0
VPORT
  2
*ACTIVE
 70
     0
 10
0.0
 20
0.0
 11
1.0
 21
1.0
 12
0.0
 22
-20.5
 13
0.0
 23
0.0
 14
1.0
 24
1.0
 15
0.0
 25
0.0
 16
0.0
 26
0.0
 36
1.0
 17
0.0
 27
0.0
 37
0.0
 40
554.49
 41
1.732051
 42
50.0
 43
0.0
 44
0.0
 50
0.0
 51
0.0
 71
     0
 72
   100
 73
     1
 74
     1
 75
     0
 76
     0
 77
     0
 78
     0
  0
ENDTAB
  0
TABLE
  2
LTYPE
 70
     1
  0
LTYPE
  2
CONTINUOUS
 70
    64
  3
Solid line
 72
    65
 73
     0
 40
0.0
  0
ENDTAB
  0
TABLE
  2
LAYER
 70
     5
  0
LAYER
  2
0
 70
     0
 62
     7
  6
CONTINUOUS
  0
LAYER
  2
1
 70
     0
 62
     7
  6
CONTINUOUS
  0
LAYER
  2
30
 70
     0
 62
     7
  6
CONTINUOUS
  0
LAYER
  2
_CONSTR
 70
     0
 62
     5
  6
CONTINUOUS
  0
LAYER
  2
DEFPOINTS
 70
     0
 62
     7
  6
CONTINUOUS
  0
ENDTAB
  0
TABLE
  2
STYLE
 70
     1
  0
STYLE
  2
MX_NOTE_STANDARD
 70
     0
 40
0.0
 41
1.0
 50
0.0
 71
     0
 42
4.1656
  3
txt.shx
  4
extfont.shx
  0
ENDTAB
  0
TABLE
  2
VIEW
 70
     0
  0
ENDTAB
  0
TABLE
  2
UCS
 70
     0
  0
ENDTAB
  0
TABLE
  2
APPID
 70
     1
  0
APPID
  2
ACAD
 70
     0
  0
ENDTAB
  0
TABLE
  2
DIMSTYLE
 70
     1
  0
DIMSTYLE
  2
MXDIMSTYLE
 70
     0
  3

  4

  5

  6

  7

 40
1.0
 41
2.5
 42
0.5
 43
3.75
 44
1.0
 45
0.0
 46
0.0
 47
0.0
 48
0.0
 71
     0
 72
     0
 73
     0
 74
     0
 75
     0
 76
     0
 77
     1
 78
     8
140
2.5
141
2.5
142
0.0
143
0.03937
144
1.0
145
0.0
146
1.0
147
1.0
170
     0
171
     4
172
     1
173
     0
174
     0
175
     0
176
     0
177
     0
178
     0
  0
ENDTAB
  0
ENDSEC
  0
SECTION
  2
BLOCKS
  0
ENDSEC
  0
SECTION
  2
ENTITIES
  0
CIRCLE
  8
0
  6
CONTINUOUS
 62
     3
  5
21
 10
0.0
 20
-270.0
 30
0.0
 40
9.0
  0
CIRCLE
  8
0
  6
CONTINUOUS
 62
     3
  5
22
 10
0.0
 20
-270.0
 30
0.0
 40
3.5
  0
LINE
  8
0
  6
CONTINUOUS
 62
     3
  5
23
 10
6.5
 20
-266.247223
 30
0.0
 11
6.5
 21
-273.752777
 31
0.0
  0
LINE
  8
0
  6
CONTINUOUS
 62
     3
  5
24
 10
-6.5
 20
-266.247223
 30
0.0
 11
-6.5
 21
-273.752777
 31
0.0
  0
LINE
  8
0
  6
CONTINUOUS
 62
     3
  5
25
 10
-6.5
 20
-273.752777
 30
0.0
 11
0.0
 21
-277.505553
 31
0.0
  0
LINE
  8
0
  6
CONTINUOUS
 62
     3
  5
26
 10
0.0
 20
-262.494447
 30
0.0
 11
6.5
 21
-266.247223
 31
0.0
  0
LINE
  8
0
  6
CONTINUOUS
 62
     3
  5
27
 10
0.0
 20
-277.505553
 30
0.0
 11
6.5
 21
-273.752777
 31
0.0
  0
LINE
  8
0
  6
CONTINUOUS
 62
     3
  5
28
 10
-6.5
 20
-266.247223
 30
0.0
 11
0.0
 21
-262.494447
 31
0.0
  0
CIRCLE
  8
0
  6
CONTINUOUS
 62
     3
  5
29
 10
0.0
 20
-270.0
 30
0.0
 40
6.5
  0
CIRCLE
  8
0
  6
CONTINUOUS
 62
    80
  5
2A
 10
0.0
 20
-270.0
 30
0.0
 40
4.0
  0
CIRCLE
  8
0
  6
CONTINUOUS
 62
     3
  5
2B
 10
-60.621778
 20
-165.0
 30
0.0
 40
9.0
  0
CIRCLE
  8
0
  6
CONTINUOUS
 62
     3
  5
2C
 10
-60.621778
 20
-165.0
 30
0.0
 40
3.5
  0
LINE
  8
0
  6
CONTINUOUS
 62
     3
  5
2D
 10
-54.121778
 20
-161.247223
 30
0.0
 11
-54.121778
 21
-168.752777
 31
0.0
  0
LINE
  8
0
  6
CONTINUOUS
 62
     3
  5
2E
 10
-67.121778
 20
-161.247223
 30
0.0
 11
-67.121778
 21
-168.752777
 31
0.0
  0
LINE
  8
0
  6
CONTINUOUS
 62
     3
  5
2F
 10
-67.121778
 20
-168.752777
 30
0.0
 11
-60.621778
 21
-172.505553
 31
0.0
  0
LINE
  8
0
  6
CONTINUOUS
 62
     3
  5
30
 10
-60.621778
 20
-157.494447
 30
0.0
 11
-54.121778
 21
-161.247223
 31
0.0
  0
LINE
  8
0
  6
CONTINUOUS
 62
     3
  5
31
 10
-60.621778
 20
-172.505553
 30
0.0
 11
-54.121778
 21
-168.752777
 31
0.0
  0
LINE
  8
0
  6
CONTINUOUS
 62
     3
  5
32
 10
-67.121778
 20
-161.247223
 30
0.0
 11
-60.621778
 21
-157.494447
 31
0.0
  0
CIRCLE
  8
0
  6
CONTINUOUS
 62
     3
  5
33
 10
-60.621778
 20
-165.0
 30
0.0
 40
6.5
  0
CIRCLE
  8
0
  6
CONTINUOUS
 62
    80
  5
34
 10
-60.621778
 20
-165.0
 30
0.0
 40
4.0
  0
CIRCLE
  8
0
  6
CONTINUOUS
 62
     3
  5
35
 10
60.621778
 20
-165.0
 30
0.0
 40
9.0
  0
CIRCLE
  8
0
  6
CONTINUOUS
 62
     3
  5
36
 10
60.621778
 20
-165.0
 30
0.0
 40
3.5
  0
LINE
  8
0
  6
CONTINUOUS
 62
     3
  5
37
 10
67.121778
 20
-161.247223
 30
0.0
 11
67.121778
 21
-168.752777
 31
0.0
  0
LINE
  8
0
  6
CONTINUOUS
 62
     3
  5
38
 10
54.121778
 20
-161.247223
 30
0.0
 11
54.121778
 21
-168.752777
 31
0.0
  0
LINE
  8
0
  6
CONTINUOUS
 62
     3
  5
39
 10
54.121778
 20
-168.752777
 30
0.0
 11
60.621778
 21
-172.505553
 31
0.0
  0
LINE
  8
0
  6
CONTINUOUS
 62
     3
  5
3A
 10
60.621778
 20
-157.494447
 30
0.0
 11
67.121778
 21
-161.247223
 31
0.0
  0
LINE
  8
0
  6
CONTINUOUS
 62
     3
  5
3B
 10
60.621778
 20
-172.505553
 30
0.0
 11
67.121778
 21
-168.752777
 31
0.0
  0
LINE
  8
0
  6
CONTINUOUS
 62
     3
  5
3C
 10
54.121778
 20
-161.247223
 30
0.0
 11
60.621778
 21
-157.494447
 31
0.0
  0
CIRCLE
  8
0
  6
CONTINUOUS
 62
     3
  5
3D
 10
60.621778
 20
-165.0
 30
0.0
 40
6.5
  0
CIRCLE
  8
0
  6
CONTINUOUS
 62
    80
  5
3E
 10
60.621778
 20
-165.0
 30
0.0
 40
4.0
  0
LINE
  8
0
  6
CONTINUOUS
 62
     3
  5
3F
 10
3.0
 20
-28.0
 30
0.0
 11
-3.0
 21
-28.0
 31
0.0
  0
LINE
  8
0
  6
CONTINUOUS
 62
     3
  5
40
 10
-3.0
 20
-28.0
 30
0.0
 11
-4.0
 21
-27.0
 31
0.0
  0
LINE
  8
0
  6
CONTINUOUS
 62
     3
  5
41
 10
4.0
 20
-27.0
 30
0.0
 11
3.0
 21
-28.0
 31
0.0
  0
LINE
  8
0
  6
CONTINUOUS
 62
    80
  5
42
 10
4.0
 20
-27.0
 30
0.0
 11
-4.0
 21
-27.0
 31
0.0
  0
LINE
  8
0
  6
CONTINUOUS
 62
     3
  5
43
 10
-4.0
 20
-27.0
 30
0.0
 11
-4.0
 21
-8.4
 31
0.0
  0
LINE
  8
0
  6
CONTINUOUS
 62
     3
  5
44
 10
4.0
 20
-8.4
 30
0.0
 11
4.0
 21
-27.0
 31
0.0
  0
LINE
  8
0
  6
CONTINUOUS
 62
    80
  5
45
 10
3.0
 20
-8.4
 30
0.0
 11
3.0
 21
-28.0
 31
0.0
  0
LINE
  8
0
  6
CONTINUOUS
 62
    80
  5
46
 10
-3.0
 20
-28.0
 30
0.0
 11
-3.0
 21
-8.4
 31
0.0
  0
LINE
  8
0
  6
CONTINUOUS
 62
    80
  5
47
 10
64.621778
 20
-27.0
 30
0.0
 11
56.621778
 21
-27.0
 31
0.0
  0
LINE
  8
0
  6
CONTINUOUS
 62
     3
  5
48
 10
64.621778
 20
-27.0
 30
0.0
 11
63.621778
 21
-28.0
 31
0.0
  0
LINE
  8
0
  6
CONTINUOUS
 62
     3
  5
49
 10
57.621778
 20
-28.0
 30
0.0
 11
56.621778
 21
-27.0
 31
0.0
  0
LINE
  8
0
  6
CONTINUOUS
 62
     3
  5
4A
 10
63.621778
 20
-28.0
 30
0.0
 11
57.621778
 21
-28.0
 31
0.0
  0
LINE
  8
0
  6
CONTINUOUS
 62
     3
  5
4B
 10
56.621778
 20
-27.0
 30
0.0
 11
56.621778
 21
-8.4
 31
0.0
  0
LINE
  8
0
  6
CONTINUOUS
 62
     3
  5
4C
 10
64.621778
 20
-8.4
 30
0.0
 11
64.621778
 21
-27.0
 31
0.0
  0
LINE
  8
0
  6
CONTINUOUS
 62
    80
  5
4D
 10
63.621778
 20
-8.4
 30
0.0
 11
63.621778
 21
-28.0
 31
0.0
  0
LINE
  8
0
  6
CONTINUOUS
 62
    80
  5
4E
 10
57.621778
 20
-28.0
 30
0.0
 11
57.621778
 21
-8.4
 31
0.0
  0
LINE
  8
0
  6
CONTINUOUS
 62
     3
  5
4F
 10
-51.621778
 20
-1.417958
 30
0.0
 11
-69.621778
 21
-1.417958
 31
0.0
  0
LINE
  8
0
  6
CONTINUOUS
 62
     3
  5
50
 10
-51.621778
 20
-1.417958
 30
0.0
 11
-54.621778
 21
-1.9
 31
0.0
  0
LINE
  8
0
  6
CONTINUOUS
 62
     3
  5
51
 10
-51.621778
 20
-1.417958
 30
0.0
 11
-51.621778
 21
0.0
 31
0.0
  0
LINE
  8
0
  6
CONTINUOUS
 62
     3
  5
52
 10
-51.621778
 20
0.0
 30
0.0
 11
-69.621778
 21
0.0
 31
0.0
  0
LINE
  8
0
  6
CONTINUOUS
 62
     3
  5
53
 10
-69.621778
 20
-1.417958
 30
0.0
 11
-66.621778
 21
-1.9
 31
0.0
  0
LINE
  8
0
  6
CONTINUOUS
 62
     3
  5
54
 10
-69.621778
 20
-1.417958
 30
0.0
 11
-69.621778
 21
0.0
 31
0.0
  0
LINE
  8
0
  6
CONTINUOUS
 62
     3
  5
55
 10
-67.121778
 20
-8.4
 30
0.0
 11
-54.121778
 21
-8.4
 31
0.0
  0
LINE
  8
0
  6
CONTINUOUS
 62
     3
  5
56
 10
-68.127332
 20
-1.9
 30
0.0
 11
-53.116225
 21
-1.9
 31
0.0
  0
LINE
  8
0
  6
CONTINUOUS
 62
     3
  5
57
 10
-68.127332
 20
-7.819443
 30
0.0
 11
-68.127332
 21
-1.9
 31
0.0
  0
LINE
  8
0
  6
CONTINUOUS
 62
     3
  5
58
 10
-53.116225
 20
-7.819443
 30
0.0
 11
-53.116225
 21
-1.9
 31
0.0
  0
LINE
  8
0
  6
CONTINUOUS
 62
     3
  5
59
 10
-64.374555
 20
-7.819443
 30
0.0
 11
-64.374555
 21
-1.9
 31
0.0
  0
LINE
  8
0
  6
CONTINUOUS
 62
     3
  5
5A
 10
-67.121778
 20
-8.4
 30
0.0
 11
-68.127332
 21
-7.819443
 31
0.0
  0
ARC
  8
0
  6
CONTINUOUS
 62
     3
  5
5B
 10
-66.240509
 20
-5.11106
 30
0.0
 40
3.28894
 50
234.992264
 51
304.565093
  0
LINE
  8
0
  6
CONTINUOUS
 62
     3
  5
5C
 10
-56.869002
 20
-7.819443
 30
0.0
 11
-56.869002
 21
-1.9
 31
0.0
  0
ARC
  8
0
  6
CONTINUOUS
 62
     3
  5
5D
 10
-55.003047
 20
-5.11106
 30
0.0
 40
3.28894
 50
235.434907
 51
305.007736
  0
LINE
  8
0
  6
CONTINUOUS
 62
     3
  5
5E
 10
-54.121778
 20
-8.4
 30
0.0
 11
-53.116225
 21
-7.819443
 31
0.0
  0
ARC
  8
0
  6
CONTINUOUS
 62
     3
  5
5F
 10
-60.621778
 20
4.019444
 30
0.0
 40
12.419444
 50
252.412046
 51
287.587954
  0
LINE
  8
0
  6
CONTINUOUS
 62
     3
  5
60
 10
9.0
 20
-1.417958
 30
0.0
 11
-9.0
 21
-1.417958
 31
0.0
  0
LINE
  8
0
  6
CONTINUOUS
 62
     3
  5
61
 10
9.0
 20
-1.417958
 30
0.0
 11
6.0
 21
-1.9
 31
0.0
  0
LINE
  8
0
  6
CONTINUOUS
 62
     3
  5
62
 10
9.0
 20
-1.417958
 30
0.0
 11
9.0
 21
0.0
 31
0.0
  0
LINE
  8
0
  6
CONTINUOUS
 62
     3
  5
63
 10
9.0
 20
0.0
 30
0.0
 11
-9.0
 21
0.0
 31
0.0
  0
LINE
  8
0
  6
CONTINUOUS
 62
     3
  5
64
 10
-9.0
 20
-1.417958
 30
0.0
 11
-6.0
 21
-1.9
 31
0.0
  0
LINE
  8
0
  6
CONTINUOUS
 62
     3
  5
65
 10
-9.0
 20
-1.417958
 30
0.0
 11
-9.0
 21
0.0
 31
0.0
  0
LINE
  8
0
  6
CONTINUOUS
 62
     3
  5
66
 10
-6.5
 20
-8.4
 30
0.0
 11
6.5
 21
-8.4
 31
0.0
  0
LINE
  8
0
  6
CONTINUOUS
 62
     3
  5
67
 10
-7.505553
 20
-1.9
 30
0.0
 11
7.505553
 21
-1.9
 31
0.0
  0
LINE
  8
0
  6
CONTINUOUS
 62
     3
  5
68
 10
-7.505553
 20
-7.819443
 30
0.0
 11
-7.505553
 21
-1.9
 31
0.0
  0
LINE
  8
0
  6
CONTINUOUS
 62
     3
  5
69
 10
7.505553
 20
-7.819443
 30
0.0
 11
7.505553
 21
-1.9
 31
0.0
  0
LINE
  8
0
  6
CONTINUOUS
 62
     3
  5
6A
 10
-3.752777
 20
-7.819443
 30
0.0
 11
-3.752777
 21
-1.9
 31
0.0
  0
LINE
  8
0
  6
CONTINUOUS
 62
     3
  5
6B
 10
-6.5
 20
-8.4
 30
0.0
 11
-7.505554
 21
-7.819443
 31
0.0
  0
ARC
  8
0
  6
CONTINUOUS
 62
     3
  5
6C
 10
-5.618731
 20
-5.11106
 30
0.0
 40
3.28894
 50
234.992264
 51
304.565093
  0
LINE
  8
0
  6
CONTINUOUS
 62
     3
  5
6D
 10
3.752777
 20
-7.819443
 30
0.0
 11
3.752777
 21
-1.9
 31
0.0
  0
ARC
  8
0
  6
CONTINUOUS
 62
     3
  5
6E
 10
5.618731
 20
-5.11106
 30
0.0
 40
3.28894
 50
235.434907
 51
305.007736
  0
LINE
  8
0
  6
CONTINUOUS
 62
     3
  5
6F
 10
6.5
 20
-8.4
 30
0.0
 11
7.505554
 21
-7.819443
 31
0.0
  0
ARC
  8
0
  6
CONTINUOUS
 62
     3
  5
70
 10
0.0
 20
4.019444
 30
0.0
 40
12.419444
 50
252.412046
 51
287.587954
  0
ARC
  8
0
  6
CONTINUOUS
 62
     3
  5
71
 10
60.621778
 20
4.019444
 30
0.0
 40
12.419444
 50
252.412046
 51
287.587954
  0
LINE
  8
0
  6
CONTINUOUS
 62
     3
  5
72
 10
67.121778
 20
-8.4
 30
0.0
 11
68.127332
 21
-7.819443
 31
0.0
  0
ARC
  8
0
  6
CONTINUOUS
 62
     3
  5
73
 10
66.240509
 20
-5.11106
 30
0.0
 40
3.28894
 50
235.434907
 51
305.007736
  0
LINE
  8
0
  6
CONTINUOUS
 62
     3
  5
74
 10
64.374555
 20
-7.819443
 30
0.0
 11
64.374555
 21
-1.9
 31
0.0
  0
ARC
  8
0
  6
CONTINUOUS
 62
     3
  5
75
 10
55.003047
 20
-5.11106
 30
0.0
 40
3.28894
 50
234.992264
 51
304.565093
  0
LINE
  8
0
  6
CONTINUOUS
 62
     3
  5
76
 10
54.121778
 20
-8.4
 30
0.0
 11
53.116225
 21
-7.819443
 31
0.0
  0
LINE
  8
0
  6
CONTINUOUS
 62
     3
  5
77
 10
56.869002
 20
-7.819443
 30
0.0
 11
56.869002
 21
-1.9
 31
0.0
  0
LINE
  8
0
  6
CONTINUOUS
 62
     3
  5
78
 10
68.127332
 20
-7.819443
 30
0.0
 11
68.127332
 21
-1.9
 31
0.0
  0
LINE
  8
0
  6
CONTINUOUS
 62
     3
  5
79
 10
53.116225
 20
-7.819443
 30
0.0
 11
53.116225
 21
-1.9
 31
0.0
  0
LINE
  8
0
  6
CONTINUOUS
 62
     3
  5
7A
 10
53.116225
 20
-1.9
 30
0.0
 11
68.127332
 21
-1.9
 31
0.0
  0
LINE
  8
0
  6
CONTINUOUS
 62
     3
  5
7B
 10
54.121778
 20
-8.4
 30
0.0
 11
67.121778
 21
-8.4
 31
0.0
  0
LINE
  8
0
  6
CONTINUOUS
 62
     3
  5
7C
 10
51.621778
 20
-1.417958
 30
0.0
 11
51.621778
 21
0.0
 31
0.0
  0
LINE
  8
0
  6
CONTINUOUS
 62
     3
  5
7D
 10
51.621778
 20
-1.417958
 30
0.0
 11
54.621778
 21
-1.9
 31
0.0
  0
LINE
  8
0
  6
CONTINUOUS
 62
     3
  5
7E
 10
69.621778
 20
0.0
 30
0.0
 11
51.621778
 21
0.0
 31
0.0
  0
LINE
  8
0
  6
CONTINUOUS
 62
     3
  5
7F
 10
69.621778
 20
-1.417958
 30
0.0
 11
69.621778
 21
0.0
 31
0.0
  0
LINE
  8
0
  6
CONTINUOUS
 62
     3
  5
80
 10
69.621778
 20
-1.417958
 30
0.0
 11
66.621778
 21
-1.9
 31
0.0
  0
LINE
  8
0
  6
CONTINUOUS
 62
     3
  5
81
 10
69.621778
 20
-1.417958
 30
0.0
 11
51.621778
 21
-1.417958
 31
0.0
  0
LINE
  8
0
  6
CONTINUOUS
 62
     3
  5
82
 10
25.093359
 20
-256.558628
 30
0.0
 11
39.337527
 21
-256.558628
 31
0.0
  0
ARC
  8
0
  6
CONTINUOUS
 62
     3
  5
83
 10
25.093359
 20
-239.559012
 30
0.0
 40
16.999616
 50
238.465994
 51
270.0
  0
ARC
  8
0
  6
CONTINUOUS
 62
     3
  5
84
 10
25.093359
 20
-239.559012
 30
0.0
 40
10.0
 50
238.465994
 51
270.0
  0
LINE
  8
0
  6
CONTINUOUS
 62
     3
  5
85
 10
-1.830415
 20
-242.982991
 30
0.0
 11
16.202483
 21
-254.048293
 31
0.0
  0
ARC
  8
0
  6
CONTINUOUS
 62
     3
  5
86
 10
0.0
 20
-240.0
 30
0.0
 40
3.499808
 50
58.465994
 51
238.465994
  0
LINE
  8
0
  6
CONTINUOUS
 62
     3
  5
87
 10
1.830415
 20
-237.017009
 30
0.0
 11
19.863314
 21
-248.082311
 31
0.0
  0
ARC
  8
0
  6
CONTINUOUS
 62
     3
  5
88
 10
0.0
 20
-240.0
 30
0.0
 40
9.5
 50
350.08302
 51
306.957848
  0
ARC
  8
0
  6
CONTINUOUS
 62
     3
  5
89
 10
38.025027
 20
-251.309012
 30
0.0
 40
2.1875
 50
306.869898
 51
53.130102
  0
ARC
  8
0
  6
CONTINUOUS
 62
     3
  5
8A
 10
40.650027
 20
-251.309012
 30
0.0
 40
2.1875
 50
126.869898
 51
233.130102
  0
ARC
  8
0
  6
CONTINUOUS
 62
     3
  5
8B
 10
38.025027
 20
-254.809012
 30
0.0
 40
2.1875
 50
306.869898
 51
53.130102
  0
LINE
  8
0
  6
CONTINUOUS
 62
     3
  5
8C
 10
25.093359
 20
-249.559012
 30
0.0
 11
39.337527
 21
-249.559012
 31
0.0
  0
CIRCLE
  8
0
  6
CONTINUOUS
 62
    10
  5
8D
 10
0.0
 20
-270.0
 30
0.0
 40
11.0
  0
CIRCLE
  8
0
  6
CONTINUOUS
 62
    10
  5
8E
 10
0.0
 20
-270.0
 30
0.0
 40
11.5
  0
CIRCLE
  8
0
  6
CONTINUOUS
 62
    10
  5
8F
 10
-60.621778
 20
-165.0
 30
0.0
 40
11.0
  0
CIRCLE
  8
0
  6
CONTINUOUS
 62
    10
  5
90
 10
-60.621778
 20
-165.0
 30
0.0
 40
11.5
  0
CIRCLE
  8
0
  6
CONTINUOUS
 62
    10
  5
91
 10
60.621778
 20
-165.0
 30
0.0
 40
11.0
  0
CIRCLE
  8
0
  6
CONTINUOUS
 62
    10
  5
92
 10
60.621778
 20
-165.0
 30
0.0
 40
11.5
  0
CIRCLE
  8
0
  6
CONTINUOUS
 62
     3
  5
93
 10
0.0
 20
-200.0
 30
0.0
 40
91.0
  0
CIRCLE
  8
0
  6
CONTINUOUS
 62
     3
  5
94
 10
0.0
 20
-200.0
 30
0.0
 40
95.0
  0
LINE
  8
0
  6
CONTINUOUS
 62
     3
  5
95
 10
73.307486
 20
72.592109
 30
0.0
 11
69.128432
 21
72.592109
 31
0.0
  0
LINE
  8
0
  6
CONTINUOUS
 62
     3
  5
96
 10
68.162506
 20
71.850928
 30
0.0
 11
67.766507
 21
70.373039
 31
0.0
  0
LINE
  8
0
  6
CONTINUOUS
 62
     3
  5
97
 10
68.182301
 20
70.091686
 30
0.0
 11
72.983166
 21
70.091686
 31
0.0
  0
LINE
  8
0
  6
CONTINUOUS
 62
     3
  5
98
 10
72.983166
 20
70.165804
 30
0.0
 11
73.548968
 21
72.277405
 31
0.0
  0
ARC
  8
0
  6
CONTINUOUS
 62
     3
  5
99
 10
68.182301
 20
72.091686
 30
0.0
 40
2.0
 50
254.422627
 51
270.0
  0
ARC
  8
0
  6
CONTINUOUS
 62
     3
  5
9A
 10
76.252061
 20
70.292109
 30
0.0
 40
1.5
 50
270.0
 51
0.0
  0
ARC
  8
0
  6
CONTINUOUS
 62
     3
  5
9B
 10
62.991037
 20
70.292109
 30
0.0
 40
1.5
 50
180.0
 51
270.0
  0
ARC
  8
0
  6
CONTINUOUS
 62
     3
  5
9C
 10
75.402686
 20
69.792109
 30
0.0
 40
1.0
 50
230.428835
 51
270.0
  0
ARC
  8
0
  6
CONTINUOUS
 62
     3
  5
9D
 10
69.128432
 20
71.592109
 30
0.0
 40
1.0
 50
90.0
 51
165.0
  0
ARC
  8
0
  6
CONTINUOUS
 62
     3
  5
9E
 10
65.350514
 20
69.792109
 30
0.0
 40
1.0
 50
270.0
 51
277.605077
  0
ARC
  8
0
  6
CONTINUOUS
 62
     3
  5
9F
 10
73.307486
 20
72.342109
 30
0.0
 40
0.25
 50
345.0
 51
90.0
  0
LINE
  8
0
  6
CONTINUOUS
 62
     3
  5
A0
 10
66.462548
 20
35.303949
 30
0.0
 11
70.97366
 21
35.303949
 31
0.0
  0
LINE
  8
0
  6
CONTINUOUS
 62
     3
  5
A1
 10
65.138331
 20
56.713329
 30
0.0
 11
64.463047
 21
57.198469
 31
0.0
  0
LINE
  8
0
  6
CONTINUOUS
 62
     3
  5
A2
 10
64.257773
 20
57.659187
 30
0.0
 11
65.828031
 21
71.940123
 31
0.0
  0
LINE
  8
0
  6
CONTINUOUS
 62
     3
  5
A3
 10
-95.0
 20
5.0
 30
0.0
 11
-95.0
 21
0.0
 31
0.0
  0
LINE
  8
0
  6
CONTINUOUS
 62
     3
  5
A4
 10
-95.0
 20
0.0
 30
0.0
 11
95.0
 21
0.0
 31
0.0
  0
LINE
  8
0
  6
CONTINUOUS
 62
     3
  5
A5
 10
95.0
 20
0.0
 30
0.0
 11
95.0
 21
5.0
 31
0.0
  0
LINE
  8
0
  6
CONTINUOUS
 62
     3
  5
A6
 10
92.5
 20
7.0
 30
0.0
 11
-92.5
 21
7.0
 31
0.0
  0
LINE
  8
0
  6
CONTINUOUS
 62
     3
  5
A7
 10
-92.5
 20
7.0
 30
0.0
 11
-92.5
 21
68.0
 31
0.0
  0
LINE
  8
0
  6
CONTINUOUS
 62
     3
  5
A8
 10
-92.5
 20
68.0
 30
0.0
 11
-74.81739
 21
68.0
 31
0.0
  0
LINE
  8
0
  6
CONTINUOUS
 62
     3
  5
A9
 10
92.5
 20
68.0
 30
0.0
 11
92.5
 21
7.0
 31
0.0
  0
LINE
  8
0
  6
CONTINUOUS
 62
     3
  5
AA
 10
-92.5
 20
68.0
 30
0.0
 11
-92.5
 21
86.0
 31
0.0
  0
LINE
  8
0
  6
CONTINUOUS
 62
     3
  5
AB
 10
-89.5
 20
89.0
 30
0.0
 11
89.5
 21
89.0
 31
0.0
  0
LINE
  8
0
  6
CONTINUOUS
 62
     3
  5
AC
 10
92.5
 20
86.0
 30
0.0
 11
92.5
 21
68.0
 31
0.0
  0
ARC
  8
0
  6
CONTINUOUS
 62
     3
  5
AD
 10
70.97366
 20
36.303949
 30
0.0
 40
1.0
 50
270.0
 51
27.856055
  0
ARC
  8
0
  6
CONTINUOUS
 62
     3
  5
AE
 10
66.462548
 20
35.803949
 30
0.0
 40
0.5
 50
217.700412
 51
270.0
  0
ARC
  8
0
  6
CONTINUOUS
 62
     3
  5
AF
 10
72.080822
 20
63.028781
 30
0.0
 40
3.317892
 50
9.204683
 51
99.204683
  0
ARC
  8
0
  6
CONTINUOUS
 62
     3
  5
B0
 10
65.725852
 20
64.803949
 30
0.0
 40
1.5
 50
109.035991
 51
180.0
  0
LINE
  8
0
  6
CONTINUOUS
 62
     3
  5
B1
 10
64.225852
 20
43.419879
 30
0.0
 11
63.839822
 21
43.844512
 31
0.0
  0
LINE
  8
0
  6
CONTINUOUS
 62
     3
  5
B2
 10
63.452332
 20
44.907764
 30
0.0
 11
64.225852
 21
64.803949
 31
0.0
  0
ARC
  8
0
  6
CONTINUOUS
 62
     3
  5
B3
 10
64.949732
 20
44.853521
 30
0.0
 40
1.5
 50
177.925202
 51
222.273689
  0
LINE
  8
0
  6
CONTINUOUS
 62
     3
  5
B4
 10
65.208306
 20
66.303949
 30
0.0
 11
63.428582
 21
66.303949
 31
0.0
  0
LINE
  8
0
  6
CONTINUOUS
 62
     3
  5
B5
 10
61.491037
 20
70.292109
 30
0.0
 11
61.491037
 21
79.792109
 31
0.0
  0
LINE
  8
0
  6
CONTINUOUS
 62
     3
  5
B6
 10
63.428582
 20
66.303949
 30
0.0
 11
63.428582
 21
39.303949
 31
0.0
  0
LINE
  8
0
  6
CONTINUOUS
 62
     3
  5
B7
 10
63.428582
 20
39.303949
 30
0.0
 11
64.225852
 21
39.303949
 31
0.0
  0
LINE
  8
0
  6
CONTINUOUS
 62
     3
  5
B8
 10
-82.0
 20
89.0
 30
0.0
 11
-82.0
 21
223.122792
 31
0.0
  0
LINE
  8
0
  6
CONTINUOUS
 62
     3
  5
B9
 10
82.0
 20
223.122792
 30
0.0
 11
82.0
 21
89.0
 31
0.0
  0
LINE
  8
0
  6
CONTINUOUS
 62
     3
  5
BA
 10
76.252061
 20
68.792109
 30
0.0
 11
75.402686
 21
68.792109
 31
0.0
  0
LINE
  8
0
  6
CONTINUOUS
 62
     3
  5
BB
 10
77.752061
 20
79.792109
 30
0.0
 11
77.752061
 21
70.292109
 31
0.0
  0
LINE
  8
0
  6
CONTINUOUS
 62
     3
  5
BC
 10
67.319044
 20
73.276179
 30
0.0
 11
72.648846
 21
73.276179
 31
0.0
  0
LINE
  8
0
  6
CONTINUOUS
 62
     3
  5
BD
 10
74.646284
 20
71.377374
 30
0.0
 11
74.988261
 21
64.627283
 31
0.0
  0
ARC
  8
0
  6
CONTINUOUS
 62
     3
  5
BE
 10
0.0
 20
109.406863
 30
0.0
 40
144.593137
 50
57.659781
 51
122.340219
  0
LINE
  8
0
  6
CONTINUOUS
 62
     3
  5
BF
 10
75.181846
 20
57.209863
 30
0.0
 11
74.189726
 21
56.303955
 31
0.0
  0
ARC
  8
0
  6
CONTINUOUS
 62
     3
  5
C0
 10
64.754777
 20
57.604539
 30
0.0
 40
0.5
 50
173.725259
 51
234.305648
  0
ARC
  8
0
  6
CONTINUOUS
 62
     3
  5
C1
 10
-72.0
 20
223.122792
 30
0.0
 40
10.0
 50
122.340219
 51
180.0
  0
ARC
  8
0
  6
CONTINUOUS
 62
     3
  5
C2
 10
72.0
 20
223.122792
 30
0.0
 40
10.0
 50
0.0
 51
57.659781
  0
ARC
  8
0
  6
CONTINUOUS
 62
     3
  5
C3
 10
-89.5
 20
86.0
 30
0.0
 40
3.0
 50
90.0
 51
180.0
  0
ARC
  8
0
  6
CONTINUOUS
 62
     3
  5
C4
 10
89.5
 20
86.0
 30
0.0
 40
3.0
 50
0.0
 51
90.0
  0
LINE
  8
0
  6
CONTINUOUS
 62
     3
  5
C5
 10
73.259196
 20
66.214143
 30
0.0
 11
72.983166
 21
70.091686
 31
0.0
  0
LINE
  8
0
  6
CONTINUOUS
 62
     3
  5
C6
 10
67.718219
 20
70.830692
 30
0.0
 11
66.347462
 21
58.332981
 31
0.0
  0
ARC
  8
0
  6
CONTINUOUS
 62
     3
  5
C7
 10
67.319044
 20
71.776179
 30
0.0
 40
1.5
 50
90.0
 51
173.725259
  0
ARC
  8
0
  6
CONTINUOUS
 62
     3
  5
C8
 10
68.215239
 20
70.776179
 30
0.0
 40
0.5
 50
116.162873
 51
173.740783
  0
ARC
  8
0
  6
CONTINUOUS
 62
     3
  5
C9
 10
72.648846
 20
71.276179
 30
0.0
 40
2.0
 50
2.900272
 51
90.0
  0
ARC
  8
0
  6
CONTINUOUS
 62
     3
  5
CA
 10
65.721792
 20
57.52547
 30
0.0
 40
1.0
 50
234.305648
 51
51.710572
  0
LINE
  8
0
  6
CONTINUOUS
 62
     3
  5
CB
 10
-95.0
 20
5.0
 30
0.0
 11
95.0
 21
5.0
 31
0.0
  0
LINE
  8
0
  6
CONTINUOUS
 62
     3
  5
CC
 10
93.5
 20
5.0
 30
0.0
 11
93.5
 21
6.0
 31
0.0
  0
ARC
  8
0
  6
CONTINUOUS
 62
     3
  5
CD
 10
92.5
 20
6.0
 30
0.0
 40
1.0
 50
0.0
 51
90.0
  0
LINE
  8
0
  6
CONTINUOUS
 62
     3
  5
CE
 10
-93.5
 20
6.0
 30
0.0
 11
-93.5
 21
5.0
 31
0.0
  0
ARC
  8
0
  6
CONTINUOUS
 62
     3
  5
CF
 10
-92.5
 20
6.0
 30
0.0
 40
1.0
 50
90.0
 51
180.0
  0
ARC
  8
0
  6
CONTINUOUS
 62
     3
  5
D0
 10
74.844699
 20
57.579095
 30
0.0
 40
0.5
 50
312.399332
 51
2.900272
  0
LINE
  8
0
  6
CONTINUOUS
 62
     3
  5
D1
 10
75.181139
 20
60.82018
 30
0.0
 11
75.344059
 21
57.604394
 31
0.0
  0
LINE
  8
0
  6
CONTINUOUS
 62
     3
  5
D2
 10
-92.5
 20
66.0
 30
0.0
 11
-74.918716
 21
66.0
 31
0.0
  0
LINE
  8
0
  6
CONTINUOUS
 62
     3
  5
D3
 10
64.492419
 20
44.934031
 30
0.0
 11
66.401433
 21
55.777588
 31
0.0
  0
LINE
  8
0
  6
CONTINUOUS
 62
     3
  5
D4
 10
64.225852
 20
43.419879
 30
0.0
 11
64.225852
 21
41.028473
 31
0.0
  0
LINE
  8
0
  6
CONTINUOUS
 62
     3
  5
D5
 10
-56.621778
 20
-27.0
 30
0.0
 11
-56.621778
 21
-8.4
 31
0.0
  0
LINE
  8
0
  6
CONTINUOUS
 62
     3
  5
D6
 10
-63.621778
 20
-28.0
 30
0.0
 11
-57.621778
 21
-28.0
 31
0.0
  0
LINE
  8
0
  6
CONTINUOUS
 62
     3
  5
D7
 10
-64.621778
 20
-8.4
 30
0.0
 11
-64.621778
 21
-27.0
 31
0.0
  0
LINE
  8
0
  6
CONTINUOUS
 62
     3
  5
D8
 10
-57.621778
 20
-28.0
 30
0.0
 11
-56.621778
 21
-27.0
 31
0.0
  0
LINE
  8
0
  6
CONTINUOUS
 62
     3
  5
D9
 10
-64.621778
 20
-27.0
 30
0.0
 11
-63.621778
 21
-28.0
 31
0.0
  0
LINE
  8
0
  6
CONTINUOUS
 62
    80
  5
DA
 10
-63.621778
 20
-8.4
 30
0.0
 11
-63.621778
 21
-28.0
 31
0.0
  0
LINE
  8
0
  6
CONTINUOUS
 62
    80
  5
DB
 10
-57.621778
 20
-28.0
 30
0.0
 11
-57.621778
 21
-8.4
 31
0.0
  0
LINE
  8
0
  6
CONTINUOUS
 62
    80
  5
DC
 10
-64.621778
 20
-27.0
 30
0.0
 11
-56.621778
 21
-27.0
 31
0.0
  0
ARC
  8
0
  6
CONTINUOUS
 62
     3
  5
DD
 10
69.621549
 20
70.847101
 30
0.0
 40
12.087944
 50
47.730918
 51
132.269082
  0
LINE
  8
0
  6
CONTINUOUS
 62
     3
  5
DE
 10
65.350514
 20
68.792109
 30
0.0
 11
62.991037
 21
68.792109
 31
0.0
  0
ARC
  8
0
  6
CONTINUOUS
 62
     3
  5
DF
 10
67.669915
 20
70.398921
 30
0.0
 40
0.1
 50
223.058479
 51
345.0
  0
ARC
  8
0
  6
CONTINUOUS
 62
     3
  5
E0
 10
79.658583
 20
40.893854
 30
0.0
 40
8.823193
 50
179.125786
 51
207.856055
  0
ARC
  8
0
  6
CONTINUOUS
 62
     3
  5
E1
 10
73.048018
 20
40.893854
 30
0.0
 40
8.823193
 50
179.125786
 51
217.700412
  0
LINE
  8
0
  6
CONTINUOUS
 62
     3
  5
E2
 10
70.836417
 20
41.028473
 30
0.0
 11
75.355991
 21
61.616691
 31
0.0
  0
LINE
  8
0
  6
CONTINUOUS
 62
     3
  5
E3
 10
75.355991
 20
61.616691
 30
0.0
 11
75.355991
 21
63.559517
 31
0.0
  0
LINE
  8
0
  6
CONTINUOUS
 62
     3
  5
E4
 10
-64.492419
 20
44.934031
 30
0.0
 11
-66.401433
 21
55.777588
 31
0.0
  0
LINE
  8
0
  6
CONTINUOUS
 62
     3
  5
E5
 10
-75.181139
 20
60.82018
 30
0.0
 11
-75.344059
 21
57.604394
 31
0.0
  0
ARC
  8
0
  6
CONTINUOUS
 62
     3
  5
E6
 10
-74.844699
 20
57.579095
 30
0.0
 40
0.5
 50
177.099728
 51
227.600668
  0
ARC
  8
0
  6
CONTINUOUS
 62
     3
  5
E7
 10
-65.721792
 20
57.52547
 30
0.0
 40
1.0
 50
128.289428
 51
305.694352
  0
ARC
  8
0
  6
CONTINUOUS
 62
     3
  5
E8
 10
-72.648846
 20
71.276179
 30
0.0
 40
2.0
 50
90.0
 51
177.099728
  0
ARC
  8
0
  6
CONTINUOUS
 62
     3
  5
E9
 10
-68.215239
 20
70.776179
 30
0.0
 40
0.5
 50
6.259217
 51
63.837127
  0
ARC
  8
0
  6
CONTINUOUS
 62
     3
  5
EA
 10
-67.319044
 20
71.776179
 30
0.0
 40
1.5
 50
6.274741
 51
90.0
  0
LINE
  8
0
  6
CONTINUOUS
 62
     3
  5
EB
 10
-67.718219
 20
70.830692
 30
0.0
 11
-66.347462
 21
58.332981
 31
0.0
  0
LINE
  8
0
  6
CONTINUOUS
 62
     3
  5
EC
 10
-73.259196
 20
66.214143
 30
0.0
 11
-72.983166
 21
70.091686
 31
0.0
  0
ARC
  8
0
  6
CONTINUOUS
 62
     3
  5
ED
 10
-64.754777
 20
57.604539
 30
0.0
 40
0.5
 50
305.694352
 51
6.274741
  0
LINE
  8
0
  6
CONTINUOUS
 62
     3
  5
EE
 10
-75.181846
 20
57.209863
 30
0.0
 11
-74.189726
 21
56.303955
 31
0.0
  0
LINE
  8
0
  6
CONTINUOUS
 62
     3
  5
EF
 10
-74.646284
 20
71.377374
 30
0.0
 11
-74.988261
 21
64.627283
 31
0.0
  0
LINE
  8
0
  6
CONTINUOUS
 62
     3
  5
F0
 10
-67.319044
 20
73.276179
 30
0.0
 11
-72.648846
 21
73.276179
 31
0.0
  0
LINE
  8
0
  6
CONTINUOUS
 62
     3
  5
F1
 10
-77.752061
 20
79.792109
 30
0.0
 11
-77.752061
 21
70.292109
 31
0.0
  0
LINE
  8
0
  6
CONTINUOUS
 62
     3
  5
F2
 10
-76.252061
 20
68.792109
 30
0.0
 11
-75.402686
 21
68.792109
 31
0.0
  0
LINE
  8
0
  6
CONTINUOUS
 62
     3
  5
F3
 10
-63.428582
 20
39.303949
 30
0.0
 11
-64.225852
 21
39.303949
 31
0.0
  0
LINE
  8
0
  6
CONTINUOUS
 62
     3
  5
F4
 10
-63.428582
 20
66.303949
 30
0.0
 11
-63.428582
 21
39.303949
 31
0.0
  0
LINE
  8
0
  6
CONTINUOUS
 62
     3
  5
F5
 10
-61.491037
 20
70.292109
 30
0.0
 11
-61.491037
 21
79.792109
 31
0.0
  0
LINE
  8
0
  6
CONTINUOUS
 62
     3
  5
F6
 10
-65.208306
 20
66.303949
 30
0.0
 11
-63.428582
 21
66.303949
 31
0.0
  0
ARC
  8
0
  6
CONTINUOUS
 62
     3
  5
F7
 10
-64.949732
 20
44.853521
 30
0.0
 40
1.5
 50
317.726311
 51
2.074798
  0
LINE
  8
0
  6
CONTINUOUS
 62
     3
  5
F8
 10
-63.452332
 20
44.907764
 30
0.0
 11
-64.225852
 21
64.803949
 31
0.0
  0
LINE
  8
0
  6
CONTINUOUS
 62
     3
  5
F9
 10
-64.225852
 20
43.419879
 30
0.0
 11
-63.839822
 21
43.844512
 31
0.0
  0
ARC
  8
0
  6
CONTINUOUS
 62
     3
  5
FA
 10
-65.725852
 20
64.803949
 30
0.0
 40
1.5
 50
0.0
 51
70.964009
  0
ARC
  8
0
  6
CONTINUOUS
 62
     3
  5
FB
 10
-72.080822
 20
63.028781
 30
0.0
 40
3.317892
 50
80.795317
 51
170.795317
  0
ARC
  8
0
  6
CONTINUOUS
 62
     3
  5
FC
 10
-66.462548
 20
35.803949
 30
0.0
 40
0.5
 50
270.0
 51
322.299588
  0
ARC
  8
0
  6
CONTINUOUS
 62
     3
  5
FD
 10
-70.97366
 20
36.303949
 30
0.0
 40
1.0
 50
152.143945
 51
270.0
  0
LINE
  8
0
  6
CONTINUOUS
 62
     3
  5
FE
 10
-64.257773
 20
57.659187
 30
0.0
 11
-65.828031
 21
71.940123
 31
0.0
  0
LINE
  8
0
  6
CONTINUOUS
 62
     3
  5
FF
 10
-65.138331
 20
56.713329
 30
0.0
 11
-64.463047
 21
57.198469
 31
0.0
  0
LINE
  8
0
  6
CONTINUOUS
 62
     3
  5
100
 10
-66.462548
 20
35.303949
 30
0.0
 11
-70.97366
 21
35.303949
 31
0.0
  0
ARC
  8
0
  6
CONTINUOUS
 62
     3
  5
101
 10
-73.307486
 20
72.342109
 30
0.0
 40
0.25
 50
90.0
 51
195.0
  0
ARC
  8
0
  6
CONTINUOUS
 62
     3
  5
102
 10
-65.350514
 20
69.792109
 30
0.0
 40
1.0
 50
262.394923
 51
270.0
  0
ARC
  8
0
  6
CONTINUOUS
 62
     3
  5
103
 10
-69.128432
 20
71.592109
 30
0.0
 40
1.0
 50
15.0
 51
90.0
  0
ARC
  8
0
  6
CONTINUOUS
 62
     3
  5
104
 10
-75.402686
 20
69.792109
 30
0.0
 40
1.0
 50
270.0
 51
309.571165
  0
ARC
  8
0
  6
CONTINUOUS
 62
     3
  5
105
 10
-62.991037
 20
70.292109
 30
0.0
 40
1.5
 50
270.0
 51
0.0
  0
ARC
  8
0
  6
CONTINUOUS
 62
     3
  5
106
 10
-76.252061
 20
70.292109
 30
0.0
 40
1.5
 50
180.0
 51
270.0
  0
ARC
  8
0
  6
CONTINUOUS
 62
     3
  5
107
 10
-68.182301
 20
72.091686
 30
0.0
 40
2.0
 50
270.0
 51
285.577373
  0
LINE
  8
0
  6
CONTINUOUS
 62
     3
  5
108
 10
-72.983166
 20
70.165804
 30
0.0
 11
-73.548968
 21
72.277405
 31
0.0
  0
LINE
  8
0
  6
CONTINUOUS
 62
     3
  5
109
 10
-68.182301
 20
70.091686
 30
0.0
 11
-72.983166
 21
70.091686
 31
0.0
  0
LINE
  8
0
  6
CONTINUOUS
 62
     3
  5
10A
 10
-68.162506
 20
71.850928
 30
0.0
 11
-67.766507
 21
70.373039
 31
0.0
  0
LINE
  8
0
  6
CONTINUOUS
 62
     3
  5
10B
 10
-73.307486
 20
72.592109
 30
0.0
 11
-69.128432
 21
72.592109
 31
0.0
  0
ARC
  8
0
  6
CONTINUOUS
 62
     3
  5
10C
 10
-69.621549
 20
70.847101
 30
0.0
 40
12.087944
 50
47.730918
 51
132.269082
  0
LINE
  8
0
  6
CONTINUOUS
 62
     3
  5
10D
 10
-65.350514
 20
68.792109
 30
0.0
 11
-62.991037
 21
68.792109
 31
0.0
  0
ARC
  8
0
  6
CONTINUOUS
 62
     3
  5
10E
 10
-67.669915
 20
70.398921
 30
0.0
 40
0.1
 50
195.0
 51
316.941521
  0
ARC
  8
0
  6
CONTINUOUS
 62
     3
  5
10F
 10
-79.658583
 20
40.893854
 30
0.0
 40
8.823193
 50
332.143945
 51
0.874214
  0
ARC
  8
0
  6
CONTINUOUS
 62
     3
  5
110
 10
-73.048018
 20
40.893854
 30
0.0
 40
8.823193
 50
322.299588
 51
0.874214
  0
LINE
  8
0
  6
CONTINUOUS
 62
     3
  5
111
 10
-70.836417
 20
41.028473
 30
0.0
 11
-75.355991
 21
61.616691
 31
0.0
  0
LINE
  8
0
  6
CONTINUOUS
 62
     3
  5
112
 10
-75.355991
 20
61.616691
 30
0.0
 11
-75.355991
 21
63.559517
 31
0.0
  0
LINE
  8
0
  6
CONTINUOUS
 62
     3
  5
113
 10
-71.550086
 20
66.303949
 30
0.0
 11
-67.221723
 21
66.303949
 31
0.0
  0
LINE
  8
0
  6
CONTINUOUS
 62
     3
  5
114
 10
-64.225852
 20
43.419879
 30
0.0
 11
-64.225852
 21
41.028473
 31
0.0
  0
LINE
  8
0
  6
CONTINUOUS
 62
     3
  5
115
 10
71.550086
 20
66.303949
 30
0.0
 11
67.221723
 21
66.303949
 31
0.0
  0
LINE
  8
0
  6
CONTINUOUS
 62
     3
  5
116
 10
-63.428582
 20
66.0
 30
0.0
 11
63.428582
 21
66.0
 31
0.0
  0
LINE
  8
0
  6
CONTINUOUS
 62
     3
  5
117
 10
-73.132067
 20
68.0
 30
0.0
 11
-67.407747
 21
68.0
 31
0.0
  0
LINE
  8
0
  6
CONTINUOUS
 62
     3
  5
118
 10
-65.394795
 20
68.0
 30
0.0
 11
65.394795
 21
68.0
 31
0.0
  0
LINE
  8
0
  6
CONTINUOUS
 62
     3
  5
119
 10
67.407747
 20
68.0
 30
0.0
 11
73.132067
 21
68.0
 31
0.0
  0
LINE
  8
0
  6
CONTINUOUS
 62
     3
  5
11A
 10
74.81739
 20
68.0
 30
0.0
 11
92.5
 21
68.0
 31
0.0
  0
LINE
  8
0
  6
CONTINUOUS
 62
     3
  5
11B
 10
74.918716
 20
66.0
 30
0.0
 11
92.5
 21
66.0
 31
0.0
  0
CIRCLE
  8
0
  6
CONTINUOUS
 62
     3
  5
11C
 10
0.0
 20
13.0
 30
0.0
 40
2.8
  0
LINE
  8
0
  6
CONTINUOUS
 62
    80
  5
11D
 10
-1.5
 20
12.6
 30
0.0
 11
-0.4
 21
12.6
 31
0.0
  0
LINE
  8
0
  6
CONTINUOUS
 62
    80
  5
11E
 10
-0.4
 20
12.6
 30
0.0
 11
-0.4
 21
11.5
 31
0.0
  0
LINE
  8
0
  6
CONTINUOUS
 62
    80
  5
11F
 10
-0.4
 20
11.5
 30
0.0
 11
0.4
 21
11.5
 31
0.0
  0
LINE
  8
0
  6
CONTINUOUS
 62
    80
  5
120
 10
0.4
 20
11.5
 30
0.0
 11
0.4
 21
12.6
 31
0.0
  0
LINE
  8
0
  6
CONTINUOUS
 62
    80
  5
121
 10
0.4
 20
12.6
 30
0.0
 11
1.5
 21
12.6
 31
0.0
  0
LINE
  8
0
  6
CONTINUOUS
 62
    80
  5
122
 10
1.5
 20
12.6
 30
0.0
 11
1.5
 21
13.4
 31
0.0
  0
LINE
  8
0
  6
CONTINUOUS
 62
    80
  5
123
 10
1.5
 20
13.4
 30
0.0
 11
0.4
 21
13.4
 31
0.0
  0
LINE
  8
0
  6
CONTINUOUS
 62
    80
  5
124
 10
0.4
 20
13.4
 30
0.0
 11
0.4
 21
14.5
 31
0.0
  0
LINE
  8
0
  6
CONTINUOUS
 62
    80
  5
125
 10
0.4
 20
14.5
 30
0.0
 11
-0.4
 21
14.5
 31
0.0
  0
LINE
  8
0
  6
CONTINUOUS
 62
    80
  5
126
 10
-0.4
 20
14.5
 30
0.0
 11
-0.4
 21
13.4
 31
0.0
  0
LINE
  8
0
  6
CONTINUOUS
 62
    80
  5
127
 10
-0.4
 20
13.4
 30
0.0
 11
-1.5
 21
13.4
 31
0.0
  0
LINE
  8
0
  6
CONTINUOUS
 62
    80
  5
128
 10
-1.5
 20
13.4
 30
0.0
 11
-1.5
 21
12.6
 31
0.0
  0
LINE
  8
0
  6
CONTINUOUS
 62
     3
  5
129
 10
92.5
 20
15.8
 30
0.0
 11
93.472114
 21
15.8
 31
0.0
  0
LINE
  8
0
  6
CONTINUOUS
 62
     3
  5
12A
 10
92.5
 20
10.2
 30
0.0
 11
93.472114
 21
10.2
 31
0.0
  0
ARC
  8
0
  6
CONTINUOUS
 62
     3
  5
12B
 10
89.9
 20
13.0
 30
0.0
 40
5.0
 50
333.256316
 51
26.743684
  0
ARC
  8
0
  6
CONTINUOUS
 62
     3
  5
12C
 10
93.472114
 20
14.8
 30
0.0
 40
1.0
 50
26.743684
 51
90.0
  0
ARC
  8
0
  6
CONTINUOUS
 62
     3
  5
12D
 10
93.472114
 20
11.2
 30
0.0
 40
1.0
 50
270.0
 51
333.256316
  0
LINE
  8
0
  6
CONTINUOUS
 62
     3
  5
12E
 10
-92.5
 20
15.8
 30
0.0
 11
-93.472114
 21
15.8
 31
0.0
  0
LINE
  8
0
  6
CONTINUOUS
 62
     3
  5
12F
 10
-92.5
 20
10.2
 30
0.0
 11
-93.472114
 21
10.2
 31
0.0
  0
ARC
  8
0
  6
CONTINUOUS
 62
     3
  5
130
 10
-89.9
 20
13.0
 30
0.0
 40
5.0
 50
153.256316
 51
206.743684
  0
ARC
  8
0
  6
CONTINUOUS
 62
     3
  5
131
 10
-93.472114
 20
14.8
 30
0.0
 40
1.0
 50
90.0
 51
153.256316
  0
ARC
  8
0
  6
CONTINUOUS
 62
     3
  5
132
 10
-93.472114
 20
11.2
 30
0.0
 40
1.0
 50
206.743684
 51
270.0
  0
POLYLINE
  8
0
  6
CONTINUOUS
 62
     3
  5
133
 66
     1
 10
0.0
 20
0.0
 30
0.0
 70
     1
  0
VERTEX
  8
0
  6
CONTINUOUS
 62
     3
  5
138
 10
66.19149
 20
78.018237
 30
0.0
  0
VERTEX
  8
0
  6
CONTINUOUS
 62
     3
  5
139
 10
66.060756
 20
78.010627
 30
0.0
  0
VERTEX
  8
0
  6
CONTINUOUS
 62
     3
  5
13A
 10
65.931017
 20
77.987853
 30
0.0
  0
VERTEX
  8
0
  6
CONTINUOUS
 62
     3
  5
13B
 10
65.803261
 20
77.950089
 30
0.0
  0
VERTEX
  8
0
  6
CONTINUOUS
 62
     3
  5
13C
 10
65.678459
 20
77.897623
 30
0.0
  0
VERTEX
  8
0
  6
CONTINUOUS
 62
     3
  5
13D
 10
65.557562
 20
77.830853
 30
0.0
  0
VERTEX
  8
0
  6
CONTINUOUS
 62
     3
  5
13E
 10
65.44149
 20
77.750288
 30
0.0
  0
VERTEX
  8
0
  6
CONTINUOUS
 62
     3
  5
13F
 10
65.331125
 20
77.656541
 30
0.0
  0
VERTEX
  8
0
  6
CONTINUOUS
 62
     3
  5
140
 10
65.227308
 20
77.550326
 30
0.0
  0
VERTEX
  8
0
  6
CONTINUOUS
 62
     3
  5
141
 10
65.130829
 20
77.432451
 30
0.0
  0
VERTEX
  8
0
  6
CONTINUOUS
 62
     3
  5
142
 10
65.042423
 20
77.303813
 30
0.0
  0
VERTEX
  8
0
  6
CONTINUOUS
 62
     3
  5
143
 10
64.962762
 20
77.16539
 30
0.0
  0
VERTEX
  8
0
  6
CONTINUOUS
 62
     3
  5
144
 10
64.892451
 20
77.018237
 30
0.0
  0
VERTEX
  8
0
  6
CONTINUOUS
 62
     3
  5
145
 10
64.832028
 20
76.863474
 30
0.0
  0
VERTEX
  8
0
  6
CONTINUOUS
 62
     3
  5
146
 10
64.781951
 20
76.702278
 30
0.0
  0
VERTEX
  8
0
  6
CONTINUOUS
 62
     3
  5
147
 10
64.742601
 20
76.535875
 30
0.0
  0
VERTEX
  8
0
  6
CONTINUOUS
 62
     3
  5
148
 10
64.714278
 20
76.365534
 30
0.0
  0
VERTEX
  8
0
  6
CONTINUOUS
 62
     3
  5
149
 10
64.697198
 20
76.192549
 30
0.0
  0
VERTEX
  8
0
  6
CONTINUOUS
 62
     3
  5
14A
 10
64.69149
 20
76.018237
 30
0.0
  0
VERTEX
  8
0
  6
CONTINUOUS
 62
     3
  5
14B
 10
64.697198
 20
75.843926
 30
0.0
  0
VERTEX
  8
0
  6
CONTINUOUS
 62
     3
  5
14C
 10
64.714278
 20
75.670941
 30
0.0
  0
VERTEX
  8
0
  6
CONTINUOUS
 62
     3
  5
14D
 10
64.742601
 20
75.500599
 30
0.0
  0
VERTEX
  8
0
  6
CONTINUOUS
 62
     3
  5
14E
 10
64.781951
 20
75.334197
 30
0.0
  0
VERTEX
  8
0
  6
CONTINUOUS
 62
     3
  5
14F
 10
64.832028
 20
75.173001
 30
0.0
  0
VERTEX
  8
0
  6
CONTINUOUS
 62
     3
  5
150
 10
64.892451
 20
75.018237
 30
0.0
  0
VERTEX
  8
0
  6
CONTINUOUS
 62
     3
  5
151
 10
64.962762
 20
74.871084
 30
0.0
  0
VERTEX
  8
0
  6
CONTINUOUS
 62
     3
  5
152
 10
65.042423
 20
74.732662
 30
0.0
  0
VERTEX
  8
0
  6
CONTINUOUS
 62
     3
  5
153
 10
65.130829
 20
74.604024
 30
0.0
  0
VERTEX
  8
0
  6
CONTINUOUS
 62
     3
  5
154
 10
65.227308
 20
74.486148
 30
0.0
  0
VERTEX
  8
0
  6
CONTINUOUS
 62
     3
  5
155
 10
65.331125
 20
74.379933
 30
0.0
  0
VERTEX
  8
0
  6
CONTINUOUS
 62
     3
  5
156
 10
65.44149
 20
74.286186
 30
0.0
  0
VERTEX
  8
0
  6
CONTINUOUS
 62
     3
  5
157
 10
65.557562
 20
74.205622
 30
0.0
  0
VERTEX
  8
0
  6
CONTINUOUS
 62
     3
  5
158
 10
65.678459
 20
74.138852
 30
0.0
  0
VERTEX
  8
0
  6
CONTINUOUS
 62
     3
  5
159
 10
65.803261
 20
74.086386
 30
0.0
  0
VERTEX
  8
0
  6
CONTINUOUS
 62
     3
  5
15A
 10
65.931017
 20
74.048622
 30
0.0
  0
VERTEX
  8
0
  6
CONTINUOUS
 62
     3
  5
15B
 10
66.060756
 20
74.025848
 30
0.0
  0
VERTEX
  8
0
  6
CONTINUOUS
 62
     3
  5
15C
 10
66.19149
 20
74.018237
 30
0.0
  0
VERTEX
  8
0
  6
CONTINUOUS
 62
     3
  5
15D
 10
66.322223
 20
74.025848
 30
0.0
  0
VERTEX
  8
0
  6
CONTINUOUS
 62
     3
  5
15E
 10
66.451962
 20
74.048622
 30
0.0
  0
VERTEX
  8
0
  6
CONTINUOUS
 62
     3
  5
15F
 10
66.579718
 20
74.086386
 30
0.0
  0
VERTEX
  8
0
  6
CONTINUOUS
 62
     3
  5
160
 10
66.70452
 20
74.138852
 30
0.0
  0
VERTEX
  8
0
  6
CONTINUOUS
 62
     3
  5
161
 10
66.825417
 20
74.205622
 30
0.0
  0
VERTEX
  8
0
  6
CONTINUOUS
 62
     3
  5
162
 10
66.94149
 20
74.286186
 30
0.0
  0
VERTEX
  8
0
  6
CONTINUOUS
 62
     3
  5
163
 10
67.051854
 20
74.379933
 30
0.0
  0
VERTEX
  8
0
  6
CONTINUOUS
 62
     3
  5
164
 10
67.155671
 20
74.486148
 30
0.0
  0
VERTEX
  8
0
  6
CONTINUOUS
 62
     3
  5
165
 10
67.25215
 20
74.604024
 30
0.0
  0
VERTEX
  8
0
  6
CONTINUOUS
 62
     3
  5
166
 10
67.340556
 20
74.732662
 30
0.0
  0
VERTEX
  8
0
  6
CONTINUOUS
 62
     3
  5
167
 10
67.420218
 20
74.871084
 30
0.0
  0
VERTEX
  8
0
  6
CONTINUOUS
 62
     3
  5
168
 10
67.490528
 20
75.018237
 30
0.0
  0
VERTEX
  8
0
  6
CONTINUOUS
 62
     3
  5
169
 10
67.550951
 20
75.173001
 30
0.0
  0
VERTEX
  8
0
  6
CONTINUOUS
 62
     3
  5
16A
 10
67.601028
 20
75.334197
 30
0.0
  0
VERTEX
  8
0
  6
CONTINUOUS
 62
     3
  5
16B
 10
67.640378
 20
75.500599
 30
0.0
  0
VERTEX
  8
0
  6
CONTINUOUS
 62
     3
  5
16C
 10
67.668701
 20
75.670941
 30
0.0
  0
VERTEX
  8
0
  6
CONTINUOUS
 62
     3
  5
16D
 10
67.685782
 20
75.843926
 30
0.0
  0
VERTEX
  8
0
  6
CONTINUOUS
 62
     3
  5
16E
 10
67.69149
 20
76.018237
 30
0.0
  0
VERTEX
  8
0
  6
CONTINUOUS
 62
     3
  5
16F
 10
67.685782
 20
76.192549
 30
0.0
  0
VERTEX
  8
0
  6
CONTINUOUS
 62
     3
  5
170
 10
67.668701
 20
76.365534
 30
0.0
  0
VERTEX
  8
0
  6
CONTINUOUS
 62
     3
  5
171
 10
67.640378
 20
76.535875
 30
0.0
  0
VERTEX
  8
0
  6
CONTINUOUS
 62
     3
  5
172
 10
67.601028
 20
76.702278
 30
0.0
  0
VERTEX
  8
0
  6
CONTINUOUS
 62
     3
  5
173
 10
67.550951
 20
76.863474
 30
0.0
  0
VERTEX
  8
0
  6
CONTINUOUS
 62
     3
  5
174
 10
67.490528
 20
77.018237
 30
0.0
  0
VERTEX
  8
0
  6
CONTINUOUS
 62
     3
  5
175
 10
67.420218
 20
77.16539
 30
0.0
  0
VERTEX
  8
0
  6
CONTINUOUS
 62
     3
  5
176
 10
67.340556
 20
77.303813
 30
0.0
  0
VERTEX
  8
0
  6
CONTINUOUS
 62
     3
  5
177
 10
67.25215
 20
77.432451
 30
0.0
  0
VERTEX
  8
0
  6
CONTINUOUS
 62
     3
  5
178
 10
67.155671
 20
77.550326
 30
0.0
  0
VERTEX
  8
0
  6
CONTINUOUS
 62
     3
  5
179
 10
67.051854
 20
77.656541
 30
0.0
  0
VERTEX
  8
0
  6
CONTINUOUS
 62
     3
  5
17A
 10
66.94149
 20
77.750288
 30
0.0
  0
VERTEX
  8
0
  6
CONTINUOUS
 62
     3
  5
17B
 10
66.825417
 20
77.830853
 30
0.0
  0
VERTEX
  8
0
  6
CONTINUOUS
 62
     3
  5
17C
 10
66.70452
 20
77.897623
 30
0.0
  0
VERTEX
  8
0
  6
CONTINUOUS
 62
     3
  5
17D
 10
66.579718
 20
77.950089
 30
0.0
  0
VERTEX
  8
0
  6
CONTINUOUS
 62
     3
  5
17E
 10
66.451962
 20
77.987853
 30
0.0
  0
VERTEX
  8
0
  6
CONTINUOUS
 62
     3
  5
17F
 10
66.322223
 20
78.010627
 30
0.0
  0
VERTEX
  8
0
  6
CONTINUOUS
 62
     3
  5
180
 10
66.19149
 20
78.018237
 30
0.0
  0
SEQEND
  8
0
  6
CONTINUOUS
 62
     3
  5
181
  0
POLYLINE
  8
0
  6
CONTINUOUS
 62
     3
  5
134
 66
     1
 10
0.0
 20
0.0
 30
0.0
 70
     1
  0
VERTEX
  8
0
  6
CONTINUOUS
 62
     3
  5
182
 10
74.97608
 20
78.018237
 30
0.0
  0
VERTEX
  8
0
  6
CONTINUOUS
 62
     3
  5
183
 10
74.845346
 20
78.010627
 30
0.0
  0
VERTEX
  8
0
  6
CONTINUOUS
 62
     3
  5
184
 10
74.715608
 20
77.987853
 30
0.0
  0
VERTEX
  8
0
  6
CONTINUOUS
 62
     3
  5
185
 10
74.587852
 20
77.950089
 30
0.0
  0
VERTEX
  8
0
  6
CONTINUOUS
 62
     3
  5
186
 10
74.46305
 20
77.897623
 30
0.0
  0
VERTEX
  8
0
  6
CONTINUOUS
 62
     3
  5
187
 10
74.342153
 20
77.830853
 30
0.0
  0
VERTEX
  8
0
  6
CONTINUOUS
 62
     3
  5
188
 10
74.22608
 20
77.750288
 30
0.0
  0
VERTEX
  8
0
  6
CONTINUOUS
 62
     3
  5
189
 10
74.115715
 20
77.656541
 30
0.0
  0
VERTEX
  8
0
  6
CONTINUOUS
 62
     3
  5
18A
 10
74.011899
 20
77.550326
 30
0.0
  0
VERTEX
  8
0
  6
CONTINUOUS
 62
     3
  5
18B
 10
73.91542
 20
77.432451
 30
0.0
  0
VERTEX
  8
0
  6
CONTINUOUS
 62
     3
  5
18C
 10
73.827013
 20
77.303813
 30
0.0
  0
VERTEX
  8
0
  6
CONTINUOUS
 62
     3
  5
18D
 10
73.747352
 20
77.16539
 30
0.0
  0
VERTEX
  8
0
  6
CONTINUOUS
 62
     3
  5
18E
 10
73.677042
 20
77.018237
 30
0.0
  0
VERTEX
  8
0
  6
CONTINUOUS
 62
     3
  5
18F
 10
73.616618
 20
76.863474
 30
0.0
  0
VERTEX
  8
0
  6
CONTINUOUS
 62
     3
  5
190
 10
73.566541
 20
76.702278
 30
0.0
  0
VERTEX
  8
0
  6
CONTINUOUS
 62
     3
  5
191
 10
73.527191
 20
76.535875
 30
0.0
  0
VERTEX
  8
0
  6
CONTINUOUS
 62
     3
  5
192
 10
73.498868
 20
76.365534
 30
0.0
  0
VERTEX
  8
0
  6
CONTINUOUS
 62
     3
  5
193
 10
73.481788
 20
76.192549
 30
0.0
  0
VERTEX
  8
0
  6
CONTINUOUS
 62
     3
  5
194
 10
73.47608
 20
76.018237
 30
0.0
  0
VERTEX
  8
0
  6
CONTINUOUS
 62
     3
  5
195
 10
73.481788
 20
75.843926
 30
0.0
  0
VERTEX
  8
0
  6
CONTINUOUS
 62
     3
  5
196
 10
73.498868
 20
75.670941
 30
0.0
  0
VERTEX
  8
0
  6
CONTINUOUS
 62
     3
  5
197
 10
73.527191
 20
75.500599
 30
0.0
  0
VERTEX
  8
0
  6
CONTINUOUS
 62
     3
  5
198
 10
73.566541
 20
75.334197
 30
0.0
  0
VERTEX
  8
0
  6
CONTINUOUS
 62
     3
  5
199
 10
73.616618
 20
75.173001
 30
0.0
  0
VERTEX
  8
0
  6
CONTINUOUS
 62
     3
  5
19A
 10
73.677042
 20
75.018237
 30
0.0
  0
VERTEX
  8
0
  6
CONTINUOUS
 62
     3
  5
19B
 10
73.747352
 20
74.871084
 30
0.0
  0
VERTEX
  8
0
  6
CONTINUOUS
 62
     3
  5
19C
 10
73.827013
 20
74.732662
 30
0.0
  0
VERTEX
  8
0
  6
CONTINUOUS
 62
     3
  5
19D
 10
73.91542
 20
74.604024
 30
0.0
  0
VERTEX
  8
0
  6
CONTINUOUS
 62
     3
  5
19E
 10
74.011899
 20
74.486148
 30
0.0
  0
VERTEX
  8
0
  6
CONTINUOUS
 62
     3
  5
19F
 10
74.115715
 20
74.379933
 30
0.0
  0
VERTEX
  8
0
  6
CONTINUOUS
 62
     3
  5
1A0
 10
74.22608
 20
74.286186
 30
0.0
  0
VERTEX
  8
0
  6
CONTINUOUS
 62
     3
  5
1A1
 10
74.342153
 20
74.205622
 30
0.0
  0
VERTEX
  8
0
  6
CONTINUOUS
 62
     3
  5
1A2
 10
74.46305
 20
74.138852
 30
0.0
  0
VERTEX
  8
0
  6
CONTINUOUS
 62
     3
  5
1A3
 10
74.587852
 20
74.086386
 30
0.0
  0
VERTEX
  8
0
  6
CONTINUOUS
 62
     3
  5
1A4
 10
74.715608
 20
74.048622
 30
0.0
  0
VERTEX
  8
0
  6
CONTINUOUS
 62
     3
  5
1A5
 10
74.845346
 20
74.025848
 30
0.0
  0
VERTEX
  8
0
  6
CONTINUOUS
 62
     3
  5
1A6
 10
74.97608
 20
74.018237
 30
0.0
  0
VERTEX
  8
0
  6
CONTINUOUS
 62
     3
  5
1A7
 10
75.106814
 20
74.025848
 30
0.0
  0
VERTEX
  8
0
  6
CONTINUOUS
 62
     3
  5
1A8
 10
75.236552
 20
74.048622
 30
0.0
  0
VERTEX
  8
0
  6
CONTINUOUS
 62
     3
  5
1A9
 10
75.364309
 20
74.086386
 30
0.0
  0
VERTEX
  8
0
  6
CONTINUOUS
 62
     3
  5
1AA
 10
75.48911
 20
74.138852
 30
0.0
  0
VERTEX
  8
0
  6
CONTINUOUS
 62
     3
  5
1AB
 10
75.610007
 20
74.205622
 30
0.0
  0
VERTEX
  8
0
  6
CONTINUOUS
 62
     3
  5
1AC
 10
75.72608
 20
74.286186
 30
0.0
  0
VERTEX
  8
0
  6
CONTINUOUS
 62
     3
  5
1AD
 10
75.836445
 20
74.379933
 30
0.0
  0
VERTEX
  8
0
  6
CONTINUOUS
 62
     3
  5
1AE
 10
75.940262
 20
74.486148
 30
0.0
  0
VERTEX
  8
0
  6
CONTINUOUS
 62
     3
  5
1AF
 10
76.03674
 20
74.604024
 30
0.0
  0
VERTEX
  8
0
  6
CONTINUOUS
 62
     3
  5
1B0
 10
76.125147
 20
74.732662
 30
0.0
  0
VERTEX
  8
0
  6
CONTINUOUS
 62
     3
  5
1B1
 10
76.204808
 20
74.871084
 30
0.0
  0
VERTEX
  8
0
  6
CONTINUOUS
 62
     3
  5
1B2
 10
76.275118
 20
75.018237
 30
0.0
  0
VERTEX
  8
0
  6
CONTINUOUS
 62
     3
  5
1B3
 10
76.335542
 20
75.173001
 30
0.0
  0
VERTEX
  8
0
  6
CONTINUOUS
 62
     3
  5
1B4
 10
76.385619
 20
75.334197
 30
0.0
  0
VERTEX
  8
0
  6
CONTINUOUS
 62
     3
  5
1B5
 10
76.424969
 20
75.500599
 30
0.0
  0
VERTEX
  8
0
  6
CONTINUOUS
 62
     3
  5
1B6
 10
76.453292
 20
75.670941
 30
0.0
  0
VERTEX
  8
0
  6
CONTINUOUS
 62
     3
  5
1B7
 10
76.470372
 20
75.843926
 30
0.0
  0
VERTEX
  8
0
  6
CONTINUOUS
 62
     3
  5
1B8
 10
76.47608
 20
76.018237
 30
0.0
  0
VERTEX
  8
0
  6
CONTINUOUS
 62
     3
  5
1B9
 10
76.470372
 20
76.192549
 30
0.0
  0
VERTEX
  8
0
  6
CONTINUOUS
 62
     3
  5
1BA
 10
76.453292
 20
76.365534
 30
0.0
  0
VERTEX
  8
0
  6
CONTINUOUS
 62
     3
  5
1BB
 10
76.424969
 20
76.535875
 30
0.0
  0
VERTEX
  8
0
  6
CONTINUOUS
 62
     3
  5
1BC
 10
76.385619
 20
76.702278
 30
0.0
  0
VERTEX
  8
0
  6
CONTINUOUS
 62
     3
  5
1BD
 10
76.335542
 20
76.863474
 30
0.0
  0
VERTEX
  8
0
  6
CONTINUOUS
 62
     3
  5
1BE
 10
76.275118
 20
77.018237
 30
0.0
  0
VERTEX
  8
0
  6
CONTINUOUS
 62
     3
  5
1BF
 10
76.204808
 20
77.16539
 30
0.0
  0
VERTEX
  8
0
  6
CONTINUOUS
 62
     3
  5
1C0
 10
76.125147
 20
77.303813
 30
0.0
  0
VERTEX
  8
0
  6
CONTINUOUS
 62
     3
  5
1C1
 10
76.03674
 20
77.432451
 30
0.0
  0
VERTEX
  8
0
  6
CONTINUOUS
 62
     3
  5
1C2
 10
75.940262
 20
77.550326
 30
0.0
  0
VERTEX
  8
0
  6
CONTINUOUS
 62
     3
  5
1C3
 10
75.836445
 20
77.656541
 30
0.0
  0
VERTEX
  8
0
  6
CONTINUOUS
 62
     3
  5
1C4
 10
75.72608
 20
77.750288
 30
0.0
  0
VERTEX
  8
0
  6
CONTINUOUS
 62
     3
  5
1C5
 10
75.610007
 20
77.830853
 30
0.0
  0
VERTEX
  8
0
  6
CONTINUOUS
 62
     3
  5
1C6
 10
75.48911
 20
77.897623
 30
0.0
  0
VERTEX
  8
0
  6
CONTINUOUS
 62
     3
  5
1C7
 10
75.364309
 20
77.950089
 30
0.0
  0
VERTEX
  8
0
  6
CONTINUOUS
 62
     3
  5
1C8
 10
75.236552
 20
77.987853
 30
0.0
  0
VERTEX
  8
0
  6
CONTINUOUS
 62
     3
  5
1C9
 10
75.106814
 20
78.010627
 30
0.0
  0
VERTEX
  8
0
  6
CONTINUOUS
 62
     3
  5
1CA
 10
74.97608
 20
78.018237
 30
0.0
  0
SEQEND
  8
0
  6
CONTINUOUS
 62
     3
  5
1CB
  0
POLYLINE
  8
0
  6
CONTINUOUS
 62
     3
  5
135
 66
     1
 10
0.0
 20
0.0
 30
0.0
 70
     1
  0
VERTEX
  8
0
  6
CONTINUOUS
 62
     3
  5
1CC
 10
-66.19149
 20
78.018237
 30
0.0
  0
VERTEX
  8
0
  6
CONTINUOUS
 62
     3
  5
1CD
 10
-66.322223
 20
78.010627
 30
0.0
  0
VERTEX
  8
0
  6
CONTINUOUS
 62
     3
  5
1CE
 10
-66.451962
 20
77.987853
 30
0.0
  0
VERTEX
  8
0
  6
CONTINUOUS
 62
     3
  5
1CF
 10
-66.579718
 20
77.950089
 30
0.0
  0
VERTEX
  8
0
  6
CONTINUOUS
 62
     3
  5
1D0
 10
-66.70452
 20
77.897623
 30
0.0
  0
VERTEX
  8
0
  6
CONTINUOUS
 62
     3
  5
1D1
 10
-66.825417
 20
77.830853
 30
0.0
  0
VERTEX
  8
0
  6
CONTINUOUS
 62
     3
  5
1D2
 10
-66.94149
 20
77.750288
 30
0.0
  0
VERTEX
  8
0
  6
CONTINUOUS
 62
     3
  5
1D3
 10
-67.051854
 20
77.656541
 30
0.0
  0
VERTEX
  8
0
  6
CONTINUOUS
 62
     3
  5
1D4
 10
-67.155671
 20
77.550326
 30
0.0
  0
VERTEX
  8
0
  6
CONTINUOUS
 62
     3
  5
1D5
 10
-67.25215
 20
77.432451
 30
0.0
  0
VERTEX
  8
0
  6
CONTINUOUS
 62
     3
  5
1D6
 10
-67.340556
 20
77.303813
 30
0.0
  0
VERTEX
  8
0
  6
CONTINUOUS
 62
     3
  5
1D7
 10
-67.420218
 20
77.16539
 30
0.0
  0
VERTEX
  8
0
  6
CONTINUOUS
 62
     3
  5
1D8
 10
-67.490528
 20
77.018237
 30
0.0
  0
VERTEX
  8
0
  6
CONTINUOUS
 62
     3
  5
1D9
 10
-67.550951
 20
76.863474
 30
0.0
  0
VERTEX
  8
0
  6
CONTINUOUS
 62
     3
  5
1DA
 10
-67.601029
 20
76.702278
 30
0.0
  0
VERTEX
  8
0
  6
CONTINUOUS
 62
     3
  5
1DB
 10
-67.640378
 20
76.535875
 30
0.0
  0
VERTEX
  8
0
  6
CONTINUOUS
 62
     3
  5
1DC
 10
-67.668701
 20
76.365534
 30
0.0
  0
VERTEX
  8
0
  6
CONTINUOUS
 62
     3
  5
1DD
 10
-67.685782
 20
76.192549
 30
0.0
  0
VERTEX
  8
0
  6
CONTINUOUS
 62
     3
  5
1DE
 10
-67.69149
 20
76.018237
 30
0.0
  0
VERTEX
  8
0
  6
CONTINUOUS
 62
     3
  5
1DF
 10
-67.685782
 20
75.843926
 30
0.0
  0
VERTEX
  8
0
  6
CONTINUOUS
 62
     3
  5
1E0
 10
-67.668701
 20
75.670941
 30
0.0
  0
VERTEX
  8
0
  6
CONTINUOUS
 62
     3
  5
1E1
 10
-67.640378
 20
75.500599
 30
0.0
  0
VERTEX
  8
0
  6
CONTINUOUS
 62
     3
  5
1E2
 10
-67.601029
 20
75.334197
 30
0.0
  0
VERTEX
  8
0
  6
CONTINUOUS
 62
     3
  5
1E3
 10
-67.550951
 20
75.173001
 30
0.0
  0
VERTEX
  8
0
  6
CONTINUOUS
 62
     3
  5
1E4
 10
-67.490528
 20
75.018237
 30
0.0
  0
VERTEX
  8
0
  6
CONTINUOUS
 62
     3
  5
1E5
 10
-67.420218
 20
74.871084
 30
0.0
  0
VERTEX
  8
0
  6
CONTINUOUS
 62
     3
  5
1E6
 10
-67.340556
 20
74.732662
 30
0.0
  0
VERTEX
  8
0
  6
CONTINUOUS
 62
     3
  5
1E7
 10
-67.25215
 20
74.604024
 30
0.0
  0
VERTEX
  8
0
  6
CONTINUOUS
 62
     3
  5
1E8
 10
-67.155671
 20
74.486148
 30
0.0
  0
VERTEX
  8
0
  6
CONTINUOUS
 62
     3
  5
1E9
 10
-67.051854
 20
74.379933
 30
0.0
  0
VERTEX
  8
0
  6
CONTINUOUS
 62
     3
  5
1EA
 10
-66.94149
 20
74.286186
 30
0.0
  0
VERTEX
  8
0
  6
CONTINUOUS
 62
     3
  5
1EB
 10
-66.825417
 20
74.205622
 30
0.0
  0
VERTEX
  8
0
  6
CONTINUOUS
 62
     3
  5
1EC
 10
-66.70452
 20
74.138852
 30
0.0
  0
VERTEX
  8
0
  6
CONTINUOUS
 62
     3
  5
1ED
 10
-66.579718
 20
74.086386
 30
0.0
  0
VERTEX
  8
0
  6
CONTINUOUS
 62
     3
  5
1EE
 10
-66.451962
 20
74.048622
 30
0.0
  0
VERTEX
  8
0
  6
CONTINUOUS
 62
     3
  5
1EF
 10
-66.322223
 20
74.025848
 30
0.0
  0
VERTEX
  8
0
  6
CONTINUOUS
 62
     3
  5
1F0
 10
-66.19149
 20
74.018237
 30
0.0
  0
VERTEX
  8
0
  6
CONTINUOUS
 62
     3
  5
1F1
 10
-66.060756
 20
74.025848
 30
0.0
  0
VERTEX
  8
0
  6
CONTINUOUS
 62
     3
  5
1F2
 10
-65.931017
 20
74.048622
 30
0.0
  0
VERTEX
  8
0
  6
CONTINUOUS
 62
     3
  5
1F3
 10
-65.803261
 20
74.086386
 30
0.0
  0
VERTEX
  8
0
  6
CONTINUOUS
 62
     3
  5
1F4
 10
-65.678459
 20
74.138852
 30
0.0
  0
VERTEX
  8
0
  6
CONTINUOUS
 62
     3
  5
1F5
 10
-65.557562
 20
74.205622
 30
0.0
  0
VERTEX
  8
0
  6
CONTINUOUS
 62
     3
  5
1F6
 10
-65.44149
 20
74.286186
 30
0.0
  0
VERTEX
  8
0
  6
CONTINUOUS
 62
     3
  5
1F7
 10
-65.331125
 20
74.379933
 30
0.0
  0
VERTEX
  8
0
  6
CONTINUOUS
 62
     3
  5
1F8
 10
-65.227308
 20
74.486148
 30
0.0
  0
VERTEX
  8
0
  6
CONTINUOUS
 62
     3
  5
1F9
 10
-65.130829
 20
74.604024
 30
0.0
  0
VERTEX
  8
0
  6
CONTINUOUS
 62
     3
  5
1FA
 10
-65.042423
 20
74.732662
 30
0.0
  0
VERTEX
  8
0
  6
CONTINUOUS
 62
     3
  5
1FB
 10
-64.962762
 20
74.871084
 30
0.0
  0
VERTEX
  8
0
  6
CONTINUOUS
 62
     3
  5
1FC
 10
-64.892451
 20
75.018237
 30
0.0
  0
VERTEX
  8
0
  6
CONTINUOUS
 62
     3
  5
1FD
 10
-64.832028
 20
75.173001
 30
0.0
  0
VERTEX
  8
0
  6
CONTINUOUS
 62
     3
  5
1FE
 10
-64.781951
 20
75.334197
 30
0.0
  0
VERTEX
  8
0
  6
CONTINUOUS
 62
     3
  5
1FF
 10
-64.742601
 20
75.500599
 30
0.0
  0
VERTEX
  8
0
  6
CONTINUOUS
 62
     3
  5
200
 10
-64.714278
 20
75.670941
 30
0.0
  0
VERTEX
  8
0
  6
CONTINUOUS
 62
     3
  5
201
 10
-64.697198
 20
75.843926
 30
0.0
  0
VERTEX
  8
0
  6
CONTINUOUS
 62
     3
  5
202
 10
-64.69149
 20
76.018237
 30
0.0
  0
VERTEX
  8
0
  6
CONTINUOUS
 62
     3
  5
203
 10
-64.697198
 20
76.192549
 30
0.0
  0
VERTEX
  8
0
  6
CONTINUOUS
 62
     3
  5
204
 10
-64.714278
 20
76.365534
 30
0.0
  0
VERTEX
  8
0
  6
CONTINUOUS
 62
     3
  5
205
 10
-64.742601
 20
76.535875
 30
0.0
  0
VERTEX
  8
0
  6
CONTINUOUS
 62
     3
  5
206
 10
-64.781951
 20
76.702278
 30
0.0
  0
VERTEX
  8
0
  6
CONTINUOUS
 62
     3
  5
207
 10
-64.832028
 20
76.863474
 30
0.0
  0
VERTEX
  8
0
  6
CONTINUOUS
 62
     3
  5
208
 10
-64.892451
 20
77.018237
 30
0.0
  0
VERTEX
  8
0
  6
CONTINUOUS
 62
     3
  5
209
 10
-64.962762
 20
77.16539
 30
0.0
  0
VERTEX
  8
0
  6
CONTINUOUS
 62
     3
  5
20A
 10
-65.042423
 20
77.303813
 30
0.0
  0
VERTEX
  8
0
  6
CONTINUOUS
 62
     3
  5
20B
 10
-65.130829
 20
77.432451
 30
0.0
  0
VERTEX
  8
0
  6
CONTINUOUS
 62
     3
  5
20C
 10
-65.227308
 20
77.550326
 30
0.0
  0
VERTEX
  8
0
  6
CONTINUOUS
 62
     3
  5
20D
 10
-65.331125
 20
77.656541
 30
0.0
  0
VERTEX
  8
0
  6
CONTINUOUS
 62
     3
  5
20E
 10
-65.44149
 20
77.750288
 30
0.0
  0
VERTEX
  8
0
  6
CONTINUOUS
 62
     3
  5
20F
 10
-65.557562
 20
77.830853
 30
0.0
  0
VERTEX
  8
0
  6
CONTINUOUS
 62
     3
  5
210
 10
-65.678459
 20
77.897623
 30
0.0
  0
VERTEX
  8
0
  6
CONTINUOUS
 62
     3
  5
211
 10
-65.803261
 20
77.950089
 30
0.0
  0
VERTEX
  8
0
  6
CONTINUOUS
 62
     3
  5
212
 10
-65.931017
 20
77.987853
 30
0.0
  0
VERTEX
  8
0
  6
CONTINUOUS
 62
     3
  5
213
 10
-66.060756
 20
78.010627
 30
0.0
  0
VERTEX
  8
0
  6
CONTINUOUS
 62
     3
  5
214
 10
-66.19149
 20
78.018237
 30
0.0
  0
SEQEND
  8
0
  6
CONTINUOUS
 62
     3
  5
215
  0
POLYLINE
  8
0
  6
CONTINUOUS
 62
     3
  5
136
 66
     1
 10
0.0
 20
0.0
 30
0.0
 70
     1
  0
VERTEX
  8
0
  6
CONTINUOUS
 62
     3
  5
216
 10
-74.97608
 20
78.018237
 30
0.0
  0
VERTEX
  8
0
  6
CONTINUOUS
 62
     3
  5
217
 10
-75.106814
 20
78.010627
 30
0.0
  0
VERTEX
  8
0
  6
CONTINUOUS
 62
     3
  5
218
 10
-75.236552
 20
77.987853
 30
0.0
  0
VERTEX
  8
0
  6
CONTINUOUS
 62
     3
  5
219
 10
-75.364309
 20
77.950089
 30
0.0
  0
VERTEX
  8
0
  6
CONTINUOUS
 62
     3
  5
21A
 10
-75.48911
 20
77.897623
 30
0.0
  0
VERTEX
  8
0
  6
CONTINUOUS
 62
     3
  5
21B
 10
-75.610007
 20
77.830853
 30
0.0
  0
VERTEX
  8
0
  6
CONTINUOUS
 62
     3
  5
21C
 10
-75.72608
 20
77.750288
 30
0.0
  0
VERTEX
  8
0
  6
CONTINUOUS
 62
     3
  5
21D
 10
-75.836445
 20
77.656541
 30
0.0
  0
VERTEX
  8
0
  6
CONTINUOUS
 62
     3
  5
21E
 10
-75.940262
 20
77.550326
 30
0.0
  0
VERTEX
  8
0
  6
CONTINUOUS
 62
     3
  5
21F
 10
-76.03674
 20
77.432451
 30
0.0
  0
VERTEX
  8
0
  6
CONTINUOUS
 62
     3
  5
220
 10
-76.125147
 20
77.303813
 30
0.0
  0
VERTEX
  8
0
  6
CONTINUOUS
 62
     3
  5
221
 10
-76.204808
 20
77.16539
 30
0.0
  0
VERTEX
  8
0
  6
CONTINUOUS
 62
     3
  5
222
 10
-76.275118
 20
77.018237
 30
0.0
  0
VERTEX
  8
0
  6
CONTINUOUS
 62
     3
  5
223
 10
-76.335542
 20
76.863474
 30
0.0
  0
VERTEX
  8
0
  6
CONTINUOUS
 62
     3
  5
224
 10
-76.385619
 20
76.702278
 30
0.0
  0
VERTEX
  8
0
  6
CONTINUOUS
 62
     3
  5
225
 10
-76.424969
 20
76.535875
 30
0.0
  0
VERTEX
  8
0
  6
CONTINUOUS
 62
     3
  5
226
 10
-76.453292
 20
76.365534
 30
0.0
  0
VERTEX
  8
0
  6
CONTINUOUS
 62
     3
  5
227
 10
-76.470372
 20
76.192549
 30
0.0
  0
VERTEX
  8
0
  6
CONTINUOUS
 62
     3
  5
228
 10
-76.47608
 20
76.018237
 30
0.0
  0
VERTEX
  8
0
  6
CONTINUOUS
 62
     3
  5
229
 10
-76.470372
 20
75.843926
 30
0.0
  0
VERTEX
  8
0
  6
CONTINUOUS
 62
     3
  5
22A
 10
-76.453292
 20
75.670941
 30
0.0
  0
VERTEX
  8
0
  6
CONTINUOUS
 62
     3
  5
22B
 10
-76.424969
 20
75.500599
 30
0.0
  0
VERTEX
  8
0
  6
CONTINUOUS
 62
     3
  5
22C
 10
-76.385619
 20
75.334197
 30
0.0
  0
VERTEX
  8
0
  6
CONTINUOUS
 62
     3
  5
22D
 10
-76.335542
 20
75.173001
 30
0.0
  0
VERTEX
  8
0
  6
CONTINUOUS
 62
     3
  5
22E
 10
-76.275118
 20
75.018237
 30
0.0
  0
VERTEX
  8
0
  6
CONTINUOUS
 62
     3
  5
22F
 10
-76.204808
 20
74.871084
 30
0.0
  0
VERTEX
  8
0
  6
CONTINUOUS
 62
     3
  5
230
 10
-76.125147
 20
74.732662
 30
0.0
  0
VERTEX
  8
0
  6
CONTINUOUS
 62
     3
  5
231
 10
-76.03674
 20
74.604024
 30
0.0
  0
VERTEX
  8
0
  6
CONTINUOUS
 62
     3
  5
232
 10
-75.940262
 20
74.486148
 30
0.0
  0
VERTEX
  8
0
  6
CONTINUOUS
 62
     3
  5
233
 10
-75.836445
 20
74.379933
 30
0.0
  0
VERTEX
  8
0
  6
CONTINUOUS
 62
     3
  5
234
 10
-75.72608
 20
74.286186
 30
0.0
  0
VERTEX
  8
0
  6
CONTINUOUS
 62
     3
  5
235
 10
-75.610007
 20
74.205622
 30
0.0
  0
VERTEX
  8
0
  6
CONTINUOUS
 62
     3
  5
236
 10
-75.48911
 20
74.138852
 30
0.0
  0
VERTEX
  8
0
  6
CONTINUOUS
 62
     3
  5
237
 10
-75.364309
 20
74.086386
 30
0.0
  0
VERTEX
  8
0
  6
CONTINUOUS
 62
     3
  5
238
 10
-75.236552
 20
74.048622
 30
0.0
  0
VERTEX
  8
0
  6
CONTINUOUS
 62
     3
  5
239
 10
-75.106814
 20
74.025848
 30
0.0
  0
VERTEX
  8
0
  6
CONTINUOUS
 62
     3
  5
23A
 10
-74.97608
 20
74.018237
 30
0.0
  0
VERTEX
  8
0
  6
CONTINUOUS
 62
     3
  5
23B
 10
-74.845346
 20
74.025848
 30
0.0
  0
VERTEX
  8
0
  6
CONTINUOUS
 62
     3
  5
23C
 10
-74.715608
 20
74.048622
 30
0.0
  0
VERTEX
  8
0
  6
CONTINUOUS
 62
     3
  5
23D
 10
-74.587852
 20
74.086386
 30
0.0
  0
VERTEX
  8
0
  6
CONTINUOUS
 62
     3
  5
23E
 10
-74.46305
 20
74.138852
 30
0.0
  0
VERTEX
  8
0
  6
CONTINUOUS
 62
     3
  5
23F
 10
-74.342153
 20
74.205622
 30
0.0
  0
VERTEX
  8
0
  6
CONTINUOUS
 62
     3
  5
240
 10
-74.22608
 20
74.286186
 30
0.0
  0
VERTEX
  8
0
  6
CONTINUOUS
 62
     3
  5
241
 10
-74.115715
 20
74.379933
 30
0.0
  0
VERTEX
  8
0
  6
CONTINUOUS
 62
     3
  5
242
 10
-74.011899
 20
74.486148
 30
0.0
  0
VERTEX
  8
0
  6
CONTINUOUS
 62
     3
  5
243
 10
-73.91542
 20
74.604024
 30
0.0
  0
VERTEX
  8
0
  6
CONTINUOUS
 62
     3
  5
244
 10
-73.827013
 20
74.732662
 30
0.0
  0
VERTEX
  8
0
  6
CONTINUOUS
 62
     3
  5
245
 10
-73.747352
 20
74.871084
 30
0.0
  0
VERTEX
  8
0
  6
CONTINUOUS
 62
     3
  5
246
 10
-73.677042
 20
75.018237
 30
0.0
  0
VERTEX
  8
0
  6
CONTINUOUS
 62
     3
  5
247
 10
-73.616618
 20
75.173001
 30
0.0
  0
VERTEX
  8
0
  6
CONTINUOUS
 62
     3
  5
248
 10
-73.566541
 20
75.334197
 30
0.0
  0
VERTEX
  8
0
  6
CONTINUOUS
 62
     3
  5
249
 10
-73.527191
 20
75.500599
 30
0.0
  0
VERTEX
  8
0
  6
CONTINUOUS
 62
     3
  5
24A
 10
-73.498868
 20
75.670941
 30
0.0
  0
VERTEX
  8
0
  6
CONTINUOUS
 62
     3
  5
24B
 10
-73.481788
 20
75.843926
 30
0.0
  0
VERTEX
  8
0
  6
CONTINUOUS
 62
     3
  5
24C
 10
-73.47608
 20
76.018237
 30
0.0
  0
VERTEX
  8
0
  6
CONTINUOUS
 62
     3
  5
24D
 10
-73.481788
 20
76.192549
 30
0.0
  0
VERTEX
  8
0
  6
CONTINUOUS
 62
     3
  5
24E
 10
-73.498868
 20
76.365534
 30
0.0
  0
VERTEX
  8
0
  6
CONTINUOUS
 62
     3
  5
24F
 10
-73.527191
 20
76.535875
 30
0.0
  0
VERTEX
  8
0
  6
CONTINUOUS
 62
     3
  5
250
 10
-73.566541
 20
76.702278
 30
0.0
  0
VERTEX
  8
0
  6
CONTINUOUS
 62
     3
  5
251
 10
-73.616618
 20
76.863474
 30
0.0
  0
VERTEX
  8
0
  6
CONTINUOUS
 62
     3
  5
252
 10
-73.677042
 20
77.018237
 30
0.0
  0
VERTEX
  8
0
  6
CONTINUOUS
 62
     3
  5
253
 10
-73.747352
 20
77.16539
 30
0.0
  0
VERTEX
  8
0
  6
CONTINUOUS
 62
     3
  5
254
 10
-73.827013
 20
77.303813
 30
0.0
  0
VERTEX
  8
0
  6
CONTINUOUS
 62
     3
  5
255
 10
-73.91542
 20
77.432451
 30
0.0
  0
VERTEX
  8
0
  6
CONTINUOUS
 62
     3
  5
256
 10
-74.011899
 20
77.550326
 30
0.0
  0
VERTEX
  8
0
  6
CONTINUOUS
 62
     3
  5
257
 10
-74.115715
 20
77.656541
 30
0.0
  0
VERTEX
  8
0
  6
CONTINUOUS
 62
     3
  5
258
 10
-74.22608
 20
77.750288
 30
0.0
  0
VERTEX
  8
0
  6
CONTINUOUS
 62
     3
  5
259
 10
-74.342153
 20
77.830853
 30
0.0
  0
VERTEX
  8
0
  6
CONTINUOUS
 62
     3
  5
25A
 10
-74.46305
 20
77.897623
 30
0.0
  0
VERTEX
  8
0
  6
CONTINUOUS
 62
     3
  5
25B
 10
-74.587852
 20
77.950089
 30
0.0
  0
VERTEX
  8
0
  6
CONTINUOUS
 62
     3
  5
25C
 10
-74.715608
 20
77.987853
 30
0.0
  0
VERTEX
  8
0
  6
CONTINUOUS
 62
     3
  5
25D
 10
-74.845346
 20
78.010627
 30
0.0
  0
VERTEX
  8
0
  6
CONTINUOUS
 62
     3
  5
25E
 10
-74.97608
 20
78.018237
 30
0.0
  0
SEQEND
  8
0
  6
CONTINUOUS
 62
     3
  5
25F
  0
ENDSEC
  0
EOF
