  0
SECTION
  2
HEADER
  9
$ACADVER
  1
AC1009
  9
$DWGCODEPAGE
  3
dos932
  9
$INSBASE
 10
0.0
 20
0.0
 30
0.0
  9
$EXTMIN
 10
-65.0
 20
-230.663281
 30
0.0
  9
$EXTMAX
 10
65.0
 20
365.0
 30
0.0
  9
$LIMMIN
 10
-65.0
 20
-230.663281
  9
$LIMMAX
 10
65.0
 20
365.0
  9
$ORTHOMODE
 70
     0
  9
$REGENMODE
 70
     1
  9
$FILLMODE
 70
     1
  9
$QTEXTMODE
 70
     0
  9
$MIRRTEXT
 70
     1
  9
$DRAGMODE
 70
     2
  9
$LTSCALE
 40
1.0
  9
$OSMODE
 70
     0
  9
$ATTMODE
 70
     1
  9
$TEXTSIZE
 40
4.1656
  9
$TRACEWID
 40
0.05
  9
$TEXTSTYLE
  7
MX_NOTE_STANDARD
  9
$CLAYER
  8
LY_1
  9
$CELTYPE
  6
CONTINUOUS
  9
$CECOLOR
 62
   256
  9
$DIMSCALE
 40
1.0
  9
$DIMASZ
 40
2.5
  9
$DIMEXO
 40
0.5
  9
$DIMDLI
 40
3.75
  9
$DIMRND
 40
0.0
  9
$DIMDLE
 40
0.0
  9
$DIMEXE
 40
1.0
  9
$DIMTP
 40
0.0
  9
$DIMTM
 40
0.0
  9
$DIMTXT
 40
2.5
  9
$DIMCEN
 40
2.5
  9
$DIMTSZ
 40
0.0
  9
$DIMTOL
 70
     0
  9
$DIMLIM
 70
     0
  9
$DIMTIH
 70
     0
  9
$DIMTOH
 70
     0
  9
$DIMSE1
 70
     0
  9
$DIMSE2
 70
     0
  9
$DIMTAD
 70
     1
  9
$DIMZIN
 70
     8
  9
$DIMBLK
  1

  9
$DIMASO
 70
     1
  9
$DIMSHO
 70
     1
  9
$DIMPOST
  1

  9
$DIMAPOST
  1

  9
$DIMALT
 70
     0
  9
$DIMALTD
 70
     4
  9
$DIMALTF
 40
0.03937
  9
$DIMLFAC
 40
1.0
  9
$DIMTOFL
 70
     1
  9
$DIMTVP
 40
0.0
  9
$DIMTIX
 70
     0
  9
$DIMSOXD
 70
     0
  9
$DIMSAH
 70
     0
  9
$DIMBLK1
  1

  9
$DIMBLK2
  1

  9
$DIMSTYLE
  2
MXDIMSTYLE
  9
$DIMCLRD
 70
     0
  9
$DIMCLRE
 70
     0
  9
$DIMCLRT
 70
     0
  9
$DIMTFAC
 40
1.0
  9
$DIMGAP
 40
1.0
  9
$LUNITS
 70
     2
  9
$LUPREC
 70
     4
  9
$AXISMODE
 70
     0
  9
$AXISUNIT
 10
0.0
 20
0.0
  9
$SKETCHINC
 40
0.1
  9
$FILLETRAD
 40
0.0
  9
$AUNITS
 70
     0
  9
$AUPREC
 70
     0
  9
$MENU
  1
acad
  9
$ELEVATION
 40
0.0
  9
$PELEVATION
 40
0.0
  9
$THICKNESS
 40
0.0
  9
$LIMCHECK
 70
     0
  9
$BLIPMODE
 70
     1
  9
$CHAMFERA
 40
0.0
  9
$CHAMFERB
 40
0.0
  9
$SKPOLY
 70
     0
  9
$TDCREATE
 40
2453858.567291667
  9
$TDUPDATE
 40
2453858.567291667
  9
$TDINDWG
 40
0.0000000000
  9
$TDUSRTIMER
 40
0.0000000000
  9
$USRTIMER
 70
     1
  9
$ANGBASE
 50
0.0
  9
$ANGDIR
 70
     0
  9
$PDMODE
 70
     0
  9
$PDSIZE
 40
0.0
  9
$PLINEWID
 40
0.0
  9
$COORDS
 70
     1
  9
$SPLFRAME
 70
     0
  9
$SPLINETYPE
 70
     6
  9
$SPLINESEGS
 70
     8
  9
$ATTDIA
 70
     0
  9
$ATTREQ
 70
     1
  9
$HANDLING
 70
     1
  9
$HANDSEED
  5
24A
  9
$SURFTAB1
 70
     6
  9
$SURFTAB2
 70
     6
  9
$SURFTYPE
 70
     6
  9
$SURFU
 70
     6
  9
$SURFV
 70
     6
  9
$UCSNAME
  2

  9
$UCSORG
 10
0.0
 20
0.0
 30
0.0
  9
$UCSXDIR
 10
1.0
 20
0.0
 30
0.0
  9
$UCSYDIR
 10
0.0
 20
1.0
 30
0.0
  9
$PUCSNAME
  2

  9
$PUCSORG
 10
0.0
 20
0.0
 30
0.0
  9
$PUCSXDIR
 10
1.0
 20
0.0
 30
0.0
  9
$PUCSYDIR
 10
0.0
 20
1.0
 30
0.0
  9
$USERI1
 70
     0
  9
$USERI2
 70
     0
  9
$USERI3
 70
     0
  9
$USERI4
 70
     0
  9
$USERI5
 70
     0
  9
$USERR1
 40
0.0
  9
$USERR2
 40
0.0
  9
$USERR3
 40
0.0
  9
$USERR4
 40
0.0
  9
$USERR5
 40
0.0
  9
$WORLDVIEW
 70
     1
  9
$SHADEDGE
 70
     3
  9
$SHADEDIF
 70
    70
  9
$TILEMODE
 70
     1
  9
$MAXACTVP
 70
    16
  9
$PINSBASE
 10
0.0
 20
0.0
 30
0.0
  9
$PLIMCHECK
 70
     0
  9
$PEXTMIN
 10
1.000000E+20
 20
1.000000E+20
 30
1.000000E+20
  9
$PEXTMAX
 10
-1.000000E+20
 20
-1.000000E+20
 30
-1.000000E+20
  9
$PLIMMIN
 10
0.0
 20
0.0
  9
$PLIMMAX
 10
12.0
 20
9.0
  9
$UNITMODE
 70
     0
  9
$VISRETAIN
 70
     0
  9
$PLINEGEN
 70
     1
  9
$PSLTSCALE
 70
     0
  9
$TREEDEPTH
 70
  3020
  9
$DWGCODEPAGE
  3
dos932
  0
ENDSEC
  0
SECTION
  2
TABLES
  0
TABLE
  2
VPORT
 70
     1
  0
VPORT
  2
*ACTIVE
 70
     0
 10
0.0
 20
0.0
 11
1.0
 21
1.0
 12
0.0
 22
67.168359
 13
0.0
 23
0.0
 14
1.0
 24
1.0
 15
0.0
 25
0.0
 16
0.0
 26
0.0
 36
1.0
 17
0.0
 27
0.0
 37
0.0
 40
601.619914
 41
1.732051
 42
50.0
 43
0.0
 44
0.0
 50
0.0
 51
0.0
 71
     0
 72
   100
 73
     1
 74
     1
 75
     0
 76
     0
 77
     0
 78
     0
  0
ENDTAB
  0
TABLE
  2
LTYPE
 70
     1
  0
LTYPE
  2
CONTINUOUS
 70
    64
  3
Solid line
 72
    65
 73
     0
 40
0.0
  0
ENDTAB
  0
TABLE
  2
LAYER
 70
     3
  0
LAYER
  2
0
 70
     0
 62
     7
  6
CONTINUOUS
  0
LAYER
  2
LY_1
 70
     0
 62
     7
  6
CONTINUOUS
  0
LAYER
  2
DEFPOINTS
 70
     0
 62
     7
  6
CONTINUOUS
  0
ENDTAB
  0
TABLE
  2
STYLE
 70
     1
  0
STYLE
  2
MX_NOTE_STANDARD
 70
     0
 40
0.0
 41
1.0
 50
0.0
 71
     0
 42
4.1656
  3
txt.shx
  4
extfont.shx
  0
ENDTAB
  0
TABLE
  2
VIEW
 70
     0
  0
ENDTAB
  0
TABLE
  2
UCS
 70
     0
  0
ENDTAB
  0
TABLE
  2
APPID
 70
     1
  0
APPID
  2
ACAD
 70
     0
  0
ENDTAB
  0
TABLE
  2
DIMSTYLE
 70
     1
  0
DIMSTYLE
  2
MXDIMSTYLE
 70
     0
  3

  4

  5

  6

  7

 40
1.0
 41
2.5
 42
0.5
 43
3.75
 44
1.0
 45
0.0
 46
0.0
 47
0.0
 48
0.0
 71
     0
 72
     0
 73
     0
 74
     0
 75
     0
 76
     0
 77
     1
 78
     8
140
2.5
141
2.5
142
0.0
143
0.03937
144
1.0
145
0.0
146
1.0
147
1.0
170
     0
171
     4
172
     1
173
     0
174
     0
175
     0
176
     0
177
     0
178
     0
  0
ENDTAB
  0
ENDSEC
  0
SECTION
  2
BLOCKS
  0
BLOCK
  8
0
  5
22
  2
MS_1
 70
     0
 10
0.0
 20
0.0
 30
0.0
  3
MS_1
  0
ARC
  8
0
  6
CONTINUOUS
 62
     3
  5
23
 10
51.961524
 20
30.0
 30
0.0
 40
11.0
 50
322.446351
 51
97.553649
  0
ARC
  8
0
  6
CONTINUOUS
 62
     3
  5
24
 10
0.0
 20
-60.0
 30
0.0
 40
11.0
 50
202.446351
 51
337.553649
  0
ARC
  8
0
  6
CONTINUOUS
 62
     3
  5
25
 10
-51.961524
 20
30.0
 30
0.0
 40
11.0
 50
82.446351
 51
217.553649
  0
CIRCLE
  8
0
  6
CONTINUOUS
 62
     3
  5
26
 10
0.0
 20
0.0
 30
0.0
 40
65.0
  0
CIRCLE
  8
0
  6
CONTINUOUS
 62
     3
  5
27
 10
0.0
 20
0.0
 30
0.0
 40
53.5
  0
CIRCLE
  8
0
  6
CONTINUOUS
 62
     3
  5
28
 10
0.0
 20
0.0
 30
0.0
 40
57.5
  0
CIRCLE
  8
0
  6
CONTINUOUS
 62
     3
  5
29
 10
0.0
 20
0.0
 30
0.0
 40
59.05
  0
CIRCLE
  8
0
  6
CONTINUOUS
 62
     3
  5
2A
 10
0.0
 20
0.0
 30
0.0
 40
64.5
  0
ENDBLK
  8
0
  5
2B
  0
BLOCK
  8
0
  5
2C
  2
MS_2
 70
     0
 10
0.0
 20
0.0
 30
0.0
  3
MS_2
  0
LINE
  8
0
  6
CONTINUOUS
 62
     3
  5
2D
 10
62.961524
 20
-11.0
 30
0.0
 11
62.961524
 21
0.0
 31
0.0
  0
LINE
  8
0
  6
CONTINUOUS
 62
     3
  5
2E
 10
19.310889
 20
-11.0
 30
0.0
 11
62.961524
 21
-11.0
 31
0.0
  0
LINE
  8
0
  6
CONTINUOUS
 62
     3
  5
2F
 10
19.310889
 20
0.0
 30
0.0
 11
19.310889
 21
-11.0
 31
0.0
  0
LINE
  8
0
  6
CONTINUOUS
 62
     3
  5
30
 10
11.0
 20
-11.0
 30
0.0
 11
-11.0
 21
-11.0
 31
0.0
  0
LINE
  8
0
  6
CONTINUOUS
 62
     3
  5
31
 10
11.0
 20
0.0
 30
0.0
 11
11.0
 21
-11.0
 31
0.0
  0
LINE
  8
0
  6
CONTINUOUS
 62
     3
  5
32
 10
-11.0
 20
0.0
 30
0.0
 11
-11.0
 21
-11.0
 31
0.0
  0
LINE
  8
0
  6
CONTINUOUS
 62
     3
  5
33
 10
-62.961524
 20
0.0
 30
0.0
 11
62.961524
 21
0.0
 31
0.0
  0
LINE
  8
0
  6
CONTINUOUS
 62
     3
  5
34
 10
-62.961524
 20
-11.0
 30
0.0
 11
-19.310889
 21
-11.0
 31
0.0
  0
LINE
  8
0
  6
CONTINUOUS
 62
     3
  5
35
 10
-62.961524
 20
0.0
 30
0.0
 11
-62.961524
 21
-11.0
 31
0.0
  0
LINE
  8
0
  6
CONTINUOUS
 62
     3
  5
36
 10
-19.310889
 20
-11.0
 30
0.0
 11
-19.310889
 21
0.0
 31
0.0
  0
ARC
  8
0
  6
CONTINUOUS
 62
     3
  5
37
 10
-59.5404
 20
2.0
 30
0.0
 40
2.0
 50
181.169139
 51
270.0
  0
ARC
  8
0
  6
CONTINUOUS
 62
     3
  5
38
 10
59.5404
 20
2.0
 30
0.0
 40
2.0
 50
270.0
 51
358.830861
  0
LINE
  8
0
  6
CONTINUOUS
 62
     3
  5
39
 10
61.539984
 20
1.959192
 30
0.0
 11
62.5
 21
49.0
 31
0.0
  0
LINE
  8
0
  6
CONTINUOUS
 62
     3
  5
3A
 10
-62.5
 20
49.0
 30
0.0
 11
-61.539984
 21
1.959192
 31
0.0
  0
LINE
  8
0
  6
CONTINUOUS
 62
     3
  5
3B
 10
-65.0
 20
51.0
 30
0.0
 11
-65.0
 21
49.0
 31
0.0
  0
LINE
  8
0
  6
CONTINUOUS
 62
     3
  5
3C
 10
65.0
 20
49.0
 30
0.0
 11
65.0
 21
51.0
 31
0.0
  0
LINE
  8
0
  6
CONTINUOUS
 62
     3
  5
3D
 10
65.0
 20
49.0
 30
0.0
 11
-65.0
 21
49.0
 31
0.0
  0
LINE
  8
0
  6
CONTINUOUS
 62
     3
  5
3E
 10
65.0
 20
51.0
 30
0.0
 11
-65.0
 21
51.0
 31
0.0
  0
LINE
  8
0
  6
CONTINUOUS
 62
     3
  5
3F
 10
-55.961524
 20
-25.5
 30
0.0
 11
-55.961524
 21
-19.4
 31
0.0
  0
LINE
  8
0
  6
CONTINUOUS
 62
    80
  5
40
 10
-55.461524
 20
-26.0
 30
0.0
 11
-55.461524
 21
-19.4
 31
0.0
  0
LINE
  8
0
  6
CONTINUOUS
 62
    80
  5
41
 10
-48.461524
 20
-26.0
 30
0.0
 11
-48.461524
 21
-19.4
 31
0.0
  0
LINE
  8
0
  6
CONTINUOUS
 62
     3
  5
42
 10
-47.961524
 20
-25.5
 30
0.0
 11
-47.961524
 21
-19.4
 31
0.0
  0
LINE
  8
0
  6
CONTINUOUS
 62
     3
  5
43
 10
-55.461524
 20
-26.0
 30
0.0
 11
-48.461524
 21
-26.0
 31
0.0
  0
LINE
  8
0
  6
CONTINUOUS
 62
     3
  5
44
 10
-55.961524
 20
-25.5
 30
0.0
 11
-55.461524
 21
-26.0
 31
0.0
  0
LINE
  8
0
  6
CONTINUOUS
 62
     3
  5
45
 10
-48.461524
 20
-26.0
 30
0.0
 11
-47.961524
 21
-25.5
 31
0.0
  0
LINE
  8
0
  6
CONTINUOUS
 62
    80
  5
46
 10
-55.961524
 20
-25.5
 30
0.0
 11
-47.961524
 21
-25.5
 31
0.0
  0
LINE
  8
0
  6
CONTINUOUS
 62
     3
  5
47
 10
-42.961524
 20
-12.417958
 30
0.0
 11
-60.961524
 21
-12.417958
 31
0.0
  0
LINE
  8
0
  6
CONTINUOUS
 62
     3
  5
48
 10
-42.961524
 20
-12.417958
 30
0.0
 11
-45.961524
 21
-12.9
 31
0.0
  0
LINE
  8
0
  6
CONTINUOUS
 62
     3
  5
49
 10
-42.961524
 20
-12.417958
 30
0.0
 11
-42.961524
 21
-11.0
 31
0.0
  0
LINE
  8
0
  6
CONTINUOUS
 62
     3
  5
4A
 10
-60.961524
 20
-12.417958
 30
0.0
 11
-57.961524
 21
-12.9
 31
0.0
  0
LINE
  8
0
  6
CONTINUOUS
 62
     3
  5
4B
 10
-60.961524
 20
-12.417958
 30
0.0
 11
-60.961524
 21
-11.0
 31
0.0
  0
LINE
  8
0
  6
CONTINUOUS
 62
     3
  5
4C
 10
-58.461524
 20
-19.4
 30
0.0
 11
-45.461524
 21
-19.4
 31
0.0
  0
LINE
  8
0
  6
CONTINUOUS
 62
     3
  5
4D
 10
-59.467078
 20
-12.9
 30
0.0
 11
-44.455971
 21
-12.9
 31
0.0
  0
LINE
  8
0
  6
CONTINUOUS
 62
     3
  5
4E
 10
-59.467078
 20
-18.819443
 30
0.0
 11
-59.467078
 21
-12.9
 31
0.0
  0
LINE
  8
0
  6
CONTINUOUS
 62
     3
  5
4F
 10
-44.455971
 20
-18.819443
 30
0.0
 11
-44.455971
 21
-12.9
 31
0.0
  0
LINE
  8
0
  6
CONTINUOUS
 62
    80
  5
50
 10
-55.714301
 20
-18.819443
 30
0.0
 11
-55.714301
 21
-12.9
 31
0.0
  0
LINE
  8
0
  6
CONTINUOUS
 62
     3
  5
51
 10
-58.461524
 20
-19.4
 30
0.0
 11
-59.467078
 21
-18.819443
 31
0.0
  0
ARC
  8
0
  6
CONTINUOUS
 62
    80
  5
52
 10
-57.580255
 20
-16.11106
 30
0.0
 40
3.28894
 50
234.992264
 51
304.565093
  0
LINE
  8
0
  6
CONTINUOUS
 62
    80
  5
53
 10
-48.208747
 20
-18.819443
 30
0.0
 11
-48.208747
 21
-12.9
 31
0.0
  0
ARC
  8
0
  6
CONTINUOUS
 62
    80
  5
54
 10
-46.342793
 20
-16.11106
 30
0.0
 40
3.28894
 50
235.434907
 51
305.007736
  0
LINE
  8
0
  6
CONTINUOUS
 62
     3
  5
55
 10
-45.461524
 20
-19.4
 30
0.0
 11
-44.455971
 21
-18.819443
 31
0.0
  0
ARC
  8
0
  6
CONTINUOUS
 62
    80
  5
56
 10
-51.961524
 20
-6.980556
 30
0.0
 40
12.419444
 50
252.412046
 51
287.587954
  0
LINE
  8
0
  6
CONTINUOUS
 62
     3
  5
57
 10
-4.0
 20
-25.5
 30
0.0
 11
-4.0
 21
-19.4
 31
0.0
  0
LINE
  8
0
  6
CONTINUOUS
 62
    80
  5
58
 10
-3.5
 20
-26.0
 30
0.0
 11
-3.5
 21
-19.4
 31
0.0
  0
LINE
  8
0
  6
CONTINUOUS
 62
    80
  5
59
 10
3.5
 20
-26.0
 30
0.0
 11
3.5
 21
-19.4
 31
0.0
  0
LINE
  8
0
  6
CONTINUOUS
 62
     3
  5
5A
 10
4.0
 20
-25.5
 30
0.0
 11
4.0
 21
-19.4
 31
0.0
  0
LINE
  8
0
  6
CONTINUOUS
 62
     3
  5
5B
 10
-3.5
 20
-26.0
 30
0.0
 11
3.5
 21
-26.0
 31
0.0
  0
LINE
  8
0
  6
CONTINUOUS
 62
     3
  5
5C
 10
-4.0
 20
-25.5
 30
0.0
 11
-3.5
 21
-26.0
 31
0.0
  0
LINE
  8
0
  6
CONTINUOUS
 62
     3
  5
5D
 10
3.5
 20
-26.0
 30
0.0
 11
4.0
 21
-25.5
 31
0.0
  0
LINE
  8
0
  6
CONTINUOUS
 62
    80
  5
5E
 10
-4.0
 20
-25.5
 30
0.0
 11
4.0
 21
-25.5
 31
0.0
  0
LINE
  8
0
  6
CONTINUOUS
 62
     3
  5
5F
 10
9.0
 20
-12.417958
 30
0.0
 11
-9.0
 21
-12.417958
 31
0.0
  0
LINE
  8
0
  6
CONTINUOUS
 62
     3
  5
60
 10
9.0
 20
-12.417958
 30
0.0
 11
6.0
 21
-12.9
 31
0.0
  0
LINE
  8
0
  6
CONTINUOUS
 62
     3
  5
61
 10
9.0
 20
-12.417958
 30
0.0
 11
9.0
 21
-11.0
 31
0.0
  0
LINE
  8
0
  6
CONTINUOUS
 62
     3
  5
62
 10
-9.0
 20
-12.417958
 30
0.0
 11
-6.0
 21
-12.9
 31
0.0
  0
LINE
  8
0
  6
CONTINUOUS
 62
     3
  5
63
 10
-9.0
 20
-12.417958
 30
0.0
 11
-9.0
 21
-11.0
 31
0.0
  0
LINE
  8
0
  6
CONTINUOUS
 62
     3
  5
64
 10
-6.5
 20
-19.4
 30
0.0
 11
6.5
 21
-19.4
 31
0.0
  0
LINE
  8
0
  6
CONTINUOUS
 62
     3
  5
65
 10
-7.505553
 20
-12.9
 30
0.0
 11
7.505553
 21
-12.9
 31
0.0
  0
LINE
  8
0
  6
CONTINUOUS
 62
     3
  5
66
 10
-7.505553
 20
-18.819443
 30
0.0
 11
-7.505553
 21
-12.9
 31
0.0
  0
LINE
  8
0
  6
CONTINUOUS
 62
     3
  5
67
 10
7.505553
 20
-18.819443
 30
0.0
 11
7.505553
 21
-12.9
 31
0.0
  0
LINE
  8
0
  6
CONTINUOUS
 62
    80
  5
68
 10
-3.752777
 20
-18.819443
 30
0.0
 11
-3.752777
 21
-12.9
 31
0.0
  0
LINE
  8
0
  6
CONTINUOUS
 62
     3
  5
69
 10
-6.5
 20
-19.4
 30
0.0
 11
-7.505554
 21
-18.819443
 31
0.0
  0
ARC
  8
0
  6
CONTINUOUS
 62
    80
  5
6A
 10
-5.618731
 20
-16.11106
 30
0.0
 40
3.28894
 50
234.992264
 51
304.565093
  0
LINE
  8
0
  6
CONTINUOUS
 62
    80
  5
6B
 10
3.752777
 20
-18.819443
 30
0.0
 11
3.752777
 21
-12.9
 31
0.0
  0
ARC
  8
0
  6
CONTINUOUS
 62
    80
  5
6C
 10
5.618731
 20
-16.11106
 30
0.0
 40
3.28894
 50
235.434907
 51
305.007736
  0
LINE
  8
0
  6
CONTINUOUS
 62
     3
  5
6D
 10
6.5
 20
-19.4
 30
0.0
 11
7.505554
 21
-18.819443
 31
0.0
  0
ARC
  8
0
  6
CONTINUOUS
 62
    80
  5
6E
 10
0.0
 20
-6.980556
 30
0.0
 40
12.419444
 50
252.412046
 51
287.587954
  0
LINE
  8
0
  6
CONTINUOUS
 62
     3
  5
6F
 10
47.961524
 20
-25.5
 30
0.0
 11
47.961524
 21
-19.4
 31
0.0
  0
LINE
  8
0
  6
CONTINUOUS
 62
    80
  5
70
 10
48.461524
 20
-26.0
 30
0.0
 11
48.461524
 21
-19.4
 31
0.0
  0
LINE
  8
0
  6
CONTINUOUS
 62
    80
  5
71
 10
55.461524
 20
-26.0
 30
0.0
 11
55.461524
 21
-19.4
 31
0.0
  0
LINE
  8
0
  6
CONTINUOUS
 62
     3
  5
72
 10
55.961524
 20
-25.5
 30
0.0
 11
55.961524
 21
-19.4
 31
0.0
  0
LINE
  8
0
  6
CONTINUOUS
 62
     3
  5
73
 10
48.461524
 20
-26.0
 30
0.0
 11
55.461524
 21
-26.0
 31
0.0
  0
LINE
  8
0
  6
CONTINUOUS
 62
     3
  5
74
 10
47.961524
 20
-25.5
 30
0.0
 11
48.461524
 21
-26.0
 31
0.0
  0
LINE
  8
0
  6
CONTINUOUS
 62
     3
  5
75
 10
55.461524
 20
-26.0
 30
0.0
 11
55.961524
 21
-25.5
 31
0.0
  0
LINE
  8
0
  6
CONTINUOUS
 62
    80
  5
76
 10
47.961524
 20
-25.5
 30
0.0
 11
55.961524
 21
-25.5
 31
0.0
  0
LINE
  8
0
  6
CONTINUOUS
 62
     3
  5
77
 10
60.961524
 20
-12.417958
 30
0.0
 11
42.961524
 21
-12.417958
 31
0.0
  0
LINE
  8
0
  6
CONTINUOUS
 62
     3
  5
78
 10
60.961524
 20
-12.417958
 30
0.0
 11
57.961524
 21
-12.9
 31
0.0
  0
LINE
  8
0
  6
CONTINUOUS
 62
     3
  5
79
 10
60.961524
 20
-12.417958
 30
0.0
 11
60.961524
 21
-11.0
 31
0.0
  0
LINE
  8
0
  6
CONTINUOUS
 62
     3
  5
7A
 10
42.961524
 20
-12.417958
 30
0.0
 11
45.961524
 21
-12.9
 31
0.0
  0
LINE
  8
0
  6
CONTINUOUS
 62
     3
  5
7B
 10
42.961524
 20
-12.417958
 30
0.0
 11
42.961524
 21
-11.0
 31
0.0
  0
LINE
  8
0
  6
CONTINUOUS
 62
     3
  5
7C
 10
45.461524
 20
-19.4
 30
0.0
 11
58.461524
 21
-19.4
 31
0.0
  0
LINE
  8
0
  6
CONTINUOUS
 62
     3
  5
7D
 10
44.455971
 20
-12.9
 30
0.0
 11
59.467078
 21
-12.9
 31
0.0
  0
LINE
  8
0
  6
CONTINUOUS
 62
     3
  5
7E
 10
44.455971
 20
-18.819443
 30
0.0
 11
44.455971
 21
-12.9
 31
0.0
  0
LINE
  8
0
  6
CONTINUOUS
 62
     3
  5
7F
 10
59.467078
 20
-18.819443
 30
0.0
 11
59.467078
 21
-12.9
 31
0.0
  0
LINE
  8
0
  6
CONTINUOUS
 62
    80
  5
80
 10
48.208747
 20
-18.819443
 30
0.0
 11
48.208747
 21
-12.9
 31
0.0
  0
LINE
  8
0
  6
CONTINUOUS
 62
     3
  5
81
 10
45.461524
 20
-19.4
 30
0.0
 11
44.455971
 21
-18.819443
 31
0.0
  0
ARC
  8
0
  6
CONTINUOUS
 62
    80
  5
82
 10
46.342793
 20
-16.11106
 30
0.0
 40
3.28894
 50
234.992264
 51
304.565093
  0
LINE
  8
0
  6
CONTINUOUS
 62
    80
  5
83
 10
55.714301
 20
-18.819443
 30
0.0
 11
55.714301
 21
-12.9
 31
0.0
  0
ARC
  8
0
  6
CONTINUOUS
 62
    80
  5
84
 10
57.580255
 20
-16.11106
 30
0.0
 40
3.28894
 50
235.434907
 51
305.007736
  0
LINE
  8
0
  6
CONTINUOUS
 62
     3
  5
85
 10
58.461524
 20
-19.4
 30
0.0
 11
59.467078
 21
-18.819443
 31
0.0
  0
ARC
  8
0
  6
CONTINUOUS
 62
    80
  5
86
 10
51.961524
 20
-6.980556
 30
0.0
 40
12.419444
 50
252.412046
 51
287.587954
  0
LINE
  8
0
  6
CONTINUOUS
 62
     3
  5
87
 10
-65.0
 20
52.378266
 30
0.0
 11
65.0
 21
52.378266
 31
0.0
  0
LINE
  8
0
  6
CONTINUOUS
 62
     3
  5
88
 10
-59.05
 20
62.378266
 30
0.0
 11
59.05
 21
62.378266
 31
0.0
  0
LINE
  8
0
  6
CONTINUOUS
 62
     3
  5
89
 10
64.5
 20
61.878266
 30
0.0
 11
65.0
 21
52.378266
 31
0.0
  0
LINE
  8
0
  6
CONTINUOUS
 62
     3
  5
8A
 10
59.05
 20
62.378266
 30
0.0
 11
64.5
 21
61.878266
 31
0.0
  0
LINE
  8
0
  6
CONTINUOUS
 62
     3
  5
8B
 10
-59.05
 20
62.378266
 30
0.0
 11
-64.5
 21
61.878266
 31
0.0
  0
LINE
  8
0
  6
CONTINUOUS
 62
     3
  5
8C
 10
-64.5
 20
61.878266
 30
0.0
 11
-65.0
 21
52.378266
 31
0.0
  0
LINE
  8
0
  6
CONTINUOUS
 62
     3
  5
8D
 10
-57.5
 20
164.378266
 30
0.0
 11
57.5
 21
164.378266
 31
0.0
  0
LINE
  8
0
  6
CONTINUOUS
 62
     3
  5
8E
 10
-53.5
 20
165.378266
 30
0.0
 11
53.5
 21
165.378266
 31
0.0
  0
LINE
  8
0
  6
CONTINUOUS
 62
     3
  5
8F
 10
-53.5
 20
166.878266
 30
0.0
 11
53.5
 21
166.878266
 31
0.0
  0
LINE
  8
0
  6
CONTINUOUS
 62
     3
  5
90
 10
57.5
 20
164.378266
 30
0.0
 11
58.957143
 21
62.378266
 31
0.0
  0
LINE
  8
0
  6
CONTINUOUS
 62
     3
  5
91
 10
53.5
 20
166.878266
 30
0.0
 11
53.5
 21
165.378266
 31
0.0
  0
LINE
  8
0
  6
CONTINUOUS
 62
     3
  5
92
 10
57.5
 20
164.378266
 30
0.0
 11
53.5
 21
165.378266
 31
0.0
  0
LINE
  8
0
  6
CONTINUOUS
 62
     3
  5
93
 10
-57.5
 20
164.378266
 30
0.0
 11
-53.5
 21
165.378266
 31
0.0
  0
LINE
  8
0
  6
CONTINUOUS
 62
     3
  5
94
 10
-53.5
 20
166.878266
 30
0.0
 11
-53.5
 21
165.378266
 31
0.0
  0
LINE
  8
0
  6
CONTINUOUS
 62
     3
  5
95
 10
-57.5
 20
164.378266
 30
0.0
 11
-58.957143
 21
62.378266
 31
0.0
  0
ARC
  8
0
  6
CONTINUOUS
 62
     3
  5
96
 10
0.0
 20
-290.0
 30
0.0
 40
460.0
 50
83.321136
 51
96.678864
  0
LINE
  8
0
  6
CONTINUOUS
 62
     3
  5
97
 10
64.5
 20
61.878266
 30
0.0
 11
-64.5
 21
61.878266
 31
0.0
  0
LINE
  8
0
  6
CONTINUOUS
 62
     3
  5
98
 10
62.5
 20
51.0
 30
0.0
 11
62.5
 21
52.378266
 31
0.0
  0
LINE
  8
0
  6
CONTINUOUS
 62
     3
  5
99
 10
-62.5
 20
51.0
 30
0.0
 11
-62.5
 21
52.378266
 31
0.0
  0
ENDBLK
  8
0
  5
9A
  0
BLOCK
  8
0
  5
9B
  2
MS_3
 70
     0
 10
0.0
 20
0.0
 30
0.0
  3
MS_3
  0
CIRCLE
  8
0
  6
CONTINUOUS
 62
     3
  5
9C
 10
51.961524
 20
-30.0
 30
0.0
 40
8.5
  0
CIRCLE
  8
0
  6
CONTINUOUS
 62
     3
  5
9D
 10
51.961524
 20
-30.0
 30
0.0
 40
3.714286
  0
CIRCLE
  8
0
  6
CONTINUOUS
 62
    80
  5
9E
 10
51.961524
 20
-30.0
 30
0.0
 40
6.499904
  0
LINE
  8
0
  6
CONTINUOUS
 62
     3
  5
9F
 10
44.455956
 20
-30.000011
 30
0.0
 11
48.208739
 21
-23.5
 31
0.0
  0
LINE
  8
0
  6
CONTINUOUS
 62
     3
  5
A0
 10
44.455956
 20
-30.000011
 30
0.0
 11
48.208727
 21
-36.5
 31
0.0
  0
LINE
  8
0
  6
CONTINUOUS
 62
     3
  5
A1
 10
48.208727
 20
-36.5
 30
0.0
 11
55.714293
 21
-36.5
 31
0.0
  0
LINE
  8
0
  6
CONTINUOUS
 62
     3
  5
A2
 10
55.714293
 20
-36.5
 30
0.0
 11
59.467063
 21
-30.000011
 31
0.0
  0
LINE
  8
0
  6
CONTINUOUS
 62
     3
  5
A3
 10
55.71428
 20
-23.5
 30
0.0
 11
59.467063
 21
-30.000011
 31
0.0
  0
LINE
  8
0
  6
CONTINUOUS
 62
     3
  5
A4
 10
48.208739
 20
-23.5
 30
0.0
 11
55.71428
 21
-23.5
 31
0.0
  0
CIRCLE
  8
0
  6
CONTINUOUS
 62
    80
  5
A5
 10
51.961524
 20
-30.0
 30
0.0
 40
3.6
  0
ARC
  8
0
  6
CONTINUOUS
 62
     3
  5
A6
 10
30.310889
 20
-17.5
 30
0.0
 40
11.0
 50
60.0
 51
240.0
  0
ARC
  8
0
  6
CONTINUOUS
 62
     3
  5
A7
 10
51.961524
 20
-30.0
 30
0.0
 40
11.0
 50
240.0
 51
60.0
  0
LINE
  8
0
  6
CONTINUOUS
 62
     3
  5
A8
 10
57.461524
 20
-20.473721
 30
0.0
 11
35.810889
 21
-7.973721
 31
0.0
  0
LINE
  8
0
  6
CONTINUOUS
 62
     3
  5
A9
 10
24.810889
 20
-27.026279
 30
0.0
 11
46.461524
 21
-39.526279
 31
0.0
  0
CIRCLE
  8
0
  6
CONTINUOUS
 62
     3
  5
AA
 10
0.0
 20
60.0
 30
0.0
 40
8.5
  0
CIRCLE
  8
0
  6
CONTINUOUS
 62
     3
  5
AB
 10
0.0
 20
60.0
 30
0.0
 40
3.714286
  0
CIRCLE
  8
0
  6
CONTINUOUS
 62
    80
  5
AC
 10
0.0
 20
60.0
 30
0.0
 40
6.499904
  0
LINE
  8
0
  6
CONTINUOUS
 62
     3
  5
AD
 10
-3.752773
 20
53.499993
 30
0.0
 11
3.752793
 21
53.499993
 31
0.0
  0
LINE
  8
0
  6
CONTINUOUS
 62
     3
  5
AE
 10
3.752793
 20
53.499993
 30
0.0
 11
7.505564
 21
59.999982
 31
0.0
  0
LINE
  8
0
  6
CONTINUOUS
 62
     3
  5
AF
 10
3.752781
 20
66.499993
 30
0.0
 11
7.505564
 21
59.999982
 31
0.0
  0
LINE
  8
0
  6
CONTINUOUS
 62
     3
  5
B0
 10
-3.75276
 20
66.499993
 30
0.0
 11
3.752781
 21
66.499993
 31
0.0
  0
LINE
  8
0
  6
CONTINUOUS
 62
     3
  5
B1
 10
-7.505543
 20
59.999982
 30
0.0
 11
-3.75276
 21
66.499993
 31
0.0
  0
LINE
  8
0
  6
CONTINUOUS
 62
     3
  5
B2
 10
-7.505543
 20
59.999982
 30
0.0
 11
-3.752773
 21
53.499993
 31
0.0
  0
CIRCLE
  8
0
  6
CONTINUOUS
 62
    80
  5
B3
 10
0.0
 20
60.0
 30
0.0
 40
3.6
  0
CIRCLE
  8
0
  6
CONTINUOUS
 62
     3
  5
B4
 10
0.0
 20
35.0
 30
0.0
 40
7.0
  0
ARC
  8
0
  6
CONTINUOUS
 62
     3
  5
B5
 10
0.0
 20
35.0
 30
0.0
 40
11.0
 50
180.0
 51
0.0
  0
ARC
  8
0
  6
CONTINUOUS
 62
     3
  5
B6
 10
0.0
 20
60.0
 30
0.0
 40
11.0
 50
360.0
 51
180.0
  0
LINE
  8
0
  6
CONTINUOUS
 62
     3
  5
B7
 10
-11.0
 20
60.0
 30
0.0
 11
-11.0
 21
35.0
 31
0.0
  0
LINE
  8
0
  6
CONTINUOUS
 62
     3
  5
B8
 10
11.0
 20
35.0
 30
0.0
 11
11.0
 21
60.0
 31
0.0
  0
CIRCLE
  8
0
  6
CONTINUOUS
 62
     3
  5
B9
 10
0.0
 20
35.0
 30
0.0
 40
5.5
  0
POLYLINE
  8
0
  6
CONTINUOUS
 62
     3
  5
BA
 66
     1
 10
0.0
 20
0.0
 30
0.0
  0
VERTEX
  8
0
  6
CONTINUOUS
 62
     3
  5
121
 10
-0.185622
 20
37.525507
 30
0.0
  0
VERTEX
  8
0
  6
CONTINUOUS
 62
     3
  5
122
 10
-0.564807
 20
37.081523
 30
0.0
  0
VERTEX
  8
0
  6
CONTINUOUS
 62
     3
  5
123
 10
-0.943614
 20
36.634387
 30
0.0
  0
SEQEND
  8
0
  6
CONTINUOUS
 62
     3
  5
124
  0
POLYLINE
  8
0
  6
CONTINUOUS
 62
     3
  5
BB
 66
     1
 10
0.0
 20
0.0
 30
0.0
  0
VERTEX
  8
0
  6
CONTINUOUS
 62
     3
  5
125
 10
0.185622
 20
32.474493
 30
0.0
  0
VERTEX
  8
0
  6
CONTINUOUS
 62
     3
  5
126
 10
0.564807
 20
32.918477
 30
0.0
  0
VERTEX
  8
0
  6
CONTINUOUS
 62
     3
  5
127
 10
0.943614
 20
33.365613
 30
0.0
  0
SEQEND
  8
0
  6
CONTINUOUS
 62
     3
  5
128
  0
POLYLINE
  8
0
  6
CONTINUOUS
 62
     3
  5
BC
 66
     1
 10
0.0
 20
0.0
 30
0.0
  0
VERTEX
  8
0
  6
CONTINUOUS
 62
     3
  5
129
 10
0.943614
 20
33.365613
 30
0.0
  0
VERTEX
  8
0
  6
CONTINUOUS
 62
     3
  5
12A
 10
1.520248
 20
33.470101
 30
0.0
  0
VERTEX
  8
0
  6
CONTINUOUS
 62
     3
  5
12B
 10
2.094342
 20
33.576493
 30
0.0
  0
SEQEND
  8
0
  6
CONTINUOUS
 62
     3
  5
12C
  0
POLYLINE
  8
0
  6
CONTINUOUS
 62
     3
  5
BD
 66
     1
 10
0.0
 20
0.0
 30
0.0
  0
VERTEX
  8
0
  6
CONTINUOUS
 62
     3
  5
12D
 10
-0.943614
 20
36.634387
 30
0.0
  0
VERTEX
  8
0
  6
CONTINUOUS
 62
     3
  5
12E
 10
-1.520248
 20
36.529899
 30
0.0
  0
VERTEX
  8
0
  6
CONTINUOUS
 62
     3
  5
12F
 10
-2.094342
 20
36.423507
 30
0.0
  0
SEQEND
  8
0
  6
CONTINUOUS
 62
     3
  5
130
  0
POLYLINE
  8
0
  6
CONTINUOUS
 62
     3
  5
BE
 66
     1
 10
0.0
 20
0.0
 30
0.0
  0
VERTEX
  8
0
  6
CONTINUOUS
 62
     3
  5
131
 10
-2.525507
 20
34.814378
 30
0.0
  0
VERTEX
  8
0
  6
CONTINUOUS
 62
     3
  5
132
 10
-2.081523
 20
34.435193
 30
0.0
  0
VERTEX
  8
0
  6
CONTINUOUS
 62
     3
  5
133
 10
-1.634387
 20
34.056386
 30
0.0
  0
SEQEND
  8
0
  6
CONTINUOUS
 62
     3
  5
134
  0
POLYLINE
  8
0
  6
CONTINUOUS
 62
     3
  5
BF
 66
     1
 10
0.0
 20
0.0
 30
0.0
  0
VERTEX
  8
0
  6
CONTINUOUS
 62
     3
  5
135
 10
-1.634387
 20
34.056386
 30
0.0
  0
VERTEX
  8
0
  6
CONTINUOUS
 62
     3
  5
136
 10
-1.529899
 20
33.479752
 30
0.0
  0
VERTEX
  8
0
  6
CONTINUOUS
 62
     3
  5
137
 10
-1.423507
 20
32.905658
 30
0.0
  0
SEQEND
  8
0
  6
CONTINUOUS
 62
     3
  5
138
  0
POLYLINE
  8
0
  6
CONTINUOUS
 62
     3
  5
C0
 66
     1
 10
0.0
 20
0.0
 30
0.0
  0
VERTEX
  8
0
  6
CONTINUOUS
 62
     3
  5
139
 10
-0.061977
 20
37.93936
 30
0.0
  0
VERTEX
  8
0
  6
CONTINUOUS
 62
     3
  5
13A
 10
-0.12383
 20
37.732774
 30
0.0
  0
VERTEX
  8
0
  6
CONTINUOUS
 62
     3
  5
13B
 10
-0.185622
 20
37.525507
 30
0.0
  0
SEQEND
  8
0
  6
CONTINUOUS
 62
     3
  5
13C
  0
POLYLINE
  8
0
  6
CONTINUOUS
 62
     3
  5
C1
 66
     1
 10
0.0
 20
0.0
 30
0.0
  0
VERTEX
  8
0
  6
CONTINUOUS
 62
     3
  5
13D
 10
1.423507
 20
37.094342
 30
0.0
  0
VERTEX
  8
0
  6
CONTINUOUS
 62
     3
  5
13E
 10
1.473627
 20
37.304737
 30
0.0
  0
VERTEX
  8
0
  6
CONTINUOUS
 62
     3
  5
13F
 10
1.523353
 20
37.514572
 30
0.0
  0
SEQEND
  8
0
  6
CONTINUOUS
 62
     3
  5
140
  0
POLYLINE
  8
0
  6
CONTINUOUS
 62
     3
  5
C2
 66
     1
 10
0.0
 20
0.0
 30
0.0
  0
VERTEX
  8
0
  6
CONTINUOUS
 62
     3
  5
141
 10
1.634387
 20
35.943614
 30
0.0
  0
VERTEX
  8
0
  6
CONTINUOUS
 62
     3
  5
142
 10
1.529899
 20
36.520248
 30
0.0
  0
VERTEX
  8
0
  6
CONTINUOUS
 62
     3
  5
143
 10
1.423507
 20
37.094342
 30
0.0
  0
SEQEND
  8
0
  6
CONTINUOUS
 62
     3
  5
144
  0
POLYLINE
  8
0
  6
CONTINUOUS
 62
     3
  5
C3
 66
     1
 10
0.0
 20
0.0
 30
0.0
  0
VERTEX
  8
0
  6
CONTINUOUS
 62
     3
  5
145
 10
2.525507
 20
35.185622
 30
0.0
  0
VERTEX
  8
0
  6
CONTINUOUS
 62
     3
  5
146
 10
2.081523
 20
35.564807
 30
0.0
  0
VERTEX
  8
0
  6
CONTINUOUS
 62
     3
  5
147
 10
1.634387
 20
35.943614
 30
0.0
  0
SEQEND
  8
0
  6
CONTINUOUS
 62
     3
  5
148
  0
POLYLINE
  8
0
  6
CONTINUOUS
 62
     3
  5
C4
 66
     1
 10
0.0
 20
0.0
 30
0.0
  0
VERTEX
  8
0
  6
CONTINUOUS
 62
     3
  5
149
 10
2.93936
 20
35.061977
 30
0.0
  0
VERTEX
  8
0
  6
CONTINUOUS
 62
     3
  5
14A
 10
2.732774
 20
35.12383
 30
0.0
  0
VERTEX
  8
0
  6
CONTINUOUS
 62
     3
  5
14B
 10
2.525507
 20
35.185622
 30
0.0
  0
SEQEND
  8
0
  6
CONTINUOUS
 62
     3
  5
14C
  0
POLYLINE
  8
0
  6
CONTINUOUS
 62
     3
  5
C5
 66
     1
 10
0.0
 20
0.0
 30
0.0
  0
VERTEX
  8
0
  6
CONTINUOUS
 62
     3
  5
14D
 10
2.094342
 20
33.576493
 30
0.0
  0
VERTEX
  8
0
  6
CONTINUOUS
 62
     3
  5
14E
 10
2.304737
 20
33.526373
 30
0.0
  0
VERTEX
  8
0
  6
CONTINUOUS
 62
     3
  5
14F
 10
2.514572
 20
33.476647
 30
0.0
  0
SEQEND
  8
0
  6
CONTINUOUS
 62
     3
  5
150
  0
POLYLINE
  8
0
  6
CONTINUOUS
 62
     3
  5
C6
 66
     1
 10
0.0
 20
0.0
 30
0.0
  0
VERTEX
  8
0
  6
CONTINUOUS
 62
     3
  5
151
 10
0.061977
 20
32.06064
 30
0.0
  0
VERTEX
  8
0
  6
CONTINUOUS
 62
     3
  5
152
 10
0.12383
 20
32.267226
 30
0.0
  0
VERTEX
  8
0
  6
CONTINUOUS
 62
     3
  5
153
 10
0.185622
 20
32.474493
 30
0.0
  0
SEQEND
  8
0
  6
CONTINUOUS
 62
     3
  5
154
  0
POLYLINE
  8
0
  6
CONTINUOUS
 62
     3
  5
C7
 66
     1
 10
0.0
 20
0.0
 30
0.0
  0
VERTEX
  8
0
  6
CONTINUOUS
 62
     3
  5
155
 10
-1.423507
 20
32.905658
 30
0.0
  0
VERTEX
  8
0
  6
CONTINUOUS
 62
     3
  5
156
 10
-1.473627
 20
32.695263
 30
0.0
  0
VERTEX
  8
0
  6
CONTINUOUS
 62
     3
  5
157
 10
-1.523353
 20
32.485428
 30
0.0
  0
SEQEND
  8
0
  6
CONTINUOUS
 62
     3
  5
158
  0
POLYLINE
  8
0
  6
CONTINUOUS
 62
     3
  5
C8
 66
     1
 10
0.0
 20
0.0
 30
0.0
  0
VERTEX
  8
0
  6
CONTINUOUS
 62
     3
  5
159
 10
-2.93936
 20
34.938023
 30
0.0
  0
VERTEX
  8
0
  6
CONTINUOUS
 62
     3
  5
15A
 10
-2.732774
 20
34.87617
 30
0.0
  0
VERTEX
  8
0
  6
CONTINUOUS
 62
     3
  5
15B
 10
-2.525507
 20
34.814378
 30
0.0
  0
SEQEND
  8
0
  6
CONTINUOUS
 62
     3
  5
15C
  0
POLYLINE
  8
0
  6
CONTINUOUS
 62
     3
  5
C9
 66
     1
 10
0.0
 20
0.0
 30
0.0
  0
VERTEX
  8
0
  6
CONTINUOUS
 62
     3
  5
15D
 10
-2.094342
 20
36.423507
 30
0.0
  0
VERTEX
  8
0
  6
CONTINUOUS
 62
     3
  5
15E
 10
-2.304737
 20
36.473627
 30
0.0
  0
VERTEX
  8
0
  6
CONTINUOUS
 62
     3
  5
15F
 10
-2.514572
 20
36.523353
 30
0.0
  0
SEQEND
  8
0
  6
CONTINUOUS
 62
     3
  5
160
  0
ARC
  8
0
  6
CONTINUOUS
 62
     3
  5
CA
 10
0.0
 20
35.0
 30
0.0
 40
2.940013
 50
58.792088
 51
91.207912
  0
ARC
  8
0
  6
CONTINUOUS
 62
     3
  5
CB
 10
0.0
 20
35.0
 30
0.0
 40
2.940013
 50
328.792088
 51
1.207912
  0
ARC
  8
0
  6
CONTINUOUS
 62
     3
  5
CC
 10
0.0
 20
35.0
 30
0.0
 40
2.940013
 50
238.792088
 51
271.207912
  0
ARC
  8
0
  6
CONTINUOUS
 62
     3
  5
CD
 10
0.0
 20
35.0
 30
0.0
 40
2.940013
 50
148.792088
 51
181.207912
  0
CIRCLE
  8
0
  6
CONTINUOUS
 62
     3
  5
CE
 10
-51.961524
 20
-30.0
 30
0.0
 40
8.5
  0
CIRCLE
  8
0
  6
CONTINUOUS
 62
     3
  5
CF
 10
-51.961524
 20
-30.0
 30
0.0
 40
3.714286
  0
CIRCLE
  8
0
  6
CONTINUOUS
 62
    80
  5
D0
 10
-51.961524
 20
-30.0
 30
0.0
 40
6.499904
  0
LINE
  8
0
  6
CONTINUOUS
 62
     3
  5
D1
 10
-48.20875
 20
-23.499982
 30
0.0
 11
-44.455967
 21
-29.999993
 31
0.0
  0
LINE
  8
0
  6
CONTINUOUS
 62
     3
  5
D2
 10
-55.714291
 20
-23.499982
 30
0.0
 11
-48.20875
 21
-23.499982
 31
0.0
  0
LINE
  8
0
  6
CONTINUOUS
 62
     3
  5
D3
 10
-59.467074
 20
-29.999993
 30
0.0
 11
-55.714291
 21
-23.499982
 31
0.0
  0
LINE
  8
0
  6
CONTINUOUS
 62
     3
  5
D4
 10
-59.467074
 20
-29.999993
 30
0.0
 11
-55.714303
 21
-36.499982
 31
0.0
  0
LINE
  8
0
  6
CONTINUOUS
 62
     3
  5
D5
 10
-55.714303
 20
-36.499982
 30
0.0
 11
-48.208737
 21
-36.499982
 31
0.0
  0
LINE
  8
0
  6
CONTINUOUS
 62
     3
  5
D6
 10
-48.208737
 20
-36.499982
 30
0.0
 11
-44.455967
 21
-29.999993
 31
0.0
  0
CIRCLE
  8
0
  6
CONTINUOUS
 62
    80
  5
D7
 10
-51.961524
 20
-30.0
 30
0.0
 40
3.6
  0
ARC
  8
0
  6
CONTINUOUS
 62
     3
  5
D8
 10
-30.310889
 20
-17.5
 30
0.0
 40
11.0
 50
300.0
 51
120.0
  0
ARC
  8
0
  6
CONTINUOUS
 62
     3
  5
D9
 10
-51.961524
 20
-30.0
 30
0.0
 40
11.0
 50
120.0
 51
300.0
  0
LINE
  8
0
  6
CONTINUOUS
 62
     3
  5
DA
 10
-46.461524
 20
-39.526279
 30
0.0
 11
-24.810889
 21
-27.026279
 31
0.0
  0
LINE
  8
0
  6
CONTINUOUS
 62
     3
  5
DB
 10
-35.810889
 20
-7.973721
 30
0.0
 11
-57.461524
 21
-20.473721
 31
0.0
  0
ARC
  8
0
  6
CONTINUOUS
 62
     3
  5
DC
 10
0.0
 20
-35.0
 30
0.0
 40
6.5
 50
288.968252
 51
238.303375
  0
CIRCLE
  8
0
  6
CONTINUOUS
 62
     3
  5
DD
 10
-27.712813
 20
16.0
 30
0.0
 40
2.75
  0
ARC
  8
0
  6
CONTINUOUS
 62
     3
  5
DE
 10
0.0
 20
0.0
 30
0.0
 40
65.0
 50
218.998547
 51
261.346433
  0
ARC
  8
0
  6
CONTINUOUS
 62
     3
  5
DF
 10
0.0
 20
0.0
 30
0.0
 40
65.0
 50
98.998547
 51
201.001453
  0
ARC
  8
0
  6
CONTINUOUS
 62
     3
  5
E0
 10
0.0
 20
0.0
 30
0.0
 40
65.0
 50
338.998547
 51
81.001453
  0
ARC
  8
0
  6
CONTINUOUS
 62
     3
  5
E1
 10
0.0
 20
0.0
 30
0.0
 40
62.5
 50
100.035491
 51
199.964509
  0
ARC
  8
0
  6
CONTINUOUS
 62
     3
  5
E2
 10
0.0
 20
0.0
 30
0.0
 40
62.5
 50
340.035491
 51
79.964509
  0
ARC
  8
0
  6
CONTINUOUS
 62
     3
  5
E3
 10
0.0
 20
0.0
 30
0.0
 40
62.5
 50
220.035491
 51
261.833734
  0
ARC
  8
0
  6
CONTINUOUS
 62
     3
  5
E4
 10
0.0
 20
0.0
 30
0.0
 40
61.539984
 50
220.283616
 51
262.016891
  0
ARC
  8
0
  6
CONTINUOUS
 62
     3
  5
E5
 10
0.0
 20
0.0
 30
0.0
 40
61.539984
 50
100.283616
 51
199.716384
  0
ARC
  8
0
  6
CONTINUOUS
 62
     3
  5
E6
 10
0.0
 20
0.0
 30
0.0
 40
61.539984
 50
340.283616
 51
79.716384
  0
ARC
  8
0
  6
CONTINUOUS
 62
     3
  5
E7
 10
-111.781078
 20
-25.313379
 30
0.0
 40
112.2
 50
331.704472
 51
355.047288
  0
ARC
  8
0
  6
CONTINUOUS
 62
     3
  5
E8
 10
-114.315757
 20
-23.503571
 30
0.0
 40
112.2
 50
332.112563
 51
354.11894
  0
POLYLINE
  8
0
  6
CONTINUOUS
 62
     3
  5
E9
 66
     1
 10
0.0
 20
0.0
 30
0.0
  0
VERTEX
  8
0
  6
CONTINUOUS
 62
     3
  5
161
 10
2.713468
 20
-35.0
 30
0.0
  0
VERTEX
  8
0
  6
CONTINUOUS
 62
     3
  5
162
 10
2.701891
 20
-34.923285
 30
0.0
  0
VERTEX
  8
0
  6
CONTINUOUS
 62
     3
  5
163
 10
2.66736
 20
-34.847882
 30
0.0
  0
VERTEX
  8
0
  6
CONTINUOUS
 62
     3
  5
164
 10
2.610466
 20
-34.775082
 30
0.0
  0
VERTEX
  8
0
  6
CONTINUOUS
 62
     3
  5
165
 10
2.532181
 20
-34.70613
 30
0.0
  0
VERTEX
  8
0
  6
CONTINUOUS
 62
     3
  5
166
 10
2.433845
 20
-34.642207
 30
0.0
  0
VERTEX
  8
0
  6
CONTINUOUS
 62
     3
  5
167
 10
2.31714
 20
-34.584406
 30
0.0
  0
VERTEX
  8
0
  6
CONTINUOUS
 62
     3
  5
168
 10
2.184065
 20
-34.533715
 30
0.0
  0
VERTEX
  8
0
  6
CONTINUOUS
 62
     3
  5
169
 10
2.036894
 20
-34.491003
 30
0.0
  0
VERTEX
  8
0
  6
CONTINUOUS
 62
     3
  5
16A
 10
1.878148
 20
-34.457
 30
0.0
  0
VERTEX
  8
0
  6
CONTINUOUS
 62
     3
  5
16B
 10
1.710541
 20
-34.432288
 30
0.0
  0
VERTEX
  8
0
  6
CONTINUOUS
 62
     3
  5
16C
 10
1.536942
 20
-34.417289
 30
0.0
  0
VERTEX
  8
0
  6
CONTINUOUS
 62
     3
  5
16D
 10
1.360321
 20
-34.412261
 30
0.0
  0
VERTEX
  8
0
  6
CONTINUOUS
 62
     3
  5
16E
 10
1.1837
 20
-34.417289
 30
0.0
  0
VERTEX
  8
0
  6
CONTINUOUS
 62
     3
  5
16F
 10
1.010101
 20
-34.432288
 30
0.0
  0
VERTEX
  8
0
  6
CONTINUOUS
 62
     3
  5
170
 10
0.842494
 20
-34.457
 30
0.0
  0
VERTEX
  8
0
  6
CONTINUOUS
 62
     3
  5
171
 10
0.683747
 20
-34.491003
 30
0.0
  0
VERTEX
  8
0
  6
CONTINUOUS
 62
     3
  5
172
 10
0.536577
 20
-34.533715
 30
0.0
  0
VERTEX
  8
0
  6
CONTINUOUS
 62
     3
  5
173
 10
0.403501
 20
-34.584406
 30
0.0
  0
VERTEX
  8
0
  6
CONTINUOUS
 62
     3
  5
174
 10
0.286797
 20
-34.642207
 30
0.0
  0
VERTEX
  8
0
  6
CONTINUOUS
 62
     3
  5
175
 10
0.188461
 20
-34.70613
 30
0.0
  0
VERTEX
  8
0
  6
CONTINUOUS
 62
     3
  5
176
 10
0.110176
 20
-34.775082
 30
0.0
  0
VERTEX
  8
0
  6
CONTINUOUS
 62
     3
  5
177
 10
0.053281
 20
-34.847882
 30
0.0
  0
VERTEX
  8
0
  6
CONTINUOUS
 62
     3
  5
178
 10
0.01875
 20
-34.923285
 30
0.0
  0
VERTEX
  8
0
  6
CONTINUOUS
 62
     3
  5
179
 10
0.007174
 20
-35.0
 30
0.0
  0
VERTEX
  8
0
  6
CONTINUOUS
 62
     3
  5
17A
 10
0.007174
 20
-35.0
 30
0.0
  0
SEQEND
  8
0
  6
CONTINUOUS
 62
     3
  5
17B
  0
POLYLINE
  8
0
  6
CONTINUOUS
 62
     3
  5
EA
 66
     1
 10
0.0
 20
0.0
 30
0.0
  0
VERTEX
  8
0
  6
CONTINUOUS
 62
     3
  5
17C
 10
0.0
 20
-34.999993
 30
0.0
  0
VERTEX
  8
0
  6
CONTINUOUS
 62
     3
  5
17D
 10
-0.011578
 20
-34.923278
 30
0.0
  0
VERTEX
  8
0
  6
CONTINUOUS
 62
     3
  5
17E
 10
-0.046112
 20
-34.847875
 30
0.0
  0
VERTEX
  8
0
  6
CONTINUOUS
 62
     3
  5
17F
 10
-0.103008
 20
-34.775075
 30
0.0
  0
VERTEX
  8
0
  6
CONTINUOUS
 62
     3
  5
180
 10
-0.181295
 20
-34.706124
 30
0.0
  0
VERTEX
  8
0
  6
CONTINUOUS
 62
     3
  5
181
 10
-0.279633
 20
-34.642201
 30
0.0
  0
VERTEX
  8
0
  6
CONTINUOUS
 62
     3
  5
182
 10
-0.396339
 20
-34.584401
 30
0.0
  0
VERTEX
  8
0
  6
CONTINUOUS
 62
     3
  5
183
 10
-0.529416
 20
-34.533711
 30
0.0
  0
VERTEX
  8
0
  6
CONTINUOUS
 62
     3
  5
184
 10
-0.676588
 20
-34.490999
 30
0.0
  0
VERTEX
  8
0
  6
CONTINUOUS
 62
     3
  5
185
 10
-0.835335
 20
-34.456997
 30
0.0
  0
VERTEX
  8
0
  6
CONTINUOUS
 62
     3
  5
186
 10
-1.002942
 20
-34.432286
 30
0.0
  0
VERTEX
  8
0
  6
CONTINUOUS
 62
     3
  5
187
 10
-1.176542
 20
-34.417288
 30
0.0
  0
VERTEX
  8
0
  6
CONTINUOUS
 62
     3
  5
188
 10
-1.353163
 20
-34.412261
 30
0.0
  0
VERTEX
  8
0
  6
CONTINUOUS
 62
     3
  5
189
 10
-1.529784
 20
-34.41729
 30
0.0
  0
VERTEX
  8
0
  6
CONTINUOUS
 62
     3
  5
18A
 10
-1.703383
 20
-34.432289
 30
0.0
  0
VERTEX
  8
0
  6
CONTINUOUS
 62
     3
  5
18B
 10
-1.870989
 20
-34.457003
 30
0.0
  0
VERTEX
  8
0
  6
CONTINUOUS
 62
     3
  5
18C
 10
-2.029735
 20
-34.491006
 30
0.0
  0
VERTEX
  8
0
  6
CONTINUOUS
 62
     3
  5
18D
 10
-2.176904
 20
-34.533719
 30
0.0
  0
VERTEX
  8
0
  6
CONTINUOUS
 62
     3
  5
18E
 10
-2.309978
 20
-34.584411
 30
0.0
  0
VERTEX
  8
0
  6
CONTINUOUS
 62
     3
  5
18F
 10
-2.426681
 20
-34.642213
 30
0.0
  0
VERTEX
  8
0
  6
CONTINUOUS
 62
     3
  5
190
 10
-2.525015
 20
-34.706137
 30
0.0
  0
VERTEX
  8
0
  6
CONTINUOUS
 62
     3
  5
191
 10
-2.603298
 20
-34.775088
 30
0.0
  0
VERTEX
  8
0
  6
CONTINUOUS
 62
     3
  5
192
 10
-2.660191
 20
-34.847889
 30
0.0
  0
VERTEX
  8
0
  6
CONTINUOUS
 62
     3
  5
193
 10
-2.69472
 20
-34.923292
 30
0.0
  0
VERTEX
  8
0
  6
CONTINUOUS
 62
     3
  5
194
 10
-2.706294
 20
-35.000007
 30
0.0
  0
VERTEX
  8
0
  6
CONTINUOUS
 62
     3
  5
195
 10
-2.706294
 20
-35.000007
 30
0.0
  0
SEQEND
  8
0
  6
CONTINUOUS
 62
     3
  5
196
  0
CIRCLE
  8
0
  6
CONTINUOUS
 62
     3
  5
EB
 10
-30.310889
 20
-17.5
 30
0.0
 40
7.0
  0
ARC
  8
0
  6
CONTINUOUS
 62
     3
  5
EC
 10
-30.310889
 20
-17.5
 30
0.0
 40
2.940013
 50
268.792088
 51
301.207912
  0
ARC
  8
0
  6
CONTINUOUS
 62
     3
  5
ED
 10
-30.310889
 20
-17.5
 30
0.0
 40
2.940013
 50
358.792088
 51
31.207912
  0
ARC
  8
0
  6
CONTINUOUS
 62
     3
  5
EE
 10
-30.310889
 20
-17.5
 30
0.0
 40
2.940013
 50
88.792088
 51
121.207912
  0
ARC
  8
0
  6
CONTINUOUS
 62
     3
  5
EF
 10
-30.310889
 20
-17.5
 30
0.0
 40
2.940013
 50
178.792088
 51
211.207912
  0
POLYLINE
  8
0
  6
CONTINUOUS
 62
     3
  5
F0
 66
     1
 10
0.0
 20
0.0
 30
0.0
  0
VERTEX
  8
0
  6
CONTINUOUS
 62
     3
  5
197
 10
-30.496512
 20
-20.025507
 30
0.0
  0
VERTEX
  8
0
  6
CONTINUOUS
 62
     3
  5
198
 10
-30.434719
 20
-20.232774
 30
0.0
  0
VERTEX
  8
0
  6
CONTINUOUS
 62
     3
  5
199
 10
-30.372866
 20
-20.43936
 30
0.0
  0
SEQEND
  8
0
  6
CONTINUOUS
 62
     3
  5
19A
  0
POLYLINE
  8
0
  6
CONTINUOUS
 62
     3
  5
F1
 66
     1
 10
0.0
 20
0.0
 30
0.0
  0
VERTEX
  8
0
  6
CONTINUOUS
 62
     3
  5
19B
 10
-28.787536
 20
-20.014572
 30
0.0
  0
VERTEX
  8
0
  6
CONTINUOUS
 62
     3
  5
19C
 10
-28.837262
 20
-19.804737
 30
0.0
  0
VERTEX
  8
0
  6
CONTINUOUS
 62
     3
  5
19D
 10
-28.887382
 20
-19.594342
 30
0.0
  0
SEQEND
  8
0
  6
CONTINUOUS
 62
     3
  5
19E
  0
POLYLINE
  8
0
  6
CONTINUOUS
 62
     3
  5
F2
 66
     1
 10
0.0
 20
0.0
 30
0.0
  0
VERTEX
  8
0
  6
CONTINUOUS
 62
     3
  5
19F
 10
-27.785382
 20
-17.685622
 30
0.0
  0
VERTEX
  8
0
  6
CONTINUOUS
 62
     3
  5
1A0
 10
-27.578115
 20
-17.62383
 30
0.0
  0
VERTEX
  8
0
  6
CONTINUOUS
 62
     3
  5
1A1
 10
-27.37153
 20
-17.561977
 30
0.0
  0
SEQEND
  8
0
  6
CONTINUOUS
 62
     3
  5
1A2
  0
POLYLINE
  8
0
  6
CONTINUOUS
 62
     3
  5
F3
 66
     1
 10
0.0
 20
0.0
 30
0.0
  0
VERTEX
  8
0
  6
CONTINUOUS
 62
     3
  5
1A3
 10
-27.796317
 20
-15.976647
 30
0.0
  0
VERTEX
  8
0
  6
CONTINUOUS
 62
     3
  5
1A4
 10
-28.006152
 20
-16.026373
 30
0.0
  0
VERTEX
  8
0
  6
CONTINUOUS
 62
     3
  5
1A5
 10
-28.216547
 20
-16.076493
 30
0.0
  0
SEQEND
  8
0
  6
CONTINUOUS
 62
     3
  5
1A6
  0
POLYLINE
  8
0
  6
CONTINUOUS
 62
     3
  5
F4
 66
     1
 10
0.0
 20
0.0
 30
0.0
  0
VERTEX
  8
0
  6
CONTINUOUS
 62
     3
  5
1A7
 10
-30.125267
 20
-14.974493
 30
0.0
  0
VERTEX
  8
0
  6
CONTINUOUS
 62
     3
  5
1A8
 10
-30.187059
 20
-14.767226
 30
0.0
  0
VERTEX
  8
0
  6
CONTINUOUS
 62
     3
  5
1A9
 10
-30.248912
 20
-14.56064
 30
0.0
  0
SEQEND
  8
0
  6
CONTINUOUS
 62
     3
  5
1AA
  0
POLYLINE
  8
0
  6
CONTINUOUS
 62
     3
  5
F5
 66
     1
 10
0.0
 20
0.0
 30
0.0
  0
VERTEX
  8
0
  6
CONTINUOUS
 62
     3
  5
1AB
 10
-31.834243
 20
-14.985428
 30
0.0
  0
VERTEX
  8
0
  6
CONTINUOUS
 62
     3
  5
1AC
 10
-31.784516
 20
-15.195263
 30
0.0
  0
VERTEX
  8
0
  6
CONTINUOUS
 62
     3
  5
1AD
 10
-31.734397
 20
-15.405658
 30
0.0
  0
SEQEND
  8
0
  6
CONTINUOUS
 62
     3
  5
1AE
  0
POLYLINE
  8
0
  6
CONTINUOUS
 62
     3
  5
F6
 66
     1
 10
0.0
 20
0.0
 30
0.0
  0
VERTEX
  8
0
  6
CONTINUOUS
 62
     3
  5
1AF
 10
-31.734397
 20
-15.405658
 30
0.0
  0
VERTEX
  8
0
  6
CONTINUOUS
 62
     3
  5
1B0
 10
-31.840788
 20
-15.979752
 30
0.0
  0
VERTEX
  8
0
  6
CONTINUOUS
 62
     3
  5
1B1
 10
-31.945276
 20
-16.556386
 30
0.0
  0
SEQEND
  8
0
  6
CONTINUOUS
 62
     3
  5
1B2
  0
POLYLINE
  8
0
  6
CONTINUOUS
 62
     3
  5
F7
 66
     1
 10
0.0
 20
0.0
 30
0.0
  0
VERTEX
  8
0
  6
CONTINUOUS
 62
     3
  5
1B3
 10
-31.945276
 20
-16.556386
 30
0.0
  0
VERTEX
  8
0
  6
CONTINUOUS
 62
     3
  5
1B4
 10
-32.392412
 20
-16.935193
 30
0.0
  0
VERTEX
  8
0
  6
CONTINUOUS
 62
     3
  5
1B5
 10
-32.836397
 20
-17.314378
 30
0.0
  0
SEQEND
  8
0
  6
CONTINUOUS
 62
     3
  5
1B6
  0
POLYLINE
  8
0
  6
CONTINUOUS
 62
     3
  5
F8
 66
     1
 10
0.0
 20
0.0
 30
0.0
  0
VERTEX
  8
0
  6
CONTINUOUS
 62
     3
  5
1B7
 10
-32.836397
 20
-17.314378
 30
0.0
  0
VERTEX
  8
0
  6
CONTINUOUS
 62
     3
  5
1B8
 10
-33.043664
 20
-17.37617
 30
0.0
  0
VERTEX
  8
0
  6
CONTINUOUS
 62
     3
  5
1B9
 10
-33.250249
 20
-17.438023
 30
0.0
  0
SEQEND
  8
0
  6
CONTINUOUS
 62
     3
  5
1BA
  0
POLYLINE
  8
0
  6
CONTINUOUS
 62
     3
  5
F9
 66
     1
 10
0.0
 20
0.0
 30
0.0
  0
VERTEX
  8
0
  6
CONTINUOUS
 62
     3
  5
1BB
 10
-32.825461
 20
-19.023353
 30
0.0
  0
VERTEX
  8
0
  6
CONTINUOUS
 62
     3
  5
1BC
 10
-32.615626
 20
-18.973627
 30
0.0
  0
VERTEX
  8
0
  6
CONTINUOUS
 62
     3
  5
1BD
 10
-32.405232
 20
-18.923507
 30
0.0
  0
SEQEND
  8
0
  6
CONTINUOUS
 62
     3
  5
1BE
  0
POLYLINE
  8
0
  6
CONTINUOUS
 62
     3
  5
FA
 66
     1
 10
0.0
 20
0.0
 30
0.0
  0
VERTEX
  8
0
  6
CONTINUOUS
 62
     3
  5
1BF
 10
-28.676502
 20
-18.443614
 30
0.0
  0
VERTEX
  8
0
  6
CONTINUOUS
 62
     3
  5
1C0
 10
-28.229366
 20
-18.064807
 30
0.0
  0
VERTEX
  8
0
  6
CONTINUOUS
 62
     3
  5
1C1
 10
-27.785382
 20
-17.685622
 30
0.0
  0
SEQEND
  8
0
  6
CONTINUOUS
 62
     3
  5
1C2
  0
POLYLINE
  8
0
  6
CONTINUOUS
 62
     3
  5
FB
 66
     1
 10
0.0
 20
0.0
 30
0.0
  0
VERTEX
  8
0
  6
CONTINUOUS
 62
     3
  5
1C3
 10
-28.887382
 20
-19.594342
 30
0.0
  0
VERTEX
  8
0
  6
CONTINUOUS
 62
     3
  5
1C4
 10
-28.78099
 20
-19.020248
 30
0.0
  0
VERTEX
  8
0
  6
CONTINUOUS
 62
     3
  5
1C5
 10
-28.676502
 20
-18.443614
 30
0.0
  0
SEQEND
  8
0
  6
CONTINUOUS
 62
     3
  5
1C6
  0
POLYLINE
  8
0
  6
CONTINUOUS
 62
     3
  5
FC
 66
     1
 10
0.0
 20
0.0
 30
0.0
  0
VERTEX
  8
0
  6
CONTINUOUS
 62
     3
  5
1C7
 10
-31.254503
 20
-19.134387
 30
0.0
  0
VERTEX
  8
0
  6
CONTINUOUS
 62
     3
  5
1C8
 10
-30.875696
 20
-19.581523
 30
0.0
  0
VERTEX
  8
0
  6
CONTINUOUS
 62
     3
  5
1C9
 10
-30.496512
 20
-20.025507
 30
0.0
  0
SEQEND
  8
0
  6
CONTINUOUS
 62
     3
  5
1CA
  0
POLYLINE
  8
0
  6
CONTINUOUS
 62
     3
  5
FD
 66
     1
 10
0.0
 20
0.0
 30
0.0
  0
VERTEX
  8
0
  6
CONTINUOUS
 62
     3
  5
1CB
 10
-29.367275
 20
-15.865613
 30
0.0
  0
VERTEX
  8
0
  6
CONTINUOUS
 62
     3
  5
1CC
 10
-29.746082
 20
-15.418477
 30
0.0
  0
VERTEX
  8
0
  6
CONTINUOUS
 62
     3
  5
1CD
 10
-30.125267
 20
-14.974493
 30
0.0
  0
SEQEND
  8
0
  6
CONTINUOUS
 62
     3
  5
1CE
  0
POLYLINE
  8
0
  6
CONTINUOUS
 62
     3
  5
FE
 66
     1
 10
0.0
 20
0.0
 30
0.0
  0
VERTEX
  8
0
  6
CONTINUOUS
 62
     3
  5
1CF
 10
-28.216547
 20
-16.076493
 30
0.0
  0
VERTEX
  8
0
  6
CONTINUOUS
 62
     3
  5
1D0
 10
-28.790641
 20
-15.970101
 30
0.0
  0
VERTEX
  8
0
  6
CONTINUOUS
 62
     3
  5
1D1
 10
-29.367275
 20
-15.865613
 30
0.0
  0
SEQEND
  8
0
  6
CONTINUOUS
 62
     3
  5
1D2
  0
POLYLINE
  8
0
  6
CONTINUOUS
 62
     3
  5
FF
 66
     1
 10
0.0
 20
0.0
 30
0.0
  0
VERTEX
  8
0
  6
CONTINUOUS
 62
     3
  5
1D3
 10
-32.405232
 20
-18.923507
 30
0.0
  0
VERTEX
  8
0
  6
CONTINUOUS
 62
     3
  5
1D4
 10
-31.831137
 20
-19.029899
 30
0.0
  0
VERTEX
  8
0
  6
CONTINUOUS
 62
     3
  5
1D5
 10
-31.254503
 20
-19.134387
 30
0.0
  0
SEQEND
  8
0
  6
CONTINUOUS
 62
     3
  5
1D6
  0
CIRCLE
  8
0
  6
CONTINUOUS
 62
     3
  5
100
 10
-30.310889
 20
-17.5
 30
0.0
 40
5.5
  0
CIRCLE
  8
0
  6
CONTINUOUS
 62
     3
  5
101
 10
30.310889
 20
-17.5
 30
0.0
 40
7.0
  0
ARC
  8
0
  6
CONTINUOUS
 62
     3
  5
102
 10
30.310889
 20
-17.5
 30
0.0
 40
2.940013
 50
28.792088
 51
61.207912
  0
ARC
  8
0
  6
CONTINUOUS
 62
     3
  5
103
 10
30.310889
 20
-17.5
 30
0.0
 40
2.940013
 50
118.792088
 51
151.207912
  0
ARC
  8
0
  6
CONTINUOUS
 62
     3
  5
104
 10
30.310889
 20
-17.5
 30
0.0
 40
2.940013
 50
208.792088
 51
241.207912
  0
ARC
  8
0
  6
CONTINUOUS
 62
     3
  5
105
 10
30.310889
 20
-17.5
 30
0.0
 40
2.940013
 50
298.792088
 51
331.207912
  0
POLYLINE
  8
0
  6
CONTINUOUS
 62
     3
  5
106
 66
     1
 10
0.0
 20
0.0
 30
0.0
  0
VERTEX
  8
0
  6
CONTINUOUS
 62
     3
  5
1D7
 10
32.590854
 20
-16.398
 30
0.0
  0
VERTEX
  8
0
  6
CONTINUOUS
 62
     3
  5
1D8
 10
32.739456
 20
-16.240853
 30
0.0
  0
VERTEX
  8
0
  6
CONTINUOUS
 62
     3
  5
1D9
 10
32.887438
 20
-16.083994
 30
0.0
  0
SEQEND
  8
0
  6
CONTINUOUS
 62
     3
  5
1DA
  0
POLYLINE
  8
0
  6
CONTINUOUS
 62
     3
  5
107
 66
     1
 10
0.0
 20
0.0
 30
0.0
  0
VERTEX
  8
0
  6
CONTINUOUS
 62
     3
  5
1DB
 10
31.726895
 20
-14.923451
 30
0.0
  0
VERTEX
  8
0
  6
CONTINUOUS
 62
     3
  5
1DC
 10
31.570037
 20
-15.071433
 30
0.0
  0
VERTEX
  8
0
  6
CONTINUOUS
 62
     3
  5
1DD
 10
31.412889
 20
-15.220035
 30
0.0
  0
SEQEND
  8
0
  6
CONTINUOUS
 62
     3
  5
1DE
  0
POLYLINE
  8
0
  6
CONTINUOUS
 62
     3
  5
108
 66
     1
 10
0.0
 20
0.0
 30
0.0
  0
VERTEX
  8
0
  6
CONTINUOUS
 62
     3
  5
1DF
 10
29.208889
 20
-15.220035
 30
0.0
  0
VERTEX
  8
0
  6
CONTINUOUS
 62
     3
  5
1E0
 10
29.051742
 20
-15.071433
 30
0.0
  0
VERTEX
  8
0
  6
CONTINUOUS
 62
     3
  5
1E1
 10
28.894883
 20
-14.923451
 30
0.0
  0
SEQEND
  8
0
  6
CONTINUOUS
 62
     3
  5
1E2
  0
POLYLINE
  8
0
  6
CONTINUOUS
 62
     3
  5
109
 66
     1
 10
0.0
 20
0.0
 30
0.0
  0
VERTEX
  8
0
  6
CONTINUOUS
 62
     3
  5
1E3
 10
27.734341
 20
-16.083994
 30
0.0
  0
VERTEX
  8
0
  6
CONTINUOUS
 62
     3
  5
1E4
 10
27.882322
 20
-16.240853
 30
0.0
  0
VERTEX
  8
0
  6
CONTINUOUS
 62
     3
  5
1E5
 10
28.030924
 20
-16.398
 30
0.0
  0
SEQEND
  8
0
  6
CONTINUOUS
 62
     3
  5
1E6
  0
POLYLINE
  8
0
  6
CONTINUOUS
 62
     3
  5
10A
 66
     1
 10
0.0
 20
0.0
 30
0.0
  0
VERTEX
  8
0
  6
CONTINUOUS
 62
     3
  5
1E7
 10
28.030924
 20
-18.602
 30
0.0
  0
VERTEX
  8
0
  6
CONTINUOUS
 62
     3
  5
1E8
 10
27.882322
 20
-18.759147
 30
0.0
  0
VERTEX
  8
0
  6
CONTINUOUS
 62
     3
  5
1E9
 10
27.734341
 20
-18.916006
 30
0.0
  0
SEQEND
  8
0
  6
CONTINUOUS
 62
     3
  5
1EA
  0
POLYLINE
  8
0
  6
CONTINUOUS
 62
     3
  5
10B
 66
     1
 10
0.0
 20
0.0
 30
0.0
  0
VERTEX
  8
0
  6
CONTINUOUS
 62
     3
  5
1EB
 10
28.894883
 20
-20.076549
 30
0.0
  0
VERTEX
  8
0
  6
CONTINUOUS
 62
     3
  5
1EC
 10
29.051742
 20
-19.928567
 30
0.0
  0
VERTEX
  8
0
  6
CONTINUOUS
 62
     3
  5
1ED
 10
29.208889
 20
-19.779965
 30
0.0
  0
SEQEND
  8
0
  6
CONTINUOUS
 62
     3
  5
1EE
  0
POLYLINE
  8
0
  6
CONTINUOUS
 62
     3
  5
10C
 66
     1
 10
0.0
 20
0.0
 30
0.0
  0
VERTEX
  8
0
  6
CONTINUOUS
 62
     3
  5
1EF
 10
29.208889
 20
-19.779965
 30
0.0
  0
VERTEX
  8
0
  6
CONTINUOUS
 62
     3
  5
1F0
 10
29.759265
 20
-19.585055
 30
0.0
  0
VERTEX
  8
0
  6
CONTINUOUS
 62
     3
  5
1F1
 10
30.310889
 20
-19.387227
 30
0.0
  0
SEQEND
  8
0
  6
CONTINUOUS
 62
     3
  5
1F2
  0
POLYLINE
  8
0
  6
CONTINUOUS
 62
     3
  5
10D
 66
     1
 10
0.0
 20
0.0
 30
0.0
  0
VERTEX
  8
0
  6
CONTINUOUS
 62
     3
  5
1F3
 10
30.310889
 20
-19.387227
 30
0.0
  0
VERTEX
  8
0
  6
CONTINUOUS
 62
     3
  5
1F4
 10
30.862513
 20
-19.585055
 30
0.0
  0
VERTEX
  8
0
  6
CONTINUOUS
 62
     3
  5
1F5
 10
31.412889
 20
-19.779965
 30
0.0
  0
SEQEND
  8
0
  6
CONTINUOUS
 62
     3
  5
1F6
  0
POLYLINE
  8
0
  6
CONTINUOUS
 62
     3
  5
10E
 66
     1
 10
0.0
 20
0.0
 30
0.0
  0
VERTEX
  8
0
  6
CONTINUOUS
 62
     3
  5
1F7
 10
31.412889
 20
-19.779965
 30
0.0
  0
VERTEX
  8
0
  6
CONTINUOUS
 62
     3
  5
1F8
 10
31.570037
 20
-19.928567
 30
0.0
  0
VERTEX
  8
0
  6
CONTINUOUS
 62
     3
  5
1F9
 10
31.726895
 20
-20.076549
 30
0.0
  0
SEQEND
  8
0
  6
CONTINUOUS
 62
     3
  5
1FA
  0
POLYLINE
  8
0
  6
CONTINUOUS
 62
     3
  5
10F
 66
     1
 10
0.0
 20
0.0
 30
0.0
  0
VERTEX
  8
0
  6
CONTINUOUS
 62
     3
  5
1FB
 10
32.887438
 20
-18.916006
 30
0.0
  0
VERTEX
  8
0
  6
CONTINUOUS
 62
     3
  5
1FC
 10
32.739456
 20
-18.759147
 30
0.0
  0
VERTEX
  8
0
  6
CONTINUOUS
 62
     3
  5
1FD
 10
32.590854
 20
-18.602
 30
0.0
  0
SEQEND
  8
0
  6
CONTINUOUS
 62
     3
  5
1FE
  0
POLYLINE
  8
0
  6
CONTINUOUS
 62
     3
  5
110
 66
     1
 10
0.0
 20
0.0
 30
0.0
  0
VERTEX
  8
0
  6
CONTINUOUS
 62
     3
  5
1FF
 10
30.310889
 20
-15.612773
 30
0.0
  0
VERTEX
  8
0
  6
CONTINUOUS
 62
     3
  5
200
 10
29.759265
 20
-15.414945
 30
0.0
  0
VERTEX
  8
0
  6
CONTINUOUS
 62
     3
  5
201
 10
29.208889
 20
-15.220035
 30
0.0
  0
SEQEND
  8
0
  6
CONTINUOUS
 62
     3
  5
202
  0
POLYLINE
  8
0
  6
CONTINUOUS
 62
     3
  5
111
 66
     1
 10
0.0
 20
0.0
 30
0.0
  0
VERTEX
  8
0
  6
CONTINUOUS
 62
     3
  5
203
 10
31.412889
 20
-15.220035
 30
0.0
  0
VERTEX
  8
0
  6
CONTINUOUS
 62
     3
  5
204
 10
30.862513
 20
-15.414945
 30
0.0
  0
VERTEX
  8
0
  6
CONTINUOUS
 62
     3
  5
205
 10
30.310889
 20
-15.612773
 30
0.0
  0
SEQEND
  8
0
  6
CONTINUOUS
 62
     3
  5
206
  0
POLYLINE
  8
0
  6
CONTINUOUS
 62
     3
  5
112
 66
     1
 10
0.0
 20
0.0
 30
0.0
  0
VERTEX
  8
0
  6
CONTINUOUS
 62
     3
  5
207
 10
32.198116
 20
-17.5
 30
0.0
  0
VERTEX
  8
0
  6
CONTINUOUS
 62
     3
  5
208
 10
32.395944
 20
-16.948376
 30
0.0
  0
VERTEX
  8
0
  6
CONTINUOUS
 62
     3
  5
209
 10
32.590854
 20
-16.398
 30
0.0
  0
SEQEND
  8
0
  6
CONTINUOUS
 62
     3
  5
20A
  0
POLYLINE
  8
0
  6
CONTINUOUS
 62
     3
  5
113
 66
     1
 10
0.0
 20
0.0
 30
0.0
  0
VERTEX
  8
0
  6
CONTINUOUS
 62
     3
  5
20B
 10
28.423662
 20
-17.5
 30
0.0
  0
VERTEX
  8
0
  6
CONTINUOUS
 62
     3
  5
20C
 10
28.225834
 20
-18.051624
 30
0.0
  0
VERTEX
  8
0
  6
CONTINUOUS
 62
     3
  5
20D
 10
28.030924
 20
-18.602
 30
0.0
  0
SEQEND
  8
0
  6
CONTINUOUS
 62
     3
  5
20E
  0
POLYLINE
  8
0
  6
CONTINUOUS
 62
     3
  5
114
 66
     1
 10
0.0
 20
0.0
 30
0.0
  0
VERTEX
  8
0
  6
CONTINUOUS
 62
     3
  5
20F
 10
28.030924
 20
-16.398
 30
0.0
  0
VERTEX
  8
0
  6
CONTINUOUS
 62
     3
  5
210
 10
28.225834
 20
-16.948376
 30
0.0
  0
VERTEX
  8
0
  6
CONTINUOUS
 62
     3
  5
211
 10
28.423662
 20
-17.5
 30
0.0
  0
SEQEND
  8
0
  6
CONTINUOUS
 62
     3
  5
212
  0
POLYLINE
  8
0
  6
CONTINUOUS
 62
     3
  5
115
 66
     1
 10
0.0
 20
0.0
 30
0.0
  0
VERTEX
  8
0
  6
CONTINUOUS
 62
     3
  5
213
 10
32.590854
 20
-18.602
 30
0.0
  0
VERTEX
  8
0
  6
CONTINUOUS
 62
     3
  5
214
 10
32.395944
 20
-18.051624
 30
0.0
  0
VERTEX
  8
0
  6
CONTINUOUS
 62
     3
  5
215
 10
32.198116
 20
-17.5
 30
0.0
  0
SEQEND
  8
0
  6
CONTINUOUS
 62
     3
  5
216
  0
CIRCLE
  8
0
  6
CONTINUOUS
 62
     3
  5
116
 10
30.310889
 20
-17.5
 30
0.0
 40
5.5
  0
ARC
  8
0
  6
CONTINUOUS
 62
     3
  5
117
 10
0.0
 20
0.0
 30
0.0
 40
65.0
 50
266.843861
 51
321.001453
  0
ARC
  8
0
  6
CONTINUOUS
 62
     3
  5
118
 10
0.0
 20
0.0
 30
0.0
 40
62.5
 50
267.49788
 51
319.964509
  0
ARC
  8
0
  6
CONTINUOUS
 62
     3
  5
119
 10
0.0
 20
0.0
 30
0.0
 40
61.539984
 50
267.748207
 51
319.716384
  0
POLYLINE
  8
0
  6
CONTINUOUS
 62
     3
  5
11A
 66
     1
 10
0.0
 20
0.0
 30
0.0
  0
VERTEX
  8
0
  6
CONTINUOUS
 62
     3
  5
217
 10
-17.715493
 20
-76.768861
 30
0.0
  0
VERTEX
  8
0
  6
CONTINUOUS
 62
     3
  5
218
 10
-17.496064
 20
-76.657594
 30
0.0
  0
VERTEX
  8
0
  6
CONTINUOUS
 62
     3
  5
219
 10
-17.26241
 20
-76.54881
 30
0.0
  0
VERTEX
  8
0
  6
CONTINUOUS
 62
     3
  5
21A
 10
-17.017064
 20
-76.444323
 30
0.0
  0
VERTEX
  8
0
  6
CONTINUOUS
 62
     3
  5
21B
 10
-16.762558
 20
-76.345948
 30
0.0
  0
VERTEX
  8
0
  6
CONTINUOUS
 62
     3
  5
21C
 10
-16.501425
 20
-76.255497
 30
0.0
  0
VERTEX
  8
0
  6
CONTINUOUS
 62
     3
  5
21D
 10
-16.236198
 20
-76.174785
 30
0.0
  0
VERTEX
  8
0
  6
CONTINUOUS
 62
     3
  5
21E
 10
-15.96941
 20
-76.105624
 30
0.0
  0
VERTEX
  8
0
  6
CONTINUOUS
 62
     3
  5
21F
 10
-15.703593
 20
-76.049828
 30
0.0
  0
VERTEX
  8
0
  6
CONTINUOUS
 62
     3
  5
220
 10
-15.44128
 20
-76.009212
 30
0.0
  0
VERTEX
  8
0
  6
CONTINUOUS
 62
     3
  5
221
 10
-15.185003
 20
-75.985588
 30
0.0
  0
VERTEX
  8
0
  6
CONTINUOUS
 62
     3
  5
222
 10
-14.937296
 20
-75.980771
 30
0.0
  0
VERTEX
  8
0
  6
CONTINUOUS
 62
     3
  5
223
 10
-14.700692
 20
-75.996573
 30
0.0
  0
VERTEX
  8
0
  6
CONTINUOUS
 62
     3
  5
224
 10
-14.477722
 20
-76.034808
 30
0.0
  0
VERTEX
  8
0
  6
CONTINUOUS
 62
     3
  5
225
 10
-14.270919
 20
-76.097291
 30
0.0
  0
VERTEX
  8
0
  6
CONTINUOUS
 62
     3
  5
226
 10
-14.082817
 20
-76.185834
 30
0.0
  0
VERTEX
  8
0
  6
CONTINUOUS
 62
     3
  5
227
 10
-13.915949
 20
-76.302251
 30
0.0
  0
VERTEX
  8
0
  6
CONTINUOUS
 62
     3
  5
228
 10
-13.799536
 20
-76.415539
 30
0.0
  0
VERTEX
  8
0
  6
CONTINUOUS
 62
     3
  5
229
 10
-13.696489
 20
-76.545758
 30
0.0
  0
VERTEX
  8
0
  6
CONTINUOUS
 62
     3
  5
22A
 10
-13.605128
 20
-76.691042
 30
0.0
  0
VERTEX
  8
0
  6
CONTINUOUS
 62
     3
  5
22B
 10
-13.523771
 20
-76.849525
 30
0.0
  0
VERTEX
  8
0
  6
CONTINUOUS
 62
     3
  5
22C
 10
-13.450737
 20
-77.019343
 30
0.0
  0
VERTEX
  8
0
  6
CONTINUOUS
 62
     3
  5
22D
 10
-13.384347
 20
-77.198629
 30
0.0
  0
VERTEX
  8
0
  6
CONTINUOUS
 62
     3
  5
22E
 10
-13.32292
 20
-77.38552
 30
0.0
  0
VERTEX
  8
0
  6
CONTINUOUS
 62
     3
  5
22F
 10
-13.264775
 20
-77.578148
 30
0.0
  0
VERTEX
  8
0
  6
CONTINUOUS
 62
     3
  5
230
 10
-13.208231
 20
-77.77465
 30
0.0
  0
VERTEX
  8
0
  6
CONTINUOUS
 62
     3
  5
231
 10
-13.151608
 20
-77.973159
 30
0.0
  0
VERTEX
  8
0
  6
CONTINUOUS
 62
     3
  5
232
 10
-13.093225
 20
-78.17181
 30
0.0
  0
VERTEX
  8
0
  6
CONTINUOUS
 62
     3
  5
233
 10
-13.031402
 20
-78.368739
 30
0.0
  0
VERTEX
  8
0
  6
CONTINUOUS
 62
     3
  5
234
 10
-12.964458
 20
-78.562079
 30
0.0
  0
VERTEX
  8
0
  6
CONTINUOUS
 62
     3
  5
235
 10
-12.890712
 20
-78.749965
 30
0.0
  0
VERTEX
  8
0
  6
CONTINUOUS
 62
     3
  5
236
 10
-12.808484
 20
-78.930532
 30
0.0
  0
VERTEX
  8
0
  6
CONTINUOUS
 62
     3
  5
237
 10
-12.716093
 20
-79.101915
 30
0.0
  0
VERTEX
  8
0
  6
CONTINUOUS
 62
     3
  5
238
 10
-12.570515
 20
-79.319904
 30
0.0
  0
VERTEX
  8
0
  6
CONTINUOUS
 62
     3
  5
239
 10
-12.404215
 20
-79.517888
 30
0.0
  0
VERTEX
  8
0
  6
CONTINUOUS
 62
     3
  5
23A
 10
-12.21882
 20
-79.696712
 30
0.0
  0
VERTEX
  8
0
  6
CONTINUOUS
 62
     3
  5
23B
 10
-12.015957
 20
-79.857224
 30
0.0
  0
VERTEX
  8
0
  6
CONTINUOUS
 62
     3
  5
23C
 10
-11.797254
 20
-80.000271
 30
0.0
  0
VERTEX
  8
0
  6
CONTINUOUS
 62
     3
  5
23D
 10
-11.564339
 20
-80.126699
 30
0.0
  0
VERTEX
  8
0
  6
CONTINUOUS
 62
     3
  5
23E
 10
-11.318841
 20
-80.237355
 30
0.0
  0
VERTEX
  8
0
  6
CONTINUOUS
 62
     3
  5
23F
 10
-11.062386
 20
-80.333087
 30
0.0
  0
VERTEX
  8
0
  6
CONTINUOUS
 62
     3
  5
240
 10
-10.796603
 20
-80.414741
 30
0.0
  0
VERTEX
  8
0
  6
CONTINUOUS
 62
     3
  5
241
 10
-10.52312
 20
-80.483164
 30
0.0
  0
VERTEX
  8
0
  6
CONTINUOUS
 62
     3
  5
242
 10
-10.243564
 20
-80.539203
 30
0.0
  0
VERTEX
  8
0
  6
CONTINUOUS
 62
     3
  5
243
 10
-9.959563
 20
-80.583705
 30
0.0
  0
VERTEX
  8
0
  6
CONTINUOUS
 62
     3
  5
244
 10
-9.672745
 20
-80.617517
 30
0.0
  0
VERTEX
  8
0
  6
CONTINUOUS
 62
     3
  5
245
 10
-9.384739
 20
-80.641486
 30
0.0
  0
VERTEX
  8
0
  6
CONTINUOUS
 62
     3
  5
246
 10
-9.097171
 20
-80.656458
 30
0.0
  0
VERTEX
  8
0
  6
CONTINUOUS
 62
     3
  5
247
 10
-8.81167
 20
-80.66328
 30
0.0
  0
SEQEND
  8
0
  6
CONTINUOUS
 62
     3
  5
248
  0
ARC
  8
0
  6
CONTINUOUS
 62
     3
  5
11B
 10
-109.196399
 20
-27.036584
 30
0.0
 40
112.2
 50
331.555089
 51
355.929999
  0
ENDBLK
  8
0
  5
11C
  0
ENDSEC
  0
SECTION
  2
ENTITIES
  0
INSERT
  8
LY_1
  6
BYBLOCK
  5
11D
  2
MS_1
 10
0.0
 20
300.0
 30
0.0
  0
INSERT
  8
LY_1
  6
BYBLOCK
  5
11E
  2
MS_3
 10
0.0
 20
-150.0
 30
0.0
  0
INSERT
  8
LY_1
  6
BYBLOCK
  5
11F
  2
MS_2
 10
0.0
 20
0.0
 30
0.0
  0
ENDSEC
  0
EOF
