  0
SECTION
  2
HEADER
  9
$ACADVER
  1
AC1009
  9
$DWGCODEPAGE
  3
dos932
  9
$INSBASE
 10
0.0
 20
0.0
 30
0.0
  9
$EXTMIN
 10
-317.500001
 20
-191.994226
 30
0.0
  9
$EXTMAX
 10
317.500001
 20
317.5
 30
0.0
  9
$LIMMIN
 10
-317.500001
 20
-191.994226
  9
$LIMMAX
 10
317.500001
 20
317.5
  9
$ORTHOMODE
 70
     0
  9
$REGENMODE
 70
     1
  9
$FILLMODE
 70
     1
  9
$QTEXTMODE
 70
     0
  9
$MIRRTEXT
 70
     1
  9
$DRAGMODE
 70
     2
  9
$LTSCALE
 40
1.0
  9
$OSMODE
 70
     0
  9
$ATTMODE
 70
     1
  9
$TEXTSIZE
 40
4.1656
  9
$TRACEWID
 40
0.05
  9
$TEXTSTYLE
  7
MX_NOTE_STANDARD
  9
$CLAYER
  8
LY_1
  9
$CELTYPE
  6
CONTINUOUS
  9
$CECOLOR
 62
   256
  9
$DIMSCALE
 40
1.0
  9
$DIMASZ
 40
2.5
  9
$DIMEXO
 40
0.5
  9
$DIMDLI
 40
3.75
  9
$DIMRND
 40
0.0
  9
$DIMDLE
 40
0.0
  9
$DIMEXE
 40
1.0
  9
$DIMTP
 40
0.0
  9
$DIMTM
 40
0.0
  9
$DIMTXT
 40
2.5
  9
$DIMCEN
 40
2.5
  9
$DIMTSZ
 40
0.0
  9
$DIMTOL
 70
     0
  9
$DIMLIM
 70
     0
  9
$DIMTIH
 70
     0
  9
$DIMTOH
 70
     0
  9
$DIMSE1
 70
     0
  9
$DIMSE2
 70
     0
  9
$DIMTAD
 70
     1
  9
$DIMZIN
 70
     8
  9
$DIMBLK
  1

  9
$DIMASO
 70
     1
  9
$DIMSHO
 70
     1
  9
$DIMPOST
  1

  9
$DIMAPOST
  1

  9
$DIMALT
 70
     0
  9
$DIMALTD
 70
     4
  9
$DIMALTF
 40
0.03937
  9
$DIMLFAC
 40
1.0
  9
$DIMTOFL
 70
     1
  9
$DIMTVP
 40
0.0
  9
$DIMTIX
 70
     0
  9
$DIMSOXD
 70
     0
  9
$DIMSAH
 70
     0
  9
$DIMBLK1
  1

  9
$DIMBLK2
  1

  9
$DIMSTYLE
  2
MXDIMSTYLE
  9
$DIMCLRD
 70
     0
  9
$DIMCLRE
 70
     0
  9
$DIMCLRT
 70
     0
  9
$DIMTFAC
 40
1.0
  9
$DIMGAP
 40
1.0
  9
$LUNITS
 70
     2
  9
$LUPREC
 70
     4
  9
$AXISMODE
 70
     0
  9
$AXISUNIT
 10
0.0
 20
0.0
  9
$SKETCHINC
 40
0.1
  9
$FILLETRAD
 40
0.0
  9
$AUNITS
 70
     0
  9
$AUPREC
 70
     0
  9
$MENU
  1
acad
  9
$ELEVATION
 40
0.0
  9
$PELEVATION
 40
0.0
  9
$THICKNESS
 40
0.0
  9
$LIMCHECK
 70
     0
  9
$BLIPMODE
 70
     1
  9
$CHAMFERA
 40
0.0
  9
$CHAMFERB
 40
0.0
  9
$SKPOLY
 70
     0
  9
$TDCREATE
 40
2453858.567303241
  9
$TDUPDATE
 40
2453858.567303241
  9
$TDINDWG
 40
0.0000000000
  9
$TDUSRTIMER
 40
0.0000000000
  9
$USRTIMER
 70
     1
  9
$ANGBASE
 50
0.0
  9
$ANGDIR
 70
     0
  9
$PDMODE
 70
     0
  9
$PDSIZE
 40
0.0
  9
$PLINEWID
 40
0.0
  9
$COORDS
 70
     1
  9
$SPLFRAME
 70
     0
  9
$SPLINETYPE
 70
     6
  9
$SPLINESEGS
 70
     8
  9
$ATTDIA
 70
     0
  9
$ATTREQ
 70
     1
  9
$HANDLING
 70
     1
  9
$HANDSEED
  5
229
  9
$SURFTAB1
 70
     6
  9
$SURFTAB2
 70
     6
  9
$SURFTYPE
 70
     6
  9
$SURFU
 70
     6
  9
$SURFV
 70
     6
  9
$UCSNAME
  2

  9
$UCSORG
 10
0.0
 20
0.0
 30
0.0
  9
$UCSXDIR
 10
1.0
 20
0.0
 30
0.0
  9
$UCSYDIR
 10
0.0
 20
1.0
 30
0.0
  9
$PUCSNAME
  2

  9
$PUCSORG
 10
0.0
 20
0.0
 30
0.0
  9
$PUCSXDIR
 10
1.0
 20
0.0
 30
0.0
  9
$PUCSYDIR
 10
0.0
 20
1.0
 30
0.0
  9
$USERI1
 70
     0
  9
$USERI2
 70
     0
  9
$USERI3
 70
     0
  9
$USERI4
 70
     0
  9
$USERI5
 70
     0
  9
$USERR1
 40
0.0
  9
$USERR2
 40
0.0
  9
$USERR3
 40
0.0
  9
$USERR4
 40
0.0
  9
$USERR5
 40
0.0
  9
$WORLDVIEW
 70
     1
  9
$SHADEDGE
 70
     3
  9
$SHADEDIF
 70
    70
  9
$TILEMODE
 70
     1
  9
$MAXACTVP
 70
    16
  9
$PINSBASE
 10
0.0
 20
0.0
 30
0.0
  9
$PLIMCHECK
 70
     0
  9
$PEXTMIN
 10
1.000000E+20
 20
1.000000E+20
 30
1.000000E+20
  9
$PEXTMAX
 10
-1.000000E+20
 20
-1.000000E+20
 30
-1.000000E+20
  9
$PLIMMIN
 10
0.0
 20
0.0
  9
$PLIMMAX
 10
12.0
 20
9.0
  9
$UNITMODE
 70
     0
  9
$VISRETAIN
 70
     0
  9
$PLINEGEN
 70
     1
  9
$PSLTSCALE
 70
     0
  9
$TREEDEPTH
 70
  3020
  9
$DWGCODEPAGE
  3
dos932
  0
ENDSEC
  0
SECTION
  2
TABLES
  0
TABLE
  2
VPORT
 70
     1
  0
VPORT
  2
*ACTIVE
 70
     0
 10
0.0
 20
0.0
 11
1.0
 21
1.0
 12
0.0
 22
62.752887
 13
0.0
 23
0.0
 14
1.0
 24
1.0
 15
0.0
 25
0.0
 16
0.0
 26
0.0
 36
1.0
 17
0.0
 27
0.0
 37
0.0
 40
514.589169
 41
1.732051
 42
50.0
 43
0.0
 44
0.0
 50
0.0
 51
0.0
 71
     0
 72
   100
 73
     1
 74
     1
 75
     0
 76
     0
 77
     0
 78
     0
  0
ENDTAB
  0
TABLE
  2
LTYPE
 70
     3
  0
LTYPE
  2
CONTINUOUS
 70
    64
  3
Solid line
 72
    65
 73
     0
 40
0.0
  0
LTYPE
  2
PHANTOM
 70
    64
  3
Phantom ______  __  __  ______  __  __  ______
 72
    65
 73
     6
 40
63.5
 49
31.75
 49
-6.35
 49
6.35
 49
-6.35
 49
6.35
 49
-6.35
  0
LTYPE
  2
CENTER
 70
    64
  3
Center ____ _ ____ _ ____ _ ____ _ ____ _ ____
 72
    65
 73
     4
 40
50.8
 49
31.75
 49
-6.35
 49
6.35
 49
-6.35
  0
ENDTAB
  0
TABLE
  2
LAYER
 70
     3
  0
LAYER
  2
0
 70
     0
 62
     7
  6
CONTINUOUS
  0
LAYER
  2
LY_1
 70
     0
 62
     7
  6
CONTINUOUS
  0
LAYER
  2
DEFPOINTS
 70
     0
 62
     7
  6
CONTINUOUS
  0
ENDTAB
  0
TABLE
  2
STYLE
 70
     1
  0
STYLE
  2
MX_NOTE_STANDARD
 70
     0
 40
0.0
 41
1.0
 50
0.0
 71
     0
 42
4.1656
  3
txt.shx
  4
extfont.shx
  0
ENDTAB
  0
TABLE
  2
VIEW
 70
     0
  0
ENDTAB
  0
TABLE
  2
UCS
 70
     0
  0
ENDTAB
  0
TABLE
  2
APPID
 70
     1
  0
APPID
  2
ACAD
 70
     0
  0
ENDTAB
  0
TABLE
  2
DIMSTYLE
 70
     1
  0
DIMSTYLE
  2
MXDIMSTYLE
 70
     0
  3

  4

  5

  6

  7

 40
1.0
 41
2.5
 42
0.5
 43
3.75
 44
1.0
 45
0.0
 46
0.0
 47
0.0
 48
0.0
 71
     0
 72
     0
 73
     0
 74
     0
 75
     0
 76
     0
 77
     1
 78
     8
140
2.5
141
2.5
142
0.0
143
0.03937
144
1.0
145
0.0
146
1.0
147
1.0
170
     0
171
     4
172
     1
173
     0
174
     0
175
     0
176
     0
177
     0
178
     0
  0
ENDTAB
  0
ENDSEC
  0
SECTION
  2
BLOCKS
  0
BLOCK
  8
0
  5
23
  2
MS_1
 70
     0
 10
0.0
 20
0.0
 30
0.0
  3
MS_1
  0
CIRCLE
  8
0
  6
CONTINUOUS
 62
     3
  5
24
 10
0.0
 20
0.0
 30
0.0
 40
55.086287
  0
CIRCLE
  8
0
  6
CONTINUOUS
 62
     3
  5
25
 10
0.0
 20
0.0
 30
0.0
 40
67.5
  0
LINE
  8
0
  6
CONTINUOUS
 62
     3
  5
26
 10
109.499969
 20
-52.0
 30
0.0
 11
109.499969
 21
52.0
 31
0.0
  0
LINE
  8
0
  6
CONTINUOUS
 62
     3
  5
27
 10
108.49997
 20
-52.0
 30
0.0
 11
109.49997
 21
-52.0
 31
0.0
  0
LINE
  8
0
  6
CONTINUOUS
 62
     3
  5
28
 10
108.49997
 20
52.0
 30
0.0
 11
109.49997
 21
52.0
 31
0.0
  0
LINE
  8
0
  6
CONTINUOUS
 62
     3
  5
29
 10
108.499969
 20
55.351635
 30
0.0
 11
105.499969
 21
54.95251
 31
0.0
  0
LINE
  8
0
  6
CONTINUOUS
 62
     3
  5
2A
 10
105.499969
 20
-31.0
 30
0.0
 11
108.499969
 21
-31.0
 31
0.0
  0
LINE
  8
0
  6
CONTINUOUS
 62
     3
  5
2B
 10
105.499969
 20
31.0
 30
0.0
 11
108.499969
 21
31.0
 31
0.0
  0
LINE
  8
0
  6
CONTINUOUS
 62
     3
  5
2C
 10
108.499969
 20
-55.351635
 30
0.0
 11
105.499969
 21
-54.95251
 31
0.0
  0
LINE
  8
0
  6
CONTINUOUS
 62
     3
  5
2D
 10
108.499969
 20
55.351635
 30
0.0
 11
108.499969
 21
-55.351635
 31
0.0
  0
LINE
  8
0
  6
CONTINUOUS
 62
     3
  5
2E
 10
73.499969
 20
42.60473
 30
0.0
 11
52.04845
 21
42.979168
 31
0.0
  0
LINE
  8
0
  6
CONTINUOUS
 62
     3
  5
2F
 10
73.499969
 20
-42.60473
 30
0.0
 11
52.04845
 21
-42.979168
 31
0.0
  0
LINE
  8
0
  6
CONTINUOUS
 62
     3
  5
30
 10
73.499969
 20
51.991127
 30
0.0
 11
73.499969
 21
-51.991127
 31
0.0
  0
LINE
  8
0
  6
CONTINUOUS
 62
     3
  5
31
 10
105.499969
 20
58.0
 30
0.0
 11
105.499969
 21
-58.0
 31
0.0
  0
LINE
  8
0
  6
CONTINUOUS
 62
     3
  5
32
 10
105.499969
 20
-58.0
 30
0.0
 11
75.23621
 21
-53.973659
 31
0.0
  0
LINE
  8
0
  6
CONTINUOUS
 62
     3
  5
33
 10
105.499969
 20
58.0
 30
0.0
 11
75.23621
 21
53.973659
 31
0.0
  0
ARC
  8
0
  6
CONTINUOUS
 62
     3
  5
34
 10
75.499969
 20
51.991127
 30
0.0
 40
2.0
 50
97.578224
 51
180.0
  0
ARC
  8
0
  6
CONTINUOUS
 62
     3
  5
35
 10
75.499969
 20
-51.991127
 30
0.0
 40
2.0
 50
180.0
 51
262.421776
  0
ENDBLK
  8
0
  5
36
  0
BLOCK
  8
0
  5
37
  2
MS_2
 70
     0
 10
0.0
 20
0.0
 30
0.0
  3
MS_2
  0
LINE
  8
0
  6
PHANTOM
 62
    80
  5
39
 10
-64.603563
 20
-32.997113
 30
0.0
 11
-65.00074
 21
-55.751245
 31
0.0
  0
ARC
  8
0
  6
PHANTOM
 62
    80
  5
3A
 10
-70.0
 20
-55.664148
 30
0.0
 40
5.0
 50
300.000005
 51
0.000005
  0
LINE
  8
0
  6
PHANTOM
 62
    80
  5
3B
 10
-67.5
 20
-63.994226
 30
0.0
 11
-67.5
 21
-59.994226
 31
0.0
  0
ARC
  8
0
  6
PHANTOM
 62
    80
  5
3C
 10
-66.020233
 20
-82.168054
 30
0.0
 40
1.0
 50
182.860792
 51
223.286592
  0
ARC
  8
0
  6
PHANTOM
 62
    80
  5
3D
 10
332.482513
 20
-62.254114
 30
0.0
 40
400.0
 50
180.535741
 51
182.860792
  0
ARC
  8
0
  6
PHANTOM
 62
    80
  5
3E
 10
-75.483368
 20
-91.081385
 30
0.0
 40
12.0
 50
2.065737
 51
43.28659
  0
ARC
  8
0
  6
PHANTOM
 62
    80
  5
3F
 10
70.0
 20
-55.664148
 30
0.0
 40
5.0
 50
179.999995
 51
239.999997
  0
LINE
  8
0
  6
PHANTOM
 62
    80
  5
40
 10
64.603599
 20
-32.997113
 30
0.0
 11
65.000778
 21
-55.751337
 31
0.0
  0
LINE
  8
0
  6
PHANTOM
 62
    80
  5
41
 10
67.5
 20
-63.994226
 30
0.0
 11
67.5
 21
-59.994226
 31
0.0
  0
ARC
  8
0
  6
PHANTOM
 62
    80
  5
42
 10
66.020233
 20
-82.168054
 30
0.0
 40
1.0
 50
316.71341
 51
357.139205
  0
ARC
  8
0
  6
PHANTOM
 62
    80
  5
43
 10
75.483368
 20
-91.081385
 30
0.0
 40
12.0
 50
136.713412
 51
180.000009
  0
ARC
  8
0
  6
PHANTOM
 62
    80
  5
44
 10
-332.482513
 20
-62.254114
 30
0.0
 40
400.0
 50
357.139205
 51
359.464257
  0
ARC
  8
0
  6
PHANTOM
 62
    80
  5
45
 10
0.0
 20
-41.994226
 30
0.0
 40
150.0
 50
248.711138
 51
291.288857
  0
ARC
  8
0
  6
PHANTOM
 62
    80
  5
46
 10
-54.097443
 20
-180.826746
 30
0.0
 40
1.0
 50
188.56635
 51
248.711138
  0
ARC
  8
0
  6
PHANTOM
 62
    80
  5
47
 10
54.097443
 20
-180.826746
 30
0.0
 40
1.0
 50
291.288857
 51
351.433649
  0
ARC
  8
0
  6
PHANTOM
 62
    80
  5
48
 10
-735.988861
 20
-61.811975
 30
0.0
 40
800.0
 50
351.433649
 51
357.967094
  0
ARC
  8
0
  6
PHANTOM
 62
    80
  5
49
 10
735.988983
 20
-61.811975
 30
0.0
 40
800.0
 50
182.065731
 51
188.56635
  0
ARC
  8
0
  6
CONTINUOUS
 62
     3
  5
4A
 10
33.735399
 20
-109.068831
 30
0.0
 40
1.884862
 50
321.01653
 51
359.027238
  0
ARC
  8
0
  6
CONTINUOUS
 62
     3
  5
4B
 10
32.807356
 20
-108.334275
 30
0.0
 40
3.068388
 50
297.919378
 51
321.256242
  0
ARC
  8
0
  6
CONTINUOUS
 62
     3
  5
4C
 10
32.076053
 20
-107.028316
 30
0.0
 40
4.564891
 50
282.661314
 51
298.354888
  0
ARC
  8
0
  6
CONTINUOUS
 62
     3
  5
4D
 10
31.847089
 20
-106.100912
 30
0.0
 40
5.519966
 50
269.926375
 51
282.870157
  0
ARC
  8
0
  6
CONTINUOUS
 62
     3
  5
4E
 10
31.8328
 20
-106.102247
 30
0.0
 40
5.518632
 50
257.078359
 51
270.074711
  0
ARC
  8
0
  6
CONTINUOUS
 62
     3
  5
4F
 10
31.602399
 20
-107.03244
 30
0.0
 40
4.560502
 50
241.589421
 51
257.286391
  0
ARC
  8
0
  6
CONTINUOUS
 62
     3
  5
50
 10
30.870406
 20
-108.336889
 30
0.0
 40
3.064976
 50
218.694285
 51
242.022996
  0
ARC
  8
0
  6
CONTINUOUS
 62
     3
  5
51
 10
29.943936
 20
-109.068996
 30
0.0
 40
1.884201
 50
180.968086
 51
218.931236
  0
ARC
  8
0
  6
CONTINUOUS
 62
     3
  5
52
 10
29.944594
 20
-109.13283
 30
0.0
 40
1.884862
 50
141.01653
 51
179.027238
  0
ARC
  8
0
  6
CONTINUOUS
 62
     3
  5
53
 10
30.872637
 20
-109.867386
 30
0.0
 40
3.068388
 50
117.919378
 51
141.256242
  0
ARC
  8
0
  6
CONTINUOUS
 62
     3
  5
54
 10
31.60394
 20
-111.173344
 30
0.0
 40
4.564891
 50
102.661314
 51
118.354888
  0
ARC
  8
0
  6
CONTINUOUS
 62
     3
  5
55
 10
31.832903
 20
-112.100748
 30
0.0
 40
5.519966
 50
89.926375
 51
102.870157
  0
ARC
  8
0
  6
CONTINUOUS
 62
     3
  5
56
 10
31.847192
 20
-112.099413
 30
0.0
 40
5.518632
 50
77.078359
 51
90.074711
  0
ARC
  8
0
  6
CONTINUOUS
 62
     3
  5
57
 10
32.077593
 20
-111.16922
 30
0.0
 40
4.560502
 50
61.589421
 51
77.286391
  0
ARC
  8
0
  6
CONTINUOUS
 62
     3
  5
58
 10
32.809587
 20
-109.864772
 30
0.0
 40
3.064976
 50
38.694285
 51
62.022996
  0
ARC
  8
0
  6
CONTINUOUS
 62
     3
  5
59
 10
33.736057
 20
-109.132665
 30
0.0
 40
1.884201
 50
0.968086
 51
38.931236
  0
ARC
  8
0
  6
CONTINUOUS
 62
     3
  5
5A
 10
33.862918
 20
-109.076337
 30
0.0
 40
3.157166
 50
326.943438
 51
359.555496
  0
ARC
  8
0
  6
CONTINUOUS
 62
     3
  5
5B
 10
32.931957
 20
-108.463944
 30
0.0
 40
4.271479
 50
302.78513
 51
326.870225
  0
ARC
  8
0
  6
CONTINUOUS
 62
     3
  5
5C
 10
32.119424
 20
-107.250154
 30
0.0
 40
5.731957
 50
285.093085
 51
303.043494
  0
ARC
  8
0
  6
CONTINUOUS
 62
     3
  5
5D
 10
31.848595
 20
-106.32869
 30
0.0
 40
6.69219
 50
269.926382
 51
285.277572
  0
ARC
  8
0
  6
CONTINUOUS
 62
     3
  5
5E
 10
31.831296
 20
-106.329803
 30
0.0
 40
6.691077
 50
254.671777
 51
270.074499
  0
ARC
  8
0
  6
CONTINUOUS
 62
     3
  5
5F
 10
31.558939
 20
-107.253833
 30
0.0
 40
5.72795
 50
236.89761
 51
254.855863
  0
ARC
  8
0
  6
CONTINUOUS
 62
     3
  5
60
 10
30.745267
 20
-108.466716
 30
0.0
 40
4.267589
 50
213.059418
 51
237.155516
  0
ARC
  8
0
  6
CONTINUOUS
 62
     3
  5
61
 10
29.816157
 20
-109.07652
 30
0.0
 40
3.156247
 50
180.441306
 51
212.982396
  0
ARC
  8
0
  6
CONTINUOUS
 62
     3
  5
62
 10
29.817075
 20
-109.125323
 30
0.0
 40
3.157166
 50
146.943438
 51
179.555496
  0
ARC
  8
0
  6
CONTINUOUS
 62
     3
  5
63
 10
30.748036
 20
-109.737716
 30
0.0
 40
4.271479
 50
122.78513
 51
146.870225
  0
ARC
  8
0
  6
CONTINUOUS
 62
     3
  5
64
 10
31.560569
 20
-110.951506
 30
0.0
 40
5.731957
 50
105.093085
 51
123.043494
  0
ARC
  8
0
  6
CONTINUOUS
 62
     3
  5
65
 10
31.831398
 20
-111.872971
 30
0.0
 40
6.69219
 50
89.926382
 51
105.277572
  0
ARC
  8
0
  6
CONTINUOUS
 62
     3
  5
66
 10
31.848696
 20
-111.871858
 30
0.0
 40
6.691077
 50
74.671777
 51
90.074499
  0
ARC
  8
0
  6
CONTINUOUS
 62
     3
  5
67
 10
32.121054
 20
-110.947827
 30
0.0
 40
5.72795
 50
56.89761
 51
74.855863
  0
ARC
  8
0
  6
CONTINUOUS
 62
     3
  5
68
 10
32.934726
 20
-109.734945
 30
0.0
 40
4.267589
 50
33.059418
 51
57.155516
  0
ARC
  8
0
  6
CONTINUOUS
 62
     3
  5
69
 10
33.863836
 20
-109.12514
 30
0.0
 40
3.156247
 50
0.441306
 51
32.982396
  0
ARC
  8
0
  6
CONTINUOUS
 62
     3
  5
6A
 10
-0.004432
 20
-73.531631
 30
0.0
 40
13.440322
 50
90.001246
 51
93.078882
  0
ARC
  8
0
  6
CONTINUOUS
 62
     3
  5
6B
 10
-0.160434
 20
-70.854749
 30
0.0
 40
10.758931
 50
93.014981
 51
96.858652
  0
ARC
  8
0
  6
CONTINUOUS
 62
     3
  5
6C
 10
-0.750408
 20
-66.180816
 30
0.0
 40
6.048054
 50
96.597283
 51
103.415078
  0
ARC
  8
0
  6
CONTINUOUS
 62
     3
  5
6D
 10
-2.073393
 20
-61.131909
 30
0.0
 40
0.83797
 50
95.491173
 51
143.80728
  0
ARC
  8
0
  6
CONTINUOUS
 62
     3
  5
6E
 10
-2.068075
 20
-60.13492
 30
0.0
 40
0.846602
 50
216.381154
 51
264.588118
  0
ARC
  8
0
  6
CONTINUOUS
 62
     3
  5
6F
 10
-0.740279
 20
-55.034197
 30
0.0
 40
6.107966
 50
256.675837
 51
263.4709
  0
ARC
  8
0
  6
CONTINUOUS
 62
     3
  5
70
 10
-0.155754
 20
-50.35935
 30
0.0
 40
10.81907
 50
263.210521
 51
267.034049
  0
ARC
  8
0
  6
CONTINUOUS
 62
     3
  5
71
 10
-0.003968
 20
-47.716363
 30
0.0
 40
13.466379
 50
266.970957
 51
270.039709
  0
ARC
  8
0
  6
CONTINUOUS
 62
     3
  5
72
 10
0.005112
 20
-47.736256
 30
0.0
 40
13.446482
 50
270.00108
 51
273.077303
  0
ARC
  8
0
  6
CONTINUOUS
 62
     3
  5
73
 10
0.161192
 20
-50.415948
 30
0.0
 40
10.762282
 50
273.013416
 51
276.85589
  0
ARC
  8
0
  6
CONTINUOUS
 62
     3
  5
74
 10
0.75122
 20
-55.092197
 30
0.0
 40
6.0491
 50
276.594533
 51
283.41115
  0
ARC
  8
0
  6
CONTINUOUS
 62
     3
  5
75
 10
2.074114
 20
-60.142238
 30
0.0
 40
0.837944
 50
275.486547
 51
323.80403
  0
ARC
  8
0
  6
CONTINUOUS
 62
     3
  5
76
 10
2.075096
 20
-61.129825
 30
0.0
 40
0.835907
 50
36.119187
 51
84.615355
  0
ARC
  8
0
  6
CONTINUOUS
 62
     3
  5
77
 10
0.747101
 20
-66.201952
 30
0.0
 40
6.069544
 50
76.601612
 51
83.440051
  0
ARC
  8
0
  6
CONTINUOUS
 62
     3
  5
78
 10
0.158579
 20
-70.884612
 30
0.0
 40
10.788896
 50
83.176063
 51
87.010311
  0
ARC
  8
0
  6
CONTINUOUS
 62
     3
  5
79
 10
0.004857
 20
-73.541978
 30
0.0
 40
13.45067
 50
86.946784
 51
90.019261
  0
ARC
  8
0
  6
CONTINUOUS
 62
     3
  5
7A
 10
38.505005
 20
-85.095825
 30
0.0
 40
0.92
 50
0.0
 51
90.000003
  0
ARC
  8
0
  6
CONTINUOUS
 62
     3
  5
7B
 10
41.494995
 20
-85.095825
 30
0.0
 40
0.92
 50
90.000003
 51
180.000005
  0
ARC
  8
0
  6
CONTINUOUS
 62
     3
  5
7C
 10
41.494995
 20
-82.105835
 30
0.0
 40
0.92
 50
179.999991
 51
270.000001
  0
CIRCLE
  8
0
  6
CONTINUOUS
 62
     3
  5
7D
 10
40.0
 20
-83.60083
 30
0.0
 40
4.15
  0
ARC
  8
0
  6
CONTINUOUS
 62
     3
  5
7E
 10
38.505005
 20
-82.105835
 30
0.0
 40
0.92
 50
269.999997
 51
0.0
  0
ARC
  8
0
  6
CONTINUOUS
 62
     3
  5
7F
 10
-41.494995
 20
-85.095825
 30
0.0
 40
0.92
 50
0.0
 51
90.000003
  0
ARC
  8
0
  6
CONTINUOUS
 62
     3
  5
80
 10
-38.505005
 20
-85.095825
 30
0.0
 40
0.92
 50
90.000003
 51
180.000005
  0
ARC
  8
0
  6
CONTINUOUS
 62
     3
  5
81
 10
-38.505005
 20
-82.105835
 30
0.0
 40
0.92
 50
179.999991
 51
270.000001
  0
CIRCLE
  8
0
  6
CONTINUOUS
 62
     3
  5
82
 10
-40.0
 20
-83.60083
 30
0.0
 40
4.15
  0
ARC
  8
0
  6
CONTINUOUS
 62
     3
  5
83
 10
-41.494995
 20
-82.105835
 30
0.0
 40
0.92
 50
269.999997
 51
0.0
  0
ARC
  8
0
  6
CONTINUOUS
 62
     3
  5
84
 10
23.859985
 20
-107.980835
 30
0.0
 40
2.38
 50
286.927344
 51
90.000003
  0
ARC
  8
0
  6
CONTINUOUS
 62
     3
  5
85
 10
23.859985
 20
-107.980835
 30
0.0
 40
0.7
 50
269.999997
 51
90.000003
  0
ARC
  8
0
  6
CONTINUOUS
 62
     3
  5
86
 10
16.579987
 20
-107.980835
 30
0.0
 40
2.38
 50
286.927344
 51
90.000003
  0
ARC
  8
0
  6
CONTINUOUS
 62
     3
  5
87
 10
16.579987
 20
-107.980835
 30
0.0
 40
0.7
 50
269.999997
 51
90.000003
  0
ARC
  8
0
  6
CONTINUOUS
 62
     3
  5
88
 10
-49.859192
 20
-120.60083
 30
0.0
 40
2.0
 50
209.897645
 51
269.999997
  0
ARC
  8
0
  6
CONTINUOUS
 62
     3
  5
89
 10
-48.419037
 20
-114.60083
 30
0.0
 40
2.0
 50
203.790268
 51
269.999997
  0
ARC
  8
0
  6
CONTINUOUS
 62
     3
  5
8A
 10
48.419037
 20
-114.60083
 30
0.0
 40
2.0
 50
269.999997
 51
336.209734
  0
ARC
  8
0
  6
CONTINUOUS
 62
     3
  5
8B
 10
49.859192
 20
-120.60083
 30
0.0
 40
2.0
 50
269.999997
 51
330.10236
  0
ARC
  8
0
  6
CONTINUOUS
 62
     3
  5
8C
 10
2.0
 20
-123.157593
 30
0.0
 40
1.5
 50
269.999997
 51
0.0
  0
ARC
  8
0
  6
CONTINUOUS
 62
     3
  5
8D
 10
-2.0
 20
-123.157593
 30
0.0
 40
1.5
 50
179.999991
 51
270.000001
  0
CIRCLE
  8
0
  6
CONTINUOUS
 62
     3
  5
8E
 10
-40.0
 20
-83.60083
 30
0.0
 40
5.75
  0
CIRCLE
  8
0
  6
CONTINUOUS
 62
     3
  5
8F
 10
40.0
 20
-83.60083
 30
0.0
 40
5.75
  0
ARC
  8
0
  6
CONTINUOUS
 62
     3
  5
90
 10
-9.857147
 20
-97.60083
 30
0.0
 40
44.142857
 50
179.999991
 51
203.790264
  0
ARC
  8
0
  6
CONTINUOUS
 62
     3
  5
91
 10
9.857147
 20
-97.60083
 30
0.0
 40
44.142857
 50
336.209734
 51
0.0
  0
ARC
  8
0
  6
CONTINUOUS
 62
     3
  5
92
 10
-9.857147
 20
-97.60083
 30
0.0
 40
48.142857
 50
179.999991
 51
209.897642
  0
ARC
  8
0
  6
CONTINUOUS
 62
     3
  5
93
 10
9.857147
 20
-97.60083
 30
0.0
 40
48.142857
 50
330.10236
 51
0.0
  0
ARC
  8
0
  6
CONTINUOUS
 62
     3
  5
94
 10
-2.0
 20
-123.157593
 30
0.0
 40
1.5
 50
179.999991
 51
270.000001
  0
ARC
  8
0
  6
CONTINUOUS
 62
     3
  5
95
 10
2.0
 20
-123.157593
 30
0.0
 40
1.5
 50
269.999997
 51
0.0
  0
ARC
  8
0
  6
CONTINUOUS
 62
     3
  5
96
 10
332.482513
 20
-3.740112
 30
0.0
 40
400.0
 50
177.139208
 51
179.464259
  0
ARC
  8
0
  6
CONTINUOUS
 62
     3
  5
97
 10
54.097443
 20
114.83252
 30
0.0
 40
1.0
 50
8.566351
 51
68.711143
  0
ARC
  8
0
  6
CONTINUOUS
 62
     3
  5
98
 10
66.020233
 20
16.173828
 30
0.0
 40
1.0
 50
2.860795
 51
43.28659
  0
ARC
  8
0
  6
CONTINUOUS
 62
     3
  5
99
 10
-66.020233
 20
16.173828
 30
0.0
 40
1.0
 50
136.713408
 51
177.139208
  0
ARC
  8
0
  6
CONTINUOUS
 62
     3
  5
9A
 10
-54.097443
 20
114.83252
 30
0.0
 40
1.0
 50
111.288862
 51
171.43365
  0
ARC
  8
0
  6
CONTINUOUS
 62
     3
  5
9B
 10
75.483368
 20
25.087158
 30
0.0
 40
12.0
 50
179.999991
 51
223.286588
  0
ARC
  8
0
  6
CONTINUOUS
 62
     3
  5
9C
 10
-332.482513
 20
-3.740112
 30
0.0
 40
400.0
 50
0.535743
 51
2.860795
  0
ARC
  8
0
  6
CONTINUOUS
 62
     3
  5
9D
 10
-735.988861
 20
-4.182251
 30
0.0
 40
800.0
 50
2.032906
 51
8.566351
  0
ARC
  8
0
  6
CONTINUOUS
 62
     3
  5
9E
 10
-75.483368
 20
25.087158
 30
0.0
 40
12.0
 50
316.71341
 51
357.934263
  0
ARC
  8
0
  6
CONTINUOUS
 62
     3
  5
9F
 10
735.988983
 20
-4.182251
 30
0.0
 40
800.0
 50
171.43365
 51
177.934269
  0
ARC
  8
0
  6
CONTINUOUS
 62
     3
  5
A0
 10
0.0
 20
-24.0
 30
0.0
 40
150.0
 50
68.711143
 51
111.288862
  0
ARC
  8
0
  6
CONTINUOUS
 62
     3
  5
A1
 10
0.0
 20
184.5
 30
0.0
 40
250.0
 50
257.34921
 51
282.650792
  0
ARC
  8
0
  6
CONTINUOUS
 62
     3
  5
A2
 10
-53.0
 20
-51.625
 30
0.0
 40
8.0
 50
179.999991
 51
257.349206
  0
ARC
  8
0
  6
CONTINUOUS
 62
     3
  5
A3
 10
-70.0
 20
-10.330078
 30
0.0
 40
5.0
 50
359.999995
 51
59.999995
  0
ARC
  8
0
  6
CONTINUOUS
 62
     3
  5
A4
 10
70.0
 20
-10.330078
 30
0.0
 40
5.0
 50
120.000003
 51
180.000005
  0
ARC
  8
0
  6
CONTINUOUS
 62
     3
  5
A5
 10
53.0
 20
-51.625
 30
0.0
 40
8.0
 50
282.650792
 51
360.0
  0
LINE
  8
0
  6
CONTINUOUS
 62
     3
  5
A6
 10
39.424988
 20
-85.095825
 30
0.0
 11
39.424988
 21
-85.900879
 31
0.0
  0
LINE
  8
0
  6
CONTINUOUS
 62
     3
  5
A7
 10
37.700012
 20
-84.175781
 30
0.0
 11
38.505005
 21
-84.175781
 31
0.0
  0
LINE
  8
0
  6
CONTINUOUS
 62
     3
  5
A8
 10
41.494995
 20
-84.175781
 30
0.0
 11
42.299988
 21
-84.175781
 31
0.0
  0
LINE
  8
0
  6
CONTINUOUS
 62
     3
  5
A9
 10
40.575012
 20
-85.095825
 30
0.0
 11
40.575012
 21
-85.900879
 31
0.0
  0
LINE
  8
0
  6
CONTINUOUS
 62
     3
  5
AA
 10
39.424988
 20
-85.900879
 30
0.0
 11
40.575012
 21
-85.900879
 31
0.0
  0
LINE
  8
0
  6
CONTINUOUS
 62
     3
  5
AB
 10
41.494995
 20
-83.025879
 30
0.0
 11
42.299988
 21
-83.025879
 31
0.0
  0
LINE
  8
0
  6
CONTINUOUS
 62
     3
  5
AC
 10
40.575012
 20
-81.300781
 30
0.0
 11
40.575012
 21
-82.105835
 31
0.0
  0
LINE
  8
0
  6
CONTINUOUS
 62
     3
  5
AD
 10
42.299988
 20
-83.025879
 30
0.0
 11
42.299988
 21
-84.175781
 31
0.0
  0
LINE
  8
0
  6
CONTINUOUS
 62
     3
  5
AE
 10
37.700012
 20
-83.025879
 30
0.0
 11
38.505005
 21
-83.025879
 31
0.0
  0
LINE
  8
0
  6
CONTINUOUS
 62
     3
  5
AF
 10
39.424988
 20
-81.300781
 30
0.0
 11
39.424988
 21
-82.105835
 31
0.0
  0
LINE
  8
0
  6
CONTINUOUS
 62
     3
  5
B0
 10
39.424988
 20
-81.300781
 30
0.0
 11
40.575012
 21
-81.300781
 31
0.0
  0
LINE
  8
0
  6
CONTINUOUS
 62
     3
  5
B1
 10
37.700012
 20
-83.025879
 30
0.0
 11
37.700012
 21
-84.175781
 31
0.0
  0
LINE
  8
0
  6
CONTINUOUS
 62
     3
  5
B2
 10
-40.575012
 20
-85.095825
 30
0.0
 11
-40.575012
 21
-85.900879
 31
0.0
  0
LINE
  8
0
  6
CONTINUOUS
 62
     3
  5
B3
 10
-42.299988
 20
-84.175781
 30
0.0
 11
-41.494995
 21
-84.175781
 31
0.0
  0
LINE
  8
0
  6
CONTINUOUS
 62
     3
  5
B4
 10
-38.505005
 20
-84.175781
 30
0.0
 11
-37.700012
 21
-84.175781
 31
0.0
  0
LINE
  8
0
  6
CONTINUOUS
 62
     3
  5
B5
 10
-39.424988
 20
-85.095825
 30
0.0
 11
-39.424988
 21
-85.900879
 31
0.0
  0
LINE
  8
0
  6
CONTINUOUS
 62
     3
  5
B6
 10
-40.575012
 20
-85.900879
 30
0.0
 11
-39.424988
 21
-85.900879
 31
0.0
  0
LINE
  8
0
  6
CONTINUOUS
 62
     3
  5
B7
 10
-38.505005
 20
-83.025879
 30
0.0
 11
-37.700012
 21
-83.025879
 31
0.0
  0
LINE
  8
0
  6
CONTINUOUS
 62
     3
  5
B8
 10
-39.424988
 20
-81.300781
 30
0.0
 11
-39.424988
 21
-82.105835
 31
0.0
  0
LINE
  8
0
  6
CONTINUOUS
 62
     3
  5
B9
 10
-37.700012
 20
-83.025879
 30
0.0
 11
-37.700012
 21
-84.175781
 31
0.0
  0
LINE
  8
0
  6
CONTINUOUS
 62
     3
  5
BA
 10
-42.299988
 20
-83.025879
 30
0.0
 11
-41.494995
 21
-83.025879
 31
0.0
  0
LINE
  8
0
  6
CONTINUOUS
 62
     3
  5
BB
 10
-40.575012
 20
-81.300781
 30
0.0
 11
-40.575012
 21
-82.105835
 31
0.0
  0
LINE
  8
0
  6
CONTINUOUS
 62
     3
  5
BC
 10
-40.575012
 20
-81.300781
 30
0.0
 11
-39.424988
 21
-81.300781
 31
0.0
  0
LINE
  8
0
  6
CONTINUOUS
 62
     3
  5
BD
 10
-42.299988
 20
-83.025879
 30
0.0
 11
-42.299988
 21
-84.175781
 31
0.0
  0
LINE
  8
0
  6
CONTINUOUS
 62
     3
  5
BE
 10
19.519989
 20
-108.680786
 30
0.0
 11
19.519989
 21
-112.60083
 31
0.0
  0
LINE
  8
0
  6
CONTINUOUS
 62
     3
  5
BF
 10
12.23999
 20
-108.680786
 30
0.0
 11
12.23999
 21
-112.60083
 31
0.0
  0
LINE
  8
0
  6
CONTINUOUS
 62
     3
  5
C0
 10
12.23999
 20
-105.60083
 30
0.0
 11
16.579987
 21
-105.60083
 31
0.0
  0
LINE
  8
0
  6
CONTINUOUS
 62
     3
  5
C1
 10
46.930786
 20
-105.60083
 30
0.0
 11
48.779999
 21
-105.60083
 31
0.0
  0
LINE
  8
0
  6
CONTINUOUS
 62
     3
  5
C2
 10
42.059998
 20
-105.60083
 30
0.0
 11
43.179993
 21
-105.60083
 31
0.0
  0
LINE
  8
0
  6
CONTINUOUS
 62
     3
  5
C3
 10
36.459991
 20
-105.60083
 30
0.0
 11
38.309235
 21
-105.60083
 31
0.0
  0
LINE
  8
0
  6
CONTINUOUS
 62
     3
  5
C4
 10
39.679993
 20
-112.60083
 30
0.0
 11
40.689209
 21
-112.60083
 31
0.0
  0
LINE
  8
0
  6
CONTINUOUS
 62
     3
  5
C5
 10
44.550781
 20
-112.60083
 30
0.0
 11
45.559998
 21
-112.60083
 31
0.0
  0
LINE
  8
0
  6
CONTINUOUS
 62
     3
  5
C6
 10
24.169861
 20
-112.60083
 30
0.0
 11
26.23999
 21
-112.60083
 31
0.0
  0
LINE
  8
0
  6
CONTINUOUS
 62
     3
  5
C7
 10
9.770691
 20
-112.60083
 30
0.0
 11
11.679993
 21
-112.60083
 31
0.0
  0
LINE
  8
0
  6
CONTINUOUS
 62
     3
  5
C8
 10
16.889862
 20
-112.60083
 30
0.0
 11
18.9729
 21
-112.60083
 31
0.0
  0
LINE
  8
0
  6
CONTINUOUS
 62
     3
  5
C9
 10
12.23999
 20
-112.60083
 30
0.0
 11
13.920013
 21
-112.60083
 31
0.0
  0
LINE
  8
0
  6
CONTINUOUS
 62
     3
  5
CA
 10
19.519989
 20
-112.60083
 30
0.0
 11
21.200012
 21
-112.60083
 31
0.0
  0
LINE
  8
0
  6
CONTINUOUS
 62
     3
  5
CB
 10
19.519989
 20
-105.60083
 30
0.0
 11
23.859985
 21
-105.60083
 31
0.0
  0
LINE
  8
0
  6
CONTINUOUS
 62
     3
  5
CC
 10
22.557083
 20
-110.360779
 30
0.0
 11
24.16983
 21
-112.600739
 31
0.0
  0
LINE
  8
0
  6
CONTINUOUS
 62
     3
  5
CD
 10
16.889847
 20
-112.60083
 30
0.0
 11
15.277008
 21
-110.360779
 31
0.0
  0
LINE
  8
0
  6
CONTINUOUS
 62
     3
  5
CE
 10
24.552979
 20
-110.25766
 30
0.0
 11
26.240051
 21
-112.60083
 31
0.0
  0
LINE
  8
0
  6
CONTINUOUS
 62
     3
  5
CF
 10
18.960037
 20
-112.600769
 30
0.0
 11
17.272949
 21
-110.257599
 31
0.0
  0
LINE
  8
0
  6
CONTINUOUS
 62
     3
  5
D0
 10
21.200012
 20
-110.36084
 30
0.0
 11
22.557037
 21
-110.36084
 31
0.0
  0
LINE
  8
0
  6
CONTINUOUS
 62
     3
  5
D1
 10
13.920013
 20
-110.36084
 30
0.0
 11
15.277039
 21
-110.36084
 31
0.0
  0
LINE
  8
0
  6
CONTINUOUS
 62
     3
  5
D2
 10
19.519989
 20
-108.680786
 30
0.0
 11
23.859985
 21
-108.680786
 31
0.0
  0
LINE
  8
0
  6
CONTINUOUS
 62
     3
  5
D3
 10
12.23999
 20
-108.680786
 30
0.0
 11
16.579987
 21
-108.680786
 31
0.0
  0
LINE
  8
0
  6
CONTINUOUS
 62
     3
  5
D4
 10
19.519989
 20
-107.280884
 30
0.0
 11
23.859985
 21
-107.280884
 31
0.0
  0
LINE
  8
0
  6
CONTINUOUS
 62
     3
  5
D5
 10
12.23999
 20
-107.280884
 30
0.0
 11
16.579987
 21
-107.280884
 31
0.0
  0
LINE
  8
0
  6
CONTINUOUS
 62
     3
  5
D6
 10
21.200012
 20
-110.36084
 30
0.0
 11
21.200012
 21
-112.60083
 31
0.0
  0
LINE
  8
0
  6
CONTINUOUS
 62
     3
  5
D7
 10
13.920013
 20
-110.36084
 30
0.0
 11
13.920013
 21
-112.60083
 31
0.0
  0
LINE
  8
0
  6
CONTINUOUS
 62
     3
  5
D8
 10
43.180038
 20
-105.600952
 30
0.0
 11
45.05542
 21
-109.677856
 31
0.0
  0
LINE
  8
0
  6
CONTINUOUS
 62
     3
  5
D9
 10
42.620041
 20
-108.403564
 30
0.0
 11
44.550812
 21
-112.600922
 31
0.0
  0
LINE
  8
0
  6
CONTINUOUS
 62
     3
  5
DA
 10
42.61998
 20
-108.403503
 30
0.0
 11
40.689209
 21
-112.60083
 31
0.0
  0
LINE
  8
0
  6
CONTINUOUS
 62
     3
  5
DB
 10
42.059967
 20
-105.600861
 30
0.0
 11
40.184601
 21
-109.677765
 31
0.0
  0
LINE
  8
0
  6
CONTINUOUS
 62
     3
  5
DC
 10
45.055374
 20
-109.677765
 30
0.0
 11
46.93074
 21
-105.600861
 31
0.0
  0
LINE
  8
0
  6
CONTINUOUS
 62
     3
  5
DD
 10
38.309265
 20
-105.600952
 30
0.0
 11
40.184647
 21
-109.677856
 31
0.0
  0
LINE
  8
0
  6
CONTINUOUS
 62
     3
  5
DE
 10
7.339966
 20
-108.099426
 30
0.0
 11
9.770691
 21
-112.600769
 31
0.0
  0
LINE
  8
0
  6
CONTINUOUS
 62
     3
  5
DF
 10
7.339981
 20
-108.099548
 30
0.0
 11
4.909302
 21
-112.6008
 31
0.0
  0
LINE
  8
0
  6
CONTINUOUS
 62
     3
  5
E0
 10
45.559967
 20
-112.60083
 30
0.0
 11
48.779968
 21
-105.60083
 31
0.0
  0
LINE
  8
0
  6
CONTINUOUS
 62
     3
  5
E1
 10
36.460052
 20
-105.600922
 30
0.0
 11
39.680038
 21
-112.600922
 31
0.0
  0
LINE
  8
0
  6
CONTINUOUS
 62
     3
  5
E2
 10
7.899963
 20
-105.600769
 30
0.0
 11
11.679932
 21
-112.600677
 31
0.0
  0
LINE
  8
0
  6
CONTINUOUS
 62
     3
  5
E3
 10
6.780029
 20
-105.600769
 30
0.0
 11
3.0
 21
-112.60083
 31
0.0
  0
LINE
  8
0
  6
CONTINUOUS
 62
     3
  5
E4
 10
6.779999
 20
-105.60083
 30
0.0
 11
7.899994
 21
-105.60083
 31
0.0
  0
LINE
  8
0
  6
CONTINUOUS
 62
     3
  5
E5
 10
19.519989
 20
-105.60083
 30
0.0
 11
19.519989
 21
-107.280884
 31
0.0
  0
LINE
  8
0
  6
CONTINUOUS
 62
     3
  5
E6
 10
12.23999
 20
-105.60083
 30
0.0
 11
12.23999
 21
-107.280884
 31
0.0
  0
LINE
  8
0
  6
CONTINUOUS
 62
     3
  5
E7
 10
3.0
 20
-112.60083
 30
0.0
 11
4.909302
 21
-112.60083
 31
0.0
  0
LINE
  8
0
  6
CONTINUOUS
 62
     3
  5
E8
 10
-3.5
 20
-122.60083
 30
0.0
 11
-3.5
 21
-123.157593
 31
0.0
  0
LINE
  8
0
  6
CONTINUOUS
 62
     3
  5
E9
 10
3.5
 20
-122.60083
 30
0.0
 11
3.5
 21
-123.157593
 31
0.0
  0
LINE
  8
0
  6
CONTINUOUS
 62
     3
  5
EA
 10
2.0
 20
-124.657593
 30
0.0
 11
-2.0
 21
-124.657593
 31
0.0
  0
LINE
  8
0
  6
CONTINUOUS
 62
     3
  5
EB
 10
-48.419037
 20
-116.60083
 30
0.0
 11
48.419037
 21
-116.60083
 31
0.0
  0
LINE
  8
0
  6
CONTINUOUS
 62
     3
  5
EC
 10
54.0
 20
-59.598389
 30
0.0
 11
54.0
 21
-97.60083
 31
0.0
  0
LINE
  8
0
  6
CONTINUOUS
 62
     3
  5
ED
 10
-54.0
 20
-59.598389
 30
0.0
 11
-54.0
 21
-97.60083
 31
0.0
  0
LINE
  8
0
  6
CONTINUOUS
 62
     3
  5
EE
 10
58.0
 20
-57.869995
 30
0.0
 11
58.0
 21
-97.60083
 31
0.0
  0
LINE
  8
0
  6
CONTINUOUS
 62
     3
  5
EF
 10
-58.0
 20
-57.869995
 30
0.0
 11
-58.0
 21
-97.60083
 31
0.0
  0
LINE
  8
0
  6
CONTINUOUS
 62
     3
  5
F0
 10
2.0
 20
-124.657593
 30
0.0
 11
-2.0
 21
-124.657593
 31
0.0
  0
LINE
  8
0
  6
CONTINUOUS
 62
     3
  5
F1
 10
-49.859192
 20
-122.60083
 30
0.0
 11
49.859192
 21
-122.60083
 31
0.0
  0
LINE
  8
0
  6
CONTINUOUS
 62
     3
  5
F2
 10
-63.726776
 20
16.599976
 30
0.0
 11
63.726776
 21
16.599976
 31
0.0
  0
LINE
  8
0
  6
CONTINUOUS
 62
     3
  5
F3
 10
64.359177
 20
-46.999969
 30
0.0
 11
65.000778
 21
-10.242889
 31
0.0
  0
LINE
  8
0
  6
CONTINUOUS
 62
     3
  5
F4
 10
61.000031
 20
-49.200073
 30
0.0
 11
63.359192
 21
-48.000092
 31
0.0
  0
LINE
  8
0
  6
CONTINUOUS
 62
     3
  5
F5
 10
63.359222
 20
-48.000031
 30
0.0
 11
64.359207
 21
-47.000061
 31
0.0
  0
LINE
  8
0
  6
CONTINUOUS
 62
     3
  5
F6
 10
-60.999916
 20
-49.200134
 30
0.0
 11
-63.359108
 21
-48.000122
 31
0.0
  0
LINE
  8
0
  6
CONTINUOUS
 62
     3
  5
F7
 10
-63.359108
 20
-48.000031
 30
0.0
 11
-64.359085
 21
-47.000061
 31
0.0
  0
LINE
  8
0
  6
CONTINUOUS
 62
     3
  5
F8
 10
-64.359138
 20
-47.000061
 30
0.0
 11
-65.00074
 21
-10.242981
 31
0.0
  0
LINE
  8
0
  6
CONTINUOUS
 62
     3
  5
F9
 10
67.5
 20
-2.0
 30
0.0
 11
-67.5
 21
-2.0
 31
0.0
  0
LINE
  8
0
  6
CONTINUOUS
 62
     3
  5
FA
 10
67.5
 20
-6.0
 30
0.0
 11
-67.5
 21
-6.0
 31
0.0
  0
LINE
  8
0
  6
CONTINUOUS
 62
     3
  5
FB
 10
61.0
 20
-49.199951
 30
0.0
 11
-61.0
 21
-49.199951
 31
0.0
  0
LINE
  8
0
  6
CONTINUOUS
 62
     3
  5
FC
 10
64.359161
 20
-47.0
 30
0.0
 11
-64.359161
 21
-47.0
 31
0.0
  0
LINE
  8
0
  6
CONTINUOUS
 62
     3
  5
FD
 10
-61.0
 20
-49.199951
 30
0.0
 11
-61.0
 21
-51.625
 31
0.0
  0
LINE
  8
0
  6
CONTINUOUS
 62
     3
  5
FE
 10
61.0
 20
-49.199951
 30
0.0
 11
61.0
 21
-51.625
 31
0.0
  0
LINE
  8
0
  6
CONTINUOUS
 62
     3
  5
FF
 10
67.5
 20
-2.0
 30
0.0
 11
67.5
 21
-6.0
 31
0.0
  0
LINE
  8
0
  6
CONTINUOUS
 62
     3
  5
100
 10
-67.5
 20
-2.0
 30
0.0
 11
-67.5
 21
-6.0
 31
0.0
  0
LINE
  8
0
  6
CONTINUOUS
 62
     3
  5
101
 10
67.5
 20
-2.0
 30
0.0
 11
-67.5
 21
-2.0
 31
0.0
  0
LINE
  8
0
  6
CONTINUOUS
 62
     3
  5
102
 10
67.5
 20
0.0
 30
0.0
 11
-67.5
 21
0.0
 31
0.0
  0
ARC
  8
0
  6
CONTINUOUS
 62
     3
  5
103
 10
66.5
 20
-1.0
 30
0.0
 40
1.0
 50
270.0
 51
90.0
  0
ARC
  8
0
  6
CONTINUOUS
 62
     3
  5
104
 10
-66.5
 20
-1.0
 30
0.0
 40
1.0
 50
90.0
 51
270.0
  0
ENDBLK
  8
0
  5
105
  0
BLOCK
  8
0
  5
106
  2
MS_3
 70
     0
 10
0.0
 20
0.0
 30
0.0
  3
MS_3
  0
LINE
  8
0
  6
CONTINUOUS
 62
     3
  5
107
 10
67.5
 20
-63.233989
 30
0.0
 11
67.5
 21
-65.99424
 31
0.0
  0
ARC
  8
0
  6
PHANTOM
 62
    80
  5
108
 10
-70.0
 20
-55.664148
 30
0.0
 40
5.0
 50
299.999998
 51
360.0
  0
LINE
  8
0
  6
PHANTOM
 62
    80
  5
109
 10
-64.603584
 20
-32.997113
 30
0.0
 11
-65.000763
 21
-55.751306
 31
0.0
  0
LINE
  8
0
  6
PHANTOM
 62
    80
  5
10A
 10
-67.5
 20
-59.994226
 30
0.0
 11
-67.5
 21
-65.99424
 31
0.0
  0
ARC
  8
0
  6
PHANTOM
 62
    80
  5
10B
 10
0.0
 20
-41.994226
 30
0.0
 40
150.0
 50
248.711138
 51
291.288857
  0
ARC
  8
0
  6
PHANTOM
 62
    80
  5
10C
 10
735.989044
 20
-61.811975
 30
0.0
 40
800.0
 50
182.065731
 51
188.56635
  0
ARC
  8
0
  6
PHANTOM
 62
    80
  5
10D
 10
-75.483368
 20
-91.081385
 30
0.0
 40
12.0
 50
2.065737
 51
43.28659
  0
ARC
  8
0
  6
PHANTOM
 62
    80
  5
10E
 10
-735.988922
 20
-61.811975
 30
0.0
 40
800.0
 50
351.433649
 51
357.967094
  0
ARC
  8
0
  6
PHANTOM
 62
    80
  5
10F
 10
75.483368
 20
-91.081385
 30
0.0
 40
12.0
 50
136.713412
 51
180.000009
  0
ARC
  8
0
  6
PHANTOM
 62
    80
  5
110
 10
-54.097443
 20
-180.826746
 30
0.0
 40
1.0
 50
188.56635
 51
248.711138
  0
ARC
  8
0
  6
PHANTOM
 62
    80
  5
111
 10
-66.020233
 20
-82.168054
 30
0.0
 40
1.0
 50
182.860792
 51
223.286592
  0
ARC
  8
0
  6
PHANTOM
 62
    80
  5
112
 10
66.020233
 20
-82.168054
 30
0.0
 40
1.0
 50
316.71341
 51
357.139205
  0
ARC
  8
0
  6
PHANTOM
 62
    80
  5
113
 10
54.097443
 20
-180.826746
 30
0.0
 40
1.0
 50
291.288857
 51
351.433649
  0
ARC
  8
0
  6
PHANTOM
 62
    80
  5
114
 10
332.482513
 20
-62.254114
 30
0.0
 40
400.0
 50
180.535741
 51
182.860792
  0
ARC
  8
0
  6
PHANTOM
 62
    80
  5
115
 10
-332.482538
 20
-62.254114
 30
0.0
 40
400.0
 50
357.139205
 51
359.464257
  0
LINE
  8
0
  6
CENTER
 62
    50
  5
117
 10
69.021177
 20
-32.997113
 30
0.0
 11
114.5
 21
-32.997113
 31
0.0
  0
LINE
  8
0
  6
CONTINUOUS
 62
     3
  5
118
 10
108.499969
 20
-3.919952
 30
0.0
 11
109.499969
 21
-3.919952
 31
0.0
  0
LINE
  8
0
  6
CONTINUOUS
 62
     3
  5
119
 10
108.499969
 20
-0.773614
 30
0.0
 11
105.499969
 21
-0.923619
 31
0.0
  0
LINE
  8
0
  6
CONTINUOUS
 62
     3
  5
11A
 10
108.499969
 20
-116.643341
 30
0.0
 11
109.499969
 21
-116.643341
 31
0.0
  0
LINE
  8
0
  6
CONTINUOUS
 62
     3
  5
11B
 10
108.499969
 20
-120.278015
 30
0.0
 11
105.499969
 21
-119.558015
 31
0.0
  0
LINE
  8
0
  6
CONTINUOUS
 62
     3
  5
11C
 10
108.499969
 20
-120.278015
 30
0.0
 11
108.499969
 21
-0.773614
 31
0.0
  0
LINE
  8
0
  6
CONTINUOUS
 62
     3
  5
11D
 10
109.499969
 20
-116.643341
 30
0.0
 11
109.499969
 21
-3.919952
 31
0.0
  0
POLYLINE
  8
0
  6
CONTINUOUS
 62
     3
  5
11E
 66
     1
 10
0.0
 20
0.0
 30
0.0
  0
VERTEX
  8
0
  6
CONTINUOUS
 62
     3
  5
20C
 10
74.179749
 20
-63.434814
 30
0.0
  0
VERTEX
  8
0
  6
CONTINUOUS
 62
     3
  5
20D
 10
74.040955
 20
-63.487121
 30
0.0
  0
VERTEX
  8
0
  6
CONTINUOUS
 62
     3
  5
20E
 10
73.902161
 20
-63.539429
 30
0.0
  0
SEQEND
  8
0
  6
CONTINUOUS
 62
     3
  5
20F
  0
ARC
  8
0
  6
CONTINUOUS
 62
     3
  5
11F
 10
976.789936
 20
7.647379
 30
0.0
 40
903.686057
 50
180.658737
 51
181.263514
  0
ARC
  8
0
  6
CONTINUOUS
 62
     3
  5
120
 10
949.614153
 20
7.105373
 30
0.0
 40
876.504932
 50
181.267264
 51
181.890798
  0
ARC
  8
0
  6
CONTINUOUS
 62
     3
  5
121
 10
1027.5612
 20
9.689395
 30
0.0
 40
954.494798
 50
181.891445
 51
182.464033
  0
ARC
  8
0
  6
CONTINUOUS
 62
     3
  5
122
 10
1118.729316
 20
13.59643
 30
0.0
 40
1045.746593
 50
182.463151
 51
182.985774
  0
ARC
  8
0
  6
CONTINUOUS
 62
     3
  5
123
 10
1080.250544
 20
11.53437
 30
0.0
 40
1007.212648
 50
182.982646
 51
183.52526
  0
ARC
  8
0
  6
CONTINUOUS
 62
     3
  5
124
 10
-25.0147
 20
-56.560413
 30
0.0
 40
100.148241
 50
3.156664
 51
3.641317
  0
ARC
  8
0
  6
CONTINUOUS
 62
     3
  5
125
 10
-24.05482
 20
-56.508143
 30
0.0
 40
99.18694
 50
2.668348
 51
3.157048
  0
ARC
  8
0
  6
CONTINUOUS
 62
     3
  5
126
 10
-21.857854
 20
-56.406459
 30
0.0
 40
96.987622
 50
2.168981
 51
2.668765
  0
ARC
  8
0
  6
CONTINUOUS
 62
     3
  5
127
 10
-18.450995
 20
-56.278209
 30
0.0
 40
93.57835
 50
1.65148
 51
2.169459
  0
ARC
  8
0
  6
CONTINUOUS
 62
     3
  5
128
 10
-13.879306
 20
-56.147299
 30
0.0
 40
89.004787
 50
1.107481
 51
1.652059
  0
ARC
  8
0
  6
CONTINUOUS
 62
     3
  5
129
 10
-8.206026
 20
-56.038699
 30
0.0
 40
83.330468
 50
0.526566
 51
1.108219
  0
ARC
  8
0
  6
CONTINUOUS
 62
     3
  5
12A
 10
-1.51661
 20
-55.978534
 30
0.0
 40
76.640782
 50
359.895452
 51
0.527548
  0
ARC
  8
0
  6
CONTINUOUS
 62
     3
  5
12B
 10
6.085251
 20
-55.994083
 30
0.0
 40
69.038904
 50
359.195146
 51
359.896845
  0
ARC
  8
0
  6
CONTINUOUS
 62
     3
  5
12C
 10
14.46037
 20
-56.113909
 30
0.0
 40
60.662928
 50
358.400113
 51
359.197195
  0
ARC
  8
0
  6
CONTINUOUS
 62
     3
  5
12D
 10
23.454192
 20
-56.368129
 30
0.0
 40
51.665515
 50
357.46583
 51
358.403459
  0
ARC
  8
0
  6
CONTINUOUS
 62
     3
  5
12E
 10
32.872259
 20
-56.789125
 30
0.0
 40
42.238045
 50
356.326218
 51
357.471476
  0
ARC
  8
0
  6
CONTINUOUS
 62
     3
  5
12F
 10
42.448263
 20
-57.410137
 30
0.0
 40
32.641928
 50
354.856451
 51
356.337008
  0
ARC
  8
0
  6
CONTINUOUS
 62
     3
  5
130
 10
51.884394
 20
-58.269466
 30
0.0
 40
23.166756
 50
352.793024
 51
354.880953
  0
ARC
  8
0
  6
CONTINUOUS
 62
     3
  5
131
 10
60.748644
 20
-59.408208
 30
0.0
 40
14.22969
 50
349.467095
 51
352.86425
  0
ARC
  8
0
  6
CONTINUOUS
 62
     3
  5
132
 10
68.408233
 20
-60.871717
 30
0.0
 40
6.431751
 50
342.300292
 51
349.811626
  0
ARC
  8
0
  6
CONTINUOUS
 62
     3
  5
133
 10
73.645124
 20
-62.673643
 30
0.0
 40
0.903536
 50
297.381268
 51
350.218195
  0
ARC
  8
0
  6
CONTINUOUS
 62
     3
  5
134
 10
26.638156
 20
-58.6462
 30
0.0
 40
0.770188
 50
287.208201
 51
322.219883
  0
ARC
  8
0
  6
CONTINUOUS
 62
     3
  5
135
 10
24.936373
 20
-54.769182
 30
0.0
 40
5.000077
 50
287.230523
 51
292.700976
  0
ARC
  8
0
  6
CONTINUOUS
 62
     3
  5
136
 10
23.870386
 20
-51.434585
 30
0.0
 40
8.500837
 50
284.222956
 51
287.4353
  0
ARC
  8
0
  6
CONTINUOUS
 62
     3
  5
137
 10
23.48727
 20
-49.960389
 30
0.0
 40
10.023979
 50
281.537661
 51
284.275365
  0
ARC
  8
0
  6
CONTINUOUS
 62
     3
  5
138
 10
23.59398
 20
-50.511274
 30
0.0
 40
9.462884
 50
278.687814
 51
281.571745
  0
ARC
  8
0
  6
CONTINUOUS
 62
     3
  5
139
 10
23.899597
 20
-52.554674
 30
0.0
 40
7.396769
 50
275.061507
 51
278.738527
  0
ARC
  8
0
  6
CONTINUOUS
 62
     3
  5
13A
 10
22.252689
 20
-59.086797
 30
0.0
 40
0.770167
 50
229.254467
 51
264.267012
  0
ARC
  8
0
  6
CONTINUOUS
 62
     3
  5
13B
 10
23.149187
 20
-54.948591
 30
0.0
 40
5.00019
 50
258.774026
 51
264.24435
  0
ARC
  8
0
  6
CONTINUOUS
 62
     3
  5
13C
 10
23.530532
 20
-51.468169
 30
0.0
 40
8.501364
 50
264.03957
 51
267.251712
  0
ARC
  8
0
  6
CONTINUOUS
 62
     3
  5
13D
 10
23.612745
 20
-49.946765
 30
0.0
 40
10.024964
 50
267.199304
 51
269.936737
  0
ARC
  8
0
  6
CONTINUOUS
 62
     3
  5
13E
 10
23.617755
 20
-50.507634
 30
0.0
 40
9.464103
 50
269.902656
 51
272.786212
  0
ARC
  8
0
  6
CONTINUOUS
 62
     3
  5
13F
 10
23.724732
 20
-52.571092
 30
0.0
 40
7.397887
 50
272.735507
 51
276.411967
  0
ARC
  8
0
  6
CONTINUOUS
 62
     3
  5
140
 10
26.744206
 20
-59.701523
 30
0.0
 40
0.770155
 50
49.25439
 51
84.267494
  0
ARC
  8
0
  6
CONTINUOUS
 62
     3
  5
141
 10
25.847715
 20
-63.839823
 30
0.0
 40
5.000267
 50
78.77437
 51
84.244607
  0
ARC
  8
0
  6
CONTINUOUS
 62
     3
  5
142
 10
25.466356
 20
-67.320518
 30
0.0
 40
8.501714
 50
84.039826
 51
87.251834
  0
ARC
  8
0
  6
CONTINUOUS
 62
     3
  5
143
 10
25.384131
 20
-68.842223
 30
0.0
 40
10.025616
 50
87.199426
 51
89.93668
  0
ARC
  8
0
  6
CONTINUOUS
 62
     3
  5
144
 10
25.379121
 20
-68.281504
 30
0.0
 40
9.464905
 50
89.902601
 51
92.785912
  0
ARC
  8
0
  6
CONTINUOUS
 62
     3
  5
145
 10
25.272152
 20
-66.217976
 30
0.0
 40
7.398619
 50
92.735212
 51
96.411306
  0
ARC
  8
0
  6
CONTINUOUS
 62
     3
  5
146
 10
22.358741
 20
-60.142139
 30
0.0
 40
0.770201
 50
107.208682
 51
142.219808
  0
ARC
  8
0
  6
CONTINUOUS
 62
     3
  5
147
 10
24.060511
 20
-64.019063
 30
0.0
 40
5.0
 50
107.23078
 51
112.70132
  0
ARC
  8
0
  6
CONTINUOUS
 62
     3
  5
148
 10
25.126431
 20
-67.353395
 30
0.0
 40
8.500487
 50
104.223077
 51
107.435555
  0
ARC
  8
0
  6
CONTINUOUS
 62
     3
  5
149
 10
25.509476
 20
-68.827299
 30
0.0
 40
10.023328
 50
101.537604
 51
104.275488
  0
ARC
  8
0
  6
CONTINUOUS
 62
     3
  5
14A
 10
25.402736
 20
-68.276267
 30
0.0
 40
9.462083
 50
98.687514
 51
101.571691
  0
ARC
  8
0
  6
CONTINUOUS
 62
     3
  5
14B
 10
25.097141
 20
-66.232934
 30
0.0
 40
7.396037
 50
95.060846
 51
98.738232
  0
ARC
  8
0
  6
CONTINUOUS
 62
     3
  5
14C
 10
60.981095
 20
-11.150962
 30
0.0
 40
9.154905
 50
91.681658
 51
122.950021
  0
ARC
  8
0
  6
CONTINUOUS
 62
     3
  5
14D
 10
78.683216
 20
-39.301687
 30
0.0
 40
42.408226
 50
122.332941
 51
129.082343
  0
ARC
  8
0
  6
CONTINUOUS
 62
     3
  5
14E
 10
54.775893
 20
-11.308407
 30
0.0
 40
5.679996
 50
119.864719
 51
170.081853
  0
ARC
  8
0
  6
CONTINUOUS
 62
     3
  5
14F
 10
39.564123
 20
-51.454579
 30
0.0
 40
4.196956
 50
317.321744
 51
357.748141
  0
ARC
  8
0
  6
CONTINUOUS
 62
     3
  5
150
 10
34.84281
 20
-47.429974
 30
0.0
 40
10.398945
 50
302.329165
 51
318.653634
  0
ARC
  8
0
  6
CONTINUOUS
 62
     3
  5
151
 10
29.007393
 20
-38.587721
 30
0.0
 40
20.992211
 50
294.785379
 51
302.881012
  0
ARC
  8
0
  6
CONTINUOUS
 62
     3
  5
152
 10
23.435877
 20
-26.747446
 30
0.0
 40
34.077637
 50
289.959645
 51
294.944448
  0
ARC
  8
0
  6
CONTINUOUS
 62
     3
  5
153
 10
18.462905
 20
-13.200978
 30
0.0
 40
48.508004
 50
286.517889
 51
290.018778
  0
ARC
  8
0
  6
CONTINUOUS
 62
     3
  5
154
 10
14.170671
 20
1.168109
 30
0.0
 40
63.504446
 50
283.871039
 51
286.544735
  0
ARC
  8
0
  6
CONTINUOUS
 62
     3
  5
155
 10
10.560724
 20
15.706813
 30
0.0
 40
78.484611
 50
281.721911
 51
283.885058
  0
ARC
  8
0
  6
CONTINUOUS
 62
     3
  5
156
 10
7.600441
 20
29.909246
 30
0.0
 40
92.992271
 50
279.904457
 51
281.730017
  0
ARC
  8
0
  6
CONTINUOUS
 62
     3
  5
157
 10
5.240072
 20
43.372495
 30
0.0
 40
106.66086
 50
278.317971
 51
279.909525
  0
ARC
  8
0
  6
CONTINUOUS
 62
     3
  5
158
 10
3.420262
 20
55.770971
 30
0.0
 40
119.192177
 50
276.897153
 51
278.321346
  0
ARC
  8
0
  6
CONTINUOUS
 62
     3
  5
159
 10
2.075833
 20
66.840411
 30
0.0
 40
130.34296
 50
275.597187
 51
276.899526
  0
ARC
  8
0
  6
CONTINUOUS
 62
     3
  5
15A
 10
1.137598
 20
76.370422
 30
0.0
 40
139.919044
 50
274.384964
 51
275.598931
  0
ARC
  8
0
  6
CONTINUOUS
 62
     3
  5
15B
 10
0.534771
 20
84.185647
 30
0.0
 40
147.757482
 50
273.237851
 51
274.386333
  0
ARC
  8
0
  6
CONTINUOUS
 62
     3
  5
15C
 10
0.194215
 20
90.152739
 30
0.0
 40
153.734284
 50
272.135949
 51
273.238964
  0
ARC
  8
0
  6
CONTINUOUS
 62
     3
  5
15D
 10
0.041252
 20
94.18384
 30
0.0
 40
157.768285
 50
271.060957
 51
272.136898
  0
ARC
  8
0
  6
CONTINUOUS
 62
     3
  5
15E
 10
0.001179
 20
96.216326
 30
0.0
 40
159.801165
 50
269.999577
 51
271.061829
  0
ARC
  8
0
  6
CONTINUOUS
 62
     3
  5
15F
 10
417.457611
 20
-37.058594
 30
0.0
 40
346.0
 50
174.055486
 51
174.308012
  0
ARC
  8
0
  6
CONTINUOUS
 62
     3
  5
160
 10
82.414398
 20
-115.046021
 30
0.0
 40
2.0
 50
193.103303
 51
256.504268
  0
ARC
  8
0
  6
CONTINUOUS
 62
     3
  5
161
 10
417.457611
 20
-37.058594
 30
0.0
 40
346.0
 50
184.394949
 51
193.103303
  0
ARC
  8
0
  6
CONTINUOUS
 62
     3
  5
162
 10
75.307434
 20
-1.432129
 30
0.0
 40
2.0
 50
92.862501
 51
174.055486
  0
ARC
  8
0
  6
CONTINUOUS
 62
     3
  5
163
 10
332.482513
 20
-3.740112
 30
0.0
 40
400.0
 50
177.139208
 51
179.464259
  0
ARC
  8
0
  6
CONTINUOUS
 62
     3
  5
164
 10
54.097443
 20
114.83252
 30
0.0
 40
1.0
 50
8.566351
 51
68.711143
  0
ARC
  8
0
  6
CONTINUOUS
 62
     3
  5
165
 10
66.020233
 20
16.173828
 30
0.0
 40
1.0
 50
2.860795
 51
43.28659
  0
ARC
  8
0
  6
CONTINUOUS
 62
     3
  5
166
 10
-66.020233
 20
16.173828
 30
0.0
 40
1.0
 50
136.713408
 51
177.139208
  0
ARC
  8
0
  6
CONTINUOUS
 62
     3
  5
167
 10
-54.097443
 20
114.83252
 30
0.0
 40
1.0
 50
111.288862
 51
171.43365
  0
ARC
  8
0
  6
CONTINUOUS
 62
     3
  5
168
 10
75.483368
 20
25.087158
 30
0.0
 40
12.0
 50
179.999991
 51
223.286588
  0
ARC
  8
0
  6
CONTINUOUS
 62
     3
  5
169
 10
-332.482538
 20
-3.740112
 30
0.0
 40
400.0
 50
0.535743
 51
2.860795
  0
ARC
  8
0
  6
CONTINUOUS
 62
     3
  5
16A
 10
-735.988922
 20
-4.182251
 30
0.0
 40
800.0
 50
2.032906
 51
8.566351
  0
ARC
  8
0
  6
CONTINUOUS
 62
     3
  5
16B
 10
-75.483368
 20
25.087158
 30
0.0
 40
12.0
 50
316.71341
 51
357.934263
  0
ARC
  8
0
  6
CONTINUOUS
 62
     3
  5
16C
 10
735.989044
 20
-4.182251
 30
0.0
 40
800.0
 50
171.43365
 51
177.934269
  0
ARC
  8
0
  6
CONTINUOUS
 62
     3
  5
16D
 10
0.0
 20
-24.0
 30
0.0
 40
150.0
 50
68.711143
 51
111.288862
  0
ARC
  8
0
  6
CONTINUOUS
 62
     3
  5
16E
 10
-53.0
 20
-51.625
 30
0.0
 40
8.0
 50
179.999991
 51
257.349206
  0
ARC
  8
0
  6
CONTINUOUS
 62
     3
  5
16F
 10
0.0
 20
931.150452
 30
0.0
 40
996.650513
 50
269.999997
 51
273.499998
  0
ARC
  8
0
  6
CONTINUOUS
 62
     3
  5
170
 10
0.0
 20
931.150452
 30
0.0
 40
983.650513
 50
272.661982
 51
273.499998
  0
ARC
  8
0
  6
CONTINUOUS
 62
     3
  5
171
 10
0.0
 20
184.5
 30
0.0
 40
250.0
 50
257.34921
 51
269.999997
  0
ARC
  8
0
  6
CONTINUOUS
 62
     3
  5
172
 10
-70.0
 20
-10.330078
 30
0.0
 40
5.0
 50
0.0
 51
60.000002
  0
LINE
  8
0
  6
CONTINUOUS
 62
     3
  5
173
 10
105.500031
 20
-122.643188
 30
0.0
 11
81.947693
 21
-116.990631
 31
0.0
  0
LINE
  8
0
  6
CONTINUOUS
 62
     3
  5
174
 10
74.060669
 20
-63.476013
 30
0.0
 11
72.475037
 21
-63.572998
 31
0.0
  0
LINE
  8
0
  6
CONTINUOUS
 62
     3
  5
175
 10
80.5
 20
-115.643372
 30
0.0
 11
73.600311
 21
-1.183777
 31
0.0
  0
LINE
  8
0
  6
CONTINUOUS
 62
     3
  5
176
 10
105.499969
 20
2.080139
 30
0.0
 11
75.20755
 21
0.56546
 31
0.0
  0
LINE
  8
0
  6
CONTINUOUS
 62
     3
  5
177
 10
105.5
 20
-122.643181
 30
0.0
 11
105.5
 21
2.080141
 31
0.0
  0
LINE
  8
0
  6
CONTINUOUS
 62
     3
  5
178
 10
-63.726776
 20
16.599976
 30
0.0
 11
63.726776
 21
16.599976
 31
0.0
  0
LINE
  8
0
  6
CONTINUOUS
 62
     3
  5
179
 10
-63.359146
 20
-48.000031
 30
0.0
 11
-60.999939
 21
-49.200043
 31
0.0
  0
LINE
  8
0
  6
CONTINUOUS
 62
     3
  5
17A
 10
-63.359238
 20
-47.999908
 30
0.0
 11
-64.359222
 21
-46.999939
 31
0.0
  0
LINE
  8
0
  6
CONTINUOUS
 62
     3
  5
17B
 10
-64.359161
 20
-47.0
 30
0.0
 11
-65.000763
 21
-10.24292
 31
0.0
  0
LINE
  8
0
  6
CONTINUOUS
 62
     3
  5
17C
 10
67.5
 20
-2.0
 30
0.0
 11
-67.5
 21
-2.0
 31
0.0
  0
LINE
  8
0
  6
CONTINUOUS
 62
     3
  5
17D
 10
67.5
 20
-2.0
 30
0.0
 11
-67.5
 21
-2.0
 31
0.0
  0
LINE
  8
0
  6
CONTINUOUS
 62
     3
  5
17E
 10
74.543488
 20
-62.803192
 30
0.0
 11
60.844055
 21
-63.641083
 31
0.0
  0
LINE
  8
0
  6
CONTINUOUS
 62
     3
  5
17F
 10
43.757843
 20
-51.625
 30
0.0
 11
43.757843
 21
-49.199951
 31
0.0
  0
LINE
  8
0
  6
CONTINUOUS
 62
     3
  5
180
 10
73.22821
 20
-2.100006
 30
0.0
 11
67.5
 21
-2.000031
 31
0.0
  0
LINE
  8
0
  6
CONTINUOUS
 62
     3
  5
181
 10
74.902191
 20
-49.756958
 30
0.0
 11
60.050446
 21
-50.665344
 31
0.0
  0
LINE
  8
0
  6
CONTINUOUS
 62
     3
  5
182
 10
43.757812
 20
-49.199951
 30
0.0
 11
46.505341
 21
-47.749451
 31
0.0
  0
LINE
  8
0
  6
CONTINUOUS
 62
     3
  5
183
 10
49.180786
 20
-10.330078
 30
0.0
 11
49.180786
 21
-47.0
 31
0.0
  0
LINE
  8
0
  6
CONTINUOUS
 62
     3
  5
184
 10
73.390625
 20
-15.104828
 30
0.0
 11
51.071808
 21
-14.71524
 31
0.0
  0
LINE
  8
0
  6
CONTINUOUS
 62
     3
  5
185
 10
43.757843
 20
-49.199951
 30
0.0
 11
-61.0
 21
-49.199951
 31
0.0
  0
LINE
  8
0
  6
CONTINUOUS
 62
     3
  5
186
 10
46.505341
 20
-47.74939
 30
0.0
 11
49.180756
 21
-46.999908
 31
0.0
  0
LINE
  8
0
  6
CONTINUOUS
 62
     3
  5
187
 10
-61.0
 20
-49.199951
 30
0.0
 11
-61.0
 21
-51.625
 31
0.0
  0
LINE
  8
0
  6
CONTINUOUS
 62
     3
  5
188
 10
-67.5
 20
-6.0
 30
0.0
 11
-67.5
 21
-2.0
 31
0.0
  0
LINE
  8
0
  6
CONTINUOUS
 62
     3
  5
189
 10
52.44046
 20
-6.0
 30
0.0
 11
-67.5
 21
-6.0
 31
0.0
  0
LINE
  8
0
  6
CONTINUOUS
 62
     3
  5
18A
 10
49.180786
 20
-47.0
 30
0.0
 11
-64.359161
 21
-47.0
 31
0.0
  0
LINE
  8
0
  6
CONTINUOUS
 62
     3
  5
18B
 10
-67.5
 20
-2.0
 30
0.0
 11
67.5
 21
-2.0
 31
0.0
  0
LINE
  8
0
  6
CONTINUOUS
 62
     3
  5
18C
 10
-67.5
 20
0.0
 30
0.0
 11
67.5
 21
0.0
 31
0.0
  0
ARC
  8
0
  6
CONTINUOUS
 62
     3
  5
18D
 10
66.5
 20
-1.0
 30
0.0
 40
1.0
 50
270.0
 51
90.0
  0
ARC
  8
0
  6
CONTINUOUS
 62
     3
  5
18E
 10
-66.5
 20
-1.0
 30
0.0
 40
1.0
 50
90.0
 51
270.0
  0
ENDBLK
  8
0
  5
18F
  0
BLOCK
  8
0
  5
190
  2
MS_4
 70
     0
 10
0.0
 20
0.0
 30
0.0
  3
MS_4
  0
LINE
  8
0
  6
PHANTOM
 62
    80
  5
191
 10
-64.603563
 20
-32.997113
 30
0.0
 11
-65.00074
 21
-55.751245
 31
0.0
  0
LINE
  8
0
  6
PHANTOM
 62
    80
  5
192
 10
64.603599
 20
-32.997113
 30
0.0
 11
65.000778
 21
-55.751337
 31
0.0
  0
ARC
  8
0
  6
PHANTOM
 62
    80
  5
193
 10
-332.482513
 20
-62.254114
 30
0.0
 40
400.0
 50
357.139205
 51
359.464257
  0
ARC
  8
0
  6
PHANTOM
 62
    80
  5
194
 10
66.020233
 20
-82.168054
 30
0.0
 40
1.0
 50
316.71341
 51
357.139205
  0
LINE
  8
0
  6
PHANTOM
 62
    80
  5
195
 10
67.5
 20
-63.994226
 30
0.0
 11
67.5
 21
-59.994226
 31
0.0
  0
ARC
  8
0
  6
PHANTOM
 62
    80
  5
196
 10
70.0
 20
-55.664148
 30
0.0
 40
5.0
 50
179.999995
 51
239.999997
  0
ARC
  8
0
  6
PHANTOM
 62
    80
  5
197
 10
75.483368
 20
-91.081385
 30
0.0
 40
12.0
 50
136.713412
 51
180.000009
  0
ARC
  8
0
  6
PHANTOM
 62
    80
  5
198
 10
54.097443
 20
-180.826746
 30
0.0
 40
1.0
 50
291.288857
 51
351.433649
  0
ARC
  8
0
  6
PHANTOM
 62
    80
  5
199
 10
-54.097443
 20
-180.826746
 30
0.0
 40
1.0
 50
188.56635
 51
248.711138
  0
ARC
  8
0
  6
PHANTOM
 62
    80
  5
19A
 10
0.0
 20
-41.994226
 30
0.0
 40
150.0
 50
248.711138
 51
291.288857
  0
ARC
  8
0
  6
PHANTOM
 62
    80
  5
19B
 10
-735.988861
 20
-61.811975
 30
0.0
 40
800.0
 50
351.433649
 51
357.967094
  0
ARC
  8
0
  6
PHANTOM
 62
    80
  5
19C
 10
735.988983
 20
-61.811975
 30
0.0
 40
800.0
 50
182.065731
 51
188.56635
  0
ARC
  8
0
  6
PHANTOM
 62
    80
  5
19D
 10
332.482513
 20
-62.254114
 30
0.0
 40
400.0
 50
180.535741
 51
182.860792
  0
ARC
  8
0
  6
PHANTOM
 62
    80
  5
19E
 10
-66.020233
 20
-82.168054
 30
0.0
 40
1.0
 50
182.860792
 51
223.286592
  0
LINE
  8
0
  6
PHANTOM
 62
    80
  5
19F
 10
-67.5
 20
-63.994226
 30
0.0
 11
-67.5
 21
-59.994226
 31
0.0
  0
ARC
  8
0
  6
PHANTOM
 62
    80
  5
1A0
 10
-70.0
 20
-55.664148
 30
0.0
 40
5.0
 50
300.000005
 51
0.000005
  0
ARC
  8
0
  6
PHANTOM
 62
    80
  5
1A1
 10
-75.483368
 20
-91.081385
 30
0.0
 40
12.0
 50
2.065737
 51
43.28659
  0
POINT
  8
0
  6
CONTINUOUS
 62
    80
  5
1A2
 10
0.0
 20
0.0
 30
0.0
  0
LINE
  8
0
  6
CONTINUOUS
 62
     3
  5
1A3
 10
51.999969
 20
-3.919952
 30
0.0
 11
51.999969
 21
-97.643341
 31
0.0
  0
LINE
  8
0
  6
CONTINUOUS
 62
     3
  5
1A4
 10
-52.000031
 20
-3.919952
 30
0.0
 11
-52.000031
 21
-97.643341
 31
0.0
  0
LINE
  8
0
  6
CONTINUOUS
 62
     3
  5
1A5
 10
54.999969
 20
-0.919952
 30
0.0
 11
54.999969
 21
-97.643341
 31
0.0
  0
LINE
  8
0
  6
CONTINUOUS
 62
     3
  5
1A6
 10
-55.000031
 20
-0.919952
 30
0.0
 11
-55.000031
 21
-97.643341
 31
0.0
  0
LINE
  8
0
  6
CONTINUOUS
 62
     3
  5
1A7
 10
57.999969
 20
0.080048
 30
0.0
 11
57.999969
 21
-97.643341
 31
0.0
  0
LINE
  8
0
  6
CONTINUOUS
 62
     3
  5
1A8
 10
-58.000031
 20
0.080048
 30
0.0
 11
-58.000031
 21
-97.643341
 31
0.0
  0
LINE
  8
0
  6
CONTINUOUS
 62
     3
  5
1A9
 10
-56.000031
 20
2.080048
 30
0.0
 11
55.999969
 21
2.080048
 31
0.0
  0
LINE
  8
0
  6
CONTINUOUS
 62
     3
  5
1AA
 10
-55.000031
 20
-0.919952
 30
0.0
 11
-31.0
 21
-0.919952
 31
0.0
  0
LINE
  8
0
  6
CONTINUOUS
 62
     3
  5
1AB
 10
-52.000031
 20
-3.919952
 30
0.0
 11
51.999969
 21
-3.919952
 31
0.0
  0
LINE
  8
0
  6
CONTINUOUS
 62
     3
  5
1AC
 10
-42.05
 20
-52.645709
 30
0.0
 11
-33.15
 21
-52.645709
 31
0.0
  0
LINE
  8
0
  6
CONTINUOUS
 62
     3
  5
1AD
 10
-42.05
 20
-56.745709
 30
0.0
 11
-33.15
 21
-56.745709
 31
0.0
  0
LINE
  8
0
  6
CONTINUOUS
 62
     3
  5
1AE
 10
2.05
 20
-31.145709
 30
0.0
 11
2.05
 21
-20.245709
 31
0.0
  0
LINE
  8
0
  6
CONTINUOUS
 62
     3
  5
1AF
 10
-2.05
 20
-31.145709
 30
0.0
 11
-2.05
 21
-20.245709
 31
0.0
  0
LINE
  8
0
  6
CONTINUOUS
 62
     3
  5
1B0
 10
42.05
 20
-56.745709
 30
0.0
 11
33.15
 21
-56.745709
 31
0.0
  0
LINE
  8
0
  6
CONTINUOUS
 62
     3
  5
1B1
 10
42.05
 20
-52.645709
 30
0.0
 11
33.15
 21
-52.645709
 31
0.0
  0
LINE
  8
0
  6
CONTINUOUS
 62
     3
  5
1B2
 10
31.0
 20
-0.919952
 30
0.0
 11
31.0
 21
-3.919952
 31
0.0
  0
LINE
  8
0
  6
CONTINUOUS
 62
     3
  5
1B3
 10
-31.0
 20
-0.919952
 30
0.0
 11
-31.0
 21
-3.919952
 31
0.0
  0
LINE
  8
0
  6
CONTINUOUS
 62
     3
  5
1B4
 10
31.0
 20
-0.919952
 30
0.0
 11
54.999969
 21
-0.919952
 31
0.0
  0
ARC
  8
0
  6
CONTINUOUS
 62
     3
  5
1B5
 10
-56.000031
 20
0.080048
 30
0.0
 40
2.0
 50
90.000003
 51
180.000005
  0
ARC
  8
0
  6
CONTINUOUS
 62
     3
  5
1B6
 10
55.999969
 20
0.080048
 30
0.0
 40
2.0
 50
0.0
 51
90.000003
  0
ARC
  8
0
  6
CONTINUOUS
 62
     3
  5
1B7
 10
-56.000031
 20
0.080048
 30
0.0
 40
2.0
 50
90.000003
 51
180.000005
  0
CIRCLE
  8
0
  6
CONTINUOUS
 62
     3
  5
1B8
 10
-40.0
 20
-25.695709
 30
0.0
 40
2.05
  0
CIRCLE
  8
0
  6
CONTINUOUS
 62
     3
  5
1B9
 10
40.0
 20
-25.695709
 30
0.0
 40
2.05
  0
ARC
  8
0
  6
CONTINUOUS
 62
     3
  5
1BA
 10
-33.15
 20
-54.695709
 30
0.0
 40
2.05
 50
270.0
 51
90.0
  0
ARC
  8
0
  6
CONTINUOUS
 62
     3
  5
1BB
 10
-42.05
 20
-54.695709
 30
0.0
 40
2.05
 50
90.0
 51
270.0
  0
ARC
  8
0
  6
CONTINUOUS
 62
     3
  5
1BC
 10
33.15
 20
-54.695709
 30
0.0
 40
2.05
 50
90.0
 51
270.0
  0
ARC
  8
0
  6
CONTINUOUS
 62
     3
  5
1BD
 10
0.0
 20
-20.195709
 30
0.0
 40
2.05
 50
0.0
 51
180.0
  0
ARC
  8
0
  6
CONTINUOUS
 62
     3
  5
1BE
 10
0.0
 20
-31.195709
 30
0.0
 40
2.05
 50
180.0
 51
0.0
  0
CIRCLE
  8
0
  6
CONTINUOUS
 62
     3
  5
1BF
 10
0.0
 20
-54.695709
 30
0.0
 40
6.0
  0
ARC
  8
0
  6
CONTINUOUS
 62
     3
  5
1C0
 10
42.05
 20
-54.695709
 30
0.0
 40
2.05
 50
270.0
 51
90.0
  0
LINE
  8
0
  6
CONTINUOUS
 62
     3
  5
1C1
 10
-2.05
 20
-106.495709
 30
0.0
 11
-2.05
 21
-95.495709
 31
0.0
  0
LINE
  8
0
  6
CONTINUOUS
 62
     3
  5
1C2
 10
2.05
 20
-106.495709
 30
0.0
 11
2.05
 21
-95.495709
 31
0.0
  0
LINE
  8
0
  6
CONTINUOUS
 62
     3
  5
1C3
 10
-47.473904
 20
-116.643341
 30
0.0
 11
47.473873
 21
-116.643341
 31
0.0
  0
LINE
  8
0
  6
CONTINUOUS
 62
     3
  5
1C4
 10
-49.2764
 20
-119.643341
 30
0.0
 11
49.27637
 21
-119.643341
 31
0.0
  0
LINE
  8
0
  6
CONTINUOUS
 62
     3
  5
1C5
 10
-33.0
 20
-122.643341
 30
0.0
 11
-49.859161
 21
-122.643341
 31
0.0
  0
LINE
  8
0
  6
CONTINUOUS
 62
     3
  5
1C6
 10
49.859192
 20
-122.643341
 30
0.0
 11
-15.0
 21
-122.643341
 31
0.0
  0
LINE
  8
0
  6
CONTINUOUS
 62
     3
  5
1C7
 10
-15.0
 20
-119.643341
 30
0.0
 11
-15.0
 21
-122.643341
 31
0.0
  0
LINE
  8
0
  6
CONTINUOUS
 62
     3
  5
1C8
 10
-18.0
 20
-121.643341
 30
0.0
 11
-30.0
 21
-121.643341
 31
0.0
  0
LINE
  8
0
  6
CONTINUOUS
 62
     3
  5
1C9
 10
-33.0
 20
-119.643341
 30
0.0
 11
-33.0
 21
-122.643341
 31
0.0
  0
LINE
  8
0
  6
CONTINUOUS
 62
     3
  5
1CA
 10
-17.0
 20
-116.643341
 30
0.0
 11
-17.0
 21
-119.643341
 31
0.0
  0
LINE
  8
0
  6
CONTINUOUS
 62
     3
  5
1CB
 10
-31.0
 20
-116.643341
 30
0.0
 11
-31.0
 21
-119.643341
 31
0.0
  0
ARC
  8
0
  6
CONTINUOUS
 62
     3
  5
1CC
 10
9.857117
 20
-97.643341
 30
0.0
 40
48.142857
 50
330.10236
 51
0.0
  0
ARC
  8
0
  6
CONTINUOUS
 62
     3
  5
1CD
 10
49.859161
 20
-120.643341
 30
0.0
 40
2.0
 50
269.999997
 51
330.10236
  0
ARC
  8
0
  6
CONTINUOUS
 62
     3
  5
1CE
 10
9.857117
 20
-97.643341
 30
0.0
 40
45.142857
 50
330.833986
 51
0.0
  0
ARC
  8
0
  6
CONTINUOUS
 62
     3
  5
1CF
 10
9.857117
 20
-97.643341
 30
0.0
 40
42.142857
 50
333.201931
 51
0.0
  0
CIRCLE
  8
0
  6
CONTINUOUS
 62
     3
  5
1D0
 10
-40.0
 20
-105.695709
 30
0.0
 40
2.05
  0
CIRCLE
  8
0
  6
CONTINUOUS
 62
     3
  5
1D1
 10
40.0
 20
-105.695709
 30
0.0
 40
2.05
  0
ARC
  8
0
  6
CONTINUOUS
 62
     3
  5
1D2
 10
0.0
 20
-106.495709
 30
0.0
 40
2.05
 50
180.0
 51
0.0
  0
POLYLINE
  8
0
  6
CONTINUOUS
 62
     3
  5
1D3
 66
     1
 10
0.0
 20
0.0
 30
0.0
  0
VERTEX
  8
0
  6
CONTINUOUS
 62
     3
  5
210
 10
-15.0
 20
-122.143341
 30
0.0
  0
VERTEX
  8
0
  6
CONTINUOUS
 62
     3
  5
211
 10
-15.036935
 20
-122.065124
 30
0.0
  0
VERTEX
  8
0
  6
CONTINUOUS
 62
     3
  5
212
 10
-15.14683
 20
-121.988833
 30
0.0
  0
VERTEX
  8
0
  6
CONTINUOUS
 62
     3
  5
213
 10
-15.32698
 20
-121.916346
 30
0.0
  0
VERTEX
  8
0
  6
CONTINUOUS
 62
     3
  5
214
 10
-15.572949
 20
-121.849448
 30
0.0
  0
VERTEX
  8
0
  6
CONTINUOUS
 62
     3
  5
215
 10
-15.87868
 20
-121.789788
 30
0.0
  0
VERTEX
  8
0
  6
CONTINUOUS
 62
     3
  5
216
 10
-16.236644
 20
-121.738833
 30
0.0
  0
VERTEX
  8
0
  6
CONTINUOUS
 62
     3
  5
217
 10
-16.638029
 20
-121.697838
 30
0.0
  0
VERTEX
  8
0
  6
CONTINUOUS
 62
     3
  5
218
 10
-17.072949
 20
-121.667813
 30
0.0
  0
VERTEX
  8
0
  6
CONTINUOUS
 62
     3
  5
219
 10
-17.530697
 20
-121.649497
 30
0.0
  0
VERTEX
  8
0
  6
CONTINUOUS
 62
     3
  5
21A
 10
-18.0
 20
-121.643341
 30
0.0
  0
SEQEND
  8
0
  6
CONTINUOUS
 62
     3
  5
21B
  0
POLYLINE
  8
0
  6
CONTINUOUS
 62
     3
  5
1D4
 66
     1
 10
0.0
 20
0.0
 30
0.0
  0
VERTEX
  8
0
  6
CONTINUOUS
 62
     3
  5
21C
 10
-30.0
 20
-121.643341
 30
0.0
  0
VERTEX
  8
0
  6
CONTINUOUS
 62
     3
  5
21D
 10
-30.469303
 20
-121.649497
 30
0.0
  0
VERTEX
  8
0
  6
CONTINUOUS
 62
     3
  5
21E
 10
-30.927051
 20
-121.667813
 30
0.0
  0
VERTEX
  8
0
  6
CONTINUOUS
 62
     3
  5
21F
 10
-31.361971
 20
-121.697838
 30
0.0
  0
VERTEX
  8
0
  6
CONTINUOUS
 62
     3
  5
220
 10
-31.763356
 20
-121.738833
 30
0.0
  0
VERTEX
  8
0
  6
CONTINUOUS
 62
     3
  5
221
 10
-32.12132
 20
-121.789788
 30
0.0
  0
VERTEX
  8
0
  6
CONTINUOUS
 62
     3
  5
222
 10
-32.427051
 20
-121.849448
 30
0.0
  0
VERTEX
  8
0
  6
CONTINUOUS
 62
     3
  5
223
 10
-32.67302
 20
-121.916346
 30
0.0
  0
VERTEX
  8
0
  6
CONTINUOUS
 62
     3
  5
224
 10
-32.85317
 20
-121.988833
 30
0.0
  0
VERTEX
  8
0
  6
CONTINUOUS
 62
     3
  5
225
 10
-32.963065
 20
-122.065124
 30
0.0
  0
VERTEX
  8
0
  6
CONTINUOUS
 62
     3
  5
226
 10
-33.0
 20
-122.143341
 30
0.0
  0
SEQEND
  8
0
  6
CONTINUOUS
 62
     3
  5
227
  0
ARC
  8
0
  6
CONTINUOUS
 62
     3
  5
1D5
 10
-9.857147
 20
-97.643341
 30
0.0
 40
42.142857
 50
179.999991
 51
206.798069
  0
ARC
  8
0
  6
CONTINUOUS
 62
     3
  5
1D6
 10
-9.857147
 20
-97.643341
 30
0.0
 40
45.142857
 50
179.999991
 51
209.166014
  0
ARC
  8
0
  6
CONTINUOUS
 62
     3
  5
1D7
 10
-9.857147
 20
-97.643341
 30
0.0
 40
48.142857
 50
179.999991
 51
209.897642
  0
ARC
  8
0
  6
CONTINUOUS
 62
     3
  5
1D8
 10
-49.859192
 20
-120.643341
 30
0.0
 40
2.0
 50
209.897645
 51
269.999997
  0
ARC
  8
0
  6
CONTINUOUS
 62
     3
  5
1D9
 10
0.0
 20
-95.495709
 30
0.0
 40
2.05
 50
0.0
 51
180.0
  0
LINE
  8
0
  6
CONTINUOUS
 62
     3
  5
1DA
 10
-17.0
 20
-103.743341
 30
0.0
 11
-17.0
 21
-116.643341
 31
0.0
  0
LINE
  8
0
  6
CONTINUOUS
 62
     3
  5
1DB
 10
-31.0
 20
-103.743341
 30
0.0
 11
-31.0
 21
-116.643341
 31
0.0
  0
LINE
  8
0
  6
CONTINUOUS
 62
     3
  5
1DC
 10
-17.0
 20
-107.843341
 30
0.0
 11
-31.0
 21
-107.843341
 31
0.0
  0
LINE
  8
0
  6
CONTINUOUS
 62
     3
  5
1DD
 10
-17.0
 20
-103.743341
 30
0.0
 11
-31.0
 21
-103.743341
 31
0.0
  0
ARC
  8
0
  6
CONTINUOUS
 62
     3
  5
1DE
 10
53.0
 20
-51.625
 30
0.0
 40
8.0
 50
308.681907
 51
0.000009
  0
ARC
  8
0
  6
CONTINUOUS
 62
     3
  5
1DF
 10
-53.0
 20
-51.625
 30
0.0
 40
8.0
 50
180.0
 51
231.317533
  0
LINE
  8
0
  6
CONTINUOUS
 62
     3
  5
1E0
 10
-67.5
 20
-2.0
 30
0.0
 11
-58.000031
 21
-2.0
 31
0.0
  0
LINE
  8
0
  6
CONTINUOUS
 62
     3
  5
1E1
 10
67.5
 20
-2.0
 30
0.0
 11
67.5
 21
-6.0
 31
0.0
  0
LINE
  8
0
  6
CONTINUOUS
 62
     3
  5
1E2
 10
-67.5
 20
-2.0
 30
0.0
 11
-67.5
 21
-6.0
 31
0.0
  0
LINE
  8
0
  6
CONTINUOUS
 62
     3
  5
1E3
 10
-61.0
 20
-49.199951
 30
0.0
 11
-61.0
 21
-51.625
 31
0.0
  0
LINE
  8
0
  6
CONTINUOUS
 62
     3
  5
1E4
 10
61.0
 20
-49.199951
 30
0.0
 11
61.0
 21
-51.625
 31
0.0
  0
LINE
  8
0
  6
CONTINUOUS
 62
     3
  5
1E5
 10
-64.359161
 20
-47.0
 30
0.0
 11
-58.000031
 21
-47.0
 31
0.0
  0
LINE
  8
0
  6
CONTINUOUS
 62
     3
  5
1E6
 10
-61.0
 20
-49.199951
 30
0.0
 11
-58.000031
 21
-49.199951
 31
0.0
  0
LINE
  8
0
  6
CONTINUOUS
 62
     3
  5
1E7
 10
-67.5
 20
-6.0
 30
0.0
 11
-58.000031
 21
-6.0
 31
0.0
  0
LINE
  8
0
  6
CONTINUOUS
 62
     3
  5
1E8
 10
-67.5
 20
-2.0
 30
0.0
 11
-58.000031
 21
-2.0
 31
0.0
  0
LINE
  8
0
  6
CONTINUOUS
 62
     3
  5
1E9
 10
64.359138
 20
-47.000061
 30
0.0
 11
65.00074
 21
-10.242981
 31
0.0
  0
LINE
  8
0
  6
CONTINUOUS
 62
     3
  5
1EA
 10
63.359108
 20
-48.000031
 30
0.0
 11
64.359085
 21
-47.000061
 31
0.0
  0
LINE
  8
0
  6
CONTINUOUS
 62
     3
  5
1EB
 10
60.999916
 20
-49.200134
 30
0.0
 11
63.359108
 21
-48.000122
 31
0.0
  0
LINE
  8
0
  6
CONTINUOUS
 62
     3
  5
1EC
 10
-63.359222
 20
-48.000031
 30
0.0
 11
-64.359207
 21
-47.000061
 31
0.0
  0
LINE
  8
0
  6
CONTINUOUS
 62
     3
  5
1ED
 10
-61.000031
 20
-49.200073
 30
0.0
 11
-63.359192
 21
-48.000092
 31
0.0
  0
LINE
  8
0
  6
CONTINUOUS
 62
     3
  5
1EE
 10
-64.359177
 20
-46.999969
 30
0.0
 11
-65.000778
 21
-10.242889
 31
0.0
  0
LINE
  8
0
  6
CONTINUOUS
 62
     3
  5
1EF
 10
63.726776
 20
16.599976
 30
0.0
 11
-63.726776
 21
16.599976
 31
0.0
  0
ARC
  8
0
  6
CONTINUOUS
 62
     3
  5
1F0
 10
-70.0
 20
-10.330078
 30
0.0
 40
5.0
 50
359.999995
 51
59.999997
  0
ARC
  8
0
  6
CONTINUOUS
 62
     3
  5
1F1
 10
70.0
 20
-10.330078
 30
0.0
 40
5.0
 50
120.000005
 51
180.000005
  0
ARC
  8
0
  6
CONTINUOUS
 62
     3
  5
1F2
 10
0.0
 20
-24.0
 30
0.0
 40
150.0
 50
68.711138
 51
111.288857
  0
ARC
  8
0
  6
CONTINUOUS
 62
     3
  5
1F3
 10
-735.988983
 20
-4.182251
 30
0.0
 40
800.0
 50
2.065731
 51
8.56635
  0
ARC
  8
0
  6
CONTINUOUS
 62
     3
  5
1F4
 10
75.483368
 20
25.087158
 30
0.0
 40
12.0
 50
182.065737
 51
223.28659
  0
ARC
  8
0
  6
CONTINUOUS
 62
     3
  5
1F5
 10
735.988861
 20
-4.182251
 30
0.0
 40
800.0
 50
171.433649
 51
177.967094
  0
ARC
  8
0
  6
CONTINUOUS
 62
     3
  5
1F6
 10
332.482513
 20
-3.740112
 30
0.0
 40
400.0
 50
177.139205
 51
179.464257
  0
ARC
  8
0
  6
CONTINUOUS
 62
     3
  5
1F7
 10
-75.483368
 20
25.087158
 30
0.0
 40
12.0
 50
316.713412
 51
0.000009
  0
ARC
  8
0
  6
CONTINUOUS
 62
     3
  5
1F8
 10
54.097443
 20
114.83252
 30
0.0
 40
1.0
 50
8.56635
 51
68.711138
  0
ARC
  8
0
  6
CONTINUOUS
 62
     3
  5
1F9
 10
66.020233
 20
16.173828
 30
0.0
 40
1.0
 50
2.860792
 51
43.286592
  0
ARC
  8
0
  6
CONTINUOUS
 62
     3
  5
1FA
 10
-66.020233
 20
16.173828
 30
0.0
 40
1.0
 50
136.71341
 51
177.139205
  0
ARC
  8
0
  6
CONTINUOUS
 62
     3
  5
1FB
 10
-54.097443
 20
114.83252
 30
0.0
 40
1.0
 50
111.288857
 51
171.433649
  0
ARC
  8
0
  6
CONTINUOUS
 62
     3
  5
1FC
 10
-332.482513
 20
-3.740112
 30
0.0
 40
400.0
 50
0.535741
 51
2.860792
  0
LINE
  8
0
  6
CONTINUOUS
 62
     3
  5
1FD
 10
57.999969
 20
-2.0
 30
0.0
 11
67.5
 21
-2.0
 31
0.0
  0
LINE
  8
0
  6
CONTINUOUS
 62
     3
  5
1FE
 10
57.999969
 20
-6.0
 30
0.0
 11
67.5
 21
-6.0
 31
0.0
  0
LINE
  8
0
  6
CONTINUOUS
 62
     3
  5
1FF
 10
57.999969
 20
-2.0
 30
0.0
 11
67.5
 21
-2.0
 31
0.0
  0
LINE
  8
0
  6
CONTINUOUS
 62
     3
  5
200
 10
57.999969
 20
0.0
 30
0.0
 11
67.5
 21
0.0
 31
0.0
  0
LINE
  8
0
  6
CONTINUOUS
 62
     3
  5
201
 10
-67.5
 20
0.0
 30
0.0
 11
-58.000031
 21
0.0
 31
0.0
  0
ARC
  8
0
  6
CONTINUOUS
 62
     3
  5
202
 10
66.5
 20
-1.0
 30
0.0
 40
1.0
 50
270.0
 51
90.0
  0
ARC
  8
0
  6
CONTINUOUS
 62
     3
  5
203
 10
-66.5
 20
-1.0
 30
0.0
 40
1.0
 50
90.0
 51
270.0
  0
LINE
  8
0
  6
CONTINUOUS
 62
     3
  5
204
 10
57.999969
 20
-47.0
 30
0.0
 11
64.359161
 21
-47.0
 31
0.0
  0
LINE
  8
0
  6
CONTINUOUS
 62
     3
  5
205
 10
57.999969
 20
-49.199951
 30
0.0
 11
61.0
 21
-49.199951
 31
0.0
  0
ENDBLK
  8
0
  5
206
  0
ENDSEC
  0
SECTION
  2
ENTITIES
  0
INSERT
  8
LY_1
  6
BYBLOCK
  5
207
  2
MS_1
 10
0.0
 20
250.0
 30
0.0
  0
INSERT
  8
LY_1
  6
BYBLOCK
  5
208
  2
MS_2
 10
-250.0
 20
0.0
 30
0.0
  0
INSERT
  8
LY_1
  6
BYBLOCK
  5
209
  2
MS_4
 10
250.0
 20
0.0
 30
0.0
  0
INSERT
  8
LY_1
  6
BYBLOCK
  5
20A
  2
MS_3
 10
0.0
 20
0.0
 30
0.0
  0
ENDSEC
  0
EOF
