  0
SECTION
  2
HEADER
  9
$ACADVER
  1
AC1009
  9
$DWGCODEPAGE
  3
dos932
  9
$INSBASE
 10
0.0
 20
0.0
 30
0.0
  9
$EXTMIN
 10
-69.0
 20
-225.815033
 30
0.0
  9
$EXTMAX
 10
69.000001
 20
369.0
 30
0.0
  9
$LIMMIN
 10
-69.0
 20
-225.815033
  9
$LIMMAX
 10
69.000001
 20
369.0
  9
$ORTHOMODE
 70
     0
  9
$REGENMODE
 70
     1
  9
$FILLMODE
 70
     1
  9
$QTEXTMODE
 70
     0
  9
$MIRRTEXT
 70
     1
  9
$DRAGMODE
 70
     2
  9
$LTSCALE
 40
1.0
  9
$OSMODE
 70
     0
  9
$ATTMODE
 70
     1
  9
$TEXTSIZE
 40
4.1656
  9
$TRACEWID
 40
0.05
  9
$TEXTSTYLE
  7
MX_NOTE_STANDARD
  9
$CLAYER
  8
0
  9
$CELTYPE
  6
CONTINUOUS
  9
$CECOLOR
 62
   256
  9
$DIMSCALE
 40
1.0
  9
$DIMASZ
 40
2.5
  9
$DIMEXO
 40
0.5
  9
$DIMDLI
 40
3.75
  9
$DIMRND
 40
0.0
  9
$DIMDLE
 40
0.0
  9
$DIMEXE
 40
1.0
  9
$DIMTP
 40
0.0
  9
$DIMTM
 40
0.0
  9
$DIMTXT
 40
2.5
  9
$DIMCEN
 40
2.5
  9
$DIMTSZ
 40
0.0
  9
$DIMTOL
 70
     0
  9
$DIMLIM
 70
     0
  9
$DIMTIH
 70
     0
  9
$DIMTOH
 70
     0
  9
$DIMSE1
 70
     0
  9
$DIMSE2
 70
     0
  9
$DIMTAD
 70
     1
  9
$DIMZIN
 70
     8
  9
$DIMBLK
  1

  9
$DIMASO
 70
     1
  9
$DIMSHO
 70
     1
  9
$DIMPOST
  1

  9
$DIMAPOST
  1

  9
$DIMALT
 70
     0
  9
$DIMALTD
 70
     4
  9
$DIMALTF
 40
0.03937
  9
$DIMLFAC
 40
1.0
  9
$DIMTOFL
 70
     1
  9
$DIMTVP
 40
0.0
  9
$DIMTIX
 70
     0
  9
$DIMSOXD
 70
     0
  9
$DIMSAH
 70
     0
  9
$DIMBLK1
  1

  9
$DIMBLK2
  1

  9
$DIMSTYLE
  2
MXDIMSTYLE
  9
$DIMCLRD
 70
     0
  9
$DIMCLRE
 70
     0
  9
$DIMCLRT
 70
     0
  9
$DIMTFAC
 40
1.0
  9
$DIMGAP
 40
1.0
  9
$LUNITS
 70
     2
  9
$LUPREC
 70
     4
  9
$AXISMODE
 70
     0
  9
$AXISUNIT
 10
0.0
 20
0.0
  9
$SKETCHINC
 40
0.1
  9
$FILLETRAD
 40
0.0
  9
$AUNITS
 70
     0
  9
$AUPREC
 70
     0
  9
$MENU
  1
acad
  9
$ELEVATION
 40
0.0
  9
$PELEVATION
 40
0.0
  9
$THICKNESS
 40
0.0
  9
$LIMCHECK
 70
     0
  9
$BLIPMODE
 70
     1
  9
$CHAMFERA
 40
0.0
  9
$CHAMFERB
 40
0.0
  9
$SKPOLY
 70
     0
  9
$TDCREATE
 40
2453858.567291667
  9
$TDUPDATE
 40
2453858.567291667
  9
$TDINDWG
 40
0.0000000000
  9
$TDUSRTIMER
 40
0.0000000000
  9
$USRTIMER
 70
     1
  9
$ANGBASE
 50
0.0
  9
$ANGDIR
 70
     0
  9
$PDMODE
 70
     0
  9
$PDSIZE
 40
0.0
  9
$PLINEWID
 40
0.0
  9
$COORDS
 70
     1
  9
$SPLFRAME
 70
     0
  9
$SPLINETYPE
 70
     6
  9
$SPLINESEGS
 70
     8
  9
$ATTDIA
 70
     0
  9
$ATTREQ
 70
     1
  9
$HANDLING
 70
     1
  9
$HANDSEED
  5
204
  9
$SURFTAB1
 70
     6
  9
$SURFTAB2
 70
     6
  9
$SURFTYPE
 70
     6
  9
$SURFU
 70
     6
  9
$SURFV
 70
     6
  9
$UCSNAME
  2

  9
$UCSORG
 10
0.0
 20
0.0
 30
0.0
  9
$UCSXDIR
 10
1.0
 20
0.0
 30
0.0
  9
$UCSYDIR
 10
0.0
 20
1.0
 30
0.0
  9
$PUCSNAME
  2

  9
$PUCSORG
 10
0.0
 20
0.0
 30
0.0
  9
$PUCSXDIR
 10
1.0
 20
0.0
 30
0.0
  9
$PUCSYDIR
 10
0.0
 20
1.0
 30
0.0
  9
$USERI1
 70
     0
  9
$USERI2
 70
     0
  9
$USERI3
 70
     0
  9
$USERI4
 70
     0
  9
$USERI5
 70
     0
  9
$USERR1
 40
0.0
  9
$USERR2
 40
0.0
  9
$USERR3
 40
0.0
  9
$USERR4
 40
0.0
  9
$USERR5
 40
0.0
  9
$WORLDVIEW
 70
     1
  9
$SHADEDGE
 70
     3
  9
$SHADEDIF
 70
    70
  9
$TILEMODE
 70
     1
  9
$MAXACTVP
 70
    16
  9
$PINSBASE
 10
0.0
 20
0.0
 30
0.0
  9
$PLIMCHECK
 70
     0
  9
$PEXTMIN
 10
1.000000E+20
 20
1.000000E+20
 30
1.000000E+20
  9
$PEXTMAX
 10
-1.000000E+20
 20
-1.000000E+20
 30
-1.000000E+20
  9
$PLIMMIN
 10
0.0
 20
0.0
  9
$PLIMMAX
 10
12.0
 20
9.0
  9
$UNITMODE
 70
     0
  9
$VISRETAIN
 70
     0
  9
$PLINEGEN
 70
     1
  9
$PSLTSCALE
 70
     0
  9
$TREEDEPTH
 70
  3020
  9
$DWGCODEPAGE
  3
dos932
  0
ENDSEC
  0
SECTION
  2
TABLES
  0
TABLE
  2
VPORT
 70
     1
  0
VPORT
  2
*ACTIVE
 70
     0
 10
0.0
 20
0.0
 11
1.0
 21
1.0
 12
0.0
 22
71.592483
 13
0.0
 23
0.0
 14
1.0
 24
1.0
 15
0.0
 25
0.0
 16
0.0
 26
0.0
 36
1.0
 17
0.0
 27
0.0
 37
0.0
 40
600.763184
 41
1.732051
 42
50.0
 43
0.0
 44
0.0
 50
0.0
 51
0.0
 71
     0
 72
   100
 73
     1
 74
     1
 75
     0
 76
     0
 77
     0
 78
     0
  0
ENDTAB
  0
TABLE
  2
LTYPE
 70
     1
  0
LTYPE
  2
CONTINUOUS
 70
    64
  3
Solid line
 72
    65
 73
     0
 40
0.0
  0
ENDTAB
  0
TABLE
  2
LAYER
 70
     5
  0
LAYER
  2
0
 70
     0
 62
     7
  6
CONTINUOUS
  0
LAYER
  2
1
 70
     0
 62
     7
  6
CONTINUOUS
  0
LAYER
  2
30
 70
     0
 62
     7
  6
CONTINUOUS
  0
LAYER
  2
DEFPOINTS
 70
     0
 62
     7
  6
CONTINUOUS
  0
LAYER
  2
_CONSTR
 70
     0
 62
     5
  6
CONTINUOUS
  0
ENDTAB
  0
TABLE
  2
STYLE
 70
     1
  0
STYLE
  2
MX_NOTE_STANDARD
 70
     0
 40
0.0
 41
1.0
 50
0.0
 71
     0
 42
4.1656
  3
txt.shx
  4
extfont.shx
  0
ENDTAB
  0
TABLE
  2
VIEW
 70
     0
  0
ENDTAB
  0
TABLE
  2
UCS
 70
     0
  0
ENDTAB
  0
TABLE
  2
APPID
 70
     1
  0
APPID
  2
ACAD
 70
     0
  0
ENDTAB
  0
TABLE
  2
DIMSTYLE
 70
     1
  0
DIMSTYLE
  2
MXDIMSTYLE
 70
     0
  3

  4

  5

  6

  7

 40
1.0
 41
2.5
 42
0.5
 43
3.75
 44
1.0
 45
0.0
 46
0.0
 47
0.0
 48
0.0
 71
     0
 72
     0
 73
     0
 74
     0
 75
     0
 76
     0
 77
     1
 78
     8
140
2.5
141
2.5
142
0.0
143
0.03937
144
1.0
145
0.0
146
1.0
147
1.0
170
     0
171
     4
172
     1
173
     0
174
     0
175
     0
176
     0
177
     0
178
     0
  0
ENDTAB
  0
ENDSEC
  0
SECTION
  2
BLOCKS
  0
BLOCK
  8
0
  5
24
  2
MS_1
 70
     0
 10
0.0
 20
0.0
 30
0.0
  3
MS_1
  0
CIRCLE
  8
0
  6
CONTINUOUS
 62
     3
  5
25
 10
0.0
 20
0.0
 30
0.0
 40
69.0
  0
ARC
  8
0
  6
CONTINUOUS
 62
     3
  5
26
 10
51.961524
 20
30.0
 30
0.0
 40
12.0
 50
344.930619
 51
75.069381
  0
ARC
  8
0
  6
CONTINUOUS
 62
     3
  5
27
 10
-51.961524
 20
30.0
 30
0.0
 40
12.0
 50
104.930619
 51
195.069381
  0
ARC
  8
0
  6
CONTINUOUS
 62
     3
  5
28
 10
0.0
 20
-60.0
 30
0.0
 40
12.0
 50
224.930619
 51
315.069381
  0
CIRCLE
  8
0
  6
CONTINUOUS
 62
     3
  5
29
 10
0.0
 20
0.0
 30
0.0
 40
54.999358
  0
CIRCLE
  8
0
  6
CONTINUOUS
 62
     3
  5
2A
 10
0.0
 20
0.0
 30
0.0
 40
54.999358
  0
CIRCLE
  8
0
  6
CONTINUOUS
 62
     3
  5
2B
 10
0.0
 20
0.0
 30
0.0
 40
47.608696
  0
ENDBLK
  8
0
  5
2C
  0
BLOCK
  8
0
  5
2D
  2
MS_2
 70
     0
 10
0.0
 20
0.0
 30
0.0
  3
MS_2
  0
LINE
  8
0
  6
CONTINUOUS
 62
     3
  5
2E
 10
-45.950002
 20
-21.0
 30
0.0
 11
-44.711524
 21
-20.284965
 31
0.0
  0
LINE
  8
0
  6
CONTINUOUS
 62
     3
  5
2F
 10
-59.211524
 20
-20.284965
 30
0.0
 11
-57.973046
 21
-21.0
 31
0.0
  0
LINE
  8
0
  6
CONTINUOUS
 62
     3
  5
30
 10
-44.461524
 20
-14.5
 30
0.0
 11
-44.461524
 21
-12.5
 31
0.0
  0
LINE
  8
0
  6
CONTINUOUS
 62
     3
  5
31
 10
-51.961524
 20
-13.0
 30
0.0
 11
-44.461524
 21
-14.5
 31
0.0
  0
LINE
  8
0
  6
CONTINUOUS
 62
    80
  5
32
 10
-48.336524
 20
-14.5
 30
0.0
 11
-48.336524
 21
-19.999738
 31
0.0
  0
LINE
  8
0
  6
CONTINUOUS
 62
     3
  5
33
 10
-51.961524
 20
-12.5
 30
0.0
 11
-59.461524
 21
-11.0
 31
0.0
  0
LINE
  8
0
  6
CONTINUOUS
 62
    80
  5
34
 10
-55.586524
 20
-14.5
 30
0.0
 11
-55.586524
 21
-19.999738
 31
0.0
  0
ARC
  8
0
  6
CONTINUOUS
 62
    80
  5
35
 10
-46.524024
 20
-18.857722
 30
0.0
 40
2.142278
 50
212.214144
 51
327.785856
  0
LINE
  8
0
  6
CONTINUOUS
 62
     3
  5
36
 10
-59.461524
 20
-13.0
 30
0.0
 11
-51.961524
 21
-14.5
 31
0.0
  0
LINE
  8
0
  6
CONTINUOUS
 62
     3
  5
37
 10
3.000001
 20
-26.0
 30
0.0
 11
4.000001
 21
-25.0
 31
0.0
  0
LINE
  8
0
  6
CONTINUOUS
 62
     3
  5
38
 10
54.999357
 20
172.140422
 30
0.0
 11
61.098223
 21
100.22316
 31
0.0
  0
ARC
  8
0
  6
CONTINUOUS
 62
     3
  5
39
 10
45.000001
 20
172.027025
 30
0.0
 40
10.0
 50
0.649729
 51
74.878335
  0
ARC
  8
0
  6
CONTINUOUS
 62
     3
  5
3A
 10
0.000001
 20
5.5
 30
0.0
 40
182.5
 50
74.878335
 51
105.121665
  0
ARC
  8
0
  6
CONTINUOUS
 62
     3
  5
3B
 10
-44.999999
 20
172.027025
 30
0.0
 40
10.0
 50
105.121665
 51
179.350271
  0
LINE
  8
0
  6
CONTINUOUS
 62
     3
  5
3C
 10
-54.999358
 20
172.140422
 30
0.0
 11
-61.149999
 21
99.612608
 31
0.0
  0
ARC
  8
0
  6
CONTINUOUS
 62
     3
  5
3D
 10
-359.448259
 20
133.837055
 30
0.0
 40
300.185693
 50
345.366578
 51
353.571549
  0
ARC
  8
0
  6
CONTINUOUS
 62
     3
  5
3E
 10
359.448261
 20
133.837055
 30
0.0
 40
300.185693
 50
186.428451
 51
194.633422
  0
LINE
  8
0
  6
CONTINUOUS
 62
     3
  5
3F
 10
-68.999999
 20
58.0
 30
0.0
 11
69.000001
 21
58.0
 31
0.0
  0
LINE
  8
0
  6
CONTINUOUS
 62
     3
  5
40
 10
-68.999999
 20
48.0
 30
0.0
 11
-68.999999
 21
45.5
 31
0.0
  0
LINE
  8
0
  6
CONTINUOUS
 62
     3
  5
41
 10
-68.999999
 20
45.5
 30
0.0
 11
-66.799999
 21
45.0
 31
0.0
  0
LINE
  8
0
  6
CONTINUOUS
 62
     3
  5
42
 10
-66.799999
 20
45.0
 30
0.0
 11
-66.799999
 21
8.0
 31
0.0
  0
ARC
  8
0
  6
CONTINUOUS
 62
     3
  5
43
 10
-58.799999
 20
8.0
 30
0.0
 40
8.0
 50
180.0
 51
270.0
  0
LINE
  8
0
  6
CONTINUOUS
 62
     3
  5
44
 10
69.000001
 20
48.0
 30
0.0
 11
69.000001
 21
45.5
 31
0.0
  0
LINE
  8
0
  6
CONTINUOUS
 62
     3
  5
45
 10
69.000001
 20
45.5
 30
0.0
 11
66.800001
 21
45.0
 31
0.0
  0
LINE
  8
0
  6
CONTINUOUS
 62
     3
  5
46
 10
66.800001
 20
45.0
 30
0.0
 11
66.800001
 21
8.0
 31
0.0
  0
ARC
  8
0
  6
CONTINUOUS
 62
     3
  5
47
 10
58.800001
 20
8.0
 30
0.0
 40
8.0
 50
270.0
 51
0.0
  0
LINE
  8
0
  6
CONTINUOUS
 62
     3
  5
48
 10
-68.999999
 20
45.5
 30
0.0
 11
69.000001
 21
45.5
 31
0.0
  0
LINE
  8
0
  6
CONTINUOUS
 62
     3
  5
49
 10
-66.799999
 20
45.0
 30
0.0
 11
66.800001
 21
45.0
 31
0.0
  0
LINE
  8
0
  6
CONTINUOUS
 62
     3
  5
4A
 10
69.000001
 20
58.0
 30
0.0
 11
69.000001
 21
48.0
 31
0.0
  0
LINE
  8
0
  6
CONTINUOUS
 62
     3
  5
4B
 10
69.000001
 20
48.0
 30
0.0
 11
-68.999999
 21
48.0
 31
0.0
  0
LINE
  8
0
  6
CONTINUOUS
 62
     3
  5
4C
 10
-68.999999
 20
48.0
 30
0.0
 11
-68.999999
 21
58.0
 31
0.0
  0
LINE
  8
0
  6
CONTINUOUS
 62
     3
  5
4D
 10
-22.908966
 20
-10.0
 30
0.0
 11
-22.908966
 21
0.0
 31
0.0
  0
LINE
  8
0
  6
CONTINUOUS
 62
     3
  5
4E
 10
12.000001
 20
-10.0
 30
0.0
 11
12.000001
 21
0.0
 31
0.0
  0
LINE
  8
0
  6
CONTINUOUS
 62
     3
  5
4F
 10
-63.961524
 20
-10.0
 30
0.0
 11
-22.908966
 21
-10.0
 31
0.0
  0
LINE
  8
0
  6
CONTINUOUS
 62
     3
  5
50
 10
-7.249999
 20
-14.5
 30
0.0
 11
-7.249999
 21
-20.284965
 31
0.0
  0
LINE
  8
0
  6
CONTINUOUS
 62
     3
  5
51
 10
22.908966
 20
-10.0
 30
0.0
 11
22.908966
 21
0.0
 31
0.0
  0
LINE
  8
0
  6
CONTINUOUS
 62
     3
  5
52
 10
-11.999999
 20
0.0
 30
0.0
 11
-11.999999
 21
-10.0
 31
0.0
  0
LINE
  8
0
  6
CONTINUOUS
 62
     3
  5
53
 10
-63.961524
 20
0.0
 30
0.0
 11
-63.961524
 21
-10.0
 31
0.0
  0
LINE
  8
0
  6
CONTINUOUS
 62
     3
  5
54
 10
-6.011522
 20
-21.0
 30
0.0
 11
6.011522
 21
-21.0
 31
0.0
  0
LINE
  8
0
  6
CONTINUOUS
 62
     3
  5
55
 10
-59.461524
 20
-11.0
 30
0.0
 11
-59.461524
 21
-13.0
 31
0.0
  0
ARC
  8
0
  6
CONTINUOUS
 62
    80
  5
56
 10
-57.399024
 20
-18.857722
 30
0.0
 40
2.142278
 50
212.214144
 51
327.785856
  0
LINE
  8
0
  6
CONTINUOUS
 62
    80
  5
57
 10
47.961524
 20
-25.0
 30
0.0
 11
55.961524
 21
-25.0
 31
0.0
  0
LINE
  8
0
  6
CONTINUOUS
 62
    80
  5
58
 10
54.961524
 20
-26.0
 30
0.0
 11
54.961524
 21
-21.0
 31
0.0
  0
LINE
  8
0
  6
CONTINUOUS
 62
    80
  5
59
 10
48.961524
 20
-21.0
 30
0.0
 11
48.961524
 21
-26.0
 31
0.0
  0
LINE
  8
0
  6
CONTINUOUS
 62
     3
  5
5A
 10
-11.999999
 20
-10.0
 30
0.0
 11
-3.994996
 21
-10.0
 31
0.0
  0
LINE
  8
0
  6
CONTINUOUS
 62
     3
  5
5B
 10
-8.999999
 20
-11.0
 30
0.0
 11
9.000001
 21
-11.0
 31
0.0
  0
LINE
  8
0
  6
CONTINUOUS
 62
     3
  5
5C
 10
7.250001
 20
-20.284965
 30
0.0
 11
7.250001
 21
-14.5
 31
0.0
  0
LINE
  8
0
  6
CONTINUOUS
 62
     3
  5
5D
 10
7.250001
 20
-14.5
 30
0.0
 11
-7.249999
 21
-14.5
 31
0.0
  0
ARC
  8
0
  6
CONTINUOUS
 62
    80
  5
5E
 10
0.000001
 20
-13.931277
 30
0.0
 40
7.068723
 50
239.147984
 51
300.852016
  0
LINE
  8
0
  6
CONTINUOUS
 62
     3
  5
5F
 10
-8.999999
 20
-10.0
 30
0.0
 11
-8.999999
 21
-11.0
 31
0.0
  0
LINE
  8
0
  6
CONTINUOUS
 62
     3
  5
60
 10
9.000001
 20
-10.0
 30
0.0
 11
9.000001
 21
-11.0
 31
0.0
  0
ARC
  8
0
  6
CONTINUOUS
 62
    80
  5
61
 10
-5.437499
 20
-18.857722
 30
0.0
 40
2.142278
 50
212.214144
 51
327.785856
  0
LINE
  8
0
  6
CONTINUOUS
 62
     3
  5
62
 10
-7.499999
 20
-11.0
 30
0.0
 11
-7.499999
 21
-13.0
 31
0.0
  0
LINE
  8
0
  6
CONTINUOUS
 62
     3
  5
63
 10
-7.499999
 20
-13.0
 30
0.0
 11
0.000001
 21
-14.5
 31
0.0
  0
ARC
  8
0
  6
CONTINUOUS
 62
    80
  5
64
 10
5.437501
 20
-18.857722
 30
0.0
 40
2.142278
 50
212.214144
 51
327.785856
  0
LINE
  8
0
  6
CONTINUOUS
 62
    80
  5
65
 10
-3.624999
 20
-14.5
 30
0.0
 11
-3.624999
 21
-19.999738
 31
0.0
  0
LINE
  8
0
  6
CONTINUOUS
 62
     3
  5
66
 10
60.961524
 20
-10.0
 30
0.0
 11
60.961524
 21
-11.0
 31
0.0
  0
LINE
  8
0
  6
CONTINUOUS
 62
     3
  5
67
 10
42.961524
 20
-10.0
 30
0.0
 11
42.961524
 21
-11.0
 31
0.0
  0
LINE
  8
0
  6
CONTINUOUS
 62
     3
  5
68
 10
-42.961524
 20
-10.0
 30
0.0
 11
-42.961524
 21
-11.0
 31
0.0
  0
LINE
  8
0
  6
CONTINUOUS
 62
     3
  5
69
 10
-60.961524
 20
-10.0
 30
0.0
 11
-60.961524
 21
-11.0
 31
0.0
  0
LINE
  8
0
  6
CONTINUOUS
 62
     3
  5
6A
 10
59.461524
 20
-12.5
 30
0.0
 11
51.961524
 21
-11.0
 31
0.0
  0
LINE
  8
0
  6
CONTINUOUS
 62
     3
  5
6B
 10
47.961524
 20
-21.0
 30
0.0
 11
47.961524
 21
-25.0
 31
0.0
  0
LINE
  8
0
  6
CONTINUOUS
 62
     3
  5
6C
 10
48.961524
 20
-26.0
 30
0.0
 11
54.961524
 21
-26.0
 31
0.0
  0
LINE
  8
0
  6
CONTINUOUS
 62
     3
  5
6D
 10
55.961524
 20
-25.0
 30
0.0
 11
55.961524
 21
-21.0
 31
0.0
  0
LINE
  8
0
  6
CONTINUOUS
 62
     3
  5
6E
 10
47.961524
 20
-14.5
 30
0.0
 11
47.961524
 21
-13.7
 31
0.0
  0
LINE
  8
0
  6
CONTINUOUS
 62
     3
  5
6F
 10
47.961524
 20
-11.7
 30
0.0
 11
47.961524
 21
-11.0
 31
0.0
  0
LINE
  8
0
  6
CONTINUOUS
 62
     3
  5
70
 10
55.961524
 20
-11.8
 30
0.0
 11
55.961524
 21
-11.0
 31
0.0
  0
LINE
  8
0
  6
CONTINUOUS
 62
     3
  5
71
 10
0.000001
 20
-12.5
 30
0.0
 11
-7.499999
 21
-11.0
 31
0.0
  0
LINE
  8
0
  6
CONTINUOUS
 62
    80
  5
72
 10
3.625001
 20
-14.5
 30
0.0
 11
3.625001
 21
-19.999738
 31
0.0
  0
ARC
  8
0
  6
CONTINUOUS
 62
    80
  5
73
 10
-51.961524
 20
-13.931277
 30
0.0
 40
7.068723
 50
239.147984
 51
300.852016
  0
LINE
  8
0
  6
CONTINUOUS
 62
     3
  5
74
 10
-44.711524
 20
-14.5
 30
0.0
 11
-59.211524
 21
-14.5
 31
0.0
  0
LINE
  8
0
  6
CONTINUOUS
 62
     3
  5
75
 10
-44.711524
 20
-20.284965
 30
0.0
 11
-44.711524
 21
-14.5
 31
0.0
  0
LINE
  8
0
  6
CONTINUOUS
 62
     3
  5
76
 10
-60.961524
 20
-11.0
 30
0.0
 11
-42.961524
 21
-11.0
 31
0.0
  0
LINE
  8
0
  6
CONTINUOUS
 62
     3
  5
77
 10
-57.973046
 20
-21.0
 30
0.0
 11
-45.950002
 21
-21.0
 31
0.0
  0
LINE
  8
0
  6
CONTINUOUS
 62
     3
  5
78
 10
0.000001
 20
-13.0
 30
0.0
 11
7.500001
 21
-14.5
 31
0.0
  0
LINE
  8
0
  6
CONTINUOUS
 62
     3
  5
79
 10
-59.211524
 20
-14.5
 30
0.0
 11
-59.211524
 21
-20.284965
 31
0.0
  0
LINE
  8
0
  6
CONTINUOUS
 62
     3
  5
7A
 10
-48.961524
 20
-26.0
 30
0.0
 11
-47.961524
 21
-25.0
 31
0.0
  0
LINE
  8
0
  6
CONTINUOUS
 62
     3
  5
7B
 10
-55.961524
 20
-25.0
 30
0.0
 11
-54.961524
 21
-26.0
 31
0.0
  0
LINE
  8
0
  6
CONTINUOUS
 62
    80
  5
7C
 10
-54.961524
 20
-21.0
 30
0.0
 11
-54.961524
 21
-26.0
 31
0.0
  0
LINE
  8
0
  6
CONTINUOUS
 62
    80
  5
7D
 10
-48.961524
 20
-26.0
 30
0.0
 11
-48.961524
 21
-21.0
 31
0.0
  0
LINE
  8
0
  6
CONTINUOUS
 62
    80
  5
7E
 10
-55.961524
 20
-25.0
 30
0.0
 11
-47.961524
 21
-25.0
 31
0.0
  0
LINE
  8
0
  6
CONTINUOUS
 62
     3
  5
7F
 10
47.961524
 20
-25.0
 30
0.0
 11
48.961524
 21
-26.0
 31
0.0
  0
LINE
  8
0
  6
CONTINUOUS
 62
     3
  5
80
 10
54.961524
 20
-26.0
 30
0.0
 11
55.961524
 21
-25.0
 31
0.0
  0
LINE
  8
0
  6
CONTINUOUS
 62
     3
  5
81
 10
44.711524
 20
-14.5
 30
0.0
 11
44.711524
 21
-20.284965
 31
0.0
  0
LINE
  8
0
  6
CONTINUOUS
 62
     3
  5
82
 10
45.950002
 20
-21.0
 30
0.0
 11
57.973046
 21
-21.0
 31
0.0
  0
LINE
  8
0
  6
CONTINUOUS
 62
     3
  5
83
 10
42.961524
 20
-11.0
 30
0.0
 11
60.961524
 21
-11.0
 31
0.0
  0
LINE
  8
0
  6
CONTINUOUS
 62
     3
  5
84
 10
59.211524
 20
-20.284965
 30
0.0
 11
59.211524
 21
-14.5
 31
0.0
  0
LINE
  8
0
  6
CONTINUOUS
 62
     3
  5
85
 10
59.211524
 20
-14.5
 30
0.0
 11
44.711524
 21
-14.5
 31
0.0
  0
ARC
  8
0
  6
CONTINUOUS
 62
    80
  5
86
 10
51.961524
 20
-13.931277
 30
0.0
 40
7.068723
 50
239.147984
 51
300.852016
  0
ARC
  8
0
  6
CONTINUOUS
 62
    80
  5
87
 10
46.524024
 20
-18.857722
 30
0.0
 40
2.142278
 50
212.214144
 51
327.785856
  0
LINE
  8
0
  6
CONTINUOUS
 62
     3
  5
88
 10
44.461524
 20
-11.0
 30
0.0
 11
44.461524
 21
-13.0
 31
0.0
  0
LINE
  8
0
  6
CONTINUOUS
 62
     3
  5
89
 10
44.461524
 20
-13.0
 30
0.0
 11
51.961524
 21
-14.5
 31
0.0
  0
ARC
  8
0
  6
CONTINUOUS
 62
    80
  5
8A
 10
57.399024
 20
-18.857722
 30
0.0
 40
2.142278
 50
212.214144
 51
327.785856
  0
LINE
  8
0
  6
CONTINUOUS
 62
    80
  5
8B
 10
48.336524
 20
-14.5
 30
0.0
 11
48.336524
 21
-19.999738
 31
0.0
  0
LINE
  8
0
  6
CONTINUOUS
 62
     3
  5
8C
 10
51.961524
 20
-12.5
 30
0.0
 11
44.461524
 21
-11.0
 31
0.0
  0
LINE
  8
0
  6
CONTINUOUS
 62
    80
  5
8D
 10
55.586524
 20
-14.5
 30
0.0
 11
55.586524
 21
-19.999738
 31
0.0
  0
LINE
  8
0
  6
CONTINUOUS
 62
     3
  5
8E
 10
51.961524
 20
-13.0
 30
0.0
 11
59.461524
 21
-14.5
 31
0.0
  0
LINE
  8
0
  6
CONTINUOUS
 62
     3
  5
8F
 10
59.461524
 20
-14.5
 30
0.0
 11
59.461524
 21
-12.5
 31
0.0
  0
LINE
  8
0
  6
CONTINUOUS
 62
     3
  5
90
 10
44.711524
 20
-20.284965
 30
0.0
 11
45.950002
 21
-21.0
 31
0.0
  0
LINE
  8
0
  6
CONTINUOUS
 62
     3
  5
91
 10
57.973046
 20
-21.0
 30
0.0
 11
59.211524
 21
-20.284965
 31
0.0
  0
LINE
  8
0
  6
CONTINUOUS
 62
     3
  5
92
 10
-47.961524
 20
-14.5
 30
0.0
 11
-47.961524
 21
-13.8
 31
0.0
  0
LINE
  8
0
  6
CONTINUOUS
 62
     3
  5
93
 10
-47.961524
 20
-11.8
 30
0.0
 11
-47.961524
 21
-11.0
 31
0.0
  0
LINE
  8
0
  6
CONTINUOUS
 62
     3
  5
94
 10
-55.961524
 20
-11.7
 30
0.0
 11
-55.961524
 21
-11.0
 31
0.0
  0
LINE
  8
0
  6
CONTINUOUS
 62
     3
  5
95
 10
-55.961524
 20
-14.5
 30
0.0
 11
-55.961524
 21
-13.7
 31
0.0
  0
LINE
  8
0
  6
CONTINUOUS
 62
     3
  5
96
 10
-47.961524
 20
-25.0
 30
0.0
 11
-47.961524
 21
-21.0
 31
0.0
  0
LINE
  8
0
  6
CONTINUOUS
 62
     3
  5
97
 10
-54.961524
 20
-26.0
 30
0.0
 11
-48.961524
 21
-26.0
 31
0.0
  0
LINE
  8
0
  6
CONTINUOUS
 62
     3
  5
98
 10
-55.961524
 20
-21.0
 30
0.0
 11
-55.961524
 21
-25.0
 31
0.0
  0
LINE
  8
0
  6
CONTINUOUS
 62
     3
  5
99
 10
-44.461524
 20
-12.5
 30
0.0
 11
-51.961524
 21
-11.0
 31
0.0
  0
LINE
  8
0
  6
CONTINUOUS
 62
     3
  5
9A
 10
55.961524
 20
-14.5
 30
0.0
 11
55.961524
 21
-13.8
 31
0.0
  0
LINE
  8
0
  6
CONTINUOUS
 62
     3
  5
9B
 10
7.500001
 20
-12.5
 30
0.0
 11
0.000001
 21
-11.0
 31
0.0
  0
LINE
  8
0
  6
CONTINUOUS
 62
     3
  5
9C
 10
-3.999999
 20
-21.0
 30
0.0
 11
-3.999999
 21
-25.0
 31
0.0
  0
LINE
  8
0
  6
CONTINUOUS
 62
     3
  5
9D
 10
-2.999999
 20
-26.0
 30
0.0
 11
3.000001
 21
-26.0
 31
0.0
  0
LINE
  8
0
  6
CONTINUOUS
 62
     3
  5
9E
 10
4.000001
 20
-25.0
 30
0.0
 11
4.000001
 21
-21.0
 31
0.0
  0
LINE
  8
0
  6
CONTINUOUS
 62
     3
  5
9F
 10
-3.999999
 20
-14.5
 30
0.0
 11
-3.999999
 21
-13.7
 31
0.0
  0
LINE
  8
0
  6
CONTINUOUS
 62
     3
  5
A0
 10
-3.999999
 20
-11.7
 30
0.0
 11
-3.999999
 21
-11.0
 31
0.0
  0
LINE
  8
0
  6
CONTINUOUS
 62
     3
  5
A1
 10
4.000001
 20
-11.8
 30
0.0
 11
4.000001
 21
-11.0
 31
0.0
  0
LINE
  8
0
  6
CONTINUOUS
 62
     3
  5
A2
 10
4.000001
 20
-14.5
 30
0.0
 11
4.000001
 21
-13.8
 31
0.0
  0
LINE
  8
0
  6
CONTINUOUS
 62
    80
  5
A3
 10
-3.999999
 20
-25.0
 30
0.0
 11
4.000001
 21
-25.0
 31
0.0
  0
LINE
  8
0
  6
CONTINUOUS
 62
    80
  5
A4
 10
3.000001
 20
-26.0
 30
0.0
 11
3.000001
 21
-21.0
 31
0.0
  0
LINE
  8
0
  6
CONTINUOUS
 62
    80
  5
A5
 10
-2.999999
 20
-21.0
 30
0.0
 11
-2.999999
 21
-26.0
 31
0.0
  0
LINE
  8
0
  6
CONTINUOUS
 62
     3
  5
A6
 10
-3.999999
 20
-25.0
 30
0.0
 11
-2.999999
 21
-26.0
 31
0.0
  0
LINE
  8
0
  6
CONTINUOUS
 62
     3
  5
A7
 10
-3.994996
 20
-10.0
 30
0.0
 11
12.000001
 21
-10.0
 31
0.0
  0
LINE
  8
0
  6
CONTINUOUS
 62
     3
  5
A8
 10
63.961524
 20
0.0
 30
0.0
 11
63.961524
 21
-10.0
 31
0.0
  0
LINE
  8
0
  6
CONTINUOUS
 62
     3
  5
A9
 10
63.961524
 20
-10.0
 30
0.0
 11
22.908966
 21
-10.0
 31
0.0
  0
LINE
  8
0
  6
CONTINUOUS
 62
     3
  5
AA
 10
7.500001
 20
-14.5
 30
0.0
 11
7.500001
 21
-12.5
 31
0.0
  0
LINE
  8
0
  6
CONTINUOUS
 62
     3
  5
AB
 10
6.011522
 20
-21.0
 30
0.0
 11
7.250001
 21
-20.284965
 31
0.0
  0
LINE
  8
0
  6
CONTINUOUS
 62
     3
  5
AC
 10
-7.249999
 20
-20.284965
 30
0.0
 11
-6.011522
 21
-21.0
 31
0.0
  0
LINE
  8
0
  6
CONTINUOUS
 62
     3
  5
AD
 10
0.000001
 20
-11.0
 30
0.0
 11
0.000001
 21
-14.5
 31
0.0
  0
LINE
  8
0
  6
CONTINUOUS
 62
     3
  5
AE
 10
51.961524
 20
-11.0
 30
0.0
 11
51.961524
 21
-14.5
 31
0.0
  0
LINE
  8
0
  6
CONTINUOUS
 62
     3
  5
AF
 10
-51.961524
 20
-11.0
 30
0.0
 11
-51.961524
 21
-14.5
 31
0.0
  0
LINE
  8
0
  6
CONTINUOUS
 62
     3
  5
B0
 10
-63.961524
 20
0.0
 30
0.0
 11
63.961524
 21
0.0
 31
0.0
  0
ENDBLK
  8
0
  5
B1
  0
BLOCK
  8
0
  5
B2
  2
MS_3
 70
     0
 10
0.0
 20
0.0
 30
0.0
  3
MS_3
  0
ARC
  8
0
  6
CONTINUOUS
 62
     3
  5
B3
 10
0.0
 20
0.0
 30
0.0
 40
69.0
 50
273.319196
 51
322.927573
  0
ARC
  8
0
  6
CONTINUOUS
 62
     3
  5
B4
 10
0.0
 20
0.0
 30
0.0
 40
66.858889
 50
273.425615
 51
321.083543
  0
ARC
  8
0
  6
CONTINUOUS
 62
     3
  5
B5
 10
-0.000001
 20
-40.0
 30
0.0
 40
9.5
 50
294.867798
 51
245.132202
  0
ARC
  8
0
  6
CONTINUOUS
 62
     3
  5
B6
 10
-0.000001
 20
-40.0
 30
0.0
 40
4.0
 50
357.133957
 51
182.866043
  0
CIRCLE
  8
0
  6
CONTINUOUS
 62
     3
  5
B7
 10
-51.961524
 20
-30.0
 30
0.0
 40
3.714286
  0
CIRCLE
  8
0
  6
CONTINUOUS
 62
    80
  5
B8
 10
-51.961524
 20
-30.0
 30
0.0
 40
3.214286
  0
CIRCLE
  8
0
  6
CONTINUOUS
 62
     3
  5
B9
 10
-51.961525
 20
-30.0
 30
0.0
 40
8.5
  0
CIRCLE
  8
0
  6
CONTINUOUS
 62
    80
  5
BA
 10
-51.961525
 20
-30.0
 30
0.0
 40
6.499904
  0
LINE
  8
0
  6
CONTINUOUS
 62
     3
  5
BB
 10
-59.467068
 20
-30.000017
 30
0.0
 11
-55.714297
 21
-36.500007
 31
0.0
  0
LINE
  8
0
  6
CONTINUOUS
 62
     3
  5
BC
 10
-55.714297
 20
-36.500007
 30
0.0
 11
-48.208731
 21
-36.500007
 31
0.0
  0
LINE
  8
0
  6
CONTINUOUS
 62
     3
  5
BD
 10
-48.208731
 20
-36.500007
 30
0.0
 11
-44.455961
 21
-30.000017
 31
0.0
  0
LINE
  8
0
  6
CONTINUOUS
 62
     3
  5
BE
 10
-48.208744
 20
-23.500007
 30
0.0
 11
-44.455961
 21
-30.000017
 31
0.0
  0
LINE
  8
0
  6
CONTINUOUS
 62
     3
  5
BF
 10
-55.714285
 20
-23.500007
 30
0.0
 11
-48.208744
 21
-23.500007
 31
0.0
  0
LINE
  8
0
  6
CONTINUOUS
 62
     3
  5
C0
 10
-59.467068
 20
-30.000017
 30
0.0
 11
-55.714297
 21
-36.500007
 31
0.0
  0
LINE
  8
0
  6
CONTINUOUS
 62
     3
  5
C1
 10
-59.467068
 20
-30.000017
 30
0.0
 11
-55.714285
 21
-23.500007
 31
0.0
  0
LINE
  8
0
  6
CONTINUOUS
 62
     3
  5
C2
 10
-59.467068
 20
-30.000017
 30
0.0
 11
-55.714285
 21
-23.500007
 31
0.0
  0
CIRCLE
  8
0
  6
CONTINUOUS
 62
     3
  5
C3
 10
-32.908965
 20
-19.0
 30
0.0
 40
5.75
  0
ARC
  8
0
  6
CONTINUOUS
 62
     3
  5
C4
 10
-32.908965
 20
-19.0
 30
0.0
 40
10.0
 50
305.215908
 51
114.784091
  0
ARC
  8
0
  6
CONTINUOUS
 62
     3
  5
C5
 10
-51.961524
 20
-30.0
 30
0.0
 40
12.0
 50
114.784091
 51
305.215908
  0
LINE
  8
0
  6
CONTINUOUS
 62
     3
  5
C6
 10
-55.278
 20
-18.313906
 30
0.0
 11
-37.100965
 21
-9.921061
 31
0.0
  0
LINE
  8
0
  6
CONTINUOUS
 62
     3
  5
C7
 10
-56.991924
 20
-19.105273
 30
0.0
 11
-55.278
 21
-18.313906
 31
0.0
  0
LINE
  8
0
  6
CONTINUOUS
 62
     3
  5
C8
 10
-27.142374
 20
-27.169848
 30
0.0
 11
-45.041614
 21
-39.803818
 31
0.0
  0
LINE
  8
0
  6
CONTINUOUS
 62
     3
  5
C9
 10
-56.991924
 20
-19.105273
 30
0.0
 11
-37.100965
 21
-9.921061
 31
0.0
  0
CIRCLE
  8
0
  6
CONTINUOUS
 62
     3
  5
CA
 10
-32.908965
 20
-19.0
 30
0.0
 40
5.5
  0
CIRCLE
  8
0
  6
CONTINUOUS
 62
    50
  5
CB
 10
-32.908965
 20
-19.0
 30
0.0
 40
3.919255
  0
POLYLINE
  8
0
  6
CONTINUOUS
 62
     3
  5
CC
 66
     1
 10
0.0
 20
0.0
 30
0.0
  0
VERTEX
  8
0
  6
CONTINUOUS
 62
     3
  5
143
 10
-31.472449
 20
-17.776052
 30
0.0
  0
VERTEX
  8
0
  6
CONTINUOUS
 62
     3
  5
144
 10
-31.679618
 20
-17.227868
 30
0.0
  0
VERTEX
  8
0
  6
CONTINUOUS
 62
     3
  5
145
 10
-31.8882
 20
-16.682527
 30
0.0
  0
SEQEND
  8
0
  6
CONTINUOUS
 62
     3
  5
146
  0
POLYLINE
  8
0
  6
CONTINUOUS
 62
     3
  5
CD
 66
     1
 10
0.0
 20
0.0
 30
0.0
  0
VERTEX
  8
0
  6
CONTINUOUS
 62
     3
  5
147
 10
-30.458812
 20
-18.360164
 30
0.0
  0
VERTEX
  8
0
  6
CONTINUOUS
 62
     3
  5
148
 10
-30.964115
 20
-18.067637
 30
0.0
  0
VERTEX
  8
0
  6
CONTINUOUS
 62
     3
  5
149
 10
-31.472449
 20
-17.776052
 30
0.0
  0
SEQEND
  8
0
  6
CONTINUOUS
 62
     3
  5
14A
  0
POLYLINE
  8
0
  6
CONTINUOUS
 62
     3
  5
CE
 66
     1
 10
0.0
 20
0.0
 30
0.0
  0
VERTEX
  8
0
  6
CONTINUOUS
 62
     3
  5
14B
 10
-30.029412
 20
-18.406831
 30
0.0
  0
VERTEX
  8
0
  6
CONTINUOUS
 62
     3
  5
14C
 10
-30.243782
 20
-18.383406
 30
0.0
  0
VERTEX
  8
0
  6
CONTINUOUS
 62
     3
  5
14D
 10
-30.458812
 20
-18.360164
 30
0.0
  0
SEQEND
  8
0
  6
CONTINUOUS
 62
     3
  5
14E
  0
POLYLINE
  8
0
  6
CONTINUOUS
 62
     3
  5
CF
 66
     1
 10
0.0
 20
0.0
 30
0.0
  0
VERTEX
  8
0
  6
CONTINUOUS
 62
     3
  5
14F
 10
-30.591492
 20
-20.020766
 30
0.0
  0
VERTEX
  8
0
  6
CONTINUOUS
 62
     3
  5
150
 10
-30.3755
 20
-20.031961
 30
0.0
  0
VERTEX
  8
0
  6
CONTINUOUS
 62
     3
  5
151
 10
-30.160131
 20
-20.042872
 30
0.0
  0
SEQEND
  8
0
  6
CONTINUOUS
 62
     3
  5
152
  0
POLYLINE
  8
0
  6
CONTINUOUS
 62
     3
  5
D0
 66
     1
 10
0.0
 20
0.0
 30
0.0
  0
VERTEX
  8
0
  6
CONTINUOUS
 62
     3
  5
153
 10
-31.685018
 20
-20.436516
 30
0.0
  0
VERTEX
  8
0
  6
CONTINUOUS
 62
     3
  5
154
 10
-31.136834
 20
-20.229347
 30
0.0
  0
VERTEX
  8
0
  6
CONTINUOUS
 62
     3
  5
155
 10
-30.591492
 20
-20.020766
 30
0.0
  0
SEQEND
  8
0
  6
CONTINUOUS
 62
     3
  5
156
  0
POLYLINE
  8
0
  6
CONTINUOUS
 62
     3
  5
D1
 66
     1
 10
0.0
 20
0.0
 30
0.0
  0
VERTEX
  8
0
  6
CONTINUOUS
 62
     3
  5
157
 10
-32.269129
 20
-21.450154
 30
0.0
  0
VERTEX
  8
0
  6
CONTINUOUS
 62
     3
  5
158
 10
-31.976602
 20
-20.94485
 30
0.0
  0
VERTEX
  8
0
  6
CONTINUOUS
 62
     3
  5
159
 10
-31.685018
 20
-20.436516
 30
0.0
  0
SEQEND
  8
0
  6
CONTINUOUS
 62
     3
  5
15A
  0
POLYLINE
  8
0
  6
CONTINUOUS
 62
     3
  5
D2
 66
     1
 10
0.0
 20
0.0
 30
0.0
  0
VERTEX
  8
0
  6
CONTINUOUS
 62
     3
  5
15B
 10
-32.315797
 20
-21.879553
 30
0.0
  0
VERTEX
  8
0
  6
CONTINUOUS
 62
     3
  5
15C
 10
-32.292372
 20
-21.665183
 30
0.0
  0
VERTEX
  8
0
  6
CONTINUOUS
 62
     3
  5
15D
 10
-32.269129
 20
-21.450154
 30
0.0
  0
SEQEND
  8
0
  6
CONTINUOUS
 62
     3
  5
15E
  0
POLYLINE
  8
0
  6
CONTINUOUS
 62
     3
  5
D3
 66
     1
 10
0.0
 20
0.0
 30
0.0
  0
VERTEX
  8
0
  6
CONTINUOUS
 62
     3
  5
15F
 10
-33.929731
 20
-21.317473
 30
0.0
  0
VERTEX
  8
0
  6
CONTINUOUS
 62
     3
  5
160
 10
-33.940927
 20
-21.533465
 30
0.0
  0
VERTEX
  8
0
  6
CONTINUOUS
 62
     3
  5
161
 10
-33.951838
 20
-21.748835
 30
0.0
  0
SEQEND
  8
0
  6
CONTINUOUS
 62
     3
  5
162
  0
POLYLINE
  8
0
  6
CONTINUOUS
 62
     3
  5
D4
 66
     1
 10
0.0
 20
0.0
 30
0.0
  0
VERTEX
  8
0
  6
CONTINUOUS
 62
     3
  5
163
 10
-34.345482
 20
-20.223947
 30
0.0
  0
VERTEX
  8
0
  6
CONTINUOUS
 62
     3
  5
164
 10
-34.138313
 20
-20.772132
 30
0.0
  0
VERTEX
  8
0
  6
CONTINUOUS
 62
     3
  5
165
 10
-33.929731
 20
-21.317473
 30
0.0
  0
SEQEND
  8
0
  6
CONTINUOUS
 62
     3
  5
166
  0
POLYLINE
  8
0
  6
CONTINUOUS
 62
     3
  5
D5
 66
     1
 10
0.0
 20
0.0
 30
0.0
  0
VERTEX
  8
0
  6
CONTINUOUS
 62
     3
  5
167
 10
-35.359119
 20
-19.639836
 30
0.0
  0
VERTEX
  8
0
  6
CONTINUOUS
 62
     3
  5
168
 10
-34.853816
 20
-19.932363
 30
0.0
  0
VERTEX
  8
0
  6
CONTINUOUS
 62
     3
  5
169
 10
-34.345482
 20
-20.223947
 30
0.0
  0
SEQEND
  8
0
  6
CONTINUOUS
 62
     3
  5
16A
  0
POLYLINE
  8
0
  6
CONTINUOUS
 62
     3
  5
D6
 66
     1
 10
0.0
 20
0.0
 30
0.0
  0
VERTEX
  8
0
  6
CONTINUOUS
 62
     3
  5
16B
 10
-35.788519
 20
-19.593168
 30
0.0
  0
VERTEX
  8
0
  6
CONTINUOUS
 62
     3
  5
16C
 10
-35.574149
 20
-19.616594
 30
0.0
  0
VERTEX
  8
0
  6
CONTINUOUS
 62
     3
  5
16D
 10
-35.359119
 20
-19.639836
 30
0.0
  0
SEQEND
  8
0
  6
CONTINUOUS
 62
     3
  5
16E
  0
POLYLINE
  8
0
  6
CONTINUOUS
 62
     3
  5
D7
 66
     1
 10
0.0
 20
0.0
 30
0.0
  0
VERTEX
  8
0
  6
CONTINUOUS
 62
     3
  5
16F
 10
-35.226438
 20
-17.979234
 30
0.0
  0
VERTEX
  8
0
  6
CONTINUOUS
 62
     3
  5
170
 10
-35.442431
 20
-17.968038
 30
0.0
  0
VERTEX
  8
0
  6
CONTINUOUS
 62
     3
  5
171
 10
-35.6578
 20
-17.957128
 30
0.0
  0
SEQEND
  8
0
  6
CONTINUOUS
 62
     3
  5
172
  0
POLYLINE
  8
0
  6
CONTINUOUS
 62
     3
  5
D8
 66
     1
 10
0.0
 20
0.0
 30
0.0
  0
VERTEX
  8
0
  6
CONTINUOUS
 62
     3
  5
173
 10
-34.132913
 20
-17.563483
 30
0.0
  0
VERTEX
  8
0
  6
CONTINUOUS
 62
     3
  5
174
 10
-34.681097
 20
-17.770653
 30
0.0
  0
VERTEX
  8
0
  6
CONTINUOUS
 62
     3
  5
175
 10
-35.226438
 20
-17.979234
 30
0.0
  0
SEQEND
  8
0
  6
CONTINUOUS
 62
     3
  5
176
  0
POLYLINE
  8
0
  6
CONTINUOUS
 62
     3
  5
D9
 66
     1
 10
0.0
 20
0.0
 30
0.0
  0
VERTEX
  8
0
  6
CONTINUOUS
 62
     3
  5
177
 10
-33.548802
 20
-16.549846
 30
0.0
  0
VERTEX
  8
0
  6
CONTINUOUS
 62
     3
  5
178
 10
-33.841329
 20
-17.055149
 30
0.0
  0
VERTEX
  8
0
  6
CONTINUOUS
 62
     3
  5
179
 10
-34.132913
 20
-17.563483
 30
0.0
  0
SEQEND
  8
0
  6
CONTINUOUS
 62
     3
  5
17A
  0
POLYLINE
  8
0
  6
CONTINUOUS
 62
     3
  5
DA
 66
     1
 10
0.0
 20
0.0
 30
0.0
  0
VERTEX
  8
0
  6
CONTINUOUS
 62
     3
  5
17B
 10
-33.502134
 20
-16.120447
 30
0.0
  0
VERTEX
  8
0
  6
CONTINUOUS
 62
     3
  5
17C
 10
-33.525559
 20
-16.334816
 30
0.0
  0
VERTEX
  8
0
  6
CONTINUOUS
 62
     3
  5
17D
 10
-33.548802
 20
-16.549846
 30
0.0
  0
SEQEND
  8
0
  6
CONTINUOUS
 62
     3
  5
17E
  0
POLYLINE
  8
0
  6
CONTINUOUS
 62
     3
  5
DB
 66
     1
 10
0.0
 20
0.0
 30
0.0
  0
VERTEX
  8
0
  6
CONTINUOUS
 62
     3
  5
17F
 10
-31.8882
 20
-16.682527
 30
0.0
  0
VERTEX
  8
0
  6
CONTINUOUS
 62
     3
  5
180
 10
-31.877004
 20
-16.466535
 30
0.0
  0
VERTEX
  8
0
  6
CONTINUOUS
 62
     3
  5
181
 10
-31.866093
 20
-16.251165
 30
0.0
  0
SEQEND
  8
0
  6
CONTINUOUS
 62
     3
  5
182
  0
ARC
  8
0
  6
CONTINUOUS
 62
     3
  5
DC
 10
-32.908965
 20
-19.0
 30
0.0
 40
2.940013
 50
339.223905
 51
11.639729
  0
ARC
  8
0
  6
CONTINUOUS
 62
     3
  5
DD
 10
-32.908965
 20
-19.0
 30
0.0
 40
2.940013
 50
249.223905
 51
281.639729
  0
ARC
  8
0
  6
CONTINUOUS
 62
     3
  5
DE
 10
-32.908965
 20
-19.0
 30
0.0
 40
2.940013
 50
159.223905
 51
191.639729
  0
ARC
  8
0
  6
CONTINUOUS
 62
     3
  5
DF
 10
-32.908965
 20
-19.0
 30
0.0
 40
2.940013
 50
69.223905
 51
101.639729
  0
LINE
  8
0
  6
CONTINUOUS
 62
     3
  5
E0
 10
-33.477124
 20
-16.633973
 30
0.0
 11
-33.502134
 21
-16.120447
 31
0.0
  0
LINE
  8
0
  6
CONTINUOUS
 62
     3
  5
E1
 10
-33.548802
 20
-16.549846
 30
0.0
 11
-33.477124
 21
-16.633973
 31
0.0
  0
CIRCLE
  8
0
  6
CONTINUOUS
 62
     3
  5
E2
 10
0.0
 20
60.0
 30
0.0
 40
3.714286
  0
CIRCLE
  8
0
  6
CONTINUOUS
 62
    80
  5
E3
 10
0.0
 20
60.0
 30
0.0
 40
3.214286
  0
CIRCLE
  8
0
  6
CONTINUOUS
 62
     3
  5
E4
 10
0.000001
 20
60.0
 30
0.0
 40
8.5
  0
CIRCLE
  8
0
  6
CONTINUOUS
 62
    80
  5
E5
 10
0.000001
 20
60.0
 30
0.0
 40
6.499904
  0
LINE
  8
0
  6
CONTINUOUS
 62
     3
  5
E6
 10
-3.752784
 20
66.5
 30
0.0
 11
3.752757
 21
66.5
 31
0.0
  0
LINE
  8
0
  6
CONTINUOUS
 62
     3
  5
E7
 10
3.752757
 20
66.5
 30
0.0
 11
7.50554
 21
59.999989
 31
0.0
  0
LINE
  8
0
  6
CONTINUOUS
 62
     3
  5
E8
 10
3.752757
 20
66.5
 30
0.0
 11
7.50554
 21
59.999989
 31
0.0
  0
LINE
  8
0
  6
CONTINUOUS
 62
     3
  5
E9
 10
-7.505567
 20
59.99999
 30
0.0
 11
-3.752784
 21
66.5
 31
0.0
  0
LINE
  8
0
  6
CONTINUOUS
 62
     3
  5
EA
 10
-7.505567
 20
59.99999
 30
0.0
 11
-3.752797
 21
53.5
 31
0.0
  0
LINE
  8
0
  6
CONTINUOUS
 62
     3
  5
EB
 10
-3.752797
 20
53.5
 30
0.0
 11
3.752769
 21
53.5
 31
0.0
  0
LINE
  8
0
  6
CONTINUOUS
 62
     3
  5
EC
 10
3.752769
 20
53.5
 30
0.0
 11
7.50554
 21
59.999989
 31
0.0
  0
LINE
  8
0
  6
CONTINUOUS
 62
     3
  5
ED
 10
-3.752784
 20
66.5
 30
0.0
 11
3.752757
 21
66.5
 31
0.0
  0
CIRCLE
  8
0
  6
CONTINUOUS
 62
     3
  5
EE
 10
0.0
 20
38.0
 30
0.0
 40
5.75
  0
ARC
  8
0
  6
CONTINUOUS
 62
     3
  5
EF
 10
0.0
 20
38.0
 30
0.0
 40
10.0
 50
185.215908
 51
354.784091
  0
ARC
  8
0
  6
CONTINUOUS
 62
     3
  5
F0
 10
0.0
 20
60.0
 30
0.0
 40
12.0
 50
354.784091
 51
185.215908
  0
LINE
  8
0
  6
CONTINUOUS
 62
     3
  5
F1
 10
11.778692
 20
57.029105
 30
0.0
 11
9.958592
 21
37.090909
 31
0.0
  0
LINE
  8
0
  6
CONTINUOUS
 62
     3
  5
F2
 10
11.950311
 20
58.909091
 30
0.0
 11
11.778692
 21
57.029105
 31
0.0
  0
LINE
  8
0
  6
CONTINUOUS
 62
     3
  5
F3
 10
-9.958592
 20
37.090909
 30
0.0
 11
-11.95031
 21
58.909091
 31
0.0
  0
LINE
  8
0
  6
CONTINUOUS
 62
     3
  5
F4
 10
11.950311
 20
58.909091
 30
0.0
 11
9.958592
 21
37.090909
 31
0.0
  0
CIRCLE
  8
0
  6
CONTINUOUS
 62
     3
  5
F5
 10
0.0
 20
38.0
 30
0.0
 40
5.5
  0
CIRCLE
  8
0
  6
CONTINUOUS
 62
    50
  5
F6
 10
0.0
 20
38.0
 30
0.0
 40
3.919255
  0
POLYLINE
  8
0
  6
CONTINUOUS
 62
     3
  5
F7
 66
     1
 10
0.0
 20
0.0
 30
0.0
  0
VERTEX
  8
0
  6
CONTINUOUS
 62
     3
  5
183
 10
0.341712
 20
36.143967
 30
0.0
  0
VERTEX
  8
0
  6
CONTINUOUS
 62
     3
  5
184
 10
0.920038
 20
36.049288
 30
0.0
  0
VERTEX
  8
0
  6
CONTINUOUS
 62
     3
  5
185
 10
1.496608
 20
35.957255
 30
0.0
  0
SEQEND
  8
0
  6
CONTINUOUS
 62
     3
  5
186
  0
POLYLINE
  8
0
  6
CONTINUOUS
 62
     3
  5
F8
 66
     1
 10
0.0
 20
0.0
 30
0.0
  0
VERTEX
  8
0
  6
CONTINUOUS
 62
     3
  5
187
 10
-0.670962
 20
35.558187
 30
0.0
  0
VERTEX
  8
0
  6
CONTINUOUS
 62
     3
  5
188
 10
-0.164975
 20
35.849528
 30
0.0
  0
VERTEX
  8
0
  6
CONTINUOUS
 62
     3
  5
189
 10
0.341712
 20
36.143967
 30
0.0
  0
SEQEND
  8
0
  6
CONTINUOUS
 62
     3
  5
18A
  0
POLYLINE
  8
0
  6
CONTINUOUS
 62
     3
  5
F9
 66
     1
 10
0.0
 20
0.0
 30
0.0
  0
VERTEX
  8
0
  6
CONTINUOUS
 62
     3
  5
18B
 10
-0.926077
 20
35.209649
 30
0.0
  0
VERTEX
  8
0
  6
CONTINUOUS
 62
     3
  5
18C
 10
-0.798606
 20
35.383587
 30
0.0
  0
VERTEX
  8
0
  6
CONTINUOUS
 62
     3
  5
18D
 10
-0.670962
 20
35.558187
 30
0.0
  0
SEQEND
  8
0
  6
CONTINUOUS
 62
     3
  5
18E
  0
POLYLINE
  8
0
  6
CONTINUOUS
 62
     3
  5
FA
 66
     1
 10
0.0
 20
0.0
 30
0.0
  0
VERTEX
  8
0
  6
CONTINUOUS
 62
     3
  5
18F
 10
-2.042745
 20
36.503392
 30
0.0
  0
VERTEX
  8
0
  6
CONTINUOUS
 62
     3
  5
190
 10
-2.160437
 20
36.321936
 30
0.0
  0
VERTEX
  8
0
  6
CONTINUOUS
 62
     3
  5
191
 10
-2.277571
 20
36.140875
 30
0.0
  0
SEQEND
  8
0
  6
CONTINUOUS
 62
     3
  5
192
  0
POLYLINE
  8
0
  6
CONTINUOUS
 62
     3
  5
FB
 66
     1
 10
0.0
 20
0.0
 30
0.0
  0
VERTEX
  8
0
  6
CONTINUOUS
 62
     3
  5
193
 10
-1.856033
 20
37.658289
 30
0.0
  0
VERTEX
  8
0
  6
CONTINUOUS
 62
     3
  5
194
 10
-1.950711
 20
37.079962
 30
0.0
  0
VERTEX
  8
0
  6
CONTINUOUS
 62
     3
  5
195
 10
-2.042745
 20
36.503392
 30
0.0
  0
SEQEND
  8
0
  6
CONTINUOUS
 62
     3
  5
196
  0
POLYLINE
  8
0
  6
CONTINUOUS
 62
     3
  5
FC
 66
     1
 10
0.0
 20
0.0
 30
0.0
  0
VERTEX
  8
0
  6
CONTINUOUS
 62
     3
  5
197
 10
-2.441813
 20
38.670963
 30
0.0
  0
VERTEX
  8
0
  6
CONTINUOUS
 62
     3
  5
198
 10
-2.150471
 20
38.164975
 30
0.0
  0
VERTEX
  8
0
  6
CONTINUOUS
 62
     3
  5
199
 10
-1.856033
 20
37.658289
 30
0.0
  0
SEQEND
  8
0
  6
CONTINUOUS
 62
     3
  5
19A
  0
POLYLINE
  8
0
  6
CONTINUOUS
 62
     3
  5
FD
 66
     1
 10
0.0
 20
0.0
 30
0.0
  0
VERTEX
  8
0
  6
CONTINUOUS
 62
     3
  5
19B
 10
-2.79035
 20
38.926078
 30
0.0
  0
VERTEX
  8
0
  6
CONTINUOUS
 62
     3
  5
19C
 10
-2.616413
 20
38.798606
 30
0.0
  0
VERTEX
  8
0
  6
CONTINUOUS
 62
     3
  5
19D
 10
-2.441813
 20
38.670963
 30
0.0
  0
SEQEND
  8
0
  6
CONTINUOUS
 62
     3
  5
19E
  0
POLYLINE
  8
0
  6
CONTINUOUS
 62
     3
  5
FE
 66
     1
 10
0.0
 20
0.0
 30
0.0
  0
VERTEX
  8
0
  6
CONTINUOUS
 62
     3
  5
19F
 10
-1.496607
 20
40.042746
 30
0.0
  0
VERTEX
  8
0
  6
CONTINUOUS
 62
     3
  5
1A0
 10
-1.678064
 20
40.160438
 30
0.0
  0
VERTEX
  8
0
  6
CONTINUOUS
 62
     3
  5
1A1
 10
-1.859125
 20
40.277571
 30
0.0
  0
SEQEND
  8
0
  6
CONTINUOUS
 62
     3
  5
1A2
  0
POLYLINE
  8
0
  6
CONTINUOUS
 62
     3
  5
FF
 66
     1
 10
0.0
 20
0.0
 30
0.0
  0
VERTEX
  8
0
  6
CONTINUOUS
 62
     3
  5
1A3
 10
-0.341711
 20
39.856034
 30
0.0
  0
VERTEX
  8
0
  6
CONTINUOUS
 62
     3
  5
1A4
 10
-0.920037
 20
39.950712
 30
0.0
  0
VERTEX
  8
0
  6
CONTINUOUS
 62
     3
  5
1A5
 10
-1.496607
 20
40.042746
 30
0.0
  0
SEQEND
  8
0
  6
CONTINUOUS
 62
     3
  5
1A6
  0
POLYLINE
  8
0
  6
CONTINUOUS
 62
     3
  5
100
 66
     1
 10
0.0
 20
0.0
 30
0.0
  0
VERTEX
  8
0
  6
CONTINUOUS
 62
     3
  5
1A7
 10
0.670963
 20
40.441813
 30
0.0
  0
VERTEX
  8
0
  6
CONTINUOUS
 62
     3
  5
1A8
 10
0.164975
 20
40.150472
 30
0.0
  0
VERTEX
  8
0
  6
CONTINUOUS
 62
     3
  5
1A9
 10
-0.341711
 20
39.856034
 30
0.0
  0
SEQEND
  8
0
  6
CONTINUOUS
 62
     3
  5
1AA
  0
POLYLINE
  8
0
  6
CONTINUOUS
 62
     3
  5
101
 66
     1
 10
0.0
 20
0.0
 30
0.0
  0
VERTEX
  8
0
  6
CONTINUOUS
 62
     3
  5
1AB
 10
0.926078
 20
40.790351
 30
0.0
  0
VERTEX
  8
0
  6
CONTINUOUS
 62
     3
  5
1AC
 10
0.798606
 20
40.616413
 30
0.0
  0
VERTEX
  8
0
  6
CONTINUOUS
 62
     3
  5
1AD
 10
0.670963
 20
40.441813
 30
0.0
  0
SEQEND
  8
0
  6
CONTINUOUS
 62
     3
  5
1AE
  0
POLYLINE
  8
0
  6
CONTINUOUS
 62
     3
  5
102
 66
     1
 10
0.0
 20
0.0
 30
0.0
  0
VERTEX
  8
0
  6
CONTINUOUS
 62
     3
  5
1AF
 10
2.042746
 20
39.496608
 30
0.0
  0
VERTEX
  8
0
  6
CONTINUOUS
 62
     3
  5
1B0
 10
2.160438
 20
39.678064
 30
0.0
  0
VERTEX
  8
0
  6
CONTINUOUS
 62
     3
  5
1B1
 10
2.277572
 20
39.859125
 30
0.0
  0
SEQEND
  8
0
  6
CONTINUOUS
 62
     3
  5
1B2
  0
POLYLINE
  8
0
  6
CONTINUOUS
 62
     3
  5
103
 66
     1
 10
0.0
 20
0.0
 30
0.0
  0
VERTEX
  8
0
  6
CONTINUOUS
 62
     3
  5
1B3
 10
1.856034
 20
38.341711
 30
0.0
  0
VERTEX
  8
0
  6
CONTINUOUS
 62
     3
  5
1B4
 10
1.950712
 20
38.920038
 30
0.0
  0
VERTEX
  8
0
  6
CONTINUOUS
 62
     3
  5
1B5
 10
2.042746
 20
39.496608
 30
0.0
  0
SEQEND
  8
0
  6
CONTINUOUS
 62
     3
  5
1B6
  0
POLYLINE
  8
0
  6
CONTINUOUS
 62
     3
  5
104
 66
     1
 10
0.0
 20
0.0
 30
0.0
  0
VERTEX
  8
0
  6
CONTINUOUS
 62
     3
  5
1B7
 10
2.441814
 20
37.329037
 30
0.0
  0
VERTEX
  8
0
  6
CONTINUOUS
 62
     3
  5
1B8
 10
2.150472
 20
37.835025
 30
0.0
  0
VERTEX
  8
0
  6
CONTINUOUS
 62
     3
  5
1B9
 10
1.856034
 20
38.341711
 30
0.0
  0
SEQEND
  8
0
  6
CONTINUOUS
 62
     3
  5
1BA
  0
POLYLINE
  8
0
  6
CONTINUOUS
 62
     3
  5
105
 66
     1
 10
0.0
 20
0.0
 30
0.0
  0
VERTEX
  8
0
  6
CONTINUOUS
 62
     3
  5
1BB
 10
2.790351
 20
37.073922
 30
0.0
  0
VERTEX
  8
0
  6
CONTINUOUS
 62
     3
  5
1BC
 10
2.616414
 20
37.201394
 30
0.0
  0
VERTEX
  8
0
  6
CONTINUOUS
 62
     3
  5
1BD
 10
2.441814
 20
37.329037
 30
0.0
  0
SEQEND
  8
0
  6
CONTINUOUS
 62
     3
  5
1BE
  0
POLYLINE
  8
0
  6
CONTINUOUS
 62
     3
  5
106
 66
     1
 10
0.0
 20
0.0
 30
0.0
  0
VERTEX
  8
0
  6
CONTINUOUS
 62
     3
  5
1BF
 10
1.496608
 20
35.957255
 30
0.0
  0
VERTEX
  8
0
  6
CONTINUOUS
 62
     3
  5
1C0
 10
1.678065
 20
35.839563
 30
0.0
  0
VERTEX
  8
0
  6
CONTINUOUS
 62
     3
  5
1C1
 10
1.859125
 20
35.722429
 30
0.0
  0
SEQEND
  8
0
  6
CONTINUOUS
 62
     3
  5
1C2
  0
ARC
  8
0
  6
CONTINUOUS
 62
     3
  5
107
 10
0.0
 20
38.0
 30
0.0
 40
2.940013
 50
219.223905
 51
251.639729
  0
ARC
  8
0
  6
CONTINUOUS
 62
     3
  5
108
 10
0.0
 20
38.0
 30
0.0
 40
2.940013
 50
129.223905
 51
161.639729
  0
ARC
  8
0
  6
CONTINUOUS
 62
     3
  5
109
 10
0.0
 20
38.0
 30
0.0
 40
2.940013
 50
39.223905
 51
71.639729
  0
ARC
  8
0
  6
CONTINUOUS
 62
     3
  5
10A
 10
0.0
 20
38.0
 30
0.0
 40
2.940013
 50
309.223905
 51
341.639729
  0
CIRCLE
  8
0
  6
CONTINUOUS
 62
     3
  5
10B
 10
51.961524
 20
-30.0
 30
0.0
 40
3.714286
  0
CIRCLE
  8
0
  6
CONTINUOUS
 62
    80
  5
10C
 10
51.961524
 20
-30.0
 30
0.0
 40
3.214286
  0
CIRCLE
  8
0
  6
CONTINUOUS
 62
     3
  5
10D
 10
51.961524
 20
-30.000001
 30
0.0
 40
8.5
  0
CIRCLE
  8
0
  6
CONTINUOUS
 62
    80
  5
10E
 10
51.961524
 20
-30.0
 30
0.0
 40
6.499904
  0
LINE
  8
0
  6
CONTINUOUS
 62
     3
  5
10F
 10
55.714311
 20
-36.499983
 30
0.0
 11
59.467082
 21
-29.999994
 31
0.0
  0
LINE
  8
0
  6
CONTINUOUS
 62
     3
  5
110
 10
55.714299
 20
-23.499983
 30
0.0
 11
59.467082
 21
-29.999994
 31
0.0
  0
LINE
  8
0
  6
CONTINUOUS
 62
     3
  5
111
 10
48.208758
 20
-23.499983
 30
0.0
 11
55.714299
 21
-23.499983
 31
0.0
  0
LINE
  8
0
  6
CONTINUOUS
 62
     3
  5
112
 10
44.455975
 20
-29.999993
 30
0.0
 11
48.208758
 21
-23.499983
 31
0.0
  0
LINE
  8
0
  6
CONTINUOUS
 62
     3
  5
113
 10
44.455975
 20
-29.999993
 30
0.0
 11
48.208745
 21
-36.499983
 31
0.0
  0
LINE
  8
0
  6
CONTINUOUS
 62
     3
  5
114
 10
55.714311
 20
-36.499983
 30
0.0
 11
59.467082
 21
-29.999994
 31
0.0
  0
LINE
  8
0
  6
CONTINUOUS
 62
     3
  5
115
 10
48.208745
 20
-36.499983
 30
0.0
 11
55.714311
 21
-36.499983
 31
0.0
  0
LINE
  8
0
  6
CONTINUOUS
 62
     3
  5
116
 10
48.208745
 20
-36.499983
 30
0.0
 11
55.714311
 21
-36.499983
 31
0.0
  0
CIRCLE
  8
0
  6
CONTINUOUS
 62
     3
  5
117
 10
32.908965
 20
-19.0
 30
0.0
 40
5.75
  0
ARC
  8
0
  6
CONTINUOUS
 62
     3
  5
118
 10
32.908965
 20
-19.0
 30
0.0
 40
10.0
 50
65.215908
 51
234.784091
  0
ARC
  8
0
  6
CONTINUOUS
 62
     3
  5
119
 10
51.961524
 20
-30.0
 30
0.0
 40
12.0
 50
234.784091
 51
65.215908
  0
LINE
  8
0
  6
CONTINUOUS
 62
     3
  5
11A
 10
43.499308
 20
-38.715199
 30
0.0
 11
27.142373
 21
-27.169848
 31
0.0
  0
LINE
  8
0
  6
CONTINUOUS
 62
     3
  5
11B
 10
45.041614
 20
-39.803818
 30
0.0
 11
43.499308
 21
-38.715199
 31
0.0
  0
LINE
  8
0
  6
CONTINUOUS
 62
     3
  5
11C
 10
37.100965
 20
-9.921061
 30
0.0
 11
56.991924
 21
-19.105273
 31
0.0
  0
LINE
  8
0
  6
CONTINUOUS
 62
     3
  5
11D
 10
45.041614
 20
-39.803818
 30
0.0
 11
27.142373
 21
-27.169848
 31
0.0
  0
CIRCLE
  8
0
  6
CONTINUOUS
 62
     3
  5
11E
 10
32.908965
 20
-19.0
 30
0.0
 40
5.5
  0
CIRCLE
  8
0
  6
CONTINUOUS
 62
    50
  5
11F
 10
32.908965
 20
-19.0
 30
0.0
 40
3.919255
  0
POLYLINE
  8
0
  6
CONTINUOUS
 62
     3
  5
120
 66
     1
 10
0.0
 20
0.0
 30
0.0
  0
VERTEX
  8
0
  6
CONTINUOUS
 62
     3
  5
1C3
 10
31.130737
 20
-18.367914
 30
0.0
  0
VERTEX
  8
0
  6
CONTINUOUS
 62
     3
  5
1C4
 10
30.759581
 20
-18.82142
 30
0.0
  0
VERTEX
  8
0
  6
CONTINUOUS
 62
     3
  5
1C5
 10
30.391592
 20
-19.274728
 30
0.0
  0
SEQEND
  8
0
  6
CONTINUOUS
 62
     3
  5
1C6
  0
POLYLINE
  8
0
  6
CONTINUOUS
 62
     3
  5
121
 66
     1
 10
0.0
 20
0.0
 30
0.0
  0
VERTEX
  8
0
  6
CONTINUOUS
 62
     3
  5
1C7
 10
31.129774
 20
-17.198023
 30
0.0
  0
VERTEX
  8
0
  6
CONTINUOUS
 62
     3
  5
1C8
 10
31.12909
 20
-17.781892
 30
0.0
  0
VERTEX
  8
0
  6
CONTINUOUS
 62
     3
  5
1C9
 10
31.130737
 20
-18.367914
 30
0.0
  0
SEQEND
  8
0
  6
CONTINUOUS
 62
     3
  5
1CA
  0
POLYLINE
  8
0
  6
CONTINUOUS
 62
     3
  5
122
 66
     1
 10
0.0
 20
0.0
 30
0.0
  0
VERTEX
  8
0
  6
CONTINUOUS
 62
     3
  5
1CB
 10
30.95549
 20
-16.802818
 30
0.0
  0
VERTEX
  8
0
  6
CONTINUOUS
 62
     3
  5
1CC
 10
31.042388
 20
-17.000181
 30
0.0
  0
VERTEX
  8
0
  6
CONTINUOUS
 62
     3
  5
1CD
 10
31.129774
 20
-17.198023
 30
0.0
  0
SEQEND
  8
0
  6
CONTINUOUS
 62
     3
  5
1CE
  0
POLYLINE
  8
0
  6
CONTINUOUS
 62
     3
  5
123
 66
     1
 10
0.0
 20
0.0
 30
0.0
  0
VERTEX
  8
0
  6
CONTINUOUS
 62
     3
  5
1CF
 10
32.634238
 20
-16.482627
 30
0.0
  0
VERTEX
  8
0
  6
CONTINUOUS
 62
     3
  5
1D0
 10
32.535938
 20
-16.289974
 30
0.0
  0
VERTEX
  8
0
  6
CONTINUOUS
 62
     3
  5
1D1
 10
32.437702
 20
-16.098003
 30
0.0
  0
SEQEND
  8
0
  6
CONTINUOUS
 62
     3
  5
1D2
  0
POLYLINE
  8
0
  6
CONTINUOUS
 62
     3
  5
124
 66
     1
 10
0.0
 20
0.0
 30
0.0
  0
VERTEX
  8
0
  6
CONTINUOUS
 62
     3
  5
1D3
 10
33.541051
 20
-17.221772
 30
0.0
  0
VERTEX
  8
0
  6
CONTINUOUS
 62
     3
  5
1D4
 10
33.087545
 20
-16.850616
 30
0.0
  0
VERTEX
  8
0
  6
CONTINUOUS
 62
     3
  5
1D5
 10
32.634238
 20
-16.482627
 30
0.0
  0
SEQEND
  8
0
  6
CONTINUOUS
 62
     3
  5
1D6
  0
POLYLINE
  8
0
  6
CONTINUOUS
 62
     3
  5
125
 66
     1
 10
0.0
 20
0.0
 30
0.0
  0
VERTEX
  8
0
  6
CONTINUOUS
 62
     3
  5
1D7
 10
34.710943
 20
-17.220809
 30
0.0
  0
VERTEX
  8
0
  6
CONTINUOUS
 62
     3
  5
1D8
 10
34.127074
 20
-17.220125
 30
0.0
  0
VERTEX
  8
0
  6
CONTINUOUS
 62
     3
  5
1D9
 10
33.541051
 20
-17.221772
 30
0.0
  0
SEQEND
  8
0
  6
CONTINUOUS
 62
     3
  5
1DA
  0
POLYLINE
  8
0
  6
CONTINUOUS
 62
     3
  5
126
 66
     1
 10
0.0
 20
0.0
 30
0.0
  0
VERTEX
  8
0
  6
CONTINUOUS
 62
     3
  5
1DB
 10
35.106147
 20
-17.046525
 30
0.0
  0
VERTEX
  8
0
  6
CONTINUOUS
 62
     3
  5
1DC
 10
34.908785
 20
-17.133423
 30
0.0
  0
VERTEX
  8
0
  6
CONTINUOUS
 62
     3
  5
1DD
 10
34.710943
 20
-17.220809
 30
0.0
  0
SEQEND
  8
0
  6
CONTINUOUS
 62
     3
  5
1DE
  0
POLYLINE
  8
0
  6
CONTINUOUS
 62
     3
  5
127
 66
     1
 10
0.0
 20
0.0
 30
0.0
  0
VERTEX
  8
0
  6
CONTINUOUS
 62
     3
  5
1DF
 10
35.426339
 20
-18.725273
 30
0.0
  0
VERTEX
  8
0
  6
CONTINUOUS
 62
     3
  5
1E0
 10
35.618991
 20
-18.626973
 30
0.0
  0
VERTEX
  8
0
  6
CONTINUOUS
 62
     3
  5
1E1
 10
35.810962
 20
-18.528737
 30
0.0
  0
SEQEND
  8
0
  6
CONTINUOUS
 62
     3
  5
1E2
  0
POLYLINE
  8
0
  6
CONTINUOUS
 62
     3
  5
128
 66
     1
 10
0.0
 20
0.0
 30
0.0
  0
VERTEX
  8
0
  6
CONTINUOUS
 62
     3
  5
1E3
 10
34.687193
 20
-19.632086
 30
0.0
  0
VERTEX
  8
0
  6
CONTINUOUS
 62
     3
  5
1E4
 10
35.05835
 20
-19.17858
 30
0.0
  0
VERTEX
  8
0
  6
CONTINUOUS
 62
     3
  5
1E5
 10
35.426339
 20
-18.725273
 30
0.0
  0
SEQEND
  8
0
  6
CONTINUOUS
 62
     3
  5
1E6
  0
POLYLINE
  8
0
  6
CONTINUOUS
 62
     3
  5
129
 66
     1
 10
0.0
 20
0.0
 30
0.0
  0
VERTEX
  8
0
  6
CONTINUOUS
 62
     3
  5
1E7
 10
34.688156
 20
-20.801978
 30
0.0
  0
VERTEX
  8
0
  6
CONTINUOUS
 62
     3
  5
1E8
 10
34.688841
 20
-20.218109
 30
0.0
  0
VERTEX
  8
0
  6
CONTINUOUS
 62
     3
  5
1E9
 10
34.687193
 20
-19.632086
 30
0.0
  0
SEQEND
  8
0
  6
CONTINUOUS
 62
     3
  5
1EA
  0
POLYLINE
  8
0
  6
CONTINUOUS
 62
     3
  5
12A
 66
     1
 10
0.0
 20
0.0
 30
0.0
  0
VERTEX
  8
0
  6
CONTINUOUS
 62
     3
  5
1EB
 10
34.862441
 20
-21.197182
 30
0.0
  0
VERTEX
  8
0
  6
CONTINUOUS
 62
     3
  5
1EC
 10
34.775543
 20
-20.99982
 30
0.0
  0
VERTEX
  8
0
  6
CONTINUOUS
 62
     3
  5
1ED
 10
34.688156
 20
-20.801978
 30
0.0
  0
SEQEND
  8
0
  6
CONTINUOUS
 62
     3
  5
1EE
  0
POLYLINE
  8
0
  6
CONTINUOUS
 62
     3
  5
12B
 66
     1
 10
0.0
 20
0.0
 30
0.0
  0
VERTEX
  8
0
  6
CONTINUOUS
 62
     3
  5
1EF
 10
33.183693
 20
-21.517374
 30
0.0
  0
VERTEX
  8
0
  6
CONTINUOUS
 62
     3
  5
1F0
 10
33.281993
 20
-21.710026
 30
0.0
  0
VERTEX
  8
0
  6
CONTINUOUS
 62
     3
  5
1F1
 10
33.380229
 20
-21.901997
 30
0.0
  0
SEQEND
  8
0
  6
CONTINUOUS
 62
     3
  5
1F2
  0
POLYLINE
  8
0
  6
CONTINUOUS
 62
     3
  5
12C
 66
     1
 10
0.0
 20
0.0
 30
0.0
  0
VERTEX
  8
0
  6
CONTINUOUS
 62
     3
  5
1F3
 10
32.276879
 20
-20.778228
 30
0.0
  0
VERTEX
  8
0
  6
CONTINUOUS
 62
     3
  5
1F4
 10
32.730385
 20
-21.149385
 30
0.0
  0
VERTEX
  8
0
  6
CONTINUOUS
 62
     3
  5
1F5
 10
33.183693
 20
-21.517374
 30
0.0
  0
SEQEND
  8
0
  6
CONTINUOUS
 62
     3
  5
1F6
  0
POLYLINE
  8
0
  6
CONTINUOUS
 62
     3
  5
12D
 66
     1
 10
0.0
 20
0.0
 30
0.0
  0
VERTEX
  8
0
  6
CONTINUOUS
 62
     3
  5
1F7
 10
31.106988
 20
-20.779191
 30
0.0
  0
VERTEX
  8
0
  6
CONTINUOUS
 62
     3
  5
1F8
 10
31.690857
 20
-20.779876
 30
0.0
  0
VERTEX
  8
0
  6
CONTINUOUS
 62
     3
  5
1F9
 10
32.276879
 20
-20.778228
 30
0.0
  0
SEQEND
  8
0
  6
CONTINUOUS
 62
     3
  5
1FA
  0
POLYLINE
  8
0
  6
CONTINUOUS
 62
     3
  5
12E
 66
     1
 10
0.0
 20
0.0
 30
0.0
  0
VERTEX
  8
0
  6
CONTINUOUS
 62
     3
  5
1FB
 10
30.711783
 20
-20.953476
 30
0.0
  0
VERTEX
  8
0
  6
CONTINUOUS
 62
     3
  5
1FC
 10
30.909146
 20
-20.866578
 30
0.0
  0
VERTEX
  8
0
  6
CONTINUOUS
 62
     3
  5
1FD
 10
31.106988
 20
-20.779191
 30
0.0
  0
SEQEND
  8
0
  6
CONTINUOUS
 62
     3
  5
1FE
  0
POLYLINE
  8
0
  6
CONTINUOUS
 62
     3
  5
12F
 66
     1
 10
0.0
 20
0.0
 30
0.0
  0
VERTEX
  8
0
  6
CONTINUOUS
 62
     3
  5
1FF
 10
30.391592
 20
-19.274728
 30
0.0
  0
VERTEX
  8
0
  6
CONTINUOUS
 62
     3
  5
200
 10
30.198939
 20
-19.373028
 30
0.0
  0
VERTEX
  8
0
  6
CONTINUOUS
 62
     3
  5
201
 10
30.006968
 20
-19.471264
 30
0.0
  0
SEQEND
  8
0
  6
CONTINUOUS
 62
     3
  5
202
  0
ARC
  8
0
  6
CONTINUOUS
 62
     3
  5
130
 10
32.908965
 20
-19.0
 30
0.0
 40
2.940013
 50
99.223905
 51
131.639729
  0
ARC
  8
0
  6
CONTINUOUS
 62
     3
  5
131
 10
32.908965
 20
-19.0
 30
0.0
 40
2.940013
 50
9.223905
 51
41.639729
  0
ARC
  8
0
  6
CONTINUOUS
 62
     3
  5
132
 10
32.908965
 20
-19.0
 30
0.0
 40
2.940013
 50
279.223905
 51
311.639729
  0
ARC
  8
0
  6
CONTINUOUS
 62
     3
  5
133
 10
32.908965
 20
-19.0
 30
0.0
 40
2.940013
 50
189.223905
 51
221.639729
  0
ARC
  8
0
  6
CONTINUOUS
 62
     3
  5
134
 10
0.0
 20
0.0
 30
0.0
 40
69.0
 50
337.072427
 51
359.999999
  0
ARC
  8
0
  6
CONTINUOUS
 62
     3
  5
135
 10
0.0
 20
0.0
 30
0.0
 40
69.0
 50
217.072427
 51
266.680803
  0
ARC
  8
0
  6
CONTINUOUS
 62
     3
  5
136
 10
0.0
 20
0.0
 30
0.0
 40
69.0
 50
97.072427
 51
202.927573
  0
ARC
  8
0
  6
CONTINUOUS
 62
     3
  5
137
 10
0.0
 20
0.0
 30
0.0
 40
69.0
 50
359.999999
 51
82.927573
  0
ARC
  8
0
  6
CONTINUOUS
 62
     3
  5
138
 10
0.0
 20
0.0
 30
0.0
 40
66.858889
 50
338.916456
 51
359.999999
  0
ARC
  8
0
  6
CONTINUOUS
 62
     3
  5
139
 10
0.0
 20
0.0
 30
0.0
 40
66.858889
 50
218.916456
 51
266.574384
  0
ARC
  8
0
  6
CONTINUOUS
 62
     3
  5
13A
 10
0.0
 20
0.0
 30
0.0
 40
66.858889
 50
98.916456
 51
201.083543
  0
ARC
  8
0
  6
CONTINUOUS
 62
     3
  5
13B
 10
0.0
 20
0.0
 30
0.0
 40
66.858889
 50
359.999999
 51
81.083543
  0
LINE
  8
0
  6
CONTINUOUS
 62
     3
  5
13C
 10
-3.994997
 20
-39.8
 30
0.0
 11
-3.994997
 21
-75.815033
 31
0.0
  0
LINE
  8
0
  6
CONTINUOUS
 62
     3
  5
13D
 10
3.994996
 20
-39.8
 30
0.0
 11
3.994996
 21
-75.815033
 31
0.0
  0
ENDBLK
  8
0
  5
13E
  0
ENDSEC
  0
SECTION
  2
ENTITIES
  0
INSERT
  8
0
  6
BYBLOCK
  5
13F
  2
MS_1
 10
0.0
 20
300.0
 30
0.0
  0
INSERT
  8
0
  6
BYBLOCK
  5
140
  2
MS_3
 10
0.0
 20
-150.0
 30
0.0
  0
INSERT
  8
0
  6
BYBLOCK
  5
141
  2
MS_2
 10
0.0
 20
0.0
 30
0.0
  0
ENDSEC
  0
EOF
