  0
SECTION
  2
HEADER
  9
$ACADVER
  1
AC1009
  9
$DWGCODEPAGE
  3
dos932
  9
$INSBASE
 10
0.0
 20
0.0
 30
0.0
  9
$EXTMIN
 10
-317.5
 20
-46.379866992176929
 30
0.0
  9
$EXTMAX
 10
243.13564967275238
 20
479.16666603088379
 30
0.0
  9
$LIMMIN
 10
-317.5
 20
-46.379866992176929
  9
$LIMMAX
 10
243.13564967275238
 20
479.16666603088379
  9
$ORTHOMODE
 70
               0
  9
$REGENMODE
 70
               1
  9
$FILLMODE
 70
               1
  9
$QTEXTMODE
 70
               0
  9
$MIRRTEXT
 70
               1
  9
$DRAGMODE
 70
               2
  9
$LTSCALE
 40
1.0
  9
$OSMODE
 70
               0
  9
$ATTMODE
 70
               1
  9
$TEXTSIZE
 40
4.1655998229980469
  9
$TRACEWID
 40
0.05
  9
$TEXTSTYLE
  7
MX_NOTE_STANDARD
  9
$CLAYER
  8
0
  9
$CELTYPE
  6
CONTINUOUS
  9
$CECOLOR
 62
             256
  9
$DIMSCALE
 40
1.0
  9
$DIMASZ
 40
2.5
  9
$DIMEXO
 40
0.5
  9
$DIMDLI
 40
3.75
  9
$DIMRND
 40
0.0
  9
$DIMDLE
 40
0.0
  9
$DIMEXE
 40
1.0
  9
$DIMTP
 40
0.0
  9
$DIMTM
 40
0.0
  9
$DIMTXT
 40
2.5
  9
$DIMCEN
 40
2.5
  9
$DIMTSZ
 40
0.0
  9
$DIMTOL
 70
               0
  9
$DIMLIM
 70
               0
  9
$DIMTIH
 70
               0
  9
$DIMTOH
 70
               0
  9
$DIMSE1
 70
               0
  9
$DIMSE2
 70
               0
  9
$DIMTAD
 70
               1
  9
$DIMZIN
 70
               8
  9
$DIMBLK
  1

  9
$DIMASO
 70
               1
  9
$DIMSHO
 70
               1
  9
$DIMPOST
  1

  9
$DIMAPOST
  1

  9
$DIMALT
 70
               0
  9
$DIMALTD
 70
               4
  9
$DIMALTF
 40
0.03937007874016
  9
$DIMLFAC
 40
1.0
  9
$DIMTOFL
 70
               1
  9
$DIMTVP
 40
0.0
  9
$DIMTIX
 70
               0
  9
$DIMSOXD
 70
               0
  9
$DIMSAH
 70
               0
  9
$DIMBLK1
  1

  9
$DIMBLK2
  1

  9
$DIMSTYLE
  2
MXDIMSTYLE
  9
$DIMCLRD
 70
               0
  9
$DIMCLRE
 70
               0
  9
$DIMCLRT
 70
               0
  9
$DIMTFAC
 40
1.0
  9
$DIMGAP
 40
1.0
  9
$LUNITS
 70
               2
  9
$LUPREC
 70
               4
  9
$AXISMODE
 70
               0
  9
$AXISUNIT
 10
0.0
 20
0.0
  9
$SKETCHINC
 40
0.1
  9
$FILLETRAD
 40
0.0
  9
$AUNITS
 70
               0
  9
$AUPREC
 70
               0
  9
$MENU
  1
acad
  9
$ELEVATION
 40
0.0
  9
$PELEVATION
 40
0.0
  9
$THICKNESS
 40
0.0
  9
$LIMCHECK
 70
               0
  9
$BLIPMODE
 70
               1
  9
$CHAMFERA
 40
0.0
  9
$CHAMFERB
 40
0.0
  9
$SKPOLY
 70
               0
  9
$TDCREATE
 40
2455218.661446760
  9
$TDUPDATE
 40
2455218.661446760
  9
$TDINDWG
 40
0.0000000000
  9
$TDUSRTIMER
 40
0.0000000000
  9
$USRTIMER
 70
               1
  9
$ANGBASE
 50
0.0
  9
$ANGDIR
 70
               0
  9
$PDMODE
 70
               0
  9
$PDSIZE
 40
0.0
  9
$PLINEWID
 40
0.0
  9
$COORDS
 70
               1
  9
$SPLFRAME
 70
               0
  9
$SPLINETYPE
 70
               6
  9
$SPLINESEGS
 70
               8
  9
$ATTDIA
 70
               0
  9
$ATTREQ
 70
               1
  9
$HANDLING
 70
               1
  9
$HANDSEED
  5
336
  9
$SURFTAB1
 70
               6
  9
$SURFTAB2
 70
               6
  9
$SURFTYPE
 70
               6
  9
$SURFU
 70
               6
  9
$SURFV
 70
               6
  9
$UCSNAME
  2

  9
$UCSORG
 10
0.0
 20
0.0
 30
0.0
  9
$UCSXDIR
 10
1.0
 20
0.0
 30
0.0
  9
$UCSYDIR
 10
0.0
 20
1.0
 30
0.0
  9
$PUCSNAME
  2

  9
$PUCSORG
 10
0.0
 20
0.0
 30
0.0
  9
$PUCSXDIR
 10
1.0
 20
0.0
 30
0.0
  9
$PUCSYDIR
 10
0.0
 20
1.0
 30
0.0
  9
$USERI1
 70
               0
  9
$USERI2
 70
               0
  9
$USERI3
 70
               0
  9
$USERI4
 70
               0
  9
$USERI5
 70
               0
  9
$USERR1
 40
0.0
  9
$USERR2
 40
0.0
  9
$USERR3
 40
0.0
  9
$USERR4
 40
0.0
  9
$USERR5
 40
0.0
  9
$WORLDVIEW
 70
               1
  9
$SHADEDGE
 70
               3
  9
$SHADEDIF
 70
              70
  9
$TILEMODE
 70
               1
  9
$MAXACTVP
 70
              16
  9
$PINSBASE
 10
0.0
 20
0.0
 30
0.0
  9
$PLIMCHECK
 70
               0
  9
$PEXTMIN
 10
1.0000000000000000E+20
 20
1.0000000000000000E+20
 30
1.0000000000000000E+20
  9
$PEXTMAX
 10
-1.0000000000000000E+20
 20
-1.0000000000000000E+20
 30
-1.0000000000000000E+20
  9
$PLIMMIN
 10
0.0
 20
0.0
  9
$PLIMMAX
 10
12.0
 20
9.0
  9
$UNITMODE
 70
               0
  9
$VISRETAIN
 70
               0
  9
$PLINEGEN
 70
               1
  9
$PSLTSCALE
 70
               0
  9
$TREEDEPTH
 70
            3020
  9
$DWGCODEPAGE
  3
dos932
  0
ENDSEC
  0
SECTION
  2
TABLES
  0
TABLE
  2
VPORT
 70
               1
  0
VPORT
  2
*ACTIVE
 70
               0
 10
0.0
 20
0.0
 11
1.0
 21
1.0
 12
-37.18217516362381
 22
216.39339951935347
 13
0.0
 23
0.0
 14
1.0
 24
1.0
 15
0.0
 25
0.0
 16
0.0
 26
0.0
 36
1.0
 17
0.0
 27
0.0
 37
0.0
 40
530.80199835329142
 41
1.7320508075688772
 42
50.0
 43
0.0
 44
0.0
 50
0.0
 51
0.0
 71
               0
 72
             100
 73
               1
 74
               1
 75
               0
 76
               0
 77
               0
 78
               0
  0
ENDTAB
  0
TABLE
  2
LTYPE
 70
               3
  0
LTYPE
  2
CONTINUOUS
 70
              64
  3
Solid line
 72
              65
 73
               0
 40
0.0
  0
LTYPE
  2
CENTER
 70
              64
  3
Center ____ _ ____ _ ____ _ ____ _ ____ _ ____
 72
              65
 73
               4
 40
50.800000000000004
 49
31.75
 49
-6.3499999999999996
 49
6.3499999999999996
 49
-6.3499999999999996
  0
LTYPE
  2
DASHED
 70
              64
  3
Dashed __ __ __ __ __ __ __ __ __ __ __ __ __ _
 72
              65
 73
               2
 40
19.049999999999997
 49
12.699999999999999
 49
-6.3499999999999996
  0
ENDTAB
  0
TABLE
  2
LAYER
 70
               5
  0
LAYER
  2
0
 70
               0
 62
               7
  6
CONTINUOUS
  0
LAYER
  2
1
 70
               0
 62
               7
  6
CONTINUOUS
  0
LAYER
  2
30
 70
               0
 62
               7
  6
CONTINUOUS
  0
LAYER
  2
DEFPOINTS
 70
               0
 62
               7
  6
CONTINUOUS
  0
LAYER
  2
_CONSTR
 70
               0
 62
               5
  6
CONTINUOUS
  0
ENDTAB
  0
TABLE
  2
STYLE
 70
               1
  0
STYLE
  2
MX_NOTE_STANDARD
 70
               0
 40
0.0
 41
1.0
 50
0.0
 71
               0
 42
4.1655998229980469
  3
txt.shx
  4
extfont.shx
  0
ENDTAB
  0
TABLE
  2
VIEW
 70
               0
  0
ENDTAB
  0
TABLE
  2
UCS
 70
               0
  0
ENDTAB
  0
TABLE
  2
APPID
 70
               1
  0
APPID
  2
ACAD
 70
               0
  0
ENDTAB
  0
TABLE
  2
DIMSTYLE
 70
               1
  0
DIMSTYLE
  2
MXDIMSTYLE
 70
               0
  3

  4

  5

  6

  7

 40
1.0
 41
2.5
 42
0.5
 43
3.75
 44
1.0
 45
0.0
 46
0.0
 47
0.0
 48
0.0
 71
               0
 72
               0
 73
               0
 74
               0
 75
               0
 76
               0
 77
               1
 78
               8
140
2.5
141
2.5
142
0.0
143
0.03937007874016
144
1.0
145
0.0
146
1.0
147
1.0
170
               0
171
               4
172
               1
173
               0
174
               0
175
               0
176
               0
177
               0
178
               0
  0
ENDTAB
  0
ENDSEC
  0
SECTION
  2
BLOCKS
  0
BLOCK
  8
0
  5
22
  2
MS_1
 70
               0
 10
0.0
 20
0.0
 30
0.0
  3
MS_1
  0
LINE
  8
0
  6
CENTER
 62
              50
  5
24
 10
0.0
 20
0.7192542684661589
 30
0.0
 11
0.0
 21
-15.638528482519291
 31
0.0
  0
ARC
  8
0
  6
CONTINUOUS
 62
              50
  5
25
 10
-2.8864750000000114
 20
-0.1794800000000123
 30
0.0
 40
0.1794783333333333
 50
90.0
 51
180.0
  0
ARC
  8
0
  6
CONTINUOUS
 62
              50
  5
26
 10
3.0363333333333244
 20
-0.1794800000000123
 30
0.0
 40
0.1794783333333333
 50
0.0
 51
90.0
  0
LINE
  8
0
  6
CONTINUOUS
 62
              50
  5
27
 10
-2.8864750000000114
 20
0.0
 30
0.0
 11
3.0363333333333244
 21
0.0
 31
0.0
  0
LINE
  8
0
  6
CONTINUOUS
 62
              50
  5
28
 10
-2.0189916666666576
 20
-2.5127066666666451
 30
0.0
 11
2.1688516666666615
 21
-2.5127066666666451
 31
0.0
  0
LINE
  8
0
  6
CONTINUOUS
 62
              50
  5
29
 10
-3.06595333333334
 20
-0.4786116666666089
 30
0.0
 11
3.2158116666666601
 21
-0.4786116666666089
 31
0.0
  0
LINE
  8
0
  6
CONTINUOUS
 62
              50
  5
2A
 10
-2.3429233333333386
 20
-2.3256849999999645
 30
0.0
 11
-2.3429233333333386
 21
-0.7417733333333558
 31
0.0
  0
LINE
  8
0
  6
CONTINUOUS
 62
              50
  5
2B
 10
2.4927816666666516
 20
-2.3256849999999645
 30
0.0
 11
2.4927816666666516
 21
-0.7417733333333558
 31
0.0
  0
LINE
  8
0
  6
CONTINUOUS
 62
              50
  5
2C
 10
-1.1339966666666612
 20
-2.3256849999999645
 30
0.0
 11
-1.1339966666666612
 21
-0.6101916666667648
 31
0.0
  0
LINE
  8
0
  6
CONTINUOUS
 62
              50
  5
2D
 10
1.2838550000000026
 20
-2.3256849999999645
 30
0.0
 11
1.2838550000000026
 21
-0.6101916666667648
 31
0.0
  0
LINE
  8
0
  6
CONTINUOUS
 62
              50
  5
2E
 10
-3.06595333333334
 20
-0.4786116666666089
 30
0.0
 11
-2.3429233333333386
 21
-0.7417733333333558
 31
0.0
  0
LINE
  8
0
  6
CONTINUOUS
 62
              50
  5
2F
 10
3.2158116666666601
 20
-0.4786116666666089
 30
0.0
 11
2.4927816666666516
 21
-0.7417733333333558
 31
0.0
  0
ARC
  8
0
  6
CONTINUOUS
 62
              50
  5
30
 10
-1.9663400000000095
 20
1.4177150000000438
 30
0.0
 40
2.1920783333333334
 50
260.10793200000001
 51
292.31542200000001
  0
ARC
  8
0
  6
CONTINUOUS
 62
              50
  5
31
 10
2.1161983333333225
 20
1.4177150000000438
 30
0.0
 40
2.1920783333333334
 50
247.68457799999999
 51
279.89206799999999
  0
ARC
  8
0
  6
CONTINUOUS
 62
              50
  5
32
 10
0.0749299999999877
 20
3.7589083333333519
 30
0.0
 40
4.5332699999999999
 50
254.53327900000002
 51
285.46672100000001
  0
ARC
  8
0
  6
CONTINUOUS
 62
              50
  5
33
 10
1.8883183333333378
 20
-1.4423683333333202
 30
0.0
 40
1.0703383333333332
 50
235.61575300000001
 51
295.61575299999998
  0
ARC
  8
0
  6
CONTINUOUS
 62
              50
  5
34
 10
-1.7384599999999963
 20
-1.4423683333333202
 30
0.0
 40
1.0703383333333332
 50
244.38424699999999
 51
304.38424700000002
  0
ARC
  8
0
  6
CONTINUOUS
 62
              50
  5
35
 10
0.0749299999999877
 20
1.4881149999999934
 30
0.0
 40
4.0008216666666661
 50
252.41204600000003
 51
287.58795400000002
  0
LINE
  8
0
  6
CONTINUOUS
 62
              50
  5
36
 10
2.1688516666666615
 20
-2.5127066666666451
 30
0.0
 11
2.4927816666666516
 21
-2.3256849999999645
 31
0.0
  0
LINE
  8
0
  6
CONTINUOUS
 62
              50
  5
37
 10
-2.0189916666666576
 20
-2.5127066666666451
 30
0.0
 11
-2.3429233333333386
 21
-2.3256849999999645
 31
0.0
  0
LINE
  8
0
  6
CONTINUOUS
 62
              50
  5
38
 10
3.2158116666666601
 20
-0.4786116666666089
 30
0.0
 11
3.2158116666666601
 21
-0.1794800000000123
 31
0.0
  0
LINE
  8
0
  6
CONTINUOUS
 62
              50
  5
39
 10
-3.06595333333334
 20
-0.4786116666666089
 30
0.0
 11
-3.06595333333334
 21
-0.1794800000000123
 31
0.0
  0
LINE
  8
0
  6
CONTINUOUS
 62
             110
  5
3A
 10
1.5000000000000071
 20
-10.498191666666628
 30
0.0
 11
-1.5000000000000071
 21
-10.498191666666628
 31
0.0
  0
LINE
  8
0
  6
CONTINUOUS
 62
             110
  5
3B
 10
0.9999999999999929
 20
-10.998191666666742
 30
0.0
 11
0.9999999999999929
 21
-2.40429000000006
 31
0.0
  0
LINE
  8
0
  6
CONTINUOUS
 62
             110
  5
3C
 10
-0.9999999999999929
 20
-10.998191666666742
 30
0.0
 11
-0.9999999999999929
 21
-2.3655983333333097
 31
0.0
  0
LINE
  8
0
  6
CONTINUOUS
 62
               3
  5
3D
 10
0.0
 20
-1.2510566666666705
 30
0.0
 11
0.000185000000009
 21
-1.2510566666666705
 31
0.0
  0
LINE
  8
0
  6
CONTINUOUS
 62
               3
  5
3E
 10
1.5000000000000071
 20
-2.4397816666666472
 30
0.0
 11
1.5000000000000071
 21
-10.498191666666628
 31
0.0
  0
LINE
  8
0
  6
CONTINUOUS
 62
               3
  5
3F
 10
0.9999999999999929
 20
-10.998191666666742
 30
0.0
 11
-0.9999999999999929
 21
-10.998191666666742
 31
0.0
  0
LINE
  8
0
  6
CONTINUOUS
 62
               3
  5
40
 10
-1.5000000000000071
 20
-10.498191666666628
 30
0.0
 11
-1.5000000000000071
 21
-2.5127066666666451
 31
0.0
  0
LINE
  8
0
  6
CONTINUOUS
 62
               3
  5
41
 10
1.5000000000000071
 20
-10.498191666666628
 30
0.0
 11
0.9999999999999929
 21
-10.998191666666742
 31
0.0
  0
LINE
  8
0
  6
CONTINUOUS
 62
               3
  5
42
 10
-0.9999999999999929
 20
-10.998191666666742
 30
0.0
 11
-1.5000000000000071
 21
-10.498191666666628
 31
0.0
  0
ENDBLK
  8
0
  5
43
  0
ENDSEC
  0
SECTION
  2
ENTITIES
  0
LINE
  8
0
  6
CONTINUOUS
 62
               3
  5
44
 10
221.88564667275239
 20
120.0
 30
0.0
 11
221.88564667275239
 21
129.37868
 31
0.0
  0
LINE
  8
0
  6
CONTINUOUS
 62
               3
  5
45
 10
151.88564667275239
 20
120.0
 30
0.0
 11
151.88564667275239
 21
129.37868
 31
0.0
  0
ARC
  8
0
  6
CONTINUOUS
 62
               3
  5
46
 10
220.88564667275239
 20
120.0
 30
0.0
 40
1.0
 50
270.0
 51
0.0
  0
ARC
  8
0
  6
CONTINUOUS
 62
               3
  5
47
 10
152.88564667275239
 20
120.0
 30
0.0
 40
1.0
 50
180.0
 51
270.0
  0
LINE
  8
0
  6
CONTINUOUS
 62
               3
  5
48
 10
152.88564667275239
 20
119.0
 30
0.0
 11
220.88564667275239
 21
119.0
 31
0.0
  0
LINE
  8
0
  6
CONTINUOUS
 62
               3
  5
49
 10
153.88564667275239
 20
119.0
 30
0.0
 11
153.88564667275239
 21
117.5
 31
0.0
  0
LINE
  8
0
  6
CONTINUOUS
 62
               3
  5
4A
 10
153.88564667275239
 20
117.5
 30
0.0
 11
169.88564667275239
 21
117.5
 31
0.0
  0
LINE
  8
0
  6
CONTINUOUS
 62
               3
  5
4B
 10
169.88564667275239
 20
117.5
 30
0.0
 11
169.88564667275239
 21
119.0
 31
0.0
  0
LINE
  8
0
  6
CONTINUOUS
 62
               3
  5
4C
 10
153.88564667275239
 20
117.5
 30
0.0
 11
145.38564667275239
 21
112.0
 31
0.0
  0
LINE
  8
0
  6
CONTINUOUS
 62
               3
  5
4D
 10
145.38564667275239
 20
112.0
 30
0.0
 11
178.38564667275239
 21
112.0
 31
0.0
  0
LINE
  8
0
  6
CONTINUOUS
 62
               3
  5
4E
 10
178.38564667275239
 20
112.0
 30
0.0
 11
169.88564667275239
 21
117.5
 31
0.0
  0
LINE
  8
0
  6
CONTINUOUS
 62
               3
  5
4F
 10
215.88564667275239
 20
112.0
 30
0.0
 11
207.38564667275239
 21
117.5
 31
0.0
  0
LINE
  8
0
  6
CONTINUOUS
 62
               3
  5
50
 10
182.88564667275239
 20
112.0
 30
0.0
 11
215.88564667275239
 21
112.0
 31
0.0
  0
LINE
  8
0
  6
CONTINUOUS
 62
               3
  5
51
 10
191.38564667275239
 20
117.5
 30
0.0
 11
182.88564667275239
 21
112.0
 31
0.0
  0
LINE
  8
0
  6
CONTINUOUS
 62
               3
  5
52
 10
207.38564667275239
 20
117.5
 30
0.0
 11
207.38564667275239
 21
119.0
 31
0.0
  0
LINE
  8
0
  6
CONTINUOUS
 62
               3
  5
53
 10
191.38564667275239
 20
117.5
 30
0.0
 11
207.38564667275239
 21
117.5
 31
0.0
  0
LINE
  8
0
  6
CONTINUOUS
 62
               3
  5
54
 10
191.38564667275239
 20
119.0
 30
0.0
 11
191.38564667275239
 21
117.5
 31
0.0
  0
CIRCLE
  8
0
  6
CONTINUOUS
 62
               3
  5
55
 10
161.88564667275239
 20
0.0
 30
0.0
 40
16.5
  0
ARC
  8
0
  6
CONTINUOUS
 62
               3
  5
56
 10
186.88564667275239
 20
0.0
 30
0.0
 40
35.0
 50
205.634601
 51
266.31415800000002
  0
CIRCLE
  8
0
  6
CONTINUOUS
 62
               3
  5
57
 10
199.38564667275239
 20
-21.650634999999994
 30
0.0
 40
16.5
  0
CIRCLE
  8
0
  6
CONTINUOUS
 62
               3
  5
58
 10
199.38564667275239
 20
21.650635000000001
 30
0.0
 40
16.5
  0
ARC
  8
0
  6
CONTINUOUS
 62
               3
  5
59
 10
186.88564667275239
 20
0.0
 30
0.0
 40
35.0
 50
325.63459999999998
 51
34.365398999999996
  0
ARC
  8
0
  6
CONTINUOUS
 62
               3
  5
5A
 10
186.88564667275239
 20
0.0
 30
0.0
 40
35.0
 50
85.634601000000004
 51
154.36539999999999
  0
CIRCLE
  8
0
  6
DASHED
 62
              80
  5
5C
 10
199.38564667275239
 20
-21.650634999999994
 30
0.0
 40
6.75
  0
CIRCLE
  8
0
  6
DASHED
 62
              80
  5
5D
 10
199.38564667275239
 20
-21.650634999999994
 30
0.0
 40
6.25
  0
CIRCLE
  8
0
  6
DASHED
 62
              80
  5
5E
 10
161.88564667275239
 20
0.0
 30
0.0
 40
6.25
  0
CIRCLE
  8
0
  6
DASHED
 62
              80
  5
5F
 10
199.38564667275239
 20
21.650635000000001
 30
0.0
 40
6.75
  0
ARC
  8
0
  6
CONTINUOUS
 62
               3
  5
60
 10
176.88564667275239
 20
-17.320508000000004
 30
0.0
 40
2.5
 50
59.999999999999993
 51
239.99999999999997
  0
ARC
  8
0
  6
CONTINUOUS
 62
               3
  5
61
 10
186.88564667275239
 20
0.0
 30
0.0
 40
32.75
 50
90.0
 51
142.99527399999999
  0
ARC
  8
0
  6
CONTINUOUS
 62
               3
  5
62
 10
186.88564667275239
 20
0.0
 30
0.0
 40
3.5
 50
180.0
 51
229.994799
  0
CIRCLE
  8
0
  6
DASHED
 62
              80
  5
63
 10
199.38564667275239
 20
-21.650634999999994
 30
0.0
 40
4.75
  0
CIRCLE
  8
0
  6
DASHED
 62
              80
  5
64
 10
199.38564667275239
 20
21.650635000000001
 30
0.0
 40
4.75
  0
CIRCLE
  8
0
  6
DASHED
 62
              80
  5
65
 10
161.88564667275239
 20
0.0
 30
0.0
 40
4.75
  0
CIRCLE
  8
0
  6
CONTINUOUS
 62
               3
  5
66
 10
176.88564667275239
 20
17.320508
 30
0.0
 40
2.5
  0
LINE
  8
0
  6
CONTINUOUS
 62
               3
  5
67
 10
185.13564667275239
 20
3.0310890000000015
 30
0.0
 11
176.21416167275237
 21
8.1819109999999995
 31
0.0
  0
LINE
  8
0
  6
CONTINUOUS
 62
               3
  5
68
 10
183.38564667275239
 20
0.0
 30
0.0
 11
178.10110867275239
 21
3.0510289999999998
 31
0.0
  0
ARC
  8
0
  6
CONTINUOUS
 62
               3
  5
69
 10
162.3291316727524
 20
18.507838
 30
0.0
 40
2.0
 50
142.99527399999999
 51
239.99999999999997
  0
ARC
  8
0
  6
CONTINUOUS
 62
               3
  5
6A
 10
206.88564667275239
 20
0.0
 30
0.0
 40
2.5
 50
180.0
 51
0.0
  0
CIRCLE
  8
0
  6
DASHED
 62
              80
  5
6B
 10
161.88564667275239
 20
0.0
 30
0.0
 40
6.75
  0
CIRCLE
  8
0
  6
DASHED
 62
              80
  5
6C
 10
199.38564667275239
 20
21.650635000000001
 30
0.0
 40
6.25
  0
ARC
  8
0
  6
CONTINUOUS
 62
               3
  5
6D
 10
165.23501167275236
 20
-12.5
 30
0.0
 40
5.0
 50
233.06143500000002
 51
336.93856499999998
  0
ARC
  8
0
  6
CONTINUOUS
 62
               3
  5
6E
 10
208.53628167275235
 20
-12.5
 30
0.0
 40
5.0
 50
353.06143500000002
 51
96.938564999999969
  0
ARC
  8
0
  6
CONTINUOUS
 62
               3
  5
6F
 10
186.88564667275239
 20
0.0
 30
0.0
 40
17.5
 50
239.99999999999997
 51
258.86336
  0
ARC
  8
0
  6
CONTINUOUS
 62
               3
  5
70
 10
186.88564667275239
 20
0.0
 30
0.0
 40
22.5
 50
239.99999999999997
 51
259.77865800000001
  0
ARC
  8
0
  6
CONTINUOUS
 62
               3
  5
71
 10
186.88564667275239
 20
0.0
 30
0.0
 40
32.75
 50
209.492535
 51
266.06054599999999
  0
ARC
  8
0
  6
CONTINUOUS
 62
               3
  5
72
 10
186.88564667275239
 20
0.0
 30
0.0
 40
32.75
 50
329.49253499999998
 51
30.50746500000001
  0
ARC
  8
0
  6
CONTINUOUS
 62
               3
  5
73
 10
186.88564667275239
 20
25.0
 30
0.0
 40
5.0
 50
113.061435
 51
216.93856500000001
  0
ARC
  8
0
  6
CONTINUOUS
 62
               3
  5
74
 10
186.88564667275239
 20
0.0
 30
0.0
 40
22.5
 50
0.0
 51
19.778658
  0
ARC
  8
0
  6
CONTINUOUS
 62
               3
  5
75
 10
186.88564667275239
 20
0.0
 30
0.0
 40
17.5
 50
0.0
 51
18.86336
  0
LINE
  8
0
  6
CONTINUOUS
 62
               3
  5
76
 10
221.88564667275239
 20
129.37868
 30
0.0
 11
151.88564667275239
 21
129.37868
 31
0.0
  0
ARC
  8
0
  6
CONTINUOUS
 62
               3
  5
77
 10
220.38564667275239
 20
129.37868
 30
0.0
 40
1.5
 50
0.0
 51
45.0
  0
ARC
  8
0
  6
CONTINUOUS
 62
               3
  5
78
 10
153.38564667275239
 20
129.37868
 30
0.0
 40
1.5
 50
135.0
 51
180.0
  0
LINE
  8
0
  6
CONTINUOUS
 62
               3
  5
79
 10
219.88564667275239
 20
282.62132000000003
 30
0.0
 11
219.88564667275239
 21
348.0
 31
0.0
  0
LINE
  8
0
  6
CONTINUOUS
 62
               3
  5
7A
 10
152.32498667275235
 20
280.43934000000002
 30
0.0
 11
219.88564667275239
 21
348.0
 31
0.0
  0
LINE
  8
0
  6
CONTINUOUS
 62
               3
  5
7B
 10
153.88564667275239
 20
349.0
 30
0.0
 11
153.88564667275239
 21
282.0
 31
0.0
  0
LINE
  8
0
  6
CONTINUOUS
 62
               3
  5
7C
 10
151.88564667275239
 20
354.0
 30
0.0
 11
221.88564667275239
 21
354.0
 31
0.0
  0
ARC
  8
0
  6
CONTINUOUS
 62
               3
  5
7D
 10
153.38564667275239
 20
363.5
 30
0.0
 40
1.5
 50
90.0
 51
180.0
  0
ARC
  8
0
  6
CONTINUOUS
 62
               3
  5
7E
 10
220.38564667275239
 20
363.5
 30
0.0
 40
1.5
 50
0.0
 51
90.0
  0
LINE
  8
0
  6
CONTINUOUS
 62
               3
  5
7F
 10
221.88564667275239
 20
354.0
 30
0.0
 11
219.88564667275239
 21
349.0
 31
0.0
  0
LINE
  8
0
  6
CONTINUOUS
 62
               3
  5
80
 10
151.88564667275239
 20
354.0
 30
0.0
 11
153.88564667275239
 21
349.0
 31
0.0
  0
LINE
  8
0
  6
CONTINUOUS
 62
               3
  5
81
 10
151.88564667275239
 20
363.5
 30
0.0
 11
151.88564667275239
 21
354.0
 31
0.0
  0
LINE
  8
0
  6
CONTINUOUS
 62
               3
  5
82
 10
221.88564667275239
 20
363.5
 30
0.0
 11
221.88564667275239
 21
354.0
 31
0.0
  0
LINE
  8
0
  6
CONTINUOUS
 62
               3
  5
83
 10
219.88564667275239
 20
349.0
 30
0.0
 11
219.88564667275239
 21
348.0
 31
0.0
  0
ARC
  8
0
  6
CONTINUOUS
 62
               3
  5
84
 10
177.31251067275235
 20
422.08264000000003
 30
0.0
 40
10.0
 50
94.992683
 51
114.94348100000001
  0
ARC
  8
0
  6
CONTINUOUS
 62
               3
  5
85
 10
196.45878067275237
 20
422.08264100000002
 30
0.0
 40
10.0
 50
65.056522999999999
 51
85.007320000000007
  0
ARC
  8
0
  6
CONTINUOUS
 62
               3
  5
86
 10
186.88564667275239
 20
401.5
 30
0.0
 40
32.700000000000003
 50
114.94348100000001
 51
180.0
  0
ARC
  8
0
  6
CONTINUOUS
 62
               3
  5
87
 10
186.88564967275238
 20
312.5
 30
0.0
 40
120.0
 50
90.0
 51
94.992683
  0
LINE
  8
0
  6
CONTINUOUS
 62
               3
  5
88
 10
153.63564667275239
 20
365.0
 30
0.0
 11
154.18564667275234
 21
401.5
 31
0.0
  0
LINE
  8
0
  6
CONTINUOUS
 62
               3
  5
89
 10
219.58564667275232
 20
401.5
 30
0.0
 11
220.13564667275239
 21
365.0
 31
0.0
  0
ARC
  8
0
  6
CONTINUOUS
 62
               3
  5
8A
 10
186.88564667275239
 20
401.5
 30
0.0
 40
32.700000000000003
 50
0.0
 51
65.056522999999999
  0
ARC
  8
0
  6
CONTINUOUS
 62
               3
  5
8B
 10
186.88564967275238
 20
312.5
 30
0.0
 40
120.0
 50
85.007320000000007
 51
90.0
  0
LINE
  8
0
  6
CONTINUOUS
 62
               3
  5
8C
 10
153.88564667275239
 20
349.0
 30
0.0
 11
219.88564667275239
 21
349.0
 31
0.0
  0
LINE
  8
0
  6
CONTINUOUS
 62
               3
  5
8D
 10
153.38564667275239
 20
365.0
 30
0.0
 11
220.38564667275239
 21
365.0
 31
0.0
  0
LINE
  8
0
  6
CONTINUOUS
 62
               3
  5
8E
 10
147.88564667275239
 20
200.0
 30
0.0
 11
147.88564667275239
 21
130.0
 31
0.0
  0
ARC
  8
0
  6
CONTINUOUS
 62
               3
  5
8F
 10
138.38564667275239
 20
198.5
 30
0.0
 40
1.5
 50
90.0
 51
180.0
  0
ARC
  8
0
  6
CONTINUOUS
 62
               3
  5
90
 10
138.38564667275239
 20
131.5
 30
0.0
 40
1.5
 50
180.0
 51
270.0
  0
LINE
  8
0
  6
CONTINUOUS
 62
               3
  5
91
 10
147.88564667275239
 20
130.0
 30
0.0
 11
152.88564667275239
 21
132.0
 31
0.0
  0
LINE
  8
0
  6
CONTINUOUS
 62
               3
  5
92
 10
147.88564667275239
 20
200.0
 30
0.0
 11
152.88564667275239
 21
198.0
 31
0.0
  0
LINE
  8
0
  6
CONTINUOUS
 62
               3
  5
93
 10
138.38564667275239
 20
200.0
 30
0.0
 11
147.88564667275239
 21
200.0
 31
0.0
  0
LINE
  8
0
  6
CONTINUOUS
 62
               3
  5
94
 10
152.88564667275239
 20
198.0
 30
0.0
 11
219.88564667275239
 21
198.0
 31
0.0
  0
LINE
  8
0
  6
CONTINUOUS
 62
               3
  5
95
 10
138.38564667275239
 20
130.0
 30
0.0
 11
147.88564667275239
 21
130.0
 31
0.0
  0
LINE
  8
0
  6
CONTINUOUS
 62
               3
  5
96
 10
152.88564667275239
 20
132.0
 30
0.0
 11
153.88564667275239
 21
132.0
 31
0.0
  0
LINE
  8
0
  6
CONTINUOUS
 62
               3
  5
97
 10
186.88564667275239
 20
165.0
 30
0.0
 11
219.88564667275239
 21
198.0
 31
0.0
  0
ARC
  8
0
  6
CONTINUOUS
 62
               3
  5
98
 10
221.38564667275239
 20
132.62132
 30
0.0
 40
1.5
 50
180.0
 51
225.0
  0
LINE
  8
0
  6
CONTINUOUS
 62
               3
  5
99
 10
219.88564667275239
 20
132.62132
 30
0.0
 11
219.88564667275239
 21
198.0
 31
0.0
  0
LINE
  8
0
  6
CONTINUOUS
 62
               3
  5
9A
 10
221.44630667275237
 20
130.43933999999999
 30
0.0
 11
220.32498667275235
 21
131.56066000000001
 31
0.0
  0
LINE
  8
0
  6
CONTINUOUS
 62
               3
  5
9B
 10
186.88564667275239
 20
165.0
 30
0.0
 11
152.32498667275235
 21
130.43933999999999
 31
0.0
  0
ARC
  8
0
  6
CONTINUOUS
 62
               3
  5
9C
 10
79.80300667275236
 20
174.57313600000001
 30
0.0
 40
10.0
 50
155.05651900000001
 51
175.007317
  0
ARC
  8
0
  6
CONTINUOUS
 62
               3
  5
9D
 10
79.803005672752363
 20
155.42686599999999
 30
0.0
 40
10.0
 50
184.99268000000001
 51
204.943477
  0
ARC
  8
0
  6
CONTINUOUS
 62
               3
  5
9E
 10
100.38564667275236
 20
165.0
 30
0.0
 40
32.700000000000003
 50
90.0
 51
155.05651900000001
  0
ARC
  8
0
  6
CONTINUOUS
 62
               3
  5
9F
 10
189.38564667275239
 20
164.99999700000001
 30
0.0
 40
120.0
 50
175.007317
 51
180.0
  0
LINE
  8
0
  6
CONTINUOUS
 62
               3
  5
A0
 10
136.88564667275239
 20
198.25
 30
0.0
 11
100.38564667275236
 21
197.69999999999999
 31
0.0
  0
LINE
  8
0
  6
CONTINUOUS
 62
               3
  5
A1
 10
100.38564667275236
 20
132.30000000000001
 30
0.0
 11
136.88564667275239
 21
131.75
 31
0.0
  0
ARC
  8
0
  6
CONTINUOUS
 62
               3
  5
A2
 10
100.38564667275236
 20
165.0
 30
0.0
 40
32.700000000000003
 50
204.943477
 51
270.0
  0
ARC
  8
0
  6
CONTINUOUS
 62
               3
  5
A3
 10
189.38564667275239
 20
164.99999700000001
 30
0.0
 40
120.0
 50
180.0
 51
184.99268000000001
  0
LINE
  8
0
  6
CONTINUOUS
 62
               3
  5
A4
 10
152.88564667275239
 20
198.0
 30
0.0
 11
152.88564667275239
 21
132.0
 31
0.0
  0
LINE
  8
0
  6
CONTINUOUS
 62
               3
  5
A5
 10
136.88564667275239
 20
198.5
 30
0.0
 11
136.88564667275239
 21
131.5
 31
0.0
  0
ARC
  8
0
  6
CONTINUOUS
 62
               3
  5
A6
 10
220.88564667275239
 20
270.0
 30
0.0
 40
1.0
 50
270.0
 51
0.0
  0
ARC
  8
0
  6
CONTINUOUS
 62
               3
  5
A7
 10
152.88564667275239
 20
270.0
 30
0.0
 40
1.0
 50
180.0
 51
270.0
  0
ARC
  8
0
  6
CONTINUOUS
 62
               3
  5
A8
 10
153.38564667275239
 20
279.37867999999997
 30
0.0
 40
1.5
 50
135.0
 51
180.0
  0
LINE
  8
0
  6
CONTINUOUS
 62
               3
  5
A9
 10
151.88564667275239
 20
270.0
 30
0.0
 11
151.88564667275239
 21
279.37867999999997
 31
0.0
  0
ARC
  8
0
  6
CONTINUOUS
 62
               3
  5
AA
 10
221.38564667275239
 20
282.62132000000003
 30
0.0
 40
1.5
 50
180.0
 51
225.0
  0
LINE
  8
0
  6
CONTINUOUS
 62
               3
  5
AB
 10
152.88564667275239
 20
269.0
 30
0.0
 11
220.88564667275239
 21
269.0
 31
0.0
  0
ARC
  8
0
  6
CONTINUOUS
 62
               3
  5
AC
 10
220.38564667275239
 20
279.37867999999997
 30
0.0
 40
1.5
 50
0.0
 51
45.0
  0
LINE
  8
0
  6
CONTINUOUS
 62
               3
  5
AD
 10
221.88564667275239
 20
270.0
 30
0.0
 11
221.88564667275239
 21
279.37867999999997
 31
0.0
  0
LINE
  8
0
  6
CONTINUOUS
 62
               3
  5
AE
 10
221.44630667275237
 20
280.43934000000002
 30
0.0
 11
220.32498667275235
 21
281.56065999999998
 31
0.0
  0
LINE
  8
0
  6
CONTINUOUS
 62
               3
  5
AF
 10
221.88564667275239
 20
279.37867999999997
 30
0.0
 11
151.88564667275239
 21
279.37867999999997
 31
0.0
  0
LINE
  8
0
  6
CONTINUOUS
 62
               3
  5
B0
 10
153.88564667275239
 20
269.0
 30
0.0
 11
153.88564667275239
 21
267.5
 31
0.0
  0
LINE
  8
0
  6
CONTINUOUS
 62
               3
  5
B1
 10
169.88564667275239
 20
267.5
 30
0.0
 11
169.88564667275239
 21
269.0
 31
0.0
  0
LINE
  8
0
  6
CONTINUOUS
 62
               3
  5
B2
 10
207.38564667275239
 20
267.5
 30
0.0
 11
207.38564667275239
 21
269.0
 31
0.0
  0
LINE
  8
0
  6
CONTINUOUS
 62
               3
  5
B3
 10
191.38564667275239
 20
269.0
 30
0.0
 11
191.38564667275239
 21
267.5
 31
0.0
  0
LINE
  8
0
  6
CONTINUOUS
 62
               3
  5
B4
 10
191.38564667275239
 20
267.5
 30
0.0
 11
207.38564667275239
 21
267.5
 31
0.0
  0
LINE
  8
0
  6
CONTINUOUS
 62
               3
  5
B5
 10
191.38564667275239
 20
267.5
 30
0.0
 11
182.88564667275239
 21
262.0
 31
0.0
  0
LINE
  8
0
  6
CONTINUOUS
 62
               3
  5
B6
 10
182.88564667275239
 20
262.0
 30
0.0
 11
215.88564667275239
 21
262.0
 31
0.0
  0
LINE
  8
0
  6
CONTINUOUS
 62
               3
  5
B7
 10
215.88564667275239
 20
262.0
 30
0.0
 11
207.38564667275239
 21
267.5
 31
0.0
  0
LINE
  8
0
  6
CONTINUOUS
 62
               3
  5
B8
 10
178.38564667275239
 20
262.0
 30
0.0
 11
169.88564667275239
 21
267.5
 31
0.0
  0
LINE
  8
0
  6
CONTINUOUS
 62
               3
  5
B9
 10
145.38564667275239
 20
262.0
 30
0.0
 11
178.38564667275239
 21
262.0
 31
0.0
  0
LINE
  8
0
  6
CONTINUOUS
 62
               3
  5
BA
 10
153.88564667275239
 20
267.5
 30
0.0
 11
145.38564667275239
 21
262.0
 31
0.0
  0
LINE
  8
0
  6
CONTINUOUS
 62
               3
  5
BB
 10
153.88564667275239
 20
267.5
 30
0.0
 11
169.88564667275239
 21
267.5
 31
0.0
  0
ARC
  8
0
  6
DASHED
 62
              80
  5
BC
 10
100.38564667275236
 20
0.0
 30
0.0
 40
32.700000000000003
 50
90.0
 51
155.05651900000001
  0
LINE
  8
0
  6
DASHED
 62
              80
  5
BD
 10
138.38564667275239
 20
-35.0
 30
0.0
 11
147.88564667275239
 21
-35.0
 31
0.0
  0
LINE
  8
0
  6
DASHED
 62
              80
  5
BE
 10
136.88564667275239
 20
-33.25
 30
0.0
 11
136.88564667275239
 21
-33.5
 31
0.0
  0
ARC
  8
0
  6
DASHED
 62
              80
  5
BF
 10
138.38564667275239
 20
-33.5
 30
0.0
 40
1.5
 50
180.0
 51
270.0
  0
LINE
  8
0
  6
DASHED
 62
              80
  5
C0
 10
100.38564667275236
 20
-32.700000000000003
 30
0.0
 11
136.88564667275239
 21
-33.25
 31
0.0
  0
ARC
  8
0
  6
DASHED
 62
              80
  5
C1
 10
100.38564667275236
 20
0.0
 30
0.0
 40
32.700000000000003
 50
204.943477
 51
270.0
  0
ARC
  8
0
  6
DASHED
 62
              80
  5
C2
 10
189.38564667275239
 20
-0.0000029999999995
 30
0.0
 40
120.0
 50
180.0
 51
184.99268000000001
  0
ARC
  8
0
  6
DASHED
 62
              80
  5
C3
 10
189.38564667275239
 20
-0.0000029999999995
 30
0.0
 40
120.0
 50
175.007317
 51
180.0
  0
ARC
  8
0
  6
DASHED
 62
              80
  5
C4
 10
79.80300667275236
 20
9.5731359999999981
 30
0.0
 40
10.0
 50
155.05651900000001
 51
175.007317
  0
ARC
  8
0
  6
DASHED
 62
              80
  5
C5
 10
79.803005672752363
 20
-9.573133999999996
 30
0.0
 40
10.0
 50
184.99268000000001
 51
204.943477
  0
LINE
  8
0
  6
DASHED
 62
              80
  5
C6
 10
136.88564667275239
 20
33.25
 30
0.0
 11
100.38564667275236
 21
32.700000000000003
 31
0.0
  0
LINE
  8
0
  6
DASHED
 62
              80
  5
C7
 10
138.38564667275239
 20
35.0
 30
0.0
 11
147.88564667275239
 21
35.0
 31
0.0
  0
ARC
  8
0
  6
DASHED
 62
              80
  5
C8
 10
138.38564667275239
 20
33.5
 30
0.0
 40
1.5
 50
90.0
 51
180.0
  0
LINE
  8
0
  6
DASHED
 62
              80
  5
C9
 10
136.88564667275239
 20
33.5
 30
0.0
 11
136.88564667275239
 21
33.25
 31
0.0
  0
LINE
  8
0
  6
DASHED
 62
              80
  5
CA
 10
152.88564667275239
 20
33.0
 30
0.0
 11
175.22374267275234
 21
33.0
 31
0.0
  0
LINE
  8
0
  6
DASHED
 62
              80
  5
CB
 10
147.88564667275239
 20
35.0
 30
0.0
 11
152.88564667275239
 21
33.0
 31
0.0
  0
LINE
  8
0
  6
DASHED
 62
              80
  5
CC
 10
152.88564667275239
 20
-33.0
 30
0.0
 11
175.22374267275234
 21
-33.0
 31
0.0
  0
LINE
  8
0
  6
DASHED
 62
              80
  5
CD
 10
147.88564667275239
 20
-35.0
 30
0.0
 11
152.88564667275239
 21
-33.0
 31
0.0
  0
LINE
  8
0
  6
CONTINUOUS
 62
              10
  5
CE
 10
186.88564667275239
 20
-35.75486699999999
 30
0.0
 11
186.88564667275239
 21
-32.420964999999995
 31
0.0
  0
LINE
  8
0
  6
CONTINUOUS
 62
              10
  5
CF
 10
189.13564667275239
 20
-35.75486699999999
 30
0.0
 11
189.13564667275239
 21
-34.580736000000002
 31
0.0
  0
LINE
  8
0
  6
CONTINUOUS
 62
              10
  5
D0
 10
184.63564667275239
 20
0.0
 30
0.0
 11
184.63564667275239
 21
-14.255535000000002
 31
0.0
  0
ARC
  8
0
  6
CONTINUOUS
 62
              10
  5
D1
 10
186.88564667275239
 20
0.0
 30
0.0
 40
2.25
 50
0.0
 51
180.0
  0
LINE
  8
0
  6
CONTINUOUS
 62
              10
  5
D2
 10
212.51922867275232
 20
-43.00486699999999
 30
0.0
 11
194.13564667275239
 21
-43.00486699999999
 31
0.0
  0
LINE
  8
0
  6
CONTINUOUS
 62
              10
  5
D3
 10
211.7518616727524
 20
-40.75486699999999
 30
0.0
 11
194.13564667275239
 21
-40.75486699999999
 31
0.0
  0
LINE
  8
0
  6
CONTINUOUS
 62
              10
  5
D4
 10
194.13564667275239
 20
-45.25486699999999
 30
0.0
 11
213.28659567275236
 21
-45.25486699999999
 31
0.0
  0
ARC
  8
0
  6
CONTINUOUS
 62
              10
  5
D5
 10
213.78485367275232
 20
-41.31736699999999
 30
0.0
 40
2.109375
 50
126.86989800000001
 51
233.13010199999999
  0
ARC
  8
0
  6
CONTINUOUS
 62
              10
  5
D6
 10
211.25360367275232
 20
-44.69236699999999
 30
0.0
 40
2.109375
 50
306.86989799999998
 51
53.130102000000001
  0
ARC
  8
0
  6
CONTINUOUS
 62
              10
  5
D7
 10
194.13564667275239
 20
-35.75486699999999
 30
0.0
 40
5.0
 50
180.0
 51
270.0
  0
ARC
  8
0
  6
CONTINUOUS
 62
              10
  5
D8
 10
194.13564667275239
 20
-35.75486699999999
 30
0.0
 40
7.25
 50
180.0
 51
270.0
  0
ARC
  8
0
  6
CONTINUOUS
 62
              10
  5
D9
 10
194.13564667275239
 20
-35.75486699999999
 30
0.0
 40
9.5
 50
180.0
 51
270.0
  0
LINE
  8
0
  6
CONTINUOUS
 62
              10
  5
DA
 10
186.88564667275239
 20
-10.880305
 30
0.0
 11
186.88564667275239
 21
0.0
 31
0.0
  0
LINE
  8
0
  6
CONTINUOUS
 62
              10
  5
DB
 10
189.13564667275239
 20
-8.7205349999999981
 30
0.0
 11
189.13564667275239
 21
0.0
 31
0.0
  0
LINE
  8
0
  6
CONTINUOUS
 62
              10
  5
DC
 10
184.63564667275239
 20
-29.045735000000008
 30
0.0
 11
184.63564667275239
 21
-35.75486699999999
 31
0.0
  0
ARC
  8
0
  6
CONTINUOUS
 62
               3
  5
DD
 10
186.88564667275239
 20
0.0
 30
0.0
 40
35.0
 50
273.68584199999998
 51
274.36540000000002
  0
ARC
  8
0
  6
CONTINUOUS
 62
               3
  5
DE
 10
186.88564667275239
 20
0.0
 30
0.0
 40
3.5
 50
310.005201
 51
119.99999999999997
  0
TEXT
  8
0
  6
CONTINUOUS
 62
             255
  5
DF
 10
133.76064967275238
 20
452.5
 30
0.0
 40
20.0
  1
FSS*-S
 41
0.9375
  7
MX_NOTE_STANDARD
 11
133.76064967275238
 21
462.5
 31
0.0
 73
               2
  0
LINE
  8
0
  6
CONTINUOUS
 62
               3
  5
E0
 10
-165.0
 20
120.0
 30
0.0
 11
-165.0
 21
129.37868
 31
0.0
  0
LINE
  8
0
  6
CONTINUOUS
 62
               3
  5
E1
 10
-235.0
 20
120.0
 30
0.0
 11
-235.0
 21
129.37868
 31
0.0
  0
LINE
  8
0
  6
CONTINUOUS
 62
               3
  5
E2
 10
-162.59936500000001
 20
110.0
 30
0.0
 11
-237.40063499999999
 21
110.0
 31
0.0
  0
LINE
  8
0
  6
CONTINUOUS
 62
               3
  5
E3
 10
-235.40063499999999
 20
115.0
 30
0.0
 11
-164.59936500000001
 21
115.0
 31
0.0
  0
ARC
  8
0
  6
CONTINUOUS
 62
               3
  5
E4
 10
-166.0
 20
120.0
 30
0.0
 40
1.0
 50
270.0
 51
0.0
  0
ARC
  8
0
  6
CONTINUOUS
 62
               3
  5
E5
 10
-234.0
 20
120.0
 30
0.0
 40
1.0
 50
180.0
 51
270.0
  0
LINE
  8
0
  6
CONTINUOUS
 62
               3
  5
E6
 10
-234.0
 20
119.0
 30
0.0
 11
-166.0
 21
119.0
 31
0.0
  0
LINE
  8
0
  6
CONTINUOUS
 62
               3
  5
E7
 10
-195.0
 20
115.5
 30
0.0
 11
-195.0
 21
119.0
 31
0.0
  0
LINE
  8
0
  6
CONTINUOUS
 62
               3
  5
E8
 10
-205.0
 20
119.0
 30
0.0
 11
-205.0
 21
115.5
 31
0.0
  0
ARC
  8
0
  6
CONTINUOUS
 62
               3
  5
E9
 10
-182.84936500000001
 20
115.5
 30
0.0
 40
0.5
 50
180.0
 51
270.0
  0
ARC
  8
0
  6
CONTINUOUS
 62
               3
  5
EA
 10
-173.84936500000001
 20
115.5
 30
0.0
 40
0.5
 50
270.0
 51
0.0
  0
ARC
  8
0
  6
CONTINUOUS
 62
               3
  5
EB
 10
-217.15063499999999
 20
115.5
 30
0.0
 40
0.5
 50
270.0
 51
0.0
  0
ARC
  8
0
  6
CONTINUOUS
 62
               3
  5
EC
 10
-226.15063499999999
 20
115.5
 30
0.0
 40
0.5
 50
180.0
 51
270.0
  0
LINE
  8
0
  6
CONTINUOUS
 62
               3
  5
ED
 10
-226.65063499999999
 20
119.0
 30
0.0
 11
-226.65063499999999
 21
115.5
 31
0.0
  0
LINE
  8
0
  6
CONTINUOUS
 62
               3
  5
EE
 10
-173.34936500000001
 20
115.5
 30
0.0
 11
-173.34936500000001
 21
119.0
 31
0.0
  0
LINE
  8
0
  6
CONTINUOUS
 62
               3
  5
EF
 10
-216.65063499999999
 20
115.5
 30
0.0
 11
-216.65063499999999
 21
119.0
 31
0.0
  0
LINE
  8
0
  6
CONTINUOUS
 62
               3
  5
F0
 10
-183.34936500000001
 20
119.0
 30
0.0
 11
-183.34936500000001
 21
115.5
 31
0.0
  0
ARC
  8
0
  6
CONTINUOUS
 62
               3
  5
F1
 10
-204.5
 20
115.5
 30
0.0
 40
0.5
 50
180.0
 51
270.0
  0
ARC
  8
0
  6
CONTINUOUS
 62
               3
  5
F2
 10
-195.5
 20
115.5
 30
0.0
 40
0.5
 50
270.0
 51
0.0
  0
LINE
  8
0
  6
CONTINUOUS
 62
               3
  5
F3
 10
-184.25
 20
113.0
 30
0.0
 11
-184.25
 21
110.0
 31
0.0
  0
LINE
  8
0
  6
CONTINUOUS
 62
               3
  5
F4
 10
-237.40063499999999
 20
110.0
 30
0.0
 11
-237.40063499999999
 21
113.0
 31
0.0
  0
LINE
  8
0
  6
CONTINUOUS
 62
               3
  5
F5
 10
-162.59936500000001
 20
113.0
 30
0.0
 11
-162.59936500000001
 21
110.0
 31
0.0
  0
ARC
  8
0
  6
CONTINUOUS
 62
               3
  5
F6
 10
-235.40063499999999
 20
113.0
 30
0.0
 40
2.0
 50
90.0
 51
180.0
  0
ARC
  8
0
  6
CONTINUOUS
 62
               3
  5
F7
 10
-164.59936500000001
 20
113.0
 30
0.0
 40
2.0
 50
0.0
 51
90.0
  0
LINE
  8
0
  6
CONTINUOUS
 62
               3
  5
F8
 10
-215.75
 20
110.0
 30
0.0
 11
-215.75
 21
113.0
 31
0.0
  0
ARC
  8
0
  6
CONTINUOUS
 62
               3
  5
F9
 10
-213.75
 20
113.0
 30
0.0
 40
2.0
 50
90.0
 51
180.0
  0
ARC
  8
0
  6
CONTINUOUS
 62
               3
  5
FA
 10
-186.25
 20
113.0
 30
0.0
 40
2.0
 50
0.0
 51
90.0
  0
ARC
  8
0
  6
CONTINUOUS
 62
               3
  5
FB
 10
-200.0
 20
0.0
 30
0.0
 40
35.0
 50
113.73842
 51
186.26158000000001
  0
LINE
  8
0
  6
CONTINUOUS
 62
               3
  5
FC
 10
-225.15063499999999
 20
-12.5
 30
0.0
 11
-223.40063499999999
 21
-15.531089
 31
0.0
  0
CIRCLE
  8
0
  6
CONTINUOUS
 62
               3
  5
FD
 10
-200.0
 20
25.0
 30
0.0
 40
15.75
  0
CIRCLE
  8
0
  6
CONTINUOUS
 62
               3
  5
FE
 10
-221.65063499999999
 20
-12.5
 30
0.0
 40
15.75
  0
CIRCLE
  8
0
  6
CONTINUOUS
 62
               3
  5
FF
 10
-178.34936500000001
 20
-12.5
 30
0.0
 40
15.75
  0
CIRCLE
  8
0
  6
CONTINUOUS
 62
               3
  5
100
 10
-200.0
 20
25.0
 30
0.0
 40
5.0
  0
ARC
  8
0
  6
CONTINUOUS
 62
               3
  5
101
 10
-200.0
 20
0.0
 30
0.0
 40
35.0
 50
233.73841999999996
 51
266.31415800000002
  0
LINE
  8
0
  6
CONTINUOUS
 62
               3
  5
102
 10
-223.40063499999999
 20
-15.531089
 30
0.0
 11
-219.90063499999999
 21
-15.531089
 31
0.0
  0
ARC
  8
0
  6
CONTINUOUS
 62
               3
  5
103
 10
-200.0
 20
0.0
 30
0.0
 40
35.0
 50
353.73842000000002
 51
66.261579999999995
  0
LINE
  8
0
  6
CONTINUOUS
 62
               3
  5
104
 10
-219.90063499999999
 20
-15.531089
 30
0.0
 11
-218.15063499999999
 21
-12.5
 31
0.0
  0
CIRCLE
  8
0
  6
CONTINUOUS
 62
              80
  5
105
 10
-178.34936500000001
 20
-12.5
 30
0.0
 40
14.75
  0
CIRCLE
  8
0
  6
CONTINUOUS
 62
              80
  5
106
 10
-221.65063499999999
 20
-12.5
 30
0.0
 40
14.75
  0
LINE
  8
0
  6
CONTINUOUS
 62
               3
  5
107
 10
-218.15063499999999
 20
-12.5
 30
0.0
 11
-219.90063499999999
 21
-9.4689110000000003
 31
0.0
  0
LINE
  8
0
  6
CONTINUOUS
 62
               3
  5
108
 10
-176.59936500000001
 20
-15.531089
 30
0.0
 11
-174.84936500000001
 21
-12.5
 31
0.0
  0
ARC
  8
0
  6
CONTINUOUS
 62
               3
  5
109
 10
-187.5
 20
21.650635000000001
 30
0.0
 40
6.75
 50
266.56748199999998
 51
63.432518000000009
  0
LINE
  8
0
  6
CONTINUOUS
 62
               3
  5
10A
 10
-181.07293000000001
 20
23.713467000000001
 30
0.0
 11
-176.33974599999999
 21
20.980761999999999
 31
0.0
  0
LINE
  8
0
  6
CONTINUOUS
 62
               3
  5
10B
 10
-183.91175699999999
 20
13.80546
 30
0.0
 11
-186.07293000000001
 21
15.053213
 31
0.0
  0
ARC
  8
0
  6
CONTINUOUS
 62
              80
  5
10C
 10
-225.0
 20
0.0
 30
0.0
 40
6.25
 50
29.877081000000004
 51
180.122919
  0
LINE
  8
0
  6
CONTINUOUS
 62
               3
  5
10D
 10
-176.59936500000001
 20
-9.4689110000000003
 30
0.0
 11
-180.09936500000001
 21
-9.4689110000000003
 31
0.0
  0
CIRCLE
  8
0
  6
CONTINUOUS
 62
              80
  5
10E
 10
-200.0
 20
25.0
 30
0.0
 40
14.25
  0
ARC
  8
0
  6
CONTINUOUS
 62
               3
  5
10F
 10
-200.0
 20
-20.0
 30
0.0
 40
4.0
 50
214.33721499999999
 51
235.77113399999999
  0
LINE
  8
0
  6
CONTINUOUS
 62
               3
  5
110
 10
-174.84936500000001
 20
-12.5
 30
0.0
 11
-176.59936500000001
 21
-9.4689110000000003
 31
0.0
  0
ARC
  8
0
  6
CONTINUOUS
 62
               3
  5
111
 10
-200.0
 20
0.0
 30
0.0
 40
17.5
 50
248.667429
 51
260.42593699999998
  0
LINE
  8
0
  6
CONTINUOUS
 62
               3
  5
112
 10
-180.09936500000001
 20
-9.4689110000000003
 30
0.0
 11
-181.84936500000001
 21
-12.5
 31
0.0
  0
CIRCLE
  8
0
  6
CONTINUOUS
 62
              80
  5
113
 10
-200.0
 20
25.0
 30
0.0
 40
3.0310890000000001
  0
ARC
  8
0
  6
CONTINUOUS
 62
               3
  5
114
 10
-200.0
 20
0.0
 30
0.0
 40
32.75
 50
117.724985
 51
142.99527399999999
  0
ARC
  8
0
  6
CONTINUOUS
 62
               3
  5
115
 10
-200.0
 20
0.0
 30
0.0
 40
3.5
 50
180.0
 51
229.994799
  0
CIRCLE
  8
0
  6
CONTINUOUS
 62
              80
  5
116
 10
-221.65063499999999
 20
-12.5
 30
0.0
 40
14.25
  0
ARC
  8
0
  6
CONTINUOUS
 62
               3
  5
117
 10
-187.5
 20
21.650635000000001
 30
0.0
 40
4.75
 50
283.16659099999998
 51
46.83340900000001
  0
ARC
  8
0
  6
CONTINUOUS
 62
               3
  5
118
 10
-225.0
 20
0.0
 30
0.0
 40
4.75
 50
43.166590999999997
 51
166.83340899999999
  0
CIRCLE
  8
0
  6
CONTINUOUS
 62
              80
  5
119
 10
-178.34936500000001
 20
-12.5
 30
0.0
 40
3.0310890000000001
  0
CIRCLE
  8
0
  6
CONTINUOUS
 62
              80
  5
11A
 10
-221.65063499999999
 20
-12.5
 30
0.0
 40
3.0310890000000001
  0
CIRCLE
  8
0
  6
CONTINUOUS
 62
               3
  5
11B
 10
-221.65063499999999
 20
-12.5
 30
0.0
 40
1.5
  0
LINE
  8
0
  6
CONTINUOUS
 62
               3
  5
11C
 10
-181.84936500000001
 20
-12.5
 30
0.0
 11
-180.09936500000001
 21
-15.531089
 31
0.0
  0
LINE
  8
0
  6
CONTINUOUS
 62
               3
  5
11D
 10
-201.75
 20
3.0310890000000001
 30
0.0
 11
-225.55651499999999
 21
16.775787000000001
 31
0.0
  0
LINE
  8
0
  6
CONTINUOUS
 62
               3
  5
11E
 10
-203.5
 20
0.0
 30
0.0
 11
-227.30651499999999
 21
13.744698
 31
0.0
  0
ARC
  8
0
  6
CONTINUOUS
 62
               3
  5
11F
 10
-224.55651499999999
 20
18.507838
 30
0.0
 40
2.0
 50
142.99527399999999
 51
239.99999999999997
  0
ARC
  8
0
  6
CONTINUOUS
 62
               3
  5
120
 10
-228.30651499999999
 20
12.012646999999999
 30
0.0
 40
2.0
 50
59.999999999999993
 51
157.00472600000001
  0
ARC
  8
0
  6
CONTINUOUS
 62
               3
  5
121
 10
-200.0
 20
0.0
 30
0.0
 40
22.5
 50
248.27418299999999
 51
261.55865699999998
  0
CIRCLE
  8
0
  6
CONTINUOUS
 62
               3
  5
122
 10
-178.34936500000001
 20
-12.5
 30
0.0
 40
1.5
  0
ARC
  8
0
  6
CONTINUOUS
 62
               3
  5
123
 10
-200.0
 20
0.0
 30
0.0
 40
17.5
 50
8.6674290000000003
 51
20.425937000000001
  0
ARC
  8
0
  6
CONTINUOUS
 62
               3
  5
124
 10
-200.0
 20
0.0
 30
0.0
 40
22.5
 50
8.2741830000000007
 51
21.558657
  0
ARC
  8
0
  6
CONTINUOUS
 62
               3
  5
125
 10
-182.67949200000001
 20
10.0
 30
0.0
 40
4.0
 50
334.33721500000001
 51
256.69061900000008
  0
ARC
  8
0
  6
CONTINUOUS
 62
               3
  5
126
 10
-196.16025400000001
 20
-26.650635000000001
 30
0.0
 40
5.0
 50
251.46105399999999
 51
300.0
  0
LINE
  8
0
  6
CONTINUOUS
 62
               3
  5
127
 10
-180.09936500000001
 20
-15.531089
 30
0.0
 11
-176.59936500000001
 21
-15.531089
 31
0.0
  0
LINE
  8
0
  6
CONTINUOUS
 62
               3
  5
128
 10
-201.75
 20
21.968910999999999
 30
0.0
 11
-198.25
 21
21.968910999999999
 31
0.0
  0
ARC
  8
0
  6
CONTINUOUS
 62
               3
  5
129
 10
-225.0
 20
0.0
 30
0.0
 40
6.75
 50
26.567482000000002
 51
180.0
  0
ARC
  8
0
  6
CONTINUOUS
 62
               3
  5
12A
 10
-178.83974599999999
 20
16.650635000000001
 30
0.0
 40
5.0
 50
267.73069800000002
 51
59.999999999999986
  0
ARC
  8
0
  6
CONTINUOUS
 62
               3
  5
12B
 10
-225.0
 20
10.0
 30
0.0
 40
5.0
 50
127.044017
 51
180.0
  0
LINE
  8
0
  6
CONTINUOUS
 62
               3
  5
12C
 10
-196.5
 20
25.0
 30
0.0
 11
-198.25
 21
28.031089000000001
 31
0.0
  0
LINE
  8
0
  6
CONTINUOUS
 62
               3
  5
12D
 10
-230.0
 20
10.0
 30
0.0
 11
-230.0
 21
4.5345890000000004
 31
0.0
  0
LINE
  8
0
  6
CONTINUOUS
 62
               3
  5
12E
 10
-220.0
 20
4.5345890000000004
 30
0.0
 11
-220.0
 21
9.5262790000000006
 31
0.0
  0
LINE
  8
0
  6
CONTINUOUS
 62
               3
  5
12F
 10
-188.92706999999999
 20
-28.248056999999999
 30
0.0
 11
-193.66025400000001
 21
-30.980761999999999
 31
0.0
  0
LINE
  8
0
  6
CONTINUOUS
 62
               3
  5
130
 10
-196.08824300000001
 20
-20.835557000000001
 30
0.0
 11
-193.92706999999999
 21
-19.587803000000001
 31
0.0
  0
CIRCLE
  8
0
  6
CONTINUOUS
 62
               3
  5
131
 10
-200.0
 20
25.0
 30
0.0
 40
1.5
  0
LINE
  8
0
  6
CONTINUOUS
 62
               3
  5
132
 10
-219.90063499999999
 20
-9.4689110000000003
 30
0.0
 11
-223.40063499999999
 21
-9.4689110000000003
 31
0.0
  0
LINE
  8
0
  6
CONTINUOUS
 62
               3
  5
133
 10
-223.40063499999999
 20
-9.4689110000000003
 30
0.0
 11
-225.15063499999999
 21
-12.5
 31
0.0
  0
LINE
  8
0
  6
CONTINUOUS
 62
               3
  5
134
 10
-198.25
 20
21.968910999999999
 30
0.0
 11
-196.5
 21
25.0
 31
0.0
  0
CIRCLE
  8
0
  6
CONTINUOUS
 62
              80
  5
135
 10
-200.0
 20
25.0
 30
0.0
 40
14.75
  0
LINE
  8
0
  6
CONTINUOUS
 62
               3
  5
136
 10
-198.25
 20
28.031089000000001
 30
0.0
 11
-201.75
 21
28.031089000000001
 31
0.0
  0
LINE
  8
0
  6
CONTINUOUS
 62
               3
  5
137
 10
-201.75
 20
28.031089000000001
 30
0.0
 11
-203.5
 21
25.0
 31
0.0
  0
ARC
  8
0
  6
CONTINUOUS
 62
               3
  5
138
 10
-187.5
 20
-21.650635000000001
 30
0.0
 40
6.75
 50
146.56748200000001
 51
303.43251800000002
  0
ARC
  8
0
  6
CONTINUOUS
 62
              80
  5
139
 10
-187.5
 20
-21.650635000000001
 30
0.0
 40
6.25
 50
149.877081
 51
300.12291900000002
  0
CIRCLE
  8
0
  6
CONTINUOUS
 62
               3
  5
13A
 10
-178.34936500000001
 20
-12.5
 30
0.0
 40
5.0
  0
ARC
  8
0
  6
CONTINUOUS
 62
               3
  5
13B
 10
-200.0
 20
0.0
 30
0.0
 40
32.75
 50
157.00472600000001
 51
182.275015
  0
LINE
  8
0
  6
CONTINUOUS
 62
               3
  5
13C
 10
-203.5
 20
25.0
 30
0.0
 11
-201.75
 21
21.968910999999999
 31
0.0
  0
CIRCLE
  8
0
  6
CONTINUOUS
 62
               3
  5
13D
 10
-221.65063499999999
 20
-12.5
 30
0.0
 40
5.0
  0
ARC
  8
0
  6
CONTINUOUS
 62
               3
  5
13E
 10
-200.0
 20
0.0
 30
0.0
 40
32.75
 50
357.724985
 51
62.275015000000003
  0
CIRCLE
  8
0
  6
CONTINUOUS
 62
              80
  5
13F
 10
-178.34936500000001
 20
-12.5
 30
0.0
 40
14.25
  0
ARC
  8
0
  6
CONTINUOUS
 62
              80
  5
140
 10
-187.5
 20
21.650635000000001
 30
0.0
 40
6.25
 50
269.87708099999998
 51
60.122918999999989
  0
ARC
  8
0
  6
CONTINUOUS
 62
               3
  5
141
 10
-200.0
 20
0.0
 30
0.0
 40
32.75
 50
237.724985
 51
266.06054599999999
  0
LINE
  8
0
  6
CONTINUOUS
 62
               3
  5
142
 10
-165.0
 20
129.37868
 30
0.0
 11
-235.0
 21
129.37868
 31
0.0
  0
LINE
  8
0
  6
CONTINUOUS
 62
               3
  5
143
 10
0.0
 20
263.74713500000001
 30
0.0
 11
0.000185
 21
263.74713600000001
 31
0.0
  0
ARC
  8
0
  6
CONTINUOUS
 62
               3
  5
144
 10
17.552389999999999
 20
265.5
 30
0.0
 40
0.5
 50
180.0
 51
270.0
  0
ARC
  8
0
  6
CONTINUOUS
 62
               3
  5
145
 10
26.552389999999999
 20
265.5
 30
0.0
 40
0.5
 50
270.0
 51
0.0
  0
ARC
  8
0
  6
CONTINUOUS
 62
               3
  5
146
 10
-17.150635000000001
 20
265.5
 30
0.0
 40
0.5
 50
270.0
 51
0.0
  0
ARC
  8
0
  6
CONTINUOUS
 62
               3
  5
147
 10
-26.150635000000001
 20
265.5
 30
0.0
 40
0.5
 50
180.0
 51
270.0
  0
LINE
  8
0
  6
CONTINUOUS
 62
               3
  5
148
 10
-26.150635000000001
 20
265.0
 30
0.0
 11
-17.150635000000001
 21
265.0
 31
0.0
  0
LINE
  8
0
  6
CONTINUOUS
 62
               3
  5
149
 10
-26.650635000000001
 20
269.0
 30
0.0
 11
-26.650635000000001
 21
265.5
 31
0.0
  0
LINE
  8
0
  6
CONTINUOUS
 62
               3
  5
14A
 10
27.052389999999999
 20
265.5
 30
0.0
 11
27.052389999999999
 21
269.0
 31
0.0
  0
LINE
  8
0
  6
CONTINUOUS
 62
               3
  5
14B
 10
-16.650635000000001
 20
265.5
 30
0.0
 11
-16.650635000000001
 21
269.0
 31
0.0
  0
LINE
  8
0
  6
CONTINUOUS
 62
               3
  5
14C
 10
17.552389999999999
 20
265.0
 30
0.0
 11
26.552389999999999
 21
265.0
 31
0.0
  0
LINE
  8
0
  6
CONTINUOUS
 62
               3
  5
14D
 10
17.052389999999999
 20
269.0
 30
0.0
 11
17.052389999999999
 21
265.5
 31
0.0
  0
LINE
  8
0
  6
CONTINUOUS
 62
               3
  5
14E
 10
-21.650635000000001
 20
263.74713500000001
 30
0.0
 11
-21.650449999999999
 21
263.74713600000001
 31
0.0
  0
LINE
  8
0
  6
CONTINUOUS
 62
               3
  5
14F
 10
5.0
 20
265.5
 30
0.0
 11
5.0
 21
269.0
 31
0.0
  0
LINE
  8
0
  6
CONTINUOUS
 62
               3
  5
150
 10
-5.0
 20
269.0
 30
0.0
 11
-5.0
 21
265.5
 31
0.0
  0
LINE
  8
0
  6
CONTINUOUS
 62
               3
  5
151
 10
-4.5
 20
265.0
 30
0.0
 11
4.5
 21
265.0
 31
0.0
  0
ARC
  8
0
  6
CONTINUOUS
 62
               3
  5
152
 10
-4.5
 20
265.5
 30
0.0
 40
0.5
 50
180.0
 51
270.0
  0
ARC
  8
0
  6
CONTINUOUS
 62
               3
  5
153
 10
4.5
 20
265.5
 30
0.0
 40
0.5
 50
270.0
 51
0.0
  0
LINE
  8
0
  6
CONTINUOUS
 62
               3
  5
154
 10
35.0
 20
279.37867999999997
 30
0.0
 11
-35.0
 21
279.37867999999997
 31
0.0
  0
LINE
  8
0
  6
CONTINUOUS
 62
               3
  5
155
 10
34.560659999999999
 20
280.43934000000002
 30
0.0
 11
33.439340000000001
 21
281.56065999999998
 31
0.0
  0
LINE
  8
0
  6
CONTINUOUS
 62
               3
  5
156
 10
35.0
 20
270.0
 30
0.0
 11
35.0
 21
279.37867999999997
 31
0.0
  0
ARC
  8
0
  6
CONTINUOUS
 62
               3
  5
157
 10
33.5
 20
279.37867999999997
 30
0.0
 40
1.5
 50
0.0
 51
45.0
  0
LINE
  8
0
  6
CONTINUOUS
 62
               3
  5
158
 10
-34.0
 20
269.0
 30
0.0
 11
34.0
 21
269.0
 31
0.0
  0
ARC
  8
0
  6
CONTINUOUS
 62
               3
  5
159
 10
34.5
 20
282.62132000000003
 30
0.0
 40
1.5
 50
180.0
 51
225.0
  0
LINE
  8
0
  6
CONTINUOUS
 62
               3
  5
15A
 10
-35.0
 20
270.0
 30
0.0
 11
-35.0
 21
279.37867999999997
 31
0.0
  0
ARC
  8
0
  6
CONTINUOUS
 62
               3
  5
15B
 10
-33.5
 20
279.37867999999997
 30
0.0
 40
1.5
 50
135.0
 51
180.0
  0
ARC
  8
0
  6
CONTINUOUS
 62
               3
  5
15C
 10
-34.0
 20
270.0
 30
0.0
 40
1.0
 50
180.0
 51
270.0
  0
ARC
  8
0
  6
CONTINUOUS
 62
               3
  5
15D
 10
34.0
 20
270.0
 30
0.0
 40
1.0
 50
270.0
 51
0.0
  0
LINE
  8
0
  6
CONTINUOUS
 62
               3
  5
15E
 10
-50.0
 20
198.5
 30
0.0
 11
-50.0
 21
131.5
 31
0.0
  0
LINE
  8
0
  6
CONTINUOUS
 62
               3
  5
15F
 10
0.0
 20
113.747135
 30
0.0
 11
0.000185
 21
113.747136
 31
0.0
  0
ARC
  8
0
  6
CONTINUOUS
 62
               3
  5
160
 10
4.5
 20
115.5
 30
0.0
 40
0.5
 50
270.0
 51
0.0
  0
ARC
  8
0
  6
CONTINUOUS
 62
               3
  5
161
 10
-4.5
 20
115.5
 30
0.0
 40
0.5
 50
180.0
 51
270.0
  0
LINE
  8
0
  6
CONTINUOUS
 62
               3
  5
162
 10
-4.5
 20
115.0
 30
0.0
 11
4.5
 21
115.0
 31
0.0
  0
LINE
  8
0
  6
CONTINUOUS
 62
               3
  5
163
 10
-5.0
 20
119.0
 30
0.0
 11
-5.0
 21
115.5
 31
0.0
  0
LINE
  8
0
  6
CONTINUOUS
 62
               3
  5
164
 10
5.0
 20
115.5
 30
0.0
 11
5.0
 21
119.0
 31
0.0
  0
LINE
  8
0
  6
CONTINUOUS
 62
               3
  5
165
 10
-21.650635000000001
 20
113.747135
 30
0.0
 11
-21.650449999999999
 21
113.747136
 31
0.0
  0
LINE
  8
0
  6
CONTINUOUS
 62
               3
  5
166
 10
17.052389999999999
 20
119.0
 30
0.0
 11
17.052389999999999
 21
115.5
 31
0.0
  0
LINE
  8
0
  6
CONTINUOUS
 62
               3
  5
167
 10
17.552389999999999
 20
115.0
 30
0.0
 11
26.552389999999999
 21
115.0
 31
0.0
  0
LINE
  8
0
  6
CONTINUOUS
 62
               3
  5
168
 10
-16.650635000000001
 20
115.5
 30
0.0
 11
-16.650635000000001
 21
119.0
 31
0.0
  0
LINE
  8
0
  6
CONTINUOUS
 62
               3
  5
169
 10
27.052389999999999
 20
115.5
 30
0.0
 11
27.052389999999999
 21
119.0
 31
0.0
  0
LINE
  8
0
  6
CONTINUOUS
 62
               3
  5
16A
 10
-26.650635000000001
 20
119.0
 30
0.0
 11
-26.650635000000001
 21
115.5
 31
0.0
  0
LINE
  8
0
  6
CONTINUOUS
 62
               3
  5
16B
 10
-26.150635000000001
 20
115.0
 30
0.0
 11
-17.150635000000001
 21
115.0
 31
0.0
  0
ARC
  8
0
  6
CONTINUOUS
 62
               3
  5
16C
 10
-26.150635000000001
 20
115.5
 30
0.0
 40
0.5
 50
180.0
 51
270.0
  0
ARC
  8
0
  6
CONTINUOUS
 62
               3
  5
16D
 10
-17.150635000000001
 20
115.5
 30
0.0
 40
0.5
 50
270.0
 51
0.0
  0
ARC
  8
0
  6
CONTINUOUS
 62
               3
  5
16E
 10
26.552389999999999
 20
115.5
 30
0.0
 40
0.5
 50
270.0
 51
0.0
  0
ARC
  8
0
  6
CONTINUOUS
 62
               3
  5
16F
 10
17.552389999999999
 20
115.5
 30
0.0
 40
0.5
 50
180.0
 51
270.0
  0
LINE
  8
0
  6
CONTINUOUS
 62
               3
  5
170
 10
-34.0
 20
198.0
 30
0.0
 11
-34.0
 21
132.0
 31
0.0
  0
LINE
  8
0
  6
CONTINUOUS
 62
               3
  5
171
 10
35.0
 20
129.37868
 30
0.0
 11
-35.0
 21
129.37868
 31
0.0
  0
ARC
  8
0
  6
CONTINUOUS
 62
               3
  5
172
 10
2.5
 20
164.99999700000001
 30
0.0
 40
120.0
 50
180.0
 51
184.99268000000001
  0
ARC
  8
0
  6
CONTINUOUS
 62
               3
  5
173
 10
-86.5
 20
165.0
 30
0.0
 40
32.700000000000003
 50
204.943477
 51
270.0
  0
LINE
  8
0
  6
CONTINUOUS
 62
               3
  5
174
 10
-86.5
 20
132.30000000000001
 30
0.0
 11
-50.0
 21
131.75
 31
0.0
  0
LINE
  8
0
  6
CONTINUOUS
 62
               3
  5
175
 10
-50.0
 20
198.25
 30
0.0
 11
-86.5
 21
197.69999999999999
 31
0.0
  0
ARC
  8
0
  6
CONTINUOUS
 62
               3
  5
176
 10
2.5
 20
164.99999700000001
 30
0.0
 40
120.0
 50
175.007317
 51
180.0
  0
ARC
  8
0
  6
CONTINUOUS
 62
               3
  5
177
 10
-86.5
 20
165.0
 30
0.0
 40
32.700000000000003
 50
90.0
 51
155.05651900000001
  0
ARC
  8
0
  6
CONTINUOUS
 62
               3
  5
178
 10
-107.082641
 20
155.42686599999999
 30
0.0
 40
10.0
 50
184.99268000000001
 51
204.943477
  0
ARC
  8
0
  6
CONTINUOUS
 62
               3
  5
179
 10
-107.08264
 20
174.57313600000001
 30
0.0
 40
10.0
 50
155.05651900000001
 51
175.007317
  0
LINE
  8
0
  6
CONTINUOUS
 62
               3
  5
17A
 10
0.0
 20
165.0
 30
0.0
 11
-34.560659999999999
 21
130.43933999999999
 31
0.0
  0
LINE
  8
0
  6
CONTINUOUS
 62
               3
  5
17B
 10
34.560659999999999
 20
130.43933999999999
 30
0.0
 11
33.439340000000001
 21
131.56066000000001
 31
0.0
  0
LINE
  8
0
  6
CONTINUOUS
 62
               3
  5
17C
 10
35.0
 20
120.0
 30
0.0
 11
35.0
 21
129.37868
 31
0.0
  0
LINE
  8
0
  6
CONTINUOUS
 62
               3
  5
17D
 10
33.0
 20
132.62132
 30
0.0
 11
33.0
 21
198.0
 31
0.0
  0
ARC
  8
0
  6
CONTINUOUS
 62
               3
  5
17E
 10
33.5
 20
129.37868
 30
0.0
 40
1.5
 50
0.0
 51
45.0
  0
LINE
  8
0
  6
CONTINUOUS
 62
               3
  5
17F
 10
-34.0
 20
119.0
 30
0.0
 11
34.0
 21
119.0
 31
0.0
  0
ARC
  8
0
  6
CONTINUOUS
 62
               3
  5
180
 10
34.5
 20
132.62132
 30
0.0
 40
1.5
 50
180.0
 51
225.0
  0
LINE
  8
0
  6
CONTINUOUS
 62
               3
  5
181
 10
-35.0
 20
120.0
 30
0.0
 11
-35.0
 21
129.37868
 31
0.0
  0
LINE
  8
0
  6
CONTINUOUS
 62
               3
  5
182
 10
0.0
 20
165.0
 30
0.0
 11
33.0
 21
198.0
 31
0.0
  0
ARC
  8
0
  6
CONTINUOUS
 62
               3
  5
183
 10
-33.5
 20
129.37868
 30
0.0
 40
1.5
 50
135.0
 51
180.0
  0
ARC
  8
0
  6
CONTINUOUS
 62
               3
  5
184
 10
-34.0
 20
120.0
 30
0.0
 40
1.0
 50
180.0
 51
270.0
  0
ARC
  8
0
  6
CONTINUOUS
 62
               3
  5
185
 10
34.0
 20
120.0
 30
0.0
 40
1.0
 50
270.0
 51
0.0
  0
LINE
  8
0
  6
CONTINUOUS
 62
               3
  5
186
 10
-34.0
 20
132.0
 30
0.0
 11
-33.0
 21
132.0
 31
0.0
  0
LINE
  8
0
  6
CONTINUOUS
 62
               3
  5
187
 10
-48.5
 20
130.0
 30
0.0
 11
-39.0
 21
130.0
 31
0.0
  0
LINE
  8
0
  6
CONTINUOUS
 62
               3
  5
188
 10
-34.0
 20
198.0
 30
0.0
 11
33.0
 21
198.0
 31
0.0
  0
LINE
  8
0
  6
CONTINUOUS
 62
               3
  5
189
 10
-48.5
 20
200.0
 30
0.0
 11
-39.0
 21
200.0
 31
0.0
  0
LINE
  8
0
  6
CONTINUOUS
 62
               3
  5
18A
 10
-39.0
 20
200.0
 30
0.0
 11
-34.0
 21
198.0
 31
0.0
  0
LINE
  8
0
  6
CONTINUOUS
 62
               3
  5
18B
 10
-39.0
 20
130.0
 30
0.0
 11
-34.0
 21
132.0
 31
0.0
  0
ARC
  8
0
  6
CONTINUOUS
 62
               3
  5
18C
 10
-48.5
 20
131.5
 30
0.0
 40
1.5
 50
180.0
 51
270.0
  0
ARC
  8
0
  6
CONTINUOUS
 62
               3
  5
18D
 10
-48.5
 20
198.5
 30
0.0
 40
1.5
 50
90.0
 51
180.0
  0
LINE
  8
0
  6
CONTINUOUS
 62
               3
  5
18E
 10
-39.0
 20
200.0
 30
0.0
 11
-39.0
 21
130.0
 31
0.0
  0
LINE
  8
0
  6
CONTINUOUS
 62
               3
  5
18F
 10
-33.5
 20
365.0
 30
0.0
 11
33.5
 21
365.0
 31
0.0
  0
LINE
  8
0
  6
CONTINUOUS
 62
               3
  5
190
 10
-33.0
 20
349.0
 30
0.0
 11
33.0
 21
349.0
 31
0.0
  0
ARC
  8
0
  6
CONTINUOUS
 62
               3
  5
191
 10
0.000003
 20
312.5
 30
0.0
 40
120.0
 50
85.007320000000007
 51
90.0
  0
ARC
  8
0
  6
CONTINUOUS
 62
               3
  5
192
 10
0.0
 20
401.5
 30
0.0
 40
32.700000000000003
 50
0.0
 51
65.056522999999999
  0
LINE
  8
0
  6
CONTINUOUS
 62
               3
  5
193
 10
32.700000000000003
 20
401.5
 30
0.0
 11
33.25
 21
365.0
 31
0.0
  0
LINE
  8
0
  6
CONTINUOUS
 62
               3
  5
194
 10
-33.25
 20
365.0
 30
0.0
 11
-32.700000000000003
 21
401.5
 31
0.0
  0
ARC
  8
0
  6
CONTINUOUS
 62
               3
  5
195
 10
0.000003
 20
312.5
 30
0.0
 40
120.0
 50
90.0
 51
94.992683
  0
ARC
  8
0
  6
CONTINUOUS
 62
               3
  5
196
 10
0.0
 20
401.5
 30
0.0
 40
32.700000000000003
 50
114.94348100000001
 51
180.0
  0
ARC
  8
0
  6
CONTINUOUS
 62
               3
  5
197
 10
9.5731339999999996
 20
422.08264100000002
 30
0.0
 40
10.0
 50
65.056522999999999
 51
85.007320000000007
  0
ARC
  8
0
  6
CONTINUOUS
 62
               3
  5
198
 10
-9.5731359999999999
 20
422.08264000000003
 30
0.0
 40
10.0
 50
94.992683
 51
114.94348100000001
  0
LINE
  8
0
  6
CONTINUOUS
 62
               3
  5
199
 10
33.0
 20
349.0
 30
0.0
 11
33.0
 21
348.0
 31
0.0
  0
LINE
  8
0
  6
CONTINUOUS
 62
               3
  5
19A
 10
35.0
 20
363.5
 30
0.0
 11
35.0
 21
354.0
 31
0.0
  0
LINE
  8
0
  6
CONTINUOUS
 62
               3
  5
19B
 10
-35.0
 20
363.5
 30
0.0
 11
-35.0
 21
354.0
 31
0.0
  0
LINE
  8
0
  6
CONTINUOUS
 62
               3
  5
19C
 10
-35.0
 20
354.0
 30
0.0
 11
-33.0
 21
349.0
 31
0.0
  0
LINE
  8
0
  6
CONTINUOUS
 62
               3
  5
19D
 10
35.0
 20
354.0
 30
0.0
 11
33.0
 21
349.0
 31
0.0
  0
ARC
  8
0
  6
CONTINUOUS
 62
               3
  5
19E
 10
33.5
 20
363.5
 30
0.0
 40
1.5
 50
0.0
 51
90.0
  0
ARC
  8
0
  6
CONTINUOUS
 62
               3
  5
19F
 10
-33.5
 20
363.5
 30
0.0
 40
1.5
 50
90.0
 51
180.0
  0
LINE
  8
0
  6
CONTINUOUS
 62
               3
  5
1A0
 10
-35.0
 20
354.0
 30
0.0
 11
35.0
 21
354.0
 31
0.0
  0
LINE
  8
0
  6
CONTINUOUS
 62
               3
  5
1A1
 10
-33.0
 20
349.0
 30
0.0
 11
-33.0
 21
282.0
 31
0.0
  0
LINE
  8
0
  6
CONTINUOUS
 62
               3
  5
1A2
 10
-34.560659999999999
 20
280.43934000000002
 30
0.0
 11
33.0
 21
348.0
 31
0.0
  0
LINE
  8
0
  6
CONTINUOUS
 62
               3
  5
1A3
 10
33.0
 20
282.62132000000003
 30
0.0
 11
33.0
 21
348.0
 31
0.0
  0
ARC
  8
0
  6
CONTINUOUS
 62
               3
  5
1A4
 10
-166.5
 20
129.37868
 30
0.0
 40
1.5
 50
0.0
 51
45.0
  0
ARC
  8
0
  6
CONTINUOUS
 62
               3
  5
1A5
 10
-233.5
 20
129.37868
 30
0.0
 40
1.5
 50
135.0
 51
180.0
  0
LINE
  8
0
  6
CONTINUOUS
 62
               3
  5
1A6
 10
-167.0
 20
282.62132000000003
 30
0.0
 11
-167.0
 21
348.0
 31
0.0
  0
LINE
  8
0
  6
CONTINUOUS
 62
               3
  5
1A7
 10
-234.56066000000001
 20
280.43934000000002
 30
0.0
 11
-167.0
 21
348.0
 31
0.0
  0
LINE
  8
0
  6
CONTINUOUS
 62
               3
  5
1A8
 10
-233.0
 20
349.0
 30
0.0
 11
-233.0
 21
282.0
 31
0.0
  0
LINE
  8
0
  6
CONTINUOUS
 62
               3
  5
1A9
 10
-235.0
 20
354.0
 30
0.0
 11
-165.0
 21
354.0
 31
0.0
  0
ARC
  8
0
  6
CONTINUOUS
 62
               3
  5
1AA
 10
-233.5
 20
363.5
 30
0.0
 40
1.5
 50
90.0
 51
180.0
  0
ARC
  8
0
  6
CONTINUOUS
 62
               3
  5
1AB
 10
-166.5
 20
363.5
 30
0.0
 40
1.5
 50
0.0
 51
90.0
  0
LINE
  8
0
  6
CONTINUOUS
 62
               3
  5
1AC
 10
-165.0
 20
354.0
 30
0.0
 11
-167.0
 21
349.0
 31
0.0
  0
LINE
  8
0
  6
CONTINUOUS
 62
               3
  5
1AD
 10
-235.0
 20
354.0
 30
0.0
 11
-233.0
 21
349.0
 31
0.0
  0
LINE
  8
0
  6
CONTINUOUS
 62
               3
  5
1AE
 10
-235.0
 20
363.5
 30
0.0
 11
-235.0
 21
354.0
 31
0.0
  0
LINE
  8
0
  6
CONTINUOUS
 62
               3
  5
1AF
 10
-165.0
 20
363.5
 30
0.0
 11
-165.0
 21
354.0
 31
0.0
  0
LINE
  8
0
  6
CONTINUOUS
 62
               3
  5
1B0
 10
-167.0
 20
349.0
 30
0.0
 11
-167.0
 21
348.0
 31
0.0
  0
ARC
  8
0
  6
CONTINUOUS
 62
               3
  5
1B1
 10
-209.57313600000001
 20
422.08264000000003
 30
0.0
 40
10.0
 50
94.992683
 51
114.94348100000001
  0
ARC
  8
0
  6
CONTINUOUS
 62
               3
  5
1B2
 10
-190.42686599999999
 20
422.08264100000002
 30
0.0
 40
10.0
 50
65.056522999999999
 51
85.007320000000007
  0
ARC
  8
0
  6
CONTINUOUS
 62
               3
  5
1B3
 10
-200.0
 20
401.5
 30
0.0
 40
32.700000000000003
 50
114.94348100000001
 51
180.0
  0
ARC
  8
0
  6
CONTINUOUS
 62
               3
  5
1B4
 10
-199.99999700000001
 20
312.5
 30
0.0
 40
120.0
 50
90.0
 51
94.992683
  0
LINE
  8
0
  6
CONTINUOUS
 62
               3
  5
1B5
 10
-233.25
 20
365.0
 30
0.0
 11
-232.69999999999999
 21
401.5
 31
0.0
  0
LINE
  8
0
  6
CONTINUOUS
 62
               3
  5
1B6
 10
-167.30000000000001
 20
401.5
 30
0.0
 11
-166.75
 21
365.0
 31
0.0
  0
ARC
  8
0
  6
CONTINUOUS
 62
               3
  5
1B7
 10
-200.0
 20
401.5
 30
0.0
 40
32.700000000000003
 50
0.0
 51
65.056522999999999
  0
ARC
  8
0
  6
CONTINUOUS
 62
               3
  5
1B8
 10
-199.99999700000001
 20
312.5
 30
0.0
 40
120.0
 50
85.007320000000007
 51
90.0
  0
LINE
  8
0
  6
CONTINUOUS
 62
               3
  5
1B9
 10
-233.0
 20
349.0
 30
0.0
 11
-167.0
 21
349.0
 31
0.0
  0
LINE
  8
0
  6
CONTINUOUS
 62
               3
  5
1BA
 10
-233.5
 20
365.0
 30
0.0
 11
-166.5
 21
365.0
 31
0.0
  0
LINE
  8
0
  6
CONTINUOUS
 62
               3
  5
1BB
 10
-239.0
 20
200.0
 30
0.0
 11
-239.0
 21
130.0
 31
0.0
  0
ARC
  8
0
  6
CONTINUOUS
 62
               3
  5
1BC
 10
-248.5
 20
198.5
 30
0.0
 40
1.5
 50
90.0
 51
180.0
  0
ARC
  8
0
  6
CONTINUOUS
 62
               3
  5
1BD
 10
-248.5
 20
131.5
 30
0.0
 40
1.5
 50
180.0
 51
270.0
  0
LINE
  8
0
  6
CONTINUOUS
 62
               3
  5
1BE
 10
-239.0
 20
130.0
 30
0.0
 11
-234.0
 21
132.0
 31
0.0
  0
LINE
  8
0
  6
CONTINUOUS
 62
               3
  5
1BF
 10
-239.0
 20
200.0
 30
0.0
 11
-234.0
 21
198.0
 31
0.0
  0
LINE
  8
0
  6
CONTINUOUS
 62
               3
  5
1C0
 10
-248.5
 20
200.0
 30
0.0
 11
-239.0
 21
200.0
 31
0.0
  0
LINE
  8
0
  6
CONTINUOUS
 62
               3
  5
1C1
 10
-234.0
 20
198.0
 30
0.0
 11
-167.0
 21
198.0
 31
0.0
  0
LINE
  8
0
  6
CONTINUOUS
 62
               3
  5
1C2
 10
-248.5
 20
130.0
 30
0.0
 11
-239.0
 21
130.0
 31
0.0
  0
LINE
  8
0
  6
CONTINUOUS
 62
               3
  5
1C3
 10
-234.0
 20
132.0
 30
0.0
 11
-233.0
 21
132.0
 31
0.0
  0
LINE
  8
0
  6
CONTINUOUS
 62
               3
  5
1C4
 10
-200.0
 20
165.0
 30
0.0
 11
-167.0
 21
198.0
 31
0.0
  0
ARC
  8
0
  6
CONTINUOUS
 62
               3
  5
1C5
 10
-165.5
 20
132.62132
 30
0.0
 40
1.5
 50
180.0
 51
225.0
  0
LINE
  8
0
  6
CONTINUOUS
 62
               3
  5
1C6
 10
-167.0
 20
132.62132
 30
0.0
 11
-167.0
 21
198.0
 31
0.0
  0
LINE
  8
0
  6
CONTINUOUS
 62
               3
  5
1C7
 10
-165.43933999999999
 20
130.43933999999999
 30
0.0
 11
-166.56066000000001
 21
131.56066000000001
 31
0.0
  0
LINE
  8
0
  6
CONTINUOUS
 62
               3
  5
1C8
 10
-200.0
 20
165.0
 30
0.0
 11
-234.56066000000001
 21
130.43933999999999
 31
0.0
  0
ARC
  8
0
  6
CONTINUOUS
 62
               3
  5
1C9
 10
-307.08264000000003
 20
174.57313600000001
 30
0.0
 40
10.0
 50
155.05651900000001
 51
175.007317
  0
ARC
  8
0
  6
CONTINUOUS
 62
               3
  5
1CA
 10
-307.08264100000002
 20
155.42686599999999
 30
0.0
 40
10.0
 50
184.99268000000001
 51
204.943477
  0
ARC
  8
0
  6
CONTINUOUS
 62
               3
  5
1CB
 10
-286.5
 20
165.0
 30
0.0
 40
32.700000000000003
 50
90.0
 51
155.05651900000001
  0
ARC
  8
0
  6
CONTINUOUS
 62
               3
  5
1CC
 10
-197.5
 20
164.99999700000001
 30
0.0
 40
120.0
 50
175.007317
 51
180.0
  0
LINE
  8
0
  6
CONTINUOUS
 62
               3
  5
1CD
 10
-250.0
 20
198.25
 30
0.0
 11
-286.5
 21
197.69999999999999
 31
0.0
  0
LINE
  8
0
  6
CONTINUOUS
 62
               3
  5
1CE
 10
-286.5
 20
132.30000000000001
 30
0.0
 11
-250.0
 21
131.75
 31
0.0
  0
ARC
  8
0
  6
CONTINUOUS
 62
               3
  5
1CF
 10
-286.5
 20
165.0
 30
0.0
 40
32.700000000000003
 50
204.943477
 51
270.0
  0
ARC
  8
0
  6
CONTINUOUS
 62
               3
  5
1D0
 10
-197.5
 20
164.99999700000001
 30
0.0
 40
120.0
 50
180.0
 51
184.99268000000001
  0
LINE
  8
0
  6
CONTINUOUS
 62
               3
  5
1D1
 10
-234.0
 20
198.0
 30
0.0
 11
-234.0
 21
132.0
 31
0.0
  0
LINE
  8
0
  6
CONTINUOUS
 62
               3
  5
1D2
 10
-250.0
 20
198.5
 30
0.0
 11
-250.0
 21
131.5
 31
0.0
  0
ARC
  8
0
  6
CONTINUOUS
 62
               3
  5
1D3
 10
-166.0
 20
270.0
 30
0.0
 40
1.0
 50
270.0
 51
0.0
  0
ARC
  8
0
  6
CONTINUOUS
 62
               3
  5
1D4
 10
-234.0
 20
270.0
 30
0.0
 40
1.0
 50
180.0
 51
270.0
  0
ARC
  8
0
  6
CONTINUOUS
 62
               3
  5
1D5
 10
-233.5
 20
279.37867999999997
 30
0.0
 40
1.5
 50
135.0
 51
180.0
  0
LINE
  8
0
  6
CONTINUOUS
 62
               3
  5
1D6
 10
-235.0
 20
270.0
 30
0.0
 11
-235.0
 21
279.37867999999997
 31
0.0
  0
ARC
  8
0
  6
CONTINUOUS
 62
               3
  5
1D7
 10
-165.5
 20
282.62132000000003
 30
0.0
 40
1.5
 50
180.0
 51
225.0
  0
LINE
  8
0
  6
CONTINUOUS
 62
               3
  5
1D8
 10
-234.0
 20
269.0
 30
0.0
 11
-166.0
 21
269.0
 31
0.0
  0
ARC
  8
0
  6
CONTINUOUS
 62
               3
  5
1D9
 10
-166.5
 20
279.37867999999997
 30
0.0
 40
1.5
 50
0.0
 51
45.0
  0
LINE
  8
0
  6
CONTINUOUS
 62
               3
  5
1DA
 10
-165.0
 20
270.0
 30
0.0
 11
-165.0
 21
279.37867999999997
 31
0.0
  0
LINE
  8
0
  6
CONTINUOUS
 62
               3
  5
1DB
 10
-165.43933999999999
 20
280.43934000000002
 30
0.0
 11
-166.56066000000001
 21
281.56065999999998
 31
0.0
  0
LINE
  8
0
  6
CONTINUOUS
 62
               3
  5
1DC
 10
-165.0
 20
279.37867999999997
 30
0.0
 11
-235.0
 21
279.37867999999997
 31
0.0
  0
LINE
  8
0
  6
CONTINUOUS
 62
               3
  5
1DD
 10
-195.0
 20
265.5
 30
0.0
 11
-195.0
 21
269.0
 31
0.0
  0
LINE
  8
0
  6
CONTINUOUS
 62
               3
  5
1DE
 10
-205.0
 20
269.0
 30
0.0
 11
-205.0
 21
265.5
 31
0.0
  0
LINE
  8
0
  6
CONTINUOUS
 62
               3
  5
1DF
 10
-226.65063499999999
 20
269.0
 30
0.0
 11
-226.65063499999999
 21
265.5
 31
0.0
  0
LINE
  8
0
  6
CONTINUOUS
 62
               3
  5
1E0
 10
-173.34936500000001
 20
265.5
 30
0.0
 11
-173.34936500000001
 21
269.0
 31
0.0
  0
LINE
  8
0
  6
CONTINUOUS
 62
               3
  5
1E1
 10
-216.65063499999999
 20
265.5
 30
0.0
 11
-216.65063499999999
 21
269.0
 31
0.0
  0
LINE
  8
0
  6
CONTINUOUS
 62
               3
  5
1E2
 10
-183.34936500000001
 20
269.0
 30
0.0
 11
-183.34936500000001
 21
265.5
 31
0.0
  0
ARC
  8
0
  6
CONTINUOUS
 62
               3
  5
1E3
 10
-186.25
 20
263.0
 30
0.0
 40
2.0
 50
0.0
 51
90.0
  0
ARC
  8
0
  6
CONTINUOUS
 62
               3
  5
1E4
 10
-213.75
 20
263.0
 30
0.0
 40
2.0
 50
90.0
 51
180.0
  0
LINE
  8
0
  6
CONTINUOUS
 62
               3
  5
1E5
 10
-215.75
 20
260.0
 30
0.0
 11
-215.75
 21
263.0
 31
0.0
  0
ARC
  8
0
  6
CONTINUOUS
 62
               3
  5
1E6
 10
-164.59936500000001
 20
263.0
 30
0.0
 40
2.0
 50
0.0
 51
90.0
  0
ARC
  8
0
  6
CONTINUOUS
 62
               3
  5
1E7
 10
-235.40063499999999
 20
263.0
 30
0.0
 40
2.0
 50
90.0
 51
180.0
  0
LINE
  8
0
  6
CONTINUOUS
 62
               3
  5
1E8
 10
-162.59936500000001
 20
263.0
 30
0.0
 11
-162.59936500000001
 21
260.0
 31
0.0
  0
LINE
  8
0
  6
CONTINUOUS
 62
               3
  5
1E9
 10
-237.40063499999999
 20
260.0
 30
0.0
 11
-237.40063499999999
 21
263.0
 31
0.0
  0
LINE
  8
0
  6
CONTINUOUS
 62
               3
  5
1EA
 10
-184.25
 20
263.0
 30
0.0
 11
-184.25
 21
260.0
 31
0.0
  0
ARC
  8
0
  6
CONTINUOUS
 62
               3
  5
1EB
 10
-195.5
 20
265.5
 30
0.0
 40
0.5
 50
270.0
 51
0.0
  0
ARC
  8
0
  6
CONTINUOUS
 62
               3
  5
1EC
 10
-204.5
 20
265.5
 30
0.0
 40
0.5
 50
180.0
 51
270.0
  0
ARC
  8
0
  6
CONTINUOUS
 62
               3
  5
1ED
 10
-226.15063499999999
 20
265.5
 30
0.0
 40
0.5
 50
180.0
 51
270.0
  0
ARC
  8
0
  6
CONTINUOUS
 62
               3
  5
1EE
 10
-217.15063499999999
 20
265.5
 30
0.0
 40
0.5
 50
270.0
 51
0.0
  0
ARC
  8
0
  6
CONTINUOUS
 62
               3
  5
1EF
 10
-173.84936500000001
 20
265.5
 30
0.0
 40
0.5
 50
270.0
 51
0.0
  0
ARC
  8
0
  6
CONTINUOUS
 62
               3
  5
1F0
 10
-182.84936500000001
 20
265.5
 30
0.0
 40
0.5
 50
180.0
 51
270.0
  0
LINE
  8
0
  6
CONTINUOUS
 62
               3
  5
1F1
 10
-235.40063499999999
 20
265.0
 30
0.0
 11
-164.59936500000001
 21
265.0
 31
0.0
  0
LINE
  8
0
  6
CONTINUOUS
 62
               3
  5
1F2
 10
-162.59936500000001
 20
260.0
 30
0.0
 11
-237.40063499999999
 21
260.0
 31
0.0
  0
LINE
  8
0
  6
DASHED
 62
              80
  5
1F3
 10
-50.0
 20
33.25
 30
0.0
 11
-86.5
 21
32.700000000000003
 31
0.0
  0
ARC
  8
0
  6
DASHED
 62
              80
  5
1F4
 10
-86.5
 20
0.0
 30
0.0
 40
32.700000000000003
 50
90.0
 51
155.05651900000001
  0
ARC
  8
0
  6
DASHED
 62
              80
  5
1F5
 10
-107.082641
 20
-9.5731339999999996
 30
0.0
 40
10.0
 50
184.99268000000001
 51
204.943477
  0
ARC
  8
0
  6
DASHED
 62
              80
  5
1F6
 10
-107.08264
 20
9.5731359999999999
 30
0.0
 40
10.0
 50
155.05651900000001
 51
175.007317
  0
ARC
  8
0
  6
DASHED
 62
              80
  5
1F7
 10
2.5
 20
-0.000003
 30
0.0
 40
120.0
 50
175.007317
 51
180.0
  0
ARC
  8
0
  6
DASHED
 62
              80
  5
1F8
 10
2.5
 20
-0.000003
 30
0.0
 40
120.0
 50
180.0
 51
184.99268000000001
  0
ARC
  8
0
  6
DASHED
 62
              80
  5
1F9
 10
-86.5
 20
0.0
 30
0.0
 40
32.700000000000003
 50
204.943477
 51
270.0
  0
LINE
  8
0
  6
DASHED
 62
              80
  5
1FA
 10
-86.5
 20
-32.700000000000003
 30
0.0
 11
-50.0
 21
-33.25
 31
0.0
  0
LINE
  8
0
  6
DASHED
 62
              80
  5
1FB
 10
-50.0
 20
33.5
 30
0.0
 11
-50.0
 21
33.25
 31
0.0
  0
LINE
  8
0
  6
DASHED
 62
              80
  5
1FC
 10
-48.5
 20
-35.0
 30
0.0
 11
-39.0
 21
-35.0
 31
0.0
  0
ARC
  8
0
  6
DASHED
 62
              80
  5
1FD
 10
-48.5
 20
-33.5
 30
0.0
 40
1.5
 50
180.0
 51
270.0
  0
LINE
  8
0
  6
DASHED
 62
              80
  5
1FE
 10
-39.0
 20
-35.0
 30
0.0
 11
-34.0
 21
-33.0
 31
0.0
  0
LINE
  8
0
  6
DASHED
 62
              80
  5
1FF
 10
-48.5
 20
35.0
 30
0.0
 11
-39.0
 21
35.0
 31
0.0
  0
ARC
  8
0
  6
DASHED
 62
              80
  5
200
 10
-48.5
 20
33.5
 30
0.0
 40
1.5
 50
90.0
 51
180.0
  0
LINE
  8
0
  6
DASHED
 62
              80
  5
201
 10
-34.0
 20
33.0
 30
0.0
 11
-11.661904
 21
33.0
 31
0.0
  0
LINE
  8
0
  6
DASHED
 62
              80
  5
202
 10
-39.0
 20
35.0
 30
0.0
 11
-34.0
 21
33.0
 31
0.0
  0
LINE
  8
0
  6
DASHED
 62
              80
  5
203
 10
-34.0
 20
-33.0
 30
0.0
 11
-11.661904
 21
-33.0
 31
0.0
  0
LINE
  8
0
  6
DASHED
 62
              80
  5
204
 10
-50.0
 20
-33.25
 30
0.0
 11
-50.0
 21
-33.5
 31
0.0
  0
ARC
  8
0
  6
CONTINUOUS
 62
               3
  5
205
 10
0.0
 20
0.0
 30
0.0
 40
35.0
 50
273.68584199999998
 51
274.36540000000002
  0
ARC
  8
0
  6
CONTINUOUS
 62
              10
  5
206
 10
0.0
 20
0.0
 30
0.0
 40
2.25
 50
0.0
 51
180.0
  0
ARC
  8
0
  6
CONTINUOUS
 62
              10
  5
207
 10
24.367957000000001
 20
-44.692366999999997
 30
0.0
 40
2.109375
 50
306.86989799999998
 51
53.130102000000001
  0
ARC
  8
0
  6
CONTINUOUS
 62
              10
  5
208
 10
7.25
 20
-35.754866999999997
 30
0.0
 40
5.0
 50
180.0
 51
270.0
  0
ARC
  8
0
  6
CONTINUOUS
 62
              10
  5
209
 10
7.25
 20
-35.754866999999997
 30
0.0
 40
7.25
 50
180.0
 51
270.0
  0
ARC
  8
0
  6
CONTINUOUS
 62
              10
  5
20A
 10
7.25
 20
-35.754866999999997
 30
0.0
 40
9.5
 50
180.0
 51
270.0
  0
ARC
  8
0
  6
CONTINUOUS
 62
              10
  5
20B
 10
26.899207000000001
 20
-41.317366999999997
 30
0.0
 40
2.109375
 50
126.86989800000001
 51
233.13010199999999
  0
LINE
  8
0
  6
CONTINUOUS
 62
              10
  5
20C
 10
25.633582000000001
 20
-43.004866999999997
 30
0.0
 11
7.25
 21
-43.004866999999997
 31
0.0
  0
LINE
  8
0
  6
CONTINUOUS
 62
              10
  5
20D
 10
24.866215
 20
-40.754866999999997
 30
0.0
 11
7.25
 21
-40.754866999999997
 31
0.0
  0
LINE
  8
0
  6
CONTINUOUS
 62
              10
  5
20E
 10
0.0
 20
-35.754866999999997
 30
0.0
 11
0.0
 21
0.0
 31
0.0
  0
LINE
  8
0
  6
CONTINUOUS
 62
              10
  5
20F
 10
2.25
 20
-35.754866999999997
 30
0.0
 11
2.25
 21
0.0
 31
0.0
  0
LINE
  8
0
  6
CONTINUOUS
 62
              10
  5
210
 10
7.25
 20
-45.254866999999997
 30
0.0
 11
26.400949000000001
 21
-45.254866999999997
 31
0.0
  0
LINE
  8
0
  6
CONTINUOUS
 62
              10
  5
211
 10
-2.25
 20
0.0
 30
0.0
 11
-2.25
 21
-35.754866999999997
 31
0.0
  0
CIRCLE
  8
0
  6
CONTINUOUS
 62
               3
  5
212
 10
21.650635000000001
 20
-12.5
 30
0.0
 40
4.0
  0
CIRCLE
  8
0
  6
CONTINUOUS
 62
               3
  5
213
 10
-21.650635000000001
 20
-12.5
 30
0.0
 40
4.0
  0
CIRCLE
  8
0
  6
CONTINUOUS
 62
               3
  5
214
 10
0.0
 20
25.0
 30
0.0
 40
4.0
  0
CIRCLE
  8
0
  6
CONTINUOUS
 62
               3
  5
215
 10
21.650635000000001
 20
-12.5
 30
0.0
 40
2.75
  0
CIRCLE
  8
0
  6
CONTINUOUS
 62
               3
  5
216
 10
21.650635000000001
 20
-12.5
 30
0.0
 40
1.5
  0
LINE
  8
0
  6
CONTINUOUS
 62
               3
  5
217
 10
21.650651
 20
-15.675425000000001
 30
0.0
 11
18.900660999999999
 21
-14.087717
 31
0.0
  0
LINE
  8
0
  6
CONTINUOUS
 62
               3
  5
218
 10
21.650648
 20
-15.675414999999999
 30
0.0
 11
24.400638000000001
 21
-14.087707
 31
0.0
  0
LINE
  8
0
  6
CONTINUOUS
 62
               3
  5
219
 10
24.400635000000001
 20
-10.912292000000001
 30
0.0
 11
24.400635000000001
 21
-14.087707999999999
 31
0.0
  0
LINE
  8
0
  6
CONTINUOUS
 62
               3
  5
21A
 10
24.400651
 20
-10.912285000000001
 30
0.0
 11
21.650660999999999
 21
-9.3245780000000007
 31
0.0
  0
LINE
  8
0
  6
CONTINUOUS
 62
               3
  5
21B
 10
18.900648
 20
-10.912274999999999
 30
0.0
 11
21.650638000000001
 21
-9.324567
 31
0.0
  0
LINE
  8
0
  6
CONTINUOUS
 62
               3
  5
21C
 10
18.900635000000001
 20
-10.912292000000001
 30
0.0
 11
18.900635000000001
 21
-14.087707999999999
 31
0.0
  0
CIRCLE
  8
0
  6
CONTINUOUS
 62
               3
  5
21D
 10
-21.650635000000001
 20
-12.5
 30
0.0
 40
2.75
  0
CIRCLE
  8
0
  6
CONTINUOUS
 62
               3
  5
21E
 10
-21.650635000000001
 20
-12.5
 30
0.0
 40
1.5
  0
LINE
  8
0
  6
CONTINUOUS
 62
               3
  5
21F
 10
-21.650618999999999
 20
-15.675425000000001
 30
0.0
 11
-24.400608999999999
 21
-14.087717
 31
0.0
  0
LINE
  8
0
  6
CONTINUOUS
 62
               3
  5
220
 10
-21.650621999999998
 20
-15.675414999999999
 30
0.0
 11
-18.900632000000002
 21
-14.087707
 31
0.0
  0
LINE
  8
0
  6
CONTINUOUS
 62
               3
  5
221
 10
-18.900635000000001
 20
-10.912292000000001
 30
0.0
 11
-18.900635000000001
 21
-14.087707999999999
 31
0.0
  0
LINE
  8
0
  6
CONTINUOUS
 62
               3
  5
222
 10
-18.900618999999999
 20
-10.912285000000001
 30
0.0
 11
-21.650608999999999
 21
-9.3245780000000007
 31
0.0
  0
LINE
  8
0
  6
CONTINUOUS
 62
               3
  5
223
 10
-24.400621999999998
 20
-10.912274999999999
 30
0.0
 11
-21.650632000000002
 21
-9.324567
 31
0.0
  0
LINE
  8
0
  6
CONTINUOUS
 62
               3
  5
224
 10
-24.400635000000001
 20
-10.912292000000001
 30
0.0
 11
-24.400635000000001
 21
-14.087707999999999
 31
0.0
  0
CIRCLE
  8
0
  6
CONTINUOUS
 62
               3
  5
225
 10
0.0
 20
25.0
 30
0.0
 40
2.75
  0
CIRCLE
  8
0
  6
CONTINUOUS
 62
               3
  5
226
 10
0.0
 20
25.0
 30
0.0
 40
1.5
  0
LINE
  8
0
  6
CONTINUOUS
 62
               3
  5
227
 10
0.000016
 20
21.824574999999999
 30
0.0
 11
-2.7499739999999999
 21
23.412282999999999
 31
0.0
  0
LINE
  8
0
  6
CONTINUOUS
 62
               3
  5
228
 10
0.000013
 20
21.824584999999999
 30
0.0
 11
2.750003
 21
23.412292999999998
 31
0.0
  0
LINE
  8
0
  6
CONTINUOUS
 62
               3
  5
229
 10
2.75
 20
26.587707999999999
 30
0.0
 11
2.75
 21
23.412292000000001
 31
0.0
  0
LINE
  8
0
  6
CONTINUOUS
 62
               3
  5
22A
 10
2.750016
 20
26.587714999999999
 30
0.0
 11
0.000026
 21
28.175422000000001
 31
0.0
  0
LINE
  8
0
  6
CONTINUOUS
 62
               3
  5
22B
 10
-2.749987
 20
26.587724999999999
 30
0.0
 11
0.000003
 21
28.175433000000002
 31
0.0
  0
LINE
  8
0
  6
CONTINUOUS
 62
               3
  5
22C
 10
-2.75
 20
26.587707999999999
 30
0.0
 11
-2.75
 21
23.412292000000001
 31
0.0
  0
ARC
  8
0
  6
CONTINUOUS
 62
               3
  5
22D
 10
21.650635000000001
 20
-12.5
 30
0.0
 40
5.0
 50
270.0
 51
190.72351500000002
  0
ARC
  8
0
  6
CONTINUOUS
 62
               3
  5
22E
 10
0.0
 20
0.0
 30
0.0
 40
35.0
 50
274.36540000000002
 51
266.31415800000008
  0
ARC
  8
0
  6
CONTINUOUS
 62
               3
  5
22F
 10
0.0
 20
0.0
 30
0.0
 40
17.5
 50
119.99999999999999
 51
138.86336
  0
ARC
  8
0
  6
CONTINUOUS
 62
               3
  5
230
 10
0.0
 20
0.0
 30
0.0
 40
22.5
 50
119.99999999999999
 51
139.77865800000001
  0
ARC
  8
0
  6
CONTINUOUS
 62
               3
  5
231
 10
-21.650635000000001
 20
-12.5
 30
0.0
 40
5.0
 50
150.0
 51
70.723515000000063
  0
ARC
  8
0
  6
CONTINUOUS
 62
               3
  5
232
 10
0.0
 20
0.0
 30
0.0
 40
32.75
 50
277.00472600000001
 51
262.99527399999999
  0
ARC
  8
0
  6
CONTINUOUS
 62
               3
  5
233
 10
0.0
 20
0.0
 30
0.0
 40
22.5
 50
0.0
 51
19.778658
  0
ARC
  8
0
  6
CONTINUOUS
 62
               3
  5
234
 10
0.0
 20
0.0
 30
0.0
 40
17.5
 50
0.0
 51
18.86336
  0
ARC
  8
0
  6
CONTINUOUS
 62
               3
  5
235
 10
0.0
 20
25.0
 30
0.0
 40
5.0
 50
29.999999999999996
 51
310.72351500000002
  0
LINE
  8
0
  6
CONTINUOUS
 62
               3
  5
236
 10
3.2620469999999999
 20
21.210667000000001
 30
0.0
 11
6.0729300000000004
 21
19.587803000000001
 31
0.0
  0
CIRCLE
  8
0
  6
CONTINUOUS
 62
               3
  5
237
 10
-25.0
 20
0.0
 30
0.0
 40
6.25
  0
LINE
  8
0
  6
CONTINUOUS
 62
               3
  5
238
 10
16.088242999999999
 20
13.80546
 30
0.0
 11
13.927070000000001
 21
15.053213
 31
0.0
  0
LINE
  8
0
  6
CONTINUOUS
 62
               3
  5
239
 10
18.927070000000001
 20
23.713467000000001
 30
0.0
 11
23.660253999999998
 21
20.980761999999999
 31
0.0
  0
LINE
  8
0
  6
CONTINUOUS
 62
               3
  5
23A
 10
6.0729300000000004
 20
-19.587803000000001
 30
0.0
 11
2.25
 21
-21.794972999999999
 31
0.0
  0
LINE
  8
0
  6
CONTINUOUS
 62
               3
  5
23B
 10
6.3397459999999999
 20
-30.980761999999999
 30
0.0
 11
11.072929999999999
 21
-28.248056999999999
 31
0.0
  0
LINE
  8
0
  6
CONTINUOUS
 62
               3
  5
23C
 10
21.650635000000001
 20
-17.5
 30
0.0
 11
23.660253999999998
 21
-20.980761999999999
 31
0.0
  0
LINE
  8
0
  6
CONTINUOUS
 62
               3
  5
23D
 10
-30.0
 20
-4.5345890000000004
 30
0.0
 11
-30.0
 21
-10.0
 31
0.0
  0
LINE
  8
0
  6
CONTINUOUS
 62
               3
  5
23E
 10
-20.0
 20
-7.7803170000000001
 30
0.0
 11
-20.0
 21
-4.5345890000000004
 31
0.0
  0
ARC
  8
0
  6
CONTINUOUS
 62
               3
  5
23F
 10
3.8397459999999999
 20
-26.650635000000001
 30
0.0
 40
5.0
 50
251.46105399999999
 51
300.0
  0
ARC
  8
0
  6
CONTINUOUS
 62
               3
  5
240
 10
-25.0
 20
10.0
 30
0.0
 40
5.0
 50
27.730698
 51
180.0
  0
CIRCLE
  8
0
  6
CONTINUOUS
 62
               3
  5
241
 10
12.5
 20
-21.650635000000001
 30
0.0
 40
6.75
  0
LINE
  8
0
  6
CONTINUOUS
 62
               3
  5
242
 10
23.660253999999998
 20
-20.980761999999999
 30
0.0
 11
18.927070000000001
 21
-23.713467000000001
 31
0.0
  0
LINE
  8
0
  6
CONTINUOUS
 62
               3
  5
243
 10
13.927070000000001
 20
-15.053213
 30
0.0
 11
16.737953000000001
 21
-13.430349
 31
0.0
  0
ARC
  8
0
  6
CONTINUOUS
 62
               3
  5
244
 10
21.160253999999998
 20
16.650635000000001
 30
0.0
 40
5.0
 50
267.73069800000002
 51
59.999999999999986
  0
ARC
  8
0
  6
CONTINUOUS
 62
               3
  5
245
 10
-17.320508
 20
10.0
 30
0.0
 40
4.0
 50
94.337215
 51
16.690619000000009
  0
ARC
  8
0
  6
CONTINUOUS
 62
               3
  5
246
 10
0.0
 20
0.0
 30
0.0
 40
22.5
 50
139.77865800000001
 51
141.55865700000001
  0
ARC
  8
0
  6
CONTINUOUS
 62
               3
  5
247
 10
0.0
 20
0.0
 30
0.0
 40
17.5
 50
138.86336
 51
140.425937
  0
ARC
  8
0
  6
CONTINUOUS
 62
               3
  5
248
 10
-10.0
 20
17.320508
 30
0.0
 40
2.5
 50
300.0
 51
119.99999999999997
  0
ARC
  8
0
  6
CONTINUOUS
 62
               3
  5
249
 10
0.0
 20
0.0
 30
0.0
 40
22.5
 50
19.778658
 51
21.558657
  0
ARC
  8
0
  6
CONTINUOUS
 62
               3
  5
24A
 10
3.75
 20
-30.520485000000001
 30
0.0
 40
2.0
 50
221.40962200000001
 51
277.00472600000001
  0
ARC
  8
0
  6
CONTINUOUS
 62
               3
  5
24B
 10
-3.75
 20
-30.520485000000001
 30
0.0
 40
2.0
 50
262.99527399999999
 51
318.59037799999999
  0
CIRCLE
  8
0
  6
CONTINUOUS
 62
               3
  5
24C
 10
-10.0
 20
-17.320508
 30
0.0
 40
2.5
  0
CIRCLE
  8
0
  6
CONTINUOUS
 62
               3
  5
24D
 10
12.5
 20
-21.650635000000001
 30
0.0
 40
4.75
  0
CIRCLE
  8
0
  6
CONTINUOUS
 62
               3
  5
24E
 10
-25.0
 20
0.0
 30
0.0
 40
4.75
  0
CIRCLE
  8
0
  6
CONTINUOUS
 62
               3
  5
24F
 10
12.5
 20
21.650635000000001
 30
0.0
 40
4.75
  0
ARC
  8
0
  6
CONTINUOUS
 62
               3
  5
250
 10
0.0
 20
0.0
 30
0.0
 40
3.5
 50
310.005201
 51
229.99479899999997
  0
LINE
  8
0
  6
CONTINUOUS
 62
               3
  5
251
 10
6.3397459999999999
 20
30.980761999999999
 30
0.0
 11
4.3301270000000001
 21
27.5
 31
0.0
  0
LINE
  8
0
  6
CONTINUOUS
 62
               3
  5
252
 10
11.072929999999999
 20
28.248056999999999
 30
0.0
 11
6.3397459999999999
 21
30.980761999999999
 31
0.0
  0
ARC
  8
0
  6
CONTINUOUS
 62
               3
  5
253
 10
0.0
 20
0.0
 30
0.0
 40
17.5
 50
18.86336
 51
20.425937000000001
  0
ARC
  8
0
  6
CONTINUOUS
 62
               3
  5
254
 10
20.0
 20
0.0
 30
0.0
 40
2.5
 50
180.0
 51
0.0
  0
ARC
  8
0
  6
CONTINUOUS
 62
               3
  5
255
 10
17.320508
 20
10.0
 30
0.0
 40
4.0
 50
334.33721500000001
 51
256.69061900000008
  0
CIRCLE
  8
0
  6
CONTINUOUS
 62
               3
  5
256
 10
-25.0
 20
0.0
 30
0.0
 40
6.75
  0
LINE
  8
0
  6
CONTINUOUS
 62
               3
  5
257
 10
-30.0
 20
4.5345890000000004
 30
0.0
 11
-30.0
 21
10.0
 31
0.0
  0
CIRCLE
  8
0
  6
CONTINUOUS
 62
               3
  5
258
 10
12.5
 20
-21.650635000000001
 30
0.0
 40
6.25
  0
LINE
  8
0
  6
CONTINUOUS
 62
               3
  5
259
 10
-20.0
 20
7.0300969999999996
 30
0.0
 11
-20.0
 21
4.5345890000000004
 31
0.0
  0
LINE
  8
0
  6
CONTINUOUS
 62
               3
  5
25A
 10
-30.0
 20
-10.0
 30
0.0
 11
-25.980761999999999
 21
-10.0
 31
0.0
  0
CIRCLE
  8
0
  6
CONTINUOUS
 62
               3
  5
25B
 10
12.5
 20
21.650635000000001
 30
0.0
 40
6.25
  0
CIRCLE
  8
0
  6
CONTINUOUS
 62
               3
  5
25C
 10
12.5
 20
21.650635000000001
 30
0.0
 40
6.75
  0
ARC
  8
0
  6
DASHED
 62
              80
  5
25D
 10
-286.5
 20
0.0
 30
0.0
 40
32.700000000000003
 50
90.0
 51
155.05651900000001
  0
LINE
  8
0
  6
DASHED
 62
              80
  5
25E
 10
-248.5
 20
-35.0
 30
0.0
 11
-239.0
 21
-35.0
 31
0.0
  0
LINE
  8
0
  6
DASHED
 62
              80
  5
25F
 10
-250.0
 20
-33.25
 30
0.0
 11
-250.0
 21
-33.5
 31
0.0
  0
ARC
  8
0
  6
DASHED
 62
              80
  5
260
 10
-248.5
 20
-33.5
 30
0.0
 40
1.5
 50
180.0
 51
270.0
  0
LINE
  8
0
  6
DASHED
 62
              80
  5
261
 10
-286.5
 20
-32.700000000000003
 30
0.0
 11
-250.0
 21
-33.25
 31
0.0
  0
ARC
  8
0
  6
DASHED
 62
              80
  5
262
 10
-286.5
 20
0.0
 30
0.0
 40
32.700000000000003
 50
204.943477
 51
270.0
  0
ARC
  8
0
  6
DASHED
 62
              80
  5
263
 10
-197.5
 20
-0.000003
 30
0.0
 40
120.0
 50
180.0
 51
184.99268000000001
  0
ARC
  8
0
  6
DASHED
 62
              80
  5
264
 10
-197.5
 20
-0.000003
 30
0.0
 40
120.0
 50
175.007317
 51
180.0
  0
ARC
  8
0
  6
DASHED
 62
              80
  5
265
 10
-307.08264000000003
 20
9.5731359999999999
 30
0.0
 40
10.0
 50
155.05651900000001
 51
175.007317
  0
ARC
  8
0
  6
DASHED
 62
              80
  5
266
 10
-307.08264100000002
 20
-9.5731339999999996
 30
0.0
 40
10.0
 50
184.99268000000001
 51
204.943477
  0
LINE
  8
0
  6
DASHED
 62
              80
  5
267
 10
-250.0
 20
33.25
 30
0.0
 11
-286.5
 21
32.700000000000003
 31
0.0
  0
LINE
  8
0
  6
DASHED
 62
              80
  5
268
 10
-248.5
 20
35.0
 30
0.0
 11
-239.0
 21
35.0
 31
0.0
  0
ARC
  8
0
  6
DASHED
 62
              80
  5
269
 10
-248.5
 20
33.5
 30
0.0
 40
1.5
 50
90.0
 51
180.0
  0
LINE
  8
0
  6
DASHED
 62
              80
  5
26A
 10
-250.0
 20
33.5
 30
0.0
 11
-250.0
 21
33.25
 31
0.0
  0
LINE
  8
0
  6
DASHED
 62
              80
  5
26B
 10
-234.0
 20
33.0
 30
0.0
 11
-211.66190399999999
 21
33.0
 31
0.0
  0
LINE
  8
0
  6
DASHED
 62
              80
  5
26C
 10
-239.0
 20
35.0
 30
0.0
 11
-234.0
 21
33.0
 31
0.0
  0
LINE
  8
0
  6
DASHED
 62
              80
  5
26D
 10
-234.0
 20
-33.0
 30
0.0
 11
-211.66190399999999
 21
-33.0
 31
0.0
  0
LINE
  8
0
  6
DASHED
 62
              80
  5
26E
 10
-239.0
 20
-35.0
 30
0.0
 11
-234.0
 21
-33.0
 31
0.0
  0
LINE
  8
0
  6
CONTINUOUS
 62
              10
  5
26F
 10
-200.0
 20
-35.754866999999997
 30
0.0
 11
-200.0
 21
0.0
 31
0.0
  0
LINE
  8
0
  6
CONTINUOUS
 62
              10
  5
270
 10
-197.75
 20
-35.754866999999997
 30
0.0
 11
-197.75
 21
0.0
 31
0.0
  0
LINE
  8
0
  6
CONTINUOUS
 62
              10
  5
271
 10
-202.25
 20
0.0
 30
0.0
 11
-202.25
 21
-35.754866999999997
 31
0.0
  0
ARC
  8
0
  6
CONTINUOUS
 62
              10
  5
272
 10
-200.0
 20
0.0
 30
0.0
 40
2.25
 50
0.0
 51
180.0
  0
LINE
  8
0
  6
CONTINUOUS
 62
              10
  5
273
 10
-174.36641800000001
 20
-43.004866999999997
 30
0.0
 11
-192.75
 21
-43.004866999999997
 31
0.0
  0
LINE
  8
0
  6
CONTINUOUS
 62
              10
  5
274
 10
-175.13378499999999
 20
-40.754866999999997
 30
0.0
 11
-192.75
 21
-40.754866999999997
 31
0.0
  0
LINE
  8
0
  6
CONTINUOUS
 62
              10
  5
275
 10
-192.75
 20
-45.254866999999997
 30
0.0
 11
-173.599051
 21
-45.254866999999997
 31
0.0
  0
ARC
  8
0
  6
CONTINUOUS
 62
              10
  5
276
 10
-173.10079300000001
 20
-41.317366999999997
 30
0.0
 40
2.109375
 50
126.86989800000001
 51
233.13010199999999
  0
ARC
  8
0
  6
CONTINUOUS
 62
              10
  5
277
 10
-175.63204300000001
 20
-44.692366999999997
 30
0.0
 40
2.109375
 50
306.86989799999998
 51
53.130102000000001
  0
ARC
  8
0
  6
CONTINUOUS
 62
              10
  5
278
 10
-192.75
 20
-35.754866999999997
 30
0.0
 40
5.0
 50
180.0
 51
270.0
  0
ARC
  8
0
  6
CONTINUOUS
 62
              10
  5
279
 10
-192.75
 20
-35.754866999999997
 30
0.0
 40
7.25
 50
180.0
 51
270.0
  0
ARC
  8
0
  6
CONTINUOUS
 62
              10
  5
27A
 10
-192.75
 20
-35.754866999999997
 30
0.0
 40
9.5
 50
180.0
 51
270.0
  0
ARC
  8
0
  6
CONTINUOUS
 62
               3
  5
27B
 10
-200.0
 20
-20.0
 30
0.0
 40
4.0
 50
124.228866
 51
136.690619
  0
ARC
  8
0
  6
CONTINUOUS
 62
               3
  5
27C
 10
-200.0
 20
-20.0
 30
0.0
 40
4.0
 50
304.22886599999998
 51
55.771133999999996
  0
ARC
  8
0
  6
CONTINUOUS
 62
               3
  5
27D
 10
-200.0
 20
0.0
 30
0.0
 40
35.0
 50
273.68584199999998
 51
306.26157999999998
  0
ARC
  8
0
  6
CONTINUOUS
 62
               3
  5
27E
 10
-200.0
 20
0.0
 30
0.0
 40
32.75
 50
273.93945400000001
 51
302.275015
  0
ARC
  8
0
  6
CONTINUOUS
 62
               3
  5
27F
 10
-200.0
 20
0.0
 30
0.0
 40
3.5
 50
310.005201
 51
119.99999999999997
  0
TEXT
  8
0
  6
CONTINUOUS
 62
             255
  5
280
 10
-53.124997
 20
452.5
 30
0.0
 40
20.0
  1
FSS*-G
 41
0.9375
  7
MX_NOTE_STANDARD
 11
-53.124997
 21
462.5
 31
0.0
 73
               2
  0
TEXT
  8
0
  6
CONTINUOUS
 62
             255
  5
281
 10
-253.12499700000001
 20
452.5
 30
0.0
 40
20.0
  1
FSS*-M
 41
0.9375
  7
MX_NOTE_STANDARD
 11
-253.12499700000001
 21
462.5
 31
0.0
 73
               2
  0
LINE
  8
0
  6
CONTINUOUS
 62
               3
  5
282
 10
-0.9999999999999929
 20
254.00180833333326
 30
0.0
 11
-1.5000000000000071
 21
254.50180833333337
 31
0.0
  0
LINE
  8
0
  6
CONTINUOUS
 62
               3
  5
283
 10
1.5000000000000071
 20
254.50180833333337
 30
0.0
 11
0.9999999999999929
 21
254.00180833333326
 31
0.0
  0
LINE
  8
0
  6
CONTINUOUS
 62
               3
  5
284
 10
-1.5000000000000071
 20
254.50180833333337
 30
0.0
 11
-1.5000000000000071
 21
262.48729333333335
 31
0.0
  0
LINE
  8
0
  6
CONTINUOUS
 62
               3
  5
285
 10
0.9999999999999929
 20
254.00180833333326
 30
0.0
 11
-0.9999999999999929
 21
254.00180833333326
 31
0.0
  0
LINE
  8
0
  6
CONTINUOUS
 62
               3
  5
286
 10
1.5000000000000071
 20
262.56021833333335
 30
0.0
 11
1.5000000000000071
 21
254.50180833333337
 31
0.0
  0
LINE
  8
0
  6
CONTINUOUS
 62
               3
  5
287
 10
0.0
 20
263.74894333333333
 30
0.0
 11
0.000185000000009
 21
263.74894333333333
 31
0.0
  0
LINE
  8
0
  6
CONTINUOUS
 62
             110
  5
288
 10
-0.9999999999999929
 20
254.00180833333326
 30
0.0
 11
-0.9999999999999929
 21
262.63440166666669
 31
0.0
  0
LINE
  8
0
  6
CONTINUOUS
 62
             110
  5
289
 10
0.9999999999999929
 20
254.00180833333326
 30
0.0
 11
0.9999999999999929
 21
262.59570999999994
 31
0.0
  0
LINE
  8
0
  6
CONTINUOUS
 62
             110
  5
28A
 10
1.5000000000000071
 20
254.50180833333337
 30
0.0
 11
-1.5000000000000071
 21
254.50180833333337
 31
0.0
  0
LINE
  8
0
  6
CONTINUOUS
 62
              50
  5
28B
 10
-3.06595333333334
 20
264.52138833333339
 30
0.0
 11
-3.06595333333334
 21
264.82051999999999
 31
0.0
  0
LINE
  8
0
  6
CONTINUOUS
 62
              50
  5
28C
 10
3.2158116666666601
 20
264.52138833333339
 30
0.0
 11
3.2158116666666601
 21
264.82051999999999
 31
0.0
  0
LINE
  8
0
  6
CONTINUOUS
 62
              50
  5
28D
 10
-2.0189916666666576
 20
262.48729333333335
 30
0.0
 11
-2.3429233333333386
 21
262.67431500000004
 31
0.0
  0
LINE
  8
0
  6
CONTINUOUS
 62
              50
  5
28E
 10
2.1688516666666615
 20
262.48729333333335
 30
0.0
 11
2.4927816666666516
 21
262.67431500000004
 31
0.0
  0
ARC
  8
0
  6
CONTINUOUS
 62
              50
  5
28F
 10
0.0749299999999877
 20
266.48811499999999
 30
0.0
 40
4.0008216666666661
 50
252.41204600000003
 51
287.58795400000002
  0
ARC
  8
0
  6
CONTINUOUS
 62
              50
  5
290
 10
-1.7384599999999963
 20
263.55763166666668
 30
0.0
 40
1.0703383333333332
 50
244.38424699999999
 51
304.38424700000002
  0
ARC
  8
0
  6
CONTINUOUS
 62
              50
  5
291
 10
1.8883183333333378
 20
263.55763166666668
 30
0.0
 40
1.0703383333333332
 50
235.61575300000001
 51
295.61575299999998
  0
ARC
  8
0
  6
CONTINUOUS
 62
              50
  5
292
 10
0.0749299999999877
 20
268.75890833333335
 30
0.0
 40
4.5332699999999999
 50
254.53327900000002
 51
285.46672100000001
  0
ARC
  8
0
  6
CONTINUOUS
 62
              50
  5
293
 10
2.1161983333333225
 20
266.41771500000004
 30
0.0
 40
2.1920783333333334
 50
247.68457799999999
 51
279.89206799999999
  0
ARC
  8
0
  6
CONTINUOUS
 62
              50
  5
294
 10
-1.9663400000000095
 20
266.41771500000004
 30
0.0
 40
2.1920783333333334
 50
260.10793200000001
 51
292.31542200000001
  0
LINE
  8
0
  6
CONTINUOUS
 62
              50
  5
295
 10
3.2158116666666601
 20
264.52138833333339
 30
0.0
 11
2.4927816666666516
 21
264.25822666666664
 31
0.0
  0
LINE
  8
0
  6
CONTINUOUS
 62
              50
  5
296
 10
-3.06595333333334
 20
264.52138833333339
 30
0.0
 11
-2.3429233333333386
 21
264.25822666666664
 31
0.0
  0
LINE
  8
0
  6
CONTINUOUS
 62
              50
  5
297
 10
1.2838550000000026
 20
262.67431500000004
 30
0.0
 11
1.2838550000000026
 21
264.38980833333324
 31
0.0
  0
LINE
  8
0
  6
CONTINUOUS
 62
              50
  5
298
 10
-1.1339966666666612
 20
262.67431500000004
 30
0.0
 11
-1.1339966666666612
 21
264.38980833333324
 31
0.0
  0
LINE
  8
0
  6
CONTINUOUS
 62
              50
  5
299
 10
2.4927816666666516
 20
262.67431500000004
 30
0.0
 11
2.4927816666666516
 21
264.25822666666664
 31
0.0
  0
LINE
  8
0
  6
CONTINUOUS
 62
              50
  5
29A
 10
-2.3429233333333386
 20
262.67431500000004
 30
0.0
 11
-2.3429233333333386
 21
264.25822666666664
 31
0.0
  0
LINE
  8
0
  6
CONTINUOUS
 62
              50
  5
29B
 10
-3.06595333333334
 20
264.52138833333339
 30
0.0
 11
3.2158116666666601
 21
264.52138833333339
 31
0.0
  0
LINE
  8
0
  6
CONTINUOUS
 62
              50
  5
29C
 10
-2.0189916666666576
 20
262.48729333333335
 30
0.0
 11
2.1688516666666615
 21
262.48729333333335
 31
0.0
  0
LINE
  8
0
  6
CONTINUOUS
 62
              50
  5
29D
 10
-2.8864750000000114
 20
265.0
 30
0.0
 11
3.0363333333333244
 21
265.0
 31
0.0
  0
ARC
  8
0
  6
CONTINUOUS
 62
              50
  5
29E
 10
3.0363333333333244
 20
264.82051999999999
 30
0.0
 40
0.1794783333333333
 50
0.0
 51
90.0
  0
ARC
  8
0
  6
CONTINUOUS
 62
              50
  5
29F
 10
-2.8864750000000114
 20
264.82051999999999
 30
0.0
 40
0.1794783333333333
 50
90.0
 51
180.0
  0
LINE
  8
0
  6
CONTINUOUS
 62
               3
  5
2A0
 10
21.052390000000006
 20
254.00180833333326
 30
0.0
 11
20.552389999999992
 21
254.50180833333337
 31
0.0
  0
LINE
  8
0
  6
CONTINUOUS
 62
               3
  5
2A1
 10
23.552390000000006
 20
254.50180833333337
 30
0.0
 11
23.052389999999992
 21
254.00180833333326
 31
0.0
  0
LINE
  8
0
  6
CONTINUOUS
 62
               3
  5
2A2
 10
20.552389999999992
 20
254.50180833333337
 30
0.0
 11
20.552389999999992
 21
262.48729333333335
 31
0.0
  0
LINE
  8
0
  6
CONTINUOUS
 62
               3
  5
2A3
 10
23.052389999999992
 20
254.00180833333326
 30
0.0
 11
21.052390000000006
 21
254.00180833333326
 31
0.0
  0
LINE
  8
0
  6
CONTINUOUS
 62
               3
  5
2A4
 10
23.552390000000006
 20
262.56021833333335
 30
0.0
 11
23.552390000000006
 21
254.50180833333337
 31
0.0
  0
LINE
  8
0
  6
CONTINUOUS
 62
             110
  5
2A5
 10
21.052390000000006
 20
254.00180833333326
 30
0.0
 11
21.052390000000006
 21
262.63440166666669
 31
0.0
  0
LINE
  8
0
  6
CONTINUOUS
 62
             110
  5
2A6
 10
23.052389999999992
 20
254.00180833333326
 30
0.0
 11
23.052389999999992
 21
262.59570999999994
 31
0.0
  0
LINE
  8
0
  6
CONTINUOUS
 62
             110
  5
2A7
 10
23.552390000000006
 20
254.50180833333337
 30
0.0
 11
20.552389999999992
 21
254.50180833333337
 31
0.0
  0
LINE
  8
0
  6
CONTINUOUS
 62
              50
  5
2A8
 10
18.986436666666659
 20
264.52138833333339
 30
0.0
 11
18.986436666666659
 21
264.82051999999999
 31
0.0
  0
LINE
  8
0
  6
CONTINUOUS
 62
              50
  5
2A9
 10
25.268201666666659
 20
264.52138833333339
 30
0.0
 11
25.268201666666659
 21
264.82051999999999
 31
0.0
  0
LINE
  8
0
  6
CONTINUOUS
 62
              50
  5
2AA
 10
20.033398333333341
 20
262.48729333333335
 30
0.0
 11
19.70946666666666
 21
262.67431500000004
 31
0.0
  0
LINE
  8
0
  6
CONTINUOUS
 62
              50
  5
2AB
 10
24.221241666666661
 20
262.48729333333335
 30
0.0
 11
24.545171666666651
 21
262.67431500000004
 31
0.0
  0
ARC
  8
0
  6
CONTINUOUS
 62
              50
  5
2AC
 10
22.127319999999987
 20
266.48811499999999
 30
0.0
 40
4.0008216666666661
 50
252.41204600000003
 51
287.58795400000002
  0
ARC
  8
0
  6
CONTINUOUS
 62
              50
  5
2AD
 10
20.313930000000003
 20
263.55763166666668
 30
0.0
 40
1.0703383333333332
 50
244.38424699999999
 51
304.38424700000002
  0
ARC
  8
0
  6
CONTINUOUS
 62
              50
  5
2AE
 10
23.940708333333337
 20
263.55763166666668
 30
0.0
 40
1.0703383333333332
 50
235.61575300000001
 51
295.61575299999998
  0
ARC
  8
0
  6
CONTINUOUS
 62
              50
  5
2AF
 10
22.127319999999987
 20
268.75890833333335
 30
0.0
 40
4.5332699999999999
 50
254.53327900000002
 51
285.46672100000001
  0
ARC
  8
0
  6
CONTINUOUS
 62
              50
  5
2B0
 10
24.168588333333322
 20
266.41771500000004
 30
0.0
 40
2.1920783333333334
 50
247.68457799999999
 51
279.89206799999999
  0
ARC
  8
0
  6
CONTINUOUS
 62
              50
  5
2B1
 10
20.08604999999999
 20
266.41771500000004
 30
0.0
 40
2.1920783333333334
 50
260.10793200000001
 51
292.31542200000001
  0
LINE
  8
0
  6
CONTINUOUS
 62
              50
  5
2B2
 10
25.268201666666659
 20
264.52138833333339
 30
0.0
 11
24.545171666666651
 21
264.25822666666664
 31
0.0
  0
LINE
  8
0
  6
CONTINUOUS
 62
              50
  5
2B3
 10
18.986436666666659
 20
264.52138833333339
 30
0.0
 11
19.70946666666666
 21
264.25822666666664
 31
0.0
  0
LINE
  8
0
  6
CONTINUOUS
 62
              50
  5
2B4
 10
23.336245000000002
 20
262.67431500000004
 30
0.0
 11
23.336245000000002
 21
264.38980833333324
 31
0.0
  0
LINE
  8
0
  6
CONTINUOUS
 62
              50
  5
2B5
 10
20.918393333333338
 20
262.67431500000004
 30
0.0
 11
20.918393333333338
 21
264.38980833333324
 31
0.0
  0
LINE
  8
0
  6
CONTINUOUS
 62
              50
  5
2B6
 10
24.545171666666651
 20
262.67431500000004
 30
0.0
 11
24.545171666666651
 21
264.25822666666664
 31
0.0
  0
LINE
  8
0
  6
CONTINUOUS
 62
              50
  5
2B7
 10
19.70946666666666
 20
262.67431500000004
 30
0.0
 11
19.70946666666666
 21
264.25822666666664
 31
0.0
  0
LINE
  8
0
  6
CONTINUOUS
 62
              50
  5
2B8
 10
18.986436666666659
 20
264.52138833333339
 30
0.0
 11
25.268201666666659
 21
264.52138833333339
 31
0.0
  0
LINE
  8
0
  6
CONTINUOUS
 62
              50
  5
2B9
 10
20.033398333333341
 20
262.48729333333335
 30
0.0
 11
24.221241666666661
 21
262.48729333333335
 31
0.0
  0
LINE
  8
0
  6
CONTINUOUS
 62
              50
  5
2BA
 10
19.165914999999988
 20
265.0
 30
0.0
 11
25.088723333333323
 21
265.0
 31
0.0
  0
ARC
  8
0
  6
CONTINUOUS
 62
              50
  5
2BB
 10
25.088723333333323
 20
264.82051999999999
 30
0.0
 40
0.1794783333333333
 50
0.0
 51
90.0
  0
ARC
  8
0
  6
CONTINUOUS
 62
              50
  5
2BC
 10
19.165914999999988
 20
264.82051999999999
 30
0.0
 40
0.1794783333333333
 50
90.0
 51
180.0
  0
LINE
  8
0
  6
CONTINUOUS
 62
               3
  5
2BD
 10
-22.650634999999994
 20
254.00180833333326
 30
0.0
 11
-23.150635000000008
 21
254.50180833333337
 31
0.0
  0
LINE
  8
0
  6
CONTINUOUS
 62
               3
  5
2BE
 10
-20.150634999999994
 20
254.50180833333337
 30
0.0
 11
-20.650635000000008
 21
254.00180833333326
 31
0.0
  0
LINE
  8
0
  6
CONTINUOUS
 62
               3
  5
2BF
 10
-23.150635000000008
 20
254.50180833333337
 30
0.0
 11
-23.150635000000008
 21
262.48729333333335
 31
0.0
  0
LINE
  8
0
  6
CONTINUOUS
 62
               3
  5
2C0
 10
-20.650635000000008
 20
254.00180833333326
 30
0.0
 11
-22.650634999999994
 21
254.00180833333326
 31
0.0
  0
LINE
  8
0
  6
CONTINUOUS
 62
               3
  5
2C1
 10
-20.150634999999994
 20
262.48729333333335
 30
0.0
 11
-20.150634999999994
 21
254.50180833333337
 31
0.0
  0
LINE
  8
0
  6
CONTINUOUS
 62
               3
  5
2C2
 10
-21.650635000000001
 20
263.74894333333333
 30
0.0
 11
-21.650449999999992
 21
263.74894333333333
 31
0.0
  0
LINE
  8
0
  6
CONTINUOUS
 62
             110
  5
2C3
 10
-22.650634999999994
 20
254.00180833333326
 30
0.0
 11
-22.650634999999994
 21
262.48729333333335
 31
0.0
  0
LINE
  8
0
  6
CONTINUOUS
 62
             110
  5
2C4
 10
-20.650635000000008
 20
254.00180833333326
 30
0.0
 11
-20.650635000000008
 21
262.48729333333335
 31
0.0
  0
LINE
  8
0
  6
CONTINUOUS
 62
             110
  5
2C5
 10
-20.150634999999994
 20
254.50180833333337
 30
0.0
 11
-23.150635000000008
 21
254.50180833333337
 31
0.0
  0
LINE
  8
0
  6
CONTINUOUS
 62
              50
  5
2C6
 10
-24.716588333333341
 20
264.52138833333339
 30
0.0
 11
-24.716588333333341
 21
264.82051999999999
 31
0.0
  0
LINE
  8
0
  6
CONTINUOUS
 62
              50
  5
2C7
 10
-18.434823333333341
 20
264.52138833333339
 30
0.0
 11
-18.434823333333341
 21
264.82051999999999
 31
0.0
  0
LINE
  8
0
  6
CONTINUOUS
 62
              50
  5
2C8
 10
-23.669626666666659
 20
262.48729333333335
 30
0.0
 11
-23.99355833333334
 21
262.67431500000004
 31
0.0
  0
LINE
  8
0
  6
CONTINUOUS
 62
              50
  5
2C9
 10
-19.48178333333334
 20
262.48729333333335
 30
0.0
 11
-19.15785333333335
 21
262.67431500000004
 31
0.0
  0
ARC
  8
0
  6
CONTINUOUS
 62
              50
  5
2CA
 10
-21.575705000000013
 20
266.48811499999999
 30
0.0
 40
4.0008216666666661
 50
252.41204600000003
 51
287.58795400000002
  0
ARC
  8
0
  6
CONTINUOUS
 62
              50
  5
2CB
 10
-23.389094999999998
 20
263.55763166666668
 30
0.0
 40
1.0703383333333332
 50
244.38424699999999
 51
304.38424700000002
  0
ARC
  8
0
  6
CONTINUOUS
 62
              50
  5
2CC
 10
-19.762316666666663
 20
263.55763166666668
 30
0.0
 40
1.0703383333333332
 50
235.61575300000001
 51
295.61575299999998
  0
ARC
  8
0
  6
CONTINUOUS
 62
              50
  5
2CD
 10
-21.575705000000013
 20
268.75890833333335
 30
0.0
 40
4.5332699999999999
 50
254.53327900000002
 51
285.46672100000001
  0
ARC
  8
0
  6
CONTINUOUS
 62
              50
  5
2CE
 10
-19.534436666666679
 20
266.41771500000004
 30
0.0
 40
2.1920783333333334
 50
247.68457799999999
 51
279.89206799999999
  0
ARC
  8
0
  6
CONTINUOUS
 62
              50
  5
2CF
 10
-23.616975000000011
 20
266.41771500000004
 30
0.0
 40
2.1920783333333334
 50
260.10793200000001
 51
292.31542200000001
  0
LINE
  8
0
  6
CONTINUOUS
 62
              50
  5
2D0
 10
-18.434823333333341
 20
264.52138833333339
 30
0.0
 11
-19.15785333333335
 21
264.25822666666664
 31
0.0
  0
LINE
  8
0
  6
CONTINUOUS
 62
              50
  5
2D1
 10
-24.716588333333341
 20
264.52138833333339
 30
0.0
 11
-23.99355833333334
 21
264.25822666666664
 31
0.0
  0
LINE
  8
0
  6
CONTINUOUS
 62
              50
  5
2D2
 10
-20.366779999999999
 20
262.67431500000004
 30
0.0
 11
-20.366779999999999
 21
264.38980833333324
 31
0.0
  0
LINE
  8
0
  6
CONTINUOUS
 62
              50
  5
2D3
 10
-22.784631666666662
 20
262.67431500000004
 30
0.0
 11
-22.784631666666662
 21
264.38980833333324
 31
0.0
  0
LINE
  8
0
  6
CONTINUOUS
 62
              50
  5
2D4
 10
-19.15785333333335
 20
262.67431500000004
 30
0.0
 11
-19.15785333333335
 21
264.25822666666664
 31
0.0
  0
LINE
  8
0
  6
CONTINUOUS
 62
              50
  5
2D5
 10
-23.99355833333334
 20
262.67431500000004
 30
0.0
 11
-23.99355833333334
 21
264.25822666666664
 31
0.0
  0
LINE
  8
0
  6
CONTINUOUS
 62
              50
  5
2D6
 10
-24.716588333333341
 20
264.52138833333339
 30
0.0
 11
-18.434823333333341
 21
264.52138833333339
 31
0.0
  0
LINE
  8
0
  6
CONTINUOUS
 62
              50
  5
2D7
 10
-23.669626666666659
 20
262.48729333333335
 30
0.0
 11
-19.48178333333334
 21
262.48729333333335
 31
0.0
  0
LINE
  8
0
  6
CONTINUOUS
 62
              50
  5
2D8
 10
-24.537110000000013
 20
265.0
 30
0.0
 11
-18.614301666666677
 21
265.0
 31
0.0
  0
ARC
  8
0
  6
CONTINUOUS
 62
              50
  5
2D9
 10
-18.614301666666677
 20
264.82051999999999
 30
0.0
 40
0.1794783333333333
 50
0.0
 51
90.0
  0
ARC
  8
0
  6
CONTINUOUS
 62
              50
  5
2DA
 10
-24.537110000000013
 20
264.82051999999999
 30
0.0
 40
0.1794783333333333
 50
90.0
 51
180.0
  0
LINE
  8
0
  6
CONTINUOUS
 62
               3
  5
2DB
 10
21.052390000000006
 20
104.00180833333326
 30
0.0
 11
20.552389999999992
 21
104.50180833333337
 31
0.0
  0
LINE
  8
0
  6
CONTINUOUS
 62
               3
  5
2DC
 10
23.552390000000006
 20
104.50180833333337
 30
0.0
 11
23.052389999999992
 21
104.00180833333326
 31
0.0
  0
LINE
  8
0
  6
CONTINUOUS
 62
               3
  5
2DD
 10
20.552389999999992
 20
104.50180833333337
 30
0.0
 11
20.552389999999992
 21
112.48729333333335
 31
0.0
  0
LINE
  8
0
  6
CONTINUOUS
 62
               3
  5
2DE
 10
23.052389999999992
 20
104.00180833333326
 30
0.0
 11
21.052390000000006
 21
104.00180833333326
 31
0.0
  0
LINE
  8
0
  6
CONTINUOUS
 62
               3
  5
2DF
 10
23.552390000000006
 20
112.48729333333335
 30
0.0
 11
23.552390000000006
 21
104.50180833333337
 31
0.0
  0
LINE
  8
0
  6
CONTINUOUS
 62
             110
  5
2E0
 10
21.052390000000006
 20
104.00180833333326
 30
0.0
 11
21.052390000000006
 21
112.48729333333335
 31
0.0
  0
LINE
  8
0
  6
CONTINUOUS
 62
             110
  5
2E1
 10
23.052389999999992
 20
104.00180833333326
 30
0.0
 11
23.052389999999992
 21
112.48729333333335
 31
0.0
  0
LINE
  8
0
  6
CONTINUOUS
 62
             110
  5
2E2
 10
23.552390000000006
 20
104.50180833333337
 30
0.0
 11
20.552389999999992
 21
104.50180833333337
 31
0.0
  0
LINE
  8
0
  6
CONTINUOUS
 62
              50
  5
2E3
 10
18.986436666666659
 20
114.52138833333339
 30
0.0
 11
18.986436666666659
 21
114.82051999999999
 31
0.0
  0
LINE
  8
0
  6
CONTINUOUS
 62
              50
  5
2E4
 10
25.268201666666659
 20
114.52138833333339
 30
0.0
 11
25.268201666666659
 21
114.82051999999999
 31
0.0
  0
LINE
  8
0
  6
CONTINUOUS
 62
              50
  5
2E5
 10
20.033398333333341
 20
112.48729333333335
 30
0.0
 11
19.70946666666666
 21
112.67431500000004
 31
0.0
  0
LINE
  8
0
  6
CONTINUOUS
 62
              50
  5
2E6
 10
24.221241666666661
 20
112.48729333333335
 30
0.0
 11
24.545171666666651
 21
112.67431500000004
 31
0.0
  0
ARC
  8
0
  6
CONTINUOUS
 62
              50
  5
2E7
 10
22.127319999999987
 20
116.48811499999999
 30
0.0
 40
4.0008216666666661
 50
252.41204600000003
 51
287.58795400000002
  0
ARC
  8
0
  6
CONTINUOUS
 62
              50
  5
2E8
 10
20.313930000000003
 20
113.55763166666668
 30
0.0
 40
1.0703383333333332
 50
244.38424699999999
 51
304.38424700000002
  0
ARC
  8
0
  6
CONTINUOUS
 62
              50
  5
2E9
 10
23.940708333333337
 20
113.55763166666668
 30
0.0
 40
1.0703383333333332
 50
235.61575300000001
 51
295.61575299999998
  0
ARC
  8
0
  6
CONTINUOUS
 62
              50
  5
2EA
 10
22.127319999999987
 20
118.75890833333335
 30
0.0
 40
4.5332699999999999
 50
254.53327900000002
 51
285.46672100000001
  0
ARC
  8
0
  6
CONTINUOUS
 62
              50
  5
2EB
 10
24.168588333333322
 20
116.41771500000004
 30
0.0
 40
2.1920783333333334
 50
247.68457799999999
 51
279.89206799999999
  0
ARC
  8
0
  6
CONTINUOUS
 62
              50
  5
2EC
 10
20.08604999999999
 20
116.41771500000004
 30
0.0
 40
2.1920783333333334
 50
260.10793200000001
 51
292.31542200000001
  0
LINE
  8
0
  6
CONTINUOUS
 62
              50
  5
2ED
 10
25.268201666666659
 20
114.52138833333339
 30
0.0
 11
24.545171666666651
 21
114.25822666666664
 31
0.0
  0
LINE
  8
0
  6
CONTINUOUS
 62
              50
  5
2EE
 10
18.986436666666659
 20
114.52138833333339
 30
0.0
 11
19.70946666666666
 21
114.25822666666664
 31
0.0
  0
LINE
  8
0
  6
CONTINUOUS
 62
              50
  5
2EF
 10
23.336245000000002
 20
112.67431500000004
 30
0.0
 11
23.336245000000002
 21
114.38980833333324
 31
0.0
  0
LINE
  8
0
  6
CONTINUOUS
 62
              50
  5
2F0
 10
20.918393333333338
 20
112.67431500000004
 30
0.0
 11
20.918393333333338
 21
114.38980833333324
 31
0.0
  0
LINE
  8
0
  6
CONTINUOUS
 62
              50
  5
2F1
 10
24.545171666666651
 20
112.67431500000004
 30
0.0
 11
24.545171666666651
 21
114.25822666666664
 31
0.0
  0
LINE
  8
0
  6
CONTINUOUS
 62
              50
  5
2F2
 10
19.70946666666666
 20
112.67431500000004
 30
0.0
 11
19.70946666666666
 21
114.25822666666664
 31
0.0
  0
LINE
  8
0
  6
CONTINUOUS
 62
              50
  5
2F3
 10
18.986436666666659
 20
114.52138833333339
 30
0.0
 11
25.268201666666659
 21
114.52138833333339
 31
0.0
  0
LINE
  8
0
  6
CONTINUOUS
 62
              50
  5
2F4
 10
20.033398333333341
 20
112.48729333333335
 30
0.0
 11
24.221241666666661
 21
112.48729333333335
 31
0.0
  0
LINE
  8
0
  6
CONTINUOUS
 62
              50
  5
2F5
 10
19.165914999999988
 20
115.0
 30
0.0
 11
25.088723333333323
 21
115.0
 31
0.0
  0
ARC
  8
0
  6
CONTINUOUS
 62
              50
  5
2F6
 10
25.088723333333323
 20
114.82051999999999
 30
0.0
 40
0.1794783333333333
 50
0.0
 51
90.0
  0
ARC
  8
0
  6
CONTINUOUS
 62
              50
  5
2F7
 10
19.165914999999988
 20
114.82051999999999
 30
0.0
 40
0.1794783333333333
 50
90.0
 51
180.0
  0
LINE
  8
0
  6
CONTINUOUS
 62
               3
  5
2F8
 10
-0.9999999999999929
 20
104.00180833333326
 30
0.0
 11
-1.5000000000000071
 21
104.50180833333337
 31
0.0
  0
LINE
  8
0
  6
CONTINUOUS
 62
               3
  5
2F9
 10
1.5000000000000071
 20
104.50180833333337
 30
0.0
 11
0.9999999999999929
 21
104.00180833333326
 31
0.0
  0
LINE
  8
0
  6
CONTINUOUS
 62
               3
  5
2FA
 10
-1.5000000000000071
 20
104.50180833333337
 30
0.0
 11
-1.5000000000000071
 21
112.48729333333335
 31
0.0
  0
LINE
  8
0
  6
CONTINUOUS
 62
               3
  5
2FB
 10
0.9999999999999929
 20
104.00180833333326
 30
0.0
 11
-0.9999999999999929
 21
104.00180833333326
 31
0.0
  0
LINE
  8
0
  6
CONTINUOUS
 62
               3
  5
2FC
 10
1.5000000000000071
 20
112.48729333333335
 30
0.0
 11
1.5000000000000071
 21
104.50180833333337
 31
0.0
  0
LINE
  8
0
  6
CONTINUOUS
 62
               3
  5
2FD
 10
0.0
 20
113.74894333333333
 30
0.0
 11
0.000185000000009
 21
113.74894333333333
 31
0.0
  0
LINE
  8
0
  6
CONTINUOUS
 62
             110
  5
2FE
 10
-0.9999999999999929
 20
104.00180833333326
 30
0.0
 11
-0.9999999999999929
 21
112.48729333333335
 31
0.0
  0
LINE
  8
0
  6
CONTINUOUS
 62
             110
  5
2FF
 10
0.9999999999999929
 20
104.00180833333326
 30
0.0
 11
0.9999999999999929
 21
112.48729333333335
 31
0.0
  0
LINE
  8
0
  6
CONTINUOUS
 62
             110
  5
300
 10
1.5000000000000071
 20
104.50180833333337
 30
0.0
 11
-1.5000000000000071
 21
104.50180833333337
 31
0.0
  0
LINE
  8
0
  6
CONTINUOUS
 62
              50
  5
301
 10
-3.06595333333334
 20
114.52138833333339
 30
0.0
 11
-3.06595333333334
 21
114.82051999999999
 31
0.0
  0
LINE
  8
0
  6
CONTINUOUS
 62
              50
  5
302
 10
3.2158116666666601
 20
114.52138833333339
 30
0.0
 11
3.2158116666666601
 21
114.82051999999999
 31
0.0
  0
LINE
  8
0
  6
CONTINUOUS
 62
              50
  5
303
 10
-2.0189916666666576
 20
112.48729333333335
 30
0.0
 11
-2.3429233333333386
 21
112.67431500000004
 31
0.0
  0
LINE
  8
0
  6
CONTINUOUS
 62
              50
  5
304
 10
2.1688516666666615
 20
112.48729333333335
 30
0.0
 11
2.4927816666666516
 21
112.67431500000004
 31
0.0
  0
ARC
  8
0
  6
CONTINUOUS
 62
              50
  5
305
 10
0.0749299999999877
 20
116.48811499999999
 30
0.0
 40
4.0008216666666661
 50
252.41204600000003
 51
287.58795400000002
  0
ARC
  8
0
  6
CONTINUOUS
 62
              50
  5
306
 10
-1.7384599999999963
 20
113.55763166666668
 30
0.0
 40
1.0703383333333332
 50
244.38424699999999
 51
304.38424700000002
  0
ARC
  8
0
  6
CONTINUOUS
 62
              50
  5
307
 10
1.8883183333333378
 20
113.55763166666668
 30
0.0
 40
1.0703383333333332
 50
235.61575300000001
 51
295.61575299999998
  0
ARC
  8
0
  6
CONTINUOUS
 62
              50
  5
308
 10
0.0749299999999877
 20
118.75890833333335
 30
0.0
 40
4.5332699999999999
 50
254.53327900000002
 51
285.46672100000001
  0
ARC
  8
0
  6
CONTINUOUS
 62
              50
  5
309
 10
2.1161983333333225
 20
116.41771500000004
 30
0.0
 40
2.1920783333333334
 50
247.68457799999999
 51
279.89206799999999
  0
ARC
  8
0
  6
CONTINUOUS
 62
              50
  5
30A
 10
-1.9663400000000095
 20
116.41771500000004
 30
0.0
 40
2.1920783333333334
 50
260.10793200000001
 51
292.31542200000001
  0
LINE
  8
0
  6
CONTINUOUS
 62
              50
  5
30B
 10
3.2158116666666601
 20
114.52138833333339
 30
0.0
 11
2.4927816666666516
 21
114.25822666666664
 31
0.0
  0
LINE
  8
0
  6
CONTINUOUS
 62
              50
  5
30C
 10
-3.06595333333334
 20
114.52138833333339
 30
0.0
 11
-2.3429233333333386
 21
114.25822666666664
 31
0.0
  0
LINE
  8
0
  6
CONTINUOUS
 62
              50
  5
30D
 10
1.2838550000000026
 20
112.67431500000004
 30
0.0
 11
1.2838550000000026
 21
114.38980833333324
 31
0.0
  0
LINE
  8
0
  6
CONTINUOUS
 62
              50
  5
30E
 10
-1.1339966666666612
 20
112.67431500000004
 30
0.0
 11
-1.1339966666666612
 21
114.38980833333324
 31
0.0
  0
LINE
  8
0
  6
CONTINUOUS
 62
              50
  5
30F
 10
2.4927816666666516
 20
112.67431500000004
 30
0.0
 11
2.4927816666666516
 21
114.25822666666664
 31
0.0
  0
LINE
  8
0
  6
CONTINUOUS
 62
              50
  5
310
 10
-2.3429233333333386
 20
112.67431500000004
 30
0.0
 11
-2.3429233333333386
 21
114.25822666666664
 31
0.0
  0
LINE
  8
0
  6
CONTINUOUS
 62
              50
  5
311
 10
-3.06595333333334
 20
114.52138833333339
 30
0.0
 11
3.2158116666666601
 21
114.52138833333339
 31
0.0
  0
LINE
  8
0
  6
CONTINUOUS
 62
              50
  5
312
 10
-2.0189916666666576
 20
112.48729333333335
 30
0.0
 11
2.1688516666666615
 21
112.48729333333335
 31
0.0
  0
LINE
  8
0
  6
CONTINUOUS
 62
              50
  5
313
 10
-2.8864750000000114
 20
115.0
 30
0.0
 11
3.0363333333333244
 21
115.0
 31
0.0
  0
ARC
  8
0
  6
CONTINUOUS
 62
              50
  5
314
 10
3.0363333333333244
 20
114.82051999999999
 30
0.0
 40
0.1794783333333333
 50
0.0
 51
90.0
  0
ARC
  8
0
  6
CONTINUOUS
 62
              50
  5
315
 10
-2.8864750000000114
 20
114.82051999999999
 30
0.0
 40
0.1794783333333333
 50
90.0
 51
180.0
  0
LINE
  8
0
  6
CONTINUOUS
 62
               3
  5
316
 10
-22.650634999999994
 20
104.00180833333326
 30
0.0
 11
-23.150635000000008
 21
104.50180833333337
 31
0.0
  0
LINE
  8
0
  6
CONTINUOUS
 62
               3
  5
317
 10
-20.150634999999994
 20
104.50180833333337
 30
0.0
 11
-20.650635000000008
 21
104.00180833333326
 31
0.0
  0
LINE
  8
0
  6
CONTINUOUS
 62
               3
  5
318
 10
-23.150635000000008
 20
104.50180833333337
 30
0.0
 11
-23.150635000000008
 21
112.48729333333335
 31
0.0
  0
LINE
  8
0
  6
CONTINUOUS
 62
               3
  5
319
 10
-20.650635000000008
 20
104.00180833333326
 30
0.0
 11
-22.650634999999994
 21
104.00180833333326
 31
0.0
  0
LINE
  8
0
  6
CONTINUOUS
 62
               3
  5
31A
 10
-20.150634999999994
 20
112.48729333333335
 30
0.0
 11
-20.150634999999994
 21
104.50180833333337
 31
0.0
  0
LINE
  8
0
  6
CONTINUOUS
 62
               3
  5
31B
 10
-21.650635000000001
 20
113.74894333333333
 30
0.0
 11
-21.650449999999992
 21
113.74894333333333
 31
0.0
  0
LINE
  8
0
  6
CONTINUOUS
 62
             110
  5
31C
 10
-22.650634999999994
 20
104.00180833333326
 30
0.0
 11
-22.650634999999994
 21
112.48729333333335
 31
0.0
  0
LINE
  8
0
  6
CONTINUOUS
 62
             110
  5
31D
 10
-20.650635000000008
 20
104.00180833333326
 30
0.0
 11
-20.650635000000008
 21
112.48729333333335
 31
0.0
  0
LINE
  8
0
  6
CONTINUOUS
 62
             110
  5
31E
 10
-20.150634999999994
 20
104.50180833333337
 30
0.0
 11
-23.150635000000008
 21
104.50180833333337
 31
0.0
  0
LINE
  8
0
  6
CONTINUOUS
 62
              50
  5
31F
 10
-24.716588333333341
 20
114.52138833333339
 30
0.0
 11
-24.716588333333341
 21
114.82051999999999
 31
0.0
  0
LINE
  8
0
  6
CONTINUOUS
 62
              50
  5
320
 10
-18.434823333333341
 20
114.52138833333339
 30
0.0
 11
-18.434823333333341
 21
114.82051999999999
 31
0.0
  0
LINE
  8
0
  6
CONTINUOUS
 62
              50
  5
321
 10
-23.669626666666659
 20
112.48729333333335
 30
0.0
 11
-23.99355833333334
 21
112.67431500000004
 31
0.0
  0
LINE
  8
0
  6
CONTINUOUS
 62
              50
  5
322
 10
-19.48178333333334
 20
112.48729333333335
 30
0.0
 11
-19.15785333333335
 21
112.67431500000004
 31
0.0
  0
ARC
  8
0
  6
CONTINUOUS
 62
              50
  5
323
 10
-21.575705000000013
 20
116.48811499999999
 30
0.0
 40
4.0008216666666661
 50
252.41204600000003
 51
287.58795400000002
  0
ARC
  8
0
  6
CONTINUOUS
 62
              50
  5
324
 10
-23.389094999999998
 20
113.55763166666668
 30
0.0
 40
1.0703383333333332
 50
244.38424699999999
 51
304.38424700000002
  0
ARC
  8
0
  6
CONTINUOUS
 62
              50
  5
325
 10
-19.762316666666663
 20
113.55763166666668
 30
0.0
 40
1.0703383333333332
 50
235.61575300000001
 51
295.61575299999998
  0
ARC
  8
0
  6
CONTINUOUS
 62
              50
  5
326
 10
-21.575705000000013
 20
118.75890833333335
 30
0.0
 40
4.5332699999999999
 50
254.53327900000002
 51
285.46672100000001
  0
ARC
  8
0
  6
CONTINUOUS
 62
              50
  5
327
 10
-19.534436666666679
 20
116.41771500000004
 30
0.0
 40
2.1920783333333334
 50
247.68457799999999
 51
279.89206799999999
  0
ARC
  8
0
  6
CONTINUOUS
 62
              50
  5
328
 10
-23.616975000000011
 20
116.41771500000004
 30
0.0
 40
2.1920783333333334
 50
260.10793200000001
 51
292.31542200000001
  0
LINE
  8
0
  6
CONTINUOUS
 62
              50
  5
329
 10
-18.434823333333341
 20
114.52138833333339
 30
0.0
 11
-19.15785333333335
 21
114.25822666666664
 31
0.0
  0
LINE
  8
0
  6
CONTINUOUS
 62
              50
  5
32A
 10
-24.716588333333341
 20
114.52138833333339
 30
0.0
 11
-23.99355833333334
 21
114.25822666666664
 31
0.0
  0
LINE
  8
0
  6
CONTINUOUS
 62
              50
  5
32B
 10
-20.366779999999999
 20
112.67431500000004
 30
0.0
 11
-20.366779999999999
 21
114.38980833333324
 31
0.0
  0
LINE
  8
0
  6
CONTINUOUS
 62
              50
  5
32C
 10
-22.784631666666662
 20
112.67431500000004
 30
0.0
 11
-22.784631666666662
 21
114.38980833333324
 31
0.0
  0
LINE
  8
0
  6
CONTINUOUS
 62
              50
  5
32D
 10
-19.15785333333335
 20
112.67431500000004
 30
0.0
 11
-19.15785333333335
 21
114.25822666666664
 31
0.0
  0
LINE
  8
0
  6
CONTINUOUS
 62
              50
  5
32E
 10
-23.99355833333334
 20
112.67431500000004
 30
0.0
 11
-23.99355833333334
 21
114.25822666666664
 31
0.0
  0
LINE
  8
0
  6
CONTINUOUS
 62
              50
  5
32F
 10
-24.716588333333341
 20
114.52138833333339
 30
0.0
 11
-18.434823333333341
 21
114.52138833333339
 31
0.0
  0
LINE
  8
0
  6
CONTINUOUS
 62
              50
  5
330
 10
-23.669626666666659
 20
112.48729333333335
 30
0.0
 11
-19.48178333333334
 21
112.48729333333335
 31
0.0
  0
LINE
  8
0
  6
CONTINUOUS
 62
              50
  5
331
 10
-24.537110000000013
 20
115.0
 30
0.0
 11
-18.614301666666677
 21
115.0
 31
0.0
  0
ARC
  8
0
  6
CONTINUOUS
 62
              50
  5
332
 10
-18.614301666666677
 20
114.82051999999999
 30
0.0
 40
0.1794783333333333
 50
0.0
 51
90.0
  0
ARC
  8
0
  6
CONTINUOUS
 62
              50
  5
333
 10
-24.537110000000013
 20
114.82051999999999
 30
0.0
 40
0.1794783333333333
 50
90.0
 51
180.0
  0
ENDSEC
  0
EOF
