  0
SECTION
  2
HEADER
  9
$ACADVER
  1
AC1009
  9
$DWGCODEPAGE
  3
dos932
  9
$INSBASE
 10
0.0
 20
0.0
 30
0.0
  9
$EXTMIN
 10
-42.625
 20
-157.17033857516699
 30
0.0
  9
$EXTMAX
 10
42.625
 20
127.0
 30
0.0
  9
$LIMMIN
 10
-42.625
 20
-157.17033857516699
  9
$LIMMAX
 10
42.625
 20
127.0
  9
$ORTHOMODE
 70
               0
  9
$REGENMODE
 70
               1
  9
$FILLMODE
 70
               1
  9
$QTEXTMODE
 70
               0
  9
$MIRRTEXT
 70
               1
  9
$DRAGMODE
 70
               2
  9
$LTSCALE
 40
1.0
  9
$OSMODE
 70
               0
  9
$ATTMODE
 70
               1
  9
$TEXTSIZE
 40
4.1655998229980469
  9
$TRACEWID
 40
0.05
  9
$TEXTSTYLE
  7
MX_NOTE_STANDARD
  9
$CLAYER
  8
0
  9
$CELTYPE
  6
CONTINUOUS
  9
$CECOLOR
 62
             256
  9
$DIMSCALE
 40
1.0
  9
$DIMASZ
 40
2.5
  9
$DIMEXO
 40
0.5
  9
$DIMDLI
 40
3.75
  9
$DIMRND
 40
0.0
  9
$DIMDLE
 40
0.0
  9
$DIMEXE
 40
1.0
  9
$DIMTP
 40
0.0
  9
$DIMTM
 40
0.0
  9
$DIMTXT
 40
2.5
  9
$DIMCEN
 40
2.5
  9
$DIMTSZ
 40
0.0
  9
$DIMTOL
 70
               0
  9
$DIMLIM
 70
               0
  9
$DIMTIH
 70
               0
  9
$DIMTOH
 70
               0
  9
$DIMSE1
 70
               0
  9
$DIMSE2
 70
               0
  9
$DIMTAD
 70
               1
  9
$DIMZIN
 70
               8
  9
$DIMBLK
  1

  9
$DIMASO
 70
               1
  9
$DIMSHO
 70
               1
  9
$DIMPOST
  1

  9
$DIMAPOST
  1

  9
$DIMALT
 70
               0
  9
$DIMALTD
 70
               4
  9
$DIMALTF
 40
0.03937007874016
  9
$DIMLFAC
 40
1.0
  9
$DIMTOFL
 70
               1
  9
$DIMTVP
 40
0.0
  9
$DIMTIX
 70
               0
  9
$DIMSOXD
 70
               0
  9
$DIMSAH
 70
               0
  9
$DIMBLK1
  1

  9
$DIMBLK2
  1

  9
$DIMSTYLE
  2
MXDIMSTYLE
  9
$DIMCLRD
 70
               0
  9
$DIMCLRE
 70
               0
  9
$DIMCLRT
 70
               0
  9
$DIMTFAC
 40
1.0
  9
$DIMGAP
 40
1.0
  9
$LUNITS
 70
               2
  9
$LUPREC
 70
               4
  9
$AXISMODE
 70
               0
  9
$AXISUNIT
 10
0.0
 20
0.0
  9
$SKETCHINC
 40
0.1
  9
$FILLETRAD
 40
0.0
  9
$AUNITS
 70
               0
  9
$AUPREC
 70
               0
  9
$MENU
  1
acad
  9
$ELEVATION
 40
0.0
  9
$PELEVATION
 40
0.0
  9
$THICKNESS
 40
0.0
  9
$LIMCHECK
 70
               0
  9
$BLIPMODE
 70
               1
  9
$CHAMFERA
 40
0.0
  9
$CHAMFERB
 40
0.0
  9
$SKPOLY
 70
               0
  9
$TDCREATE
 40
2454729.576319445
  9
$TDUPDATE
 40
2454729.576319445
  9
$TDINDWG
 40
0.0000000000
  9
$TDUSRTIMER
 40
0.0000000000
  9
$USRTIMER
 70
               1
  9
$ANGBASE
 50
0.0
  9
$ANGDIR
 70
               0
  9
$PDMODE
 70
               0
  9
$PDSIZE
 40
0.0
  9
$PLINEWID
 40
0.0
  9
$COORDS
 70
               1
  9
$SPLFRAME
 70
               0
  9
$SPLINETYPE
 70
               6
  9
$SPLINESEGS
 70
               8
  9
$ATTDIA
 70
               0
  9
$ATTREQ
 70
               1
  9
$HANDLING
 70
               1
  9
$HANDSEED
  5
9FD
  9
$SURFTAB1
 70
               6
  9
$SURFTAB2
 70
               6
  9
$SURFTYPE
 70
               6
  9
$SURFU
 70
               6
  9
$SURFV
 70
               6
  9
$UCSNAME
  2

  9
$UCSORG
 10
0.0
 20
0.0
 30
0.0
  9
$UCSXDIR
 10
1.0
 20
0.0
 30
0.0
  9
$UCSYDIR
 10
0.0
 20
1.0
 30
0.0
  9
$PUCSNAME
  2

  9
$PUCSORG
 10
0.0
 20
0.0
 30
0.0
  9
$PUCSXDIR
 10
1.0
 20
0.0
 30
0.0
  9
$PUCSYDIR
 10
0.0
 20
1.0
 30
0.0
  9
$USERI1
 70
               0
  9
$USERI2
 70
               0
  9
$USERI3
 70
               0
  9
$USERI4
 70
               0
  9
$USERI5
 70
               0
  9
$USERR1
 40
0.0
  9
$USERR2
 40
0.0
  9
$USERR3
 40
0.0
  9
$USERR4
 40
0.0
  9
$USERR5
 40
0.0
  9
$WORLDVIEW
 70
               1
  9
$SHADEDGE
 70
               3
  9
$SHADEDIF
 70
              70
  9
$TILEMODE
 70
               1
  9
$MAXACTVP
 70
              16
  9
$PINSBASE
 10
0.0
 20
0.0
 30
0.0
  9
$PLIMCHECK
 70
               0
  9
$PEXTMIN
 10
1.0000000000000000E+20
 20
1.0000000000000000E+20
 30
1.0000000000000000E+20
  9
$PEXTMAX
 10
-1.0000000000000000E+20
 20
-1.0000000000000000E+20
 30
-1.0000000000000000E+20
  9
$PLIMMIN
 10
0.0
 20
0.0
  9
$PLIMMAX
 10
12.0
 20
9.0
  9
$UNITMODE
 70
               0
  9
$VISRETAIN
 70
               0
  9
$PLINEGEN
 70
               1
  9
$PSLTSCALE
 70
               0
  9
$TREEDEPTH
 70
            3020
  9
$DWGCODEPAGE
  3
dos932
  0
ENDSEC
  0
SECTION
  2
TABLES
  0
TABLE
  2
VPORT
 70
               1
  0
VPORT
  2
*ACTIVE
 70
               0
 10
0.0
 20
0.0
 11
1.0
 21
1.0
 12
0.0
 22
-15.085169287583511
 13
0.0
 23
0.0
 14
1.0
 24
1.0
 15
0.0
 25
0.0
 16
0.0
 26
0.0
 36
1.0
 17
0.0
 27
0.0
 37
0.0
 40
287.01204196091862
 41
1.7320508075688772
 42
50.0
 43
0.0
 44
0.0
 50
0.0
 51
0.0
 71
               0
 72
             100
 73
               1
 74
               1
 75
               0
 76
               0
 77
               0
 78
               0
  0
ENDTAB
  0
TABLE
  2
LTYPE
 70
               1
  0
LTYPE
  2
CONTINUOUS
 70
              64
  3
Solid line
 72
              65
 73
               0
 40
0.0
  0
ENDTAB
  0
TABLE
  2
LAYER
 70
               3
  0
LAYER
  2
0
 70
               0
 62
               7
  6
CONTINUOUS
  0
LAYER
  2
DEFPOINTS
 70
               0
 62
               7
  6
CONTINUOUS
  0
LAYER
  2
LY_3
 70
               0
 62
               7
  6
CONTINUOUS
  0
ENDTAB
  0
TABLE
  2
STYLE
 70
               1
  0
STYLE
  2
MX_NOTE_STANDARD
 70
               0
 40
0.0
 41
1.0
 50
0.0
 71
               0
 42
4.1655998229980469
  3
txt.shx
  4
extfont.shx
  0
ENDTAB
  0
TABLE
  2
VIEW
 70
               0
  0
ENDTAB
  0
TABLE
  2
UCS
 70
               0
  0
ENDTAB
  0
TABLE
  2
APPID
 70
               1
  0
APPID
  2
ACAD
 70
               0
  0
ENDTAB
  0
TABLE
  2
DIMSTYLE
 70
               1
  0
DIMSTYLE
  2
MXDIMSTYLE
 70
               0
  3

  4

  5

  6

  7

 40
1.0
 41
2.5
 42
0.5
 43
3.75
 44
1.0
 45
0.0
 46
0.0
 47
0.0
 48
0.0
 71
               0
 72
               0
 73
               0
 74
               0
 75
               0
 76
               0
 77
               1
 78
               8
140
2.5
141
2.5
142
0.0
143
0.03937007874016
144
1.0
145
0.0
146
1.0
147
1.0
170
               0
171
               4
172
               1
173
               0
174
               0
175
               0
176
               0
177
               0
178
               0
  0
ENDTAB
  0
ENDSEC
  0
SECTION
  2
BLOCKS
  0
BLOCK
  8
0
  5
33
  2
MS_1
 70
               0
 10
0.0
 20
0.0
 30
0.0
  3
MS_1
  0
INSERT
  8
0
  6
BYBLOCK
  5
34
  2
*X19
 10
0.0
 20
0.0
 30
0.0
  0
INSERT
  8
0
  6
BYBLOCK
  5
35
  2
*X18
 10
0.0
 20
0.0
 30
0.0
  0
INSERT
  8
0
  6
BYBLOCK
  5
36
  2
*X17
 10
0.0
 20
0.0
 30
0.0
  0
INSERT
  8
0
  6
BYBLOCK
  5
37
  2
*X16
 10
0.0
 20
0.0
 30
0.0
  0
INSERT
  8
0
  6
BYBLOCK
  5
38
  2
*X15
 10
0.0
 20
0.0
 30
0.0
  0
INSERT
  8
0
  6
BYBLOCK
  5
39
  2
*X14
 10
0.0
 20
0.0
 30
0.0
  0
INSERT
  8
0
  6
BYBLOCK
  5
3A
  2
*X13
 10
0.0
 20
0.0
 30
0.0
  0
INSERT
  8
0
  6
BYBLOCK
  5
3B
  2
*X12
 10
0.0
 20
0.0
 30
0.0
  0
INSERT
  8
0
  6
BYBLOCK
  5
3C
  2
*X11
 10
0.0
 20
0.0
 30
0.0
  0
INSERT
  8
0
  6
BYBLOCK
  5
3D
  2
*X10
 10
0.0
 20
0.0
 30
0.0
  0
INSERT
  8
0
  6
BYBLOCK
  5
3E
  2
*X9
 10
0.0
 20
0.0
 30
0.0
  0
INSERT
  8
0
  6
BYBLOCK
  5
3F
  2
*X8
 10
0.0
 20
0.0
 30
0.0
  0
INSERT
  8
0
  6
BYBLOCK
  5
40
  2
*X7
 10
0.0
 20
0.0
 30
0.0
  0
INSERT
  8
0
  6
BYBLOCK
  5
41
  2
*X6
 10
0.0
 20
0.0
 30
0.0
  0
INSERT
  8
0
  6
BYBLOCK
  5
42
  2
*X5
 10
0.0
 20
0.0
 30
0.0
  0
INSERT
  8
0
  6
BYBLOCK
  5
43
  2
*X4
 10
0.0
 20
0.0
 30
0.0
  0
INSERT
  8
0
  6
BYBLOCK
  5
44
  2
*X3
 10
0.0
 20
0.0
 30
0.0
  0
INSERT
  8
0
  6
BYBLOCK
  5
45
  2
*X2
 10
0.0
 20
0.0
 30
0.0
  0
INSERT
  8
0
  6
BYBLOCK
  5
46
  2
*X1
 10
0.0
 20
0.0
 30
0.0
  0
LINE
  8
0
  6
CONTINUOUS
 62
               3
  5
47
 10
269.0
 20
60.0
 30
0.0
 11
397.0
 21
60.0
 31
0.0
  0
LINE
  8
0
  6
CONTINUOUS
 62
              80
  5
48
 10
278.0
 20
96.0
 30
0.0
 11
278.0
 21
53.0
 31
0.0
  0
LINE
  8
0
  6
CONTINUOUS
 62
              80
  5
49
 10
314.0
 20
96.0
 30
0.0
 11
314.0
 21
53.0
 31
0.0
  0
LINE
  8
0
  6
CONTINUOUS
 62
              80
  5
4A
 10
326.0
 20
96.0
 30
0.0
 11
326.0
 21
53.0
 31
0.0
  0
LINE
  8
0
  6
CONTINUOUS
 62
              80
  5
4B
 10
352.0
 20
96.0
 30
0.0
 11
352.0
 21
53.0
 31
0.0
  0
LINE
  8
0
  6
CONTINUOUS
 62
              80
  5
4C
 10
269.0
 20
66.0
 30
0.0
 11
397.0
 21
66.0
 31
0.0
  0
LINE
  8
0
  6
CONTINUOUS
 62
              80
  5
4D
 10
269.0
 20
72.0
 30
0.0
 11
397.0
 21
72.0
 31
0.0
  0
LINE
  8
0
  6
CONTINUOUS
 62
              80
  5
4E
 10
269.0
 20
78.0
 30
0.0
 11
397.0
 21
78.0
 31
0.0
  0
LINE
  8
0
  6
CONTINUOUS
 62
              80
  5
4F
 10
269.0
 20
84.0
 30
0.0
 11
397.0
 21
84.0
 31
0.0
  0
LINE
  8
0
  6
CONTINUOUS
 62
              80
  5
50
 10
269.0
 20
90.0
 30
0.0
 11
397.0
 21
90.0
 31
0.0
  0
LINE
  8
0
  6
CONTINUOUS
 62
               3
  5
51
 10
269.0
 20
96.0
 30
0.0
 11
269.0
 21
53.0
 31
0.0
  0
LINE
  8
0
  6
CONTINUOUS
 62
               3
  5
52
 10
23.0
 20
280.49998499999998
 30
0.0
 11
23.0
 21
16.5
 31
0.0
  0
LINE
  8
0
  6
CONTINUOUS
 62
               3
  5
53
 10
23.0
 20
16.5
 30
0.0
 11
397.0
 21
16.5
 31
0.0
  0
LINE
  8
0
  6
CONTINUOUS
 62
               3
  5
54
 10
233.0
 20
37.5
 30
0.0
 11
397.0
 21
37.5
 31
0.0
  0
LINE
  8
0
  6
CONTINUOUS
 62
               3
  5
55
 10
271.0
 20
37.5
 30
0.0
 11
271.0
 21
16.5
 31
0.0
  0
LINE
  8
0
  6
CONTINUOUS
 62
               3
  5
56
 10
290.0
 20
37.5
 30
0.0
 11
290.0
 21
16.5
 31
0.0
  0
LINE
  8
0
  6
CONTINUOUS
 62
               3
  5
57
 10
309.0
 20
37.5
 30
0.0
 11
309.0
 21
16.5
 31
0.0
  0
LINE
  8
0
  6
CONTINUOUS
 62
               3
  5
58
 10
23.0
 20
280.49998499999998
 30
0.0
 11
397.0
 21
280.49998499999998
 31
0.0
  0
LINE
  8
0
  6
CONTINUOUS
 62
              80
  5
59
 10
269.0
 20
255.499989
 30
0.0
 11
397.0
 21
255.499989
 31
0.0
  0
LINE
  8
0
  6
CONTINUOUS
 62
              80
  5
5A
 10
387.0
 20
280.49998499999998
 30
0.0
 11
387.0
 21
255.499989
 31
0.0
  0
LINE
  8
0
  6
CONTINUOUS
 62
              80
  5
5B
 10
294.0
 20
280.49998499999998
 30
0.0
 11
294.0
 21
255.499989
 31
0.0
  0
LINE
  8
0
  6
CONTINUOUS
 62
              80
  5
5C
 10
284.0
 20
280.49998499999998
 30
0.0
 11
284.0
 21
255.499989
 31
0.0
  0
LINE
  8
0
  6
CONTINUOUS
 62
               3
  5
5D
 10
269.0
 20
280.49998499999998
 30
0.0
 11
269.0
 21
255.499989
 31
0.0
  0
LINE
  8
0
  6
CONTINUOUS
 62
               3
  5
5E
 10
397.0
 20
280.49998499999998
 30
0.0
 11
397.0
 21
16.5
 31
0.0
  0
LINE
  8
0
  6
CONTINUOUS
 62
               3
  5
5F
 10
397.0
 20
236.499989
 30
0.0
 11
401.0
 21
236.499989
 31
0.0
  0
LINE
  8
0
  6
CONTINUOUS
 62
               3
  5
60
 10
397.0
 20
192.49999399999999
 30
0.0
 11
401.0
 21
192.49999399999999
 31
0.0
  0
LINE
  8
0
  6
CONTINUOUS
 62
               3
  5
61
 10
397.0
 20
148.49999600000001
 30
0.0
 11
401.0
 21
148.49999600000001
 31
0.0
  0
LINE
  8
0
  6
CONTINUOUS
 62
               3
  5
62
 10
397.0
 20
104.49999200000001
 30
0.0
 11
401.0
 21
104.49999200000001
 31
0.0
  0
LINE
  8
0
  6
CONTINUOUS
 62
               3
  5
63
 10
397.0
 20
60.5
 30
0.0
 11
401.0
 21
60.5
 31
0.0
  0
LINE
  8
0
  6
CONTINUOUS
 62
               3
  5
64
 10
23.0
 20
236.499989
 30
0.0
 11
19.0
 21
236.499989
 31
0.0
  0
LINE
  8
0
  6
CONTINUOUS
 62
               3
  5
65
 10
23.0
 20
192.49999399999999
 30
0.0
 11
19.0
 21
192.49999399999999
 31
0.0
  0
LINE
  8
0
  6
CONTINUOUS
 62
               3
  5
66
 10
23.0
 20
148.49999600000001
 30
0.0
 11
19.0
 21
148.49999600000001
 31
0.0
  0
LINE
  8
0
  6
CONTINUOUS
 62
               3
  5
67
 10
23.0
 20
104.49999200000001
 30
0.0
 11
19.0
 21
104.49999200000001
 31
0.0
  0
LINE
  8
0
  6
CONTINUOUS
 62
               3
  5
68
 10
0.0
 20
296.99999200000002
 30
0.0
 11
0.0
 21
0.0
 31
0.0
  0
LINE
  8
0
  6
CONTINUOUS
 62
               3
  5
69
 10
420.0
 20
296.99999200000002
 30
0.0
 11
420.0
 21
0.0
 31
0.0
  0
LINE
  8
0
  6
CONTINUOUS
 62
               3
  5
6A
 10
0.0
 20
0.0
 30
0.0
 11
420.0
 21
0.0
 31
0.0
  0
LINE
  8
0
  6
CONTINUOUS
 62
               3
  5
6B
 10
269.0
 20
275.49998499999998
 30
0.0
 11
397.0
 21
275.49998499999998
 31
0.0
  0
LINE
  8
0
  6
CONTINUOUS
 62
              80
  5
6C
 10
269.0
 20
270.49998499999998
 30
0.0
 11
397.0
 21
270.49998499999998
 31
0.0
  0
LINE
  8
0
  6
CONTINUOUS
 62
              80
  5
6D
 10
284.75
 20
256.484444
 30
0.0
 11
288.25
 21
256.484444
 31
0.0
  0
LINE
  8
0
  6
CONTINUOUS
 62
              80
  5
6E
 10
286.49996900000002
 20
259.51554299999998
 30
0.0
 11
284.74996900000002
 21
256.48445400000003
 31
0.0
  0
LINE
  8
0
  6
CONTINUOUS
 62
              80
  5
6F
 10
286.49998199999999
 20
259.51549999999997
 30
0.0
 11
288.24998199999999
 21
256.48441100000002
 31
0.0
  0
LINE
  8
0
  6
CONTINUOUS
 62
              80
  5
70
 10
286.49996299999998
 20
274.51553100000001
 30
0.0
 11
288.24996299999998
 21
271.484442
 31
0.0
  0
LINE
  8
0
  6
CONTINUOUS
 62
              80
  5
71
 10
284.75
 20
271.484444
 30
0.0
 11
288.25
 21
271.484444
 31
0.0
  0
LINE
  8
0
  6
CONTINUOUS
 62
              80
  5
72
 10
286.49997200000001
 20
274.51554800000002
 30
0.0
 11
284.74997200000001
 21
271.48445900000002
 31
0.0
  0
LINE
  8
0
  6
CONTINUOUS
 62
              80
  5
73
 10
286.49996900000002
 20
269.51552099999998
 30
0.0
 11
288.24996900000002
 21
266.48443200000003
 31
0.0
  0
LINE
  8
0
  6
CONTINUOUS
 62
              80
  5
74
 10
284.75
 20
266.484444
 30
0.0
 11
288.25
 21
266.484444
 31
0.0
  0
LINE
  8
0
  6
CONTINUOUS
 62
              80
  5
75
 10
286.49998099999999
 20
269.51556399999998
 30
0.0
 11
284.74998099999999
 21
266.48447499999997
 31
0.0
  0
LINE
  8
0
  6
CONTINUOUS
 62
               3
  5
76
 10
23.0
 20
60.5
 30
0.0
 11
19.0
 21
60.5
 31
0.0
  0
LINE
  8
0
  6
CONTINUOUS
 62
               3
  5
77
 10
233.0
 20
53.0
 30
0.0
 11
233.0
 21
16.5
 31
0.0
  0
LINE
  8
0
  6
CONTINUOUS
 62
               3
  5
78
 10
210.0
 20
280.49998499999998
 30
0.0
 11
210.0
 21
284.49998499999998
 31
0.0
  0
LINE
  8
0
  6
CONTINUOUS
 62
               3
  5
79
 10
116.5
 20
280.49998499999998
 30
0.0
 11
116.5
 21
284.49998499999998
 31
0.0
  0
LINE
  8
0
  6
CONTINUOUS
 62
               3
  5
7A
 10
69.75
 20
280.49998499999998
 30
0.0
 11
69.75
 21
284.49998499999998
 31
0.0
  0
LINE
  8
0
  6
CONTINUOUS
 62
               3
  5
7B
 10
163.25
 20
280.49998499999998
 30
0.0
 11
163.25
 21
284.49998499999998
 31
0.0
  0
LINE
  8
0
  6
CONTINUOUS
 62
               3
  5
7C
 10
303.5
 20
280.49998499999998
 30
0.0
 11
303.5
 21
284.49998499999998
 31
0.0
  0
LINE
  8
0
  6
CONTINUOUS
 62
               3
  5
7D
 10
256.75
 20
280.49998499999998
 30
0.0
 11
256.75
 21
284.49998499999998
 31
0.0
  0
LINE
  8
0
  6
CONTINUOUS
 62
               3
  5
7E
 10
350.25
 20
280.49998499999998
 30
0.0
 11
350.25
 21
284.49998499999998
 31
0.0
  0
LINE
  8
0
  6
CONTINUOUS
 62
               3
  5
7F
 10
69.75
 20
16.5
 30
0.0
 11
69.75
 21
12.5
 31
0.0
  0
LINE
  8
0
  6
CONTINUOUS
 62
               3
  5
80
 10
116.5
 20
16.5
 30
0.0
 11
116.5
 21
12.5
 31
0.0
  0
LINE
  8
0
  6
CONTINUOUS
 62
               3
  5
81
 10
210.0
 20
16.5
 30
0.0
 11
210.0
 21
12.5
 31
0.0
  0
LINE
  8
0
  6
CONTINUOUS
 62
               3
  5
82
 10
163.25
 20
16.5
 30
0.0
 11
163.25
 21
12.5
 31
0.0
  0
LINE
  8
0
  6
CONTINUOUS
 62
               3
  5
83
 10
350.25
 20
16.5
 30
0.0
 11
350.25
 21
12.5
 31
0.0
  0
LINE
  8
0
  6
CONTINUOUS
 62
               3
  5
84
 10
303.5
 20
16.5
 30
0.0
 11
303.5
 21
12.5
 31
0.0
  0
LINE
  8
0
  6
CONTINUOUS
 62
               3
  5
85
 10
256.75
 20
16.5
 30
0.0
 11
256.75
 21
12.5
 31
0.0
  0
LINE
  8
0
  6
CONTINUOUS
 62
              80
  5
86
 10
319.84643599999998
 20
27.410706000000001
 30
0.0
 11
325.52502399999997
 21
27.410706000000001
 31
0.0
  0
LINE
  8
0
  6
CONTINUOUS
 62
              80
  5
87
 10
319.84643599999998
 20
27.410706000000001
 30
0.0
 11
319.84643599999998
 21
26.946411000000001
 31
0.0
  0
LINE
  8
0
  6
CONTINUOUS
 62
              80
  5
88
 10
319.84643599999998
 20
26.946411000000001
 30
0.0
 11
324.13217200000003
 21
26.946411000000001
 31
0.0
  0
LINE
  8
0
  6
CONTINUOUS
 62
              80
  5
89
 10
324.13217200000003
 20
26.946411000000001
 30
0.0
 11
324.13217200000003
 21
26.214233
 31
0.0
  0
LINE
  8
0
  6
CONTINUOUS
 62
              80
  5
8A
 10
325.52502399999997
 20
27.410706000000001
 30
0.0
 11
325.52502399999997
 21
26.0
 31
0.0
  0
LINE
  8
0
  6
CONTINUOUS
 62
              80
  5
8B
 10
322.81072999999998
 20
25.232116999999999
 30
0.0
 11
324.75717200000003
 21
25.232116999999999
 31
0.0
  0
LINE
  8
0
  6
CONTINUOUS
 62
              80
  5
8C
 10
322.81072999999998
 20
25.767821999999999
 30
0.0
 11
323.68572999999998
 21
25.767821999999999
 31
0.0
  0
LINE
  8
0
  6
CONTINUOUS
 62
              80
  5
8D
 10
322.81072999999998
 20
26.410767
 30
0.0
 11
322.81072999999998
 21
25.767821999999999
 31
0.0
  0
LINE
  8
0
  6
CONTINUOUS
 62
              80
  5
8E
 10
321.34646600000002
 20
26.410767
 30
0.0
 11
322.81072999999998
 21
26.410767
 31
0.0
  0
LINE
  8
0
  6
CONTINUOUS
 62
              80
  5
8F
 10
321.34646600000002
 20
26.410767
 30
0.0
 11
321.34646600000002
 21
24.428528
 31
0.0
  0
LINE
  8
0
  6
CONTINUOUS
 62
              80
  5
90
 10
319.84643599999998
 20
24.053528
 30
0.0
 11
320.97146600000002
 21
24.053528
 31
0.0
  0
LINE
  8
0
  6
CONTINUOUS
 62
              80
  5
91
 10
319.84643599999998
 20
24.053528
 30
0.0
 11
319.84643599999998
 21
23.589233
 31
0.0
  0
LINE
  8
0
  6
CONTINUOUS
 62
              80
  5
92
 10
319.84643599999998
 20
23.589233
 30
0.0
 11
322.25717200000003
 21
23.589233
 31
0.0
  0
LINE
  8
0
  6
CONTINUOUS
 62
              80
  5
93
 10
322.81072999999998
 20
25.232116999999999
 30
0.0
 11
322.81072999999998
 21
24.142821999999999
 31
0.0
  0
LINE
  8
0
  6
CONTINUOUS
 62
              80
  5
94
 10
326.00521900000001
 20
27.196655
 30
0.0
 11
331.580444
 21
27.196655
 31
0.0
  0
LINE
  8
0
  6
CONTINUOUS
 62
              80
  5
95
 10
327.40499899999998
 20
26.731995000000001
 30
0.0
 11
330.18075599999997
 21
26.731995000000001
 31
0.0
  0
LINE
  8
0
  6
CONTINUOUS
 62
              80
  5
96
 10
330.18076100000002
 20
26.732009000000001
 30
0.0
 11
329.835014
 21
24.195467000000001
 31
0.0
  0
LINE
  8
0
  6
CONTINUOUS
 62
              80
  5
97
 10
327.40501699999999
 20
26.731976
 30
0.0
 11
327.750765
 21
24.195495000000001
 31
0.0
  0
LINE
  8
0
  6
CONTINUOUS
 62
              80
  5
98
 10
327.75076300000001
 20
24.195495999999999
 30
0.0
 11
329.83502199999998
 21
24.195495999999999
 31
0.0
  0
LINE
  8
0
  6
CONTINUOUS
 62
              80
  5
99
 10
326.0052
 20
27.196645
 30
0.0
 11
326.58270099999999
 21
23.732116999999999
 31
0.0
  0
LINE
  8
0
  6
CONTINUOUS
 62
              80
  5
9A
 10
326.58270299999998
 20
23.732116999999999
 30
0.0
 11
331.00305200000003
 21
23.732116999999999
 31
0.0
  0
LINE
  8
0
  6
CONTINUOUS
 62
              80
  5
9B
 10
331.58043900000001
 20
27.196657999999999
 30
0.0
 11
331.00304299999999
 21
23.732112999999998
 31
0.0
  0
LINE
  8
0
  6
CONTINUOUS
 62
              80
  5
9C
 10
332.132385
 20
25.768004999999999
 30
0.0
 11
335.81079099999999
 21
25.768004999999999
 31
0.0
  0
LINE
  8
0
  6
CONTINUOUS
 62
              80
  5
9D
 10
332.132385
 20
25.768004999999999
 30
0.0
 11
332.132385
 21
25.017761
 31
0.0
  0
LINE
  8
0
  6
CONTINUOUS
 62
              80
  5
9E
 10
332.132385
 20
25.017761
 30
0.0
 11
335.81079099999999
 21
25.017761
 31
0.0
  0
LINE
  8
0
  6
CONTINUOUS
 62
              80
  5
9F
 10
335.81079099999999
 20
25.768004999999999
 30
0.0
 11
335.81079099999999
 21
25.017761
 31
0.0
  0
LINE
  8
0
  6
CONTINUOUS
 62
              80
  5
A0
 10
338.48931900000002
 20
27.357116999999999
 30
0.0
 11
338.48931900000002
 21
26.017761
 31
0.0
  0
LINE
  8
0
  6
CONTINUOUS
 62
              80
  5
A1
 10
339.66787699999998
 20
27.357116999999999
 30
0.0
 11
339.66787699999998
 21
26.017761
 31
0.0
  0
LINE
  8
0
  6
CONTINUOUS
 62
              80
  5
A2
 10
341.95370500000001
 20
26.857116999999999
 30
0.0
 11
341.95370500000001
 21
26.017761
 31
0.0
  0
LINE
  8
0
  6
CONTINUOUS
 62
              80
  5
A3
 10
341.20349099999999
 20
26.017761
 30
0.0
 11
341.95370500000001
 21
26.017761
 31
0.0
  0
LINE
  8
0
  6
CONTINUOUS
 62
              80
  5
A4
 10
341.20349099999999
 20
26.857116999999999
 30
0.0
 11
341.20349099999999
 21
26.017761
 31
0.0
  0
LINE
  8
0
  6
CONTINUOUS
 62
              80
  5
A5
 10
338.48931900000002
 20
26.017761
 30
0.0
 11
339.66787699999998
 21
26.017761
 31
0.0
  0
LINE
  8
0
  6
CONTINUOUS
 62
              80
  5
A6
 10
336.203644
 20
26.857116999999999
 30
0.0
 11
336.203644
 21
26.017761
 31
0.0
  0
LINE
  8
0
  6
CONTINUOUS
 62
              80
  5
A7
 10
336.95370500000001
 20
26.857116999999999
 30
0.0
 11
336.95370500000001
 21
26.017761
 31
0.0
  0
LINE
  8
0
  6
CONTINUOUS
 62
              80
  5
A8
 10
336.203644
 20
26.017761
 30
0.0
 11
336.95370500000001
 21
26.017761
 31
0.0
  0
LINE
  8
0
  6
CONTINUOUS
 62
              80
  5
A9
 10
340.301422
 20
26.017821999999999
 30
0.0
 11
340.56994600000002
 21
26.017821999999999
 31
0.0
  0
LINE
  8
0
  6
CONTINUOUS
 62
              80
  5
AA
 10
340.301422
 20
26.053405999999999
 30
0.0
 11
340.48092700000001
 21
26.053405999999999
 31
0.0
  0
LINE
  8
0
  6
CONTINUOUS
 62
              80
  5
AB
 10
337.29650900000001
 20
25.564330999999999
 30
0.0
 11
337.29650900000001
 21
24.364258
 31
0.0
  0
LINE
  8
0
  6
CONTINUOUS
 62
              80
  5
AC
 10
336.56072999999998
 20
25.564330999999999
 30
0.0
 11
336.56072999999998
 21
24.364258
 31
0.0
  0
LINE
  8
0
  6
CONTINUOUS
 62
              80
  5
AD
 10
339.66787699999998
 20
25.564330999999999
 30
0.0
 11
339.66787699999998
 21
23.872803000000001
 31
0.0
  0
LINE
  8
0
  6
CONTINUOUS
 62
              80
  5
AE
 10
340.86068699999998
 20
25.564330999999999
 30
0.0
 11
340.86068699999998
 21
24.364258
 31
0.0
  0
LINE
  8
0
  6
CONTINUOUS
 62
              80
  5
AF
 10
341.59652699999998
 20
25.564330999999999
 30
0.0
 11
341.59652699999998
 21
24.364258
 31
0.0
  0
LINE
  8
0
  6
CONTINUOUS
 62
              80
  5
B0
 10
338.48931900000002
 20
25.564330999999999
 30
0.0
 11
338.48931900000002
 21
23.842773000000001
 31
0.0
  0
LINE
  8
0
  6
CONTINUOUS
 62
              80
  5
B1
 10
340.98919699999999
 20
23.982178000000001
 30
0.0
 11
340.98919699999999
 21
23.642821999999999
 31
0.0
  0
LINE
  8
0
  6
CONTINUOUS
 62
              80
  5
B2
 10
340.98919699999999
 20
23.982178000000001
 30
0.0
 11
341.66793799999999
 21
23.982178000000001
 31
0.0
  0
LINE
  8
0
  6
CONTINUOUS
 62
              80
  5
B3
 10
341.66793799999999
 20
23.982178000000001
 30
0.0
 11
341.66793799999999
 21
23.842773000000001
 31
0.0
  0
LINE
  8
0
  6
CONTINUOUS
 62
              80
  5
B4
 10
342.48931900000002
 20
27.410706000000001
 30
0.0
 11
348.16787699999998
 21
27.410706000000001
 31
0.0
  0
LINE
  8
0
  6
CONTINUOUS
 62
              80
  5
B5
 10
342.48931900000002
 20
27.410706000000001
 30
0.0
 11
342.48931900000002
 21
26.946411000000001
 31
0.0
  0
LINE
  8
0
  6
CONTINUOUS
 62
              80
  5
B6
 10
342.48931900000002
 20
26.946411000000001
 30
0.0
 11
346.53179899999998
 21
26.946411000000001
 31
0.0
  0
LINE
  8
0
  6
CONTINUOUS
 62
              80
  5
B7
 10
348.16787699999998
 20
27.410706000000001
 30
0.0
 11
348.16787699999998
 21
26.908446999999999
 31
0.0
  0
LINE
  8
0
  6
CONTINUOUS
 62
              80
  5
B8
 10
345.95358299999998
 20
25.925476
 30
0.0
 11
345.95358299999998
 21
25.625
 31
0.0
  0
LINE
  8
0
  6
CONTINUOUS
 62
              80
  5
B9
 10
344.84646600000002
 20
26.13916
 30
0.0
 11
344.84646600000002
 21
25.625
 31
0.0
  0
LINE
  8
0
  6
CONTINUOUS
 62
              80
  5
BA
 10
342.48931900000002
 20
25.625
 30
0.0
 11
344.84646600000002
 21
25.625
 31
0.0
  0
LINE
  8
0
  6
CONTINUOUS
 62
              80
  5
BB
 10
345.95358299999998
 20
25.625
 30
0.0
 11
348.16787699999998
 21
25.625
 31
0.0
  0
LINE
  8
0
  6
CONTINUOUS
 62
              80
  5
BC
 10
348.16787699999998
 20
25.625
 30
0.0
 11
348.16787699999998
 21
25.160582999999999
 31
0.0
  0
LINE
  8
0
  6
CONTINUOUS
 62
              80
  5
BD
 10
345.95358299999998
 20
25.160582999999999
 30
0.0
 11
348.16787699999998
 21
25.160582999999999
 31
0.0
  0
LINE
  8
0
  6
CONTINUOUS
 62
              80
  5
BE
 10
345.95358299999998
 20
25.160582999999999
 30
0.0
 11
345.95358299999998
 21
23.785706000000001
 31
0.0
  0
LINE
  8
0
  6
CONTINUOUS
 62
              80
  5
BF
 10
343.68572999999998
 20
23.589233
 30
0.0
 11
345.75717200000003
 21
23.589233
 31
0.0
  0
LINE
  8
0
  6
CONTINUOUS
 62
              80
  5
C0
 10
343.48931900000002
 20
24.339233
 30
0.0
 11
343.48931900000002
 21
23.785706000000001
 31
0.0
  0
LINE
  8
0
  6
CONTINUOUS
 62
              80
  5
C1
 10
343.48931900000002
 20
24.339233
 30
0.0
 11
344.31072999999998
 21
24.339233
 31
0.0
  0
LINE
  8
0
  6
CONTINUOUS
 62
              80
  5
C2
 10
344.54287699999998
 20
24.053528
 30
0.0
 11
344.84646600000002
 21
24.053528
 31
0.0
  0
LINE
  8
0
  6
CONTINUOUS
 62
              80
  5
C3
 10
344.84646600000002
 20
25.160582999999999
 30
0.0
 11
344.84646600000002
 21
24.053528
 31
0.0
  0
LINE
  8
0
  6
CONTINUOUS
 62
              80
  5
C4
 10
342.48931900000002
 20
25.160582999999999
 30
0.0
 11
344.84646600000002
 21
25.160582999999999
 31
0.0
  0
LINE
  8
0
  6
CONTINUOUS
 62
              80
  5
C5
 10
342.48931900000002
 20
25.625
 30
0.0
 11
342.48931900000002
 21
25.160582999999999
 31
0.0
  0
LINE
  8
0
  6
CONTINUOUS
 62
              80
  5
C6
 10
354.382294
 20
27.410706000000001
 30
0.0
 11
348.70361300000002
 21
27.410706000000001
 31
0.0
  0
LINE
  8
0
  6
CONTINUOUS
 62
              80
  5
C7
 10
348.70361300000002
 20
27.410706000000001
 30
0.0
 11
348.70361300000002
 21
26.946411000000001
 31
0.0
  0
LINE
  8
0
  6
CONTINUOUS
 62
              80
  5
C8
 10
348.70361300000002
 20
26.946411000000001
 30
0.0
 11
350.98919699999999
 21
26.946411000000001
 31
0.0
  0
LINE
  8
0
  6
CONTINUOUS
 62
              80
  5
C9
 10
350.98919699999999
 20
26.946411000000001
 30
0.0
 11
350.98919699999999
 21
24.053650000000001
 31
0.0
  0
LINE
  8
0
  6
CONTINUOUS
 62
              80
  5
CA
 10
352.16802999999999
 20
26.946411000000001
 30
0.0
 11
352.16802999999999
 21
24.053650000000001
 31
0.0
  0
LINE
  8
0
  6
CONTINUOUS
 62
              80
  5
CB
 10
352.16802999999999
 20
26.946411000000001
 30
0.0
 11
354.382294
 21
26.946411000000001
 31
0.0
  0
LINE
  8
0
  6
CONTINUOUS
 62
              80
  5
CC
 10
354.382294
 20
27.410706000000001
 30
0.0
 11
354.382294
 21
26.946411000000001
 31
0.0
  0
LINE
  8
0
  6
CONTINUOUS
 62
              80
  5
CD
 10
352.16802999999999
 20
24.053650000000001
 30
0.0
 11
354.382294
 21
24.053650000000001
 31
0.0
  0
LINE
  8
0
  6
CONTINUOUS
 62
              80
  5
CE
 10
354.382294
 20
24.053650000000001
 30
0.0
 11
354.382294
 21
23.589233
 31
0.0
  0
LINE
  8
0
  6
CONTINUOUS
 62
              80
  5
CF
 10
348.70361300000002
 20
23.589233
 30
0.0
 11
354.382294
 21
23.589233
 31
0.0
  0
LINE
  8
0
  6
CONTINUOUS
 62
              80
  5
D0
 10
348.70361300000002
 20
24.053650000000001
 30
0.0
 11
350.98919699999999
 21
24.053650000000001
 31
0.0
  0
LINE
  8
0
  6
CONTINUOUS
 62
              80
  5
D1
 10
348.70361300000002
 20
24.053650000000001
 30
0.0
 11
348.70361300000002
 21
23.589233
 31
0.0
  0
LINE
  8
0
  6
CONTINUOUS
 62
              80
  5
D2
 10
355.62530500000003
 20
27.339233
 30
0.0
 11
356.15841699999999
 21
27.339233
 31
0.0
  0
LINE
  8
0
  6
CONTINUOUS
 62
              80
  5
D3
 10
356.70358299999998
 20
27.339233
 30
0.0
 11
356.70358299999998
 21
26.785644999999999
 31
0.0
  0
LINE
  8
0
  6
CONTINUOUS
 62
              80
  5
D4
 10
356.70358299999998
 20
27.339233
 30
0.0
 11
357.31072999999998
 21
27.339233
 31
0.0
  0
LINE
  8
0
  6
CONTINUOUS
 62
              80
  5
D5
 10
357.31072999999998
 20
27.339233
 30
0.0
 11
357.31072999999998
 21
26.785644999999999
 31
0.0
  0
LINE
  8
0
  6
CONTINUOUS
 62
              80
  5
D6
 10
358.27502399999997
 20
27.339233
 30
0.0
 11
358.27502399999997
 21
26.785644999999999
 31
0.0
  0
LINE
  8
0
  6
CONTINUOUS
 62
              80
  5
D7
 10
358.27502399999997
 20
27.339233
 30
0.0
 11
358.88217200000003
 21
27.339233
 31
0.0
  0
LINE
  8
0
  6
CONTINUOUS
 62
              80
  5
D8
 10
358.88217200000003
 20
27.339233
 30
0.0
 11
358.88217200000003
 21
26.785644999999999
 31
0.0
  0
LINE
  8
0
  6
CONTINUOUS
 62
              80
  5
D9
 10
359.42733800000002
 20
27.339233
 30
0.0
 11
359.96044899999998
 21
27.339233
 31
0.0
  0
LINE
  8
0
  6
CONTINUOUS
 62
              80
  5
DA
 10
356.65735999999998
 20
26.785648999999999
 30
0.0
 11
357.01448399999998
 21
26.071401000000002
 31
0.0
  0
LINE
  8
0
  6
CONTINUOUS
 62
              80
  5
DB
 10
355.99987399999998
 20
26.785648999999999
 30
0.0
 11
356.35699799999998
 21
26.071401000000002
 31
0.0
  0
LINE
  8
0
  6
CONTINUOUS
 62
              80
  5
DC
 10
358.92840200000001
 20
26.785654999999998
 30
0.0
 11
358.57129099999997
 21
26.071435000000001
 31
0.0
  0
LINE
  8
0
  6
CONTINUOUS
 62
              80
  5
DD
 10
359.58590800000002
 20
26.785678999999998
 30
0.0
 11
359.22877099999999
 21
26.071404000000001
 31
0.0
  0
LINE
  8
0
  6
CONTINUOUS
 62
              80
  5
DE
 10
358.38217200000003
 20
26.071411000000001
 30
0.0
 11
358.38217200000003
 21
23.589233
 31
0.0
  0
LINE
  8
0
  6
CONTINUOUS
 62
              80
  5
DF
 10
357.27502399999997
 20
23.589233
 30
0.0
 11
358.38217200000003
 21
23.589233
 31
0.0
  0
LINE
  8
0
  6
CONTINUOUS
 62
              80
  5
E0
 10
357.27502399999997
 20
23.589233
 30
0.0
 11
357.27502399999997
 21
26.071411000000001
 31
0.0
  0
LINE
  8
0
  6
CONTINUOUS
 62
              80
  5
E1
 10
354.91787699999998
 20
23.952514999999998
 30
0.0
 11
354.91787699999998
 21
23.589233
 31
0.0
  0
LINE
  8
0
  6
CONTINUOUS
 62
              80
  5
E2
 10
355.45678700000002
 20
23.589233
 30
0.0
 11
354.91787699999998
 21
23.589233
 31
0.0
  0
LINE
  8
0
  6
CONTINUOUS
 62
              80
  5
E3
 10
361.70358299999998
 20
27.410706000000001
 30
0.0
 11
361.70358299999998
 21
26.76709
 31
0.0
  0
LINE
  8
0
  6
CONTINUOUS
 62
              80
  5
E4
 10
361.70358299999998
 20
27.410706000000001
 30
0.0
 11
362.45358299999998
 21
27.410706000000001
 31
0.0
  0
LINE
  8
0
  6
CONTINUOUS
 62
              80
  5
E5
 10
362.45358299999998
 20
27.410706000000001
 30
0.0
 11
362.45358299999998
 21
26.76709
 31
0.0
  0
LINE
  8
0
  6
CONTINUOUS
 62
              80
  5
E6
 10
362.45358299999998
 20
26.447144000000002
 30
0.0
 11
362.45358299999998
 21
25.827271
 31
0.0
  0
LINE
  8
0
  6
CONTINUOUS
 62
              80
  5
E7
 10
362.45358299999998
 20
25.056090999999999
 30
0.0
 11
362.45358299999998
 21
23.589233
 31
0.0
  0
LINE
  8
0
  6
CONTINUOUS
 62
              80
  5
E8
 10
361.06072999999998
 20
24.902100000000001
 30
0.0
 11
361.06072999999998
 21
24.225037
 31
0.0
  0
LINE
  8
0
  6
CONTINUOUS
 62
              80
  5
E9
 10
361.70358299999998
 20
24.961608999999999
 30
0.0
 11
361.70358299999998
 21
23.589233
 31
0.0
  0
LINE
  8
0
  6
CONTINUOUS
 62
              80
  5
EA
 10
361.70358299999998
 20
23.589233
 30
0.0
 11
362.45358299999998
 21
23.589233
 31
0.0
  0
LINE
  8
0
  6
CONTINUOUS
 62
              80
  5
EB
 10
363.48931900000002
 20
27.410706000000001
 30
0.0
 11
363.48931900000002
 21
26.447144000000002
 31
0.0
  0
LINE
  8
0
  6
CONTINUOUS
 62
              80
  5
EC
 10
363.48931900000002
 20
27.410706000000001
 30
0.0
 11
364.23931900000002
 21
27.410706000000001
 31
0.0
  0
LINE
  8
0
  6
CONTINUOUS
 62
              80
  5
ED
 10
364.23931900000002
 20
27.410706000000001
 30
0.0
 11
364.23931900000002
 21
26.76709
 31
0.0
  0
LINE
  8
0
  6
CONTINUOUS
 62
              80
  5
EE
 10
364.63217200000003
 20
27.410706000000001
 30
0.0
 11
365.31076000000002
 21
27.410706000000001
 31
0.0
  0
LINE
  8
0
  6
CONTINUOUS
 62
              80
  5
EF
 10
365.31076000000002
 20
27.410706000000001
 30
0.0
 11
365.31076000000002
 21
26.76709
 31
0.0
  0
LINE
  8
0
  6
CONTINUOUS
 62
              80
  5
F0
 10
362.97979099999998
 20
23.968561000000001
 30
0.0
 11
363.59988600000003
 21
23.743072000000002
 31
0.0
  0
LINE
  8
0
  6
CONTINUOUS
 62
              80
  5
F1
 10
364.63217200000003
 20
23.589233
 30
0.0
 11
364.63217200000003
 21
24.643677
 31
0.0
  0
LINE
  8
0
  6
CONTINUOUS
 62
              80
  5
F2
 10
364.63217200000003
 20
23.589233
 30
0.0
 11
365.31076000000002
 21
23.589233
 31
0.0
  0
LINE
  8
0
  6
CONTINUOUS
 62
              80
  5
F3
 10
367.20361300000002
 20
26.553528
 30
0.0
 11
370.521118
 21
26.553528
 31
0.0
  0
LINE
  8
0
  6
CONTINUOUS
 62
              80
  5
F4
 10
367.20361300000002
 20
26.553528
 30
0.0
 11
367.20361300000002
 21
26.089233
 31
0.0
  0
LINE
  8
0
  6
CONTINUOUS
 62
              80
  5
F5
 10
370.676941
 20
26.089233
 30
0.0
 11
367.20361300000002
 21
26.089233
 31
0.0
  0
LINE
  8
0
  6
CONTINUOUS
 62
              80
  5
F6
 10
370.29956099999998
 20
27.339233
 30
0.0
 11
371.11407500000001
 21
27.339233
 31
0.0
  0
LINE
  8
0
  6
CONTINUOUS
 62
              80
  5
F7
 10
371.35320999999999
 20
26.553528
 30
0.0
 11
372.753601
 21
26.553528
 31
0.0
  0
LINE
  8
0
  6
CONTINUOUS
 62
              80
  5
F8
 10
372.753601
 20
26.089233
 30
0.0
 11
372.753601
 21
26.553528
 31
0.0
  0
LINE
  8
0
  6
CONTINUOUS
 62
              80
  5
F9
 10
372.753601
 20
26.089233
 30
0.0
 11
371.55801400000001
 21
26.089233
 31
0.0
  0
LINE
  8
0
  6
CONTINUOUS
 62
              80
  5
FA
 10
371.806152
 20
23.803528
 30
0.0
 11
372.87091099999998
 21
23.803528
 31
0.0
  0
LINE
  8
0
  6
CONTINUOUS
 62
              80
  5
FB
 10
367.20361300000002
 20
25.410706000000001
 30
0.0
 11
370.09646600000002
 21
25.410706000000001
 31
0.0
  0
LINE
  8
0
  6
CONTINUOUS
 62
              80
  5
FC
 10
367.20361300000002
 20
25.410706000000001
 30
0.0
 11
367.20361300000002
 21
25.089233
 31
0.0
  0
LINE
  8
0
  6
CONTINUOUS
 62
              80
  5
FD
 10
368.13217200000003
 20
25.089233
 30
0.0
 11
367.20361300000002
 21
25.089233
 31
0.0
  0
LINE
  8
0
  6
CONTINUOUS
 62
              80
  5
FE
 10
368.13217200000003
 20
25.089233
 30
0.0
 11
368.13217200000003
 21
24.059021000000001
 31
0.0
  0
LINE
  8
0
  6
CONTINUOUS
 62
              80
  5
FF
 10
369.02502399999997
 20
25.089233
 30
0.0
 11
369.02502399999997
 21
24.116821000000002
 31
0.0
  0
LINE
  8
0
  6
CONTINUOUS
 62
              80
  5
100
 10
370.09646600000002
 20
25.089233
 30
0.0
 11
369.02502399999997
 21
25.089233
 31
0.0
  0
LINE
  8
0
  6
CONTINUOUS
 62
              80
  5
101
 10
370.09646600000002
 20
25.410706000000001
 30
0.0
 11
370.09646600000002
 21
25.089233
 31
0.0
  0
LINE
  8
0
  6
CONTINUOUS
 62
              80
  5
102
 10
370.09646600000002
 20
24.251953
 30
0.0
 11
370.09646600000002
 21
23.928101000000002
 31
0.0
  0
LINE
  8
0
  6
CONTINUOUS
 62
              80
  5
103
 10
367.20361300000002
 20
23.989197000000001
 30
0.0
 11
367.20361300000002
 21
23.522766000000001
 31
0.0
  0
LINE
  8
0
  6
CONTINUOUS
 62
              80
  5
104
 10
379.30358899999999
 20
26.625
 30
0.0
 11
379.30358899999999
 21
26.303528
 31
0.0
  0
LINE
  8
0
  6
CONTINUOUS
 62
              80
  5
105
 10
378.83932499999997
 20
25.906067
 30
0.0
 11
378.83932499999997
 21
26.50647
 31
0.0
  0
LINE
  8
0
  6
CONTINUOUS
 62
              80
  5
106
 10
373.28930700000001
 20
25.906006000000001
 30
0.0
 11
373.28930700000001
 21
26.50647
 31
0.0
  0
LINE
  8
0
  6
CONTINUOUS
 62
              80
  5
107
 10
374.43215900000001
 20
26.053528
 30
0.0
 11
377.68215900000001
 21
26.053528
 31
0.0
  0
LINE
  8
0
  6
CONTINUOUS
 62
              80
  5
108
 10
374.43215900000001
 20
26.053528
 30
0.0
 11
374.43215900000001
 21
25.732116999999999
 31
0.0
  0
LINE
  8
0
  6
CONTINUOUS
 62
              80
  5
109
 10
374.43215900000001
 20
25.732116999999999
 30
0.0
 11
377.68215900000001
 21
25.732116999999999
 31
0.0
  0
LINE
  8
0
  6
CONTINUOUS
 62
              80
  5
10A
 10
377.68215900000001
 20
26.053528
 30
0.0
 11
377.68215900000001
 21
25.732116999999999
 31
0.0
  0
LINE
  8
0
  6
CONTINUOUS
 62
              80
  5
10B
 10
373.28930700000001
 20
25.267821999999999
 30
0.0
 11
378.83932499999997
 21
25.267821999999999
 31
0.0
  0
LINE
  8
0
  6
CONTINUOUS
 62
              80
  5
10C
 10
373.28930700000001
 20
25.267821999999999
 30
0.0
 11
373.28930700000001
 21
24.875
 31
0.0
  0
LINE
  8
0
  6
CONTINUOUS
 62
              80
  5
10D
 10
373.28930700000001
 20
24.875
 30
0.0
 11
374.34576399999997
 21
24.875
 31
0.0
  0
LINE
  8
0
  6
CONTINUOUS
 62
              80
  5
10E
 10
373.37841800000001
 20
23.589233
 30
0.0
 11
378.749146
 21
23.589233
 31
0.0
  0
LINE
  8
0
  6
CONTINUOUS
 62
              80
  5
10F
 10
374.83444200000002
 20
23.910706000000001
 30
0.0
 11
377.29238900000001
 21
23.910706000000001
 31
0.0
  0
LINE
  8
0
  6
CONTINUOUS
 62
              80
  5
110
 10
375.35476699999998
 20
24.875
 30
0.0
 11
376.772064
 21
24.875
 31
0.0
  0
LINE
  8
0
  6
CONTINUOUS
 62
              80
  5
111
 10
377.77255200000002
 20
24.875
 30
0.0
 11
378.83932499999997
 21
24.875
 31
0.0
  0
LINE
  8
0
  6
CONTINUOUS
 62
              80
  5
112
 10
378.83932499999997
 20
24.875
 30
0.0
 11
378.83932499999997
 21
25.267821999999999
 31
0.0
  0
LINE
  8
0
  6
CONTINUOUS
 62
              80
  5
113
 10
379.30358899999999
 20
24.743347
 30
0.0
 11
379.30358899999999
 21
24.152588000000002
 31
0.0
  0
LINE
  8
0
  6
CONTINUOUS
 62
              80
  5
114
 10
380.38931300000002
 20
24.804687999999999
 30
0.0
 11
380.38931300000002
 21
23.589233
 31
0.0
  0
LINE
  8
0
  6
CONTINUOUS
 62
              80
  5
115
 10
380.38931300000002
 20
23.589233
 30
0.0
 11
381.28216600000002
 21
23.589233
 31
0.0
  0
LINE
  8
0
  6
CONTINUOUS
 62
              80
  5
116
 10
381.28216600000002
 20
23.589233
 30
0.0
 11
381.28216600000002
 21
26.303528
 31
0.0
  0
LINE
  8
0
  6
CONTINUOUS
 62
              80
  5
117
 10
381.28216600000002
 20
26.303528
 30
0.0
 11
381.99646000000001
 21
26.303528
 31
0.0
  0
LINE
  8
0
  6
CONTINUOUS
 62
              80
  5
118
 10
381.99646000000001
 20
26.303528
 30
0.0
 11
381.99646000000001
 21
26.625
 31
0.0
  0
LINE
  8
0
  6
CONTINUOUS
 62
              80
  5
119
 10
379.30358899999999
 20
26.625
 30
0.0
 11
381.99646000000001
 21
26.625
 31
0.0
  0
LINE
  8
0
  6
CONTINUOUS
 62
              80
  5
11A
 10
379.30358899999999
 20
26.303528
 30
0.0
 11
380.35159299999998
 21
26.303528
 31
0.0
  0
LINE
  8
0
  6
CONTINUOUS
 62
              80
  5
11B
 10
381.99646000000001
 20
27.089233
 30
0.0
 11
379.30358899999999
 21
27.089233
 31
0.0
  0
LINE
  8
0
  6
CONTINUOUS
 62
              80
  5
11C
 10
379.30358899999999
 20
27.410706000000001
 30
0.0
 11
379.30358899999999
 21
27.089233
 31
0.0
  0
LINE
  8
0
  6
CONTINUOUS
 62
              80
  5
11D
 10
379.30358899999999
 20
27.410706000000001
 30
0.0
 11
381.99646000000001
 21
27.410706000000001
 31
0.0
  0
LINE
  8
0
  6
CONTINUOUS
 62
              80
  5
11E
 10
381.99646000000001
 20
27.410706000000001
 30
0.0
 11
381.99646000000001
 21
27.089233
 31
0.0
  0
LINE
  8
0
  6
CONTINUOUS
 62
              80
  5
11F
 10
382.46072400000003
 20
26.303528
 30
0.0
 11
382.46072400000003
 21
26.625
 31
0.0
  0
LINE
  8
0
  6
CONTINUOUS
 62
              80
  5
120
 10
382.46072400000003
 20
26.625
 30
0.0
 11
383.24646000000001
 21
26.625
 31
0.0
  0
LINE
  8
0
  6
CONTINUOUS
 62
              80
  5
121
 10
383.24646000000001
 20
26.625
 30
0.0
 11
383.24646000000001
 21
27.410706000000001
 31
0.0
  0
LINE
  8
0
  6
CONTINUOUS
 62
              80
  5
122
 10
383.24646000000001
 20
27.410706000000001
 30
0.0
 11
384.06787100000003
 21
27.410706000000001
 31
0.0
  0
LINE
  8
0
  6
CONTINUOUS
 62
              80
  5
123
 10
384.06787100000003
 20
27.410706000000001
 30
0.0
 11
384.06787100000003
 21
26.625
 31
0.0
  0
LINE
  8
0
  6
CONTINUOUS
 62
              80
  5
124
 10
384.06787100000003
 20
26.625
 30
0.0
 11
384.99646000000001
 21
26.625
 31
0.0
  0
LINE
  8
0
  6
CONTINUOUS
 62
              80
  5
125
 10
384.99646000000001
 20
26.303528
 30
0.0
 11
384.99646000000001
 21
26.625
 31
0.0
  0
LINE
  8
0
  6
CONTINUOUS
 62
              80
  5
126
 10
384.99646000000001
 20
26.303528
 30
0.0
 11
384.06787100000003
 21
26.303528
 31
0.0
  0
LINE
  8
0
  6
CONTINUOUS
 62
              80
  5
127
 10
384.06787100000003
 20
26.303528
 30
0.0
 11
384.06787100000003
 21
23.910706000000001
 31
0.0
  0
LINE
  8
0
  6
CONTINUOUS
 62
              80
  5
128
 10
383.24646000000001
 20
26.303528
 30
0.0
 11
382.46072400000003
 21
26.303528
 31
0.0
  0
LINE
  8
0
  6
CONTINUOUS
 62
              80
  5
129
 10
383.24646000000001
 20
26.303528
 30
0.0
 11
383.24646000000001
 21
23.910706000000001
 31
0.0
  0
LINE
  8
0
  6
CONTINUOUS
 62
              80
  5
12A
 10
382.24646000000001
 20
23.910706000000001
 30
0.0
 11
383.24646000000001
 21
23.910706000000001
 31
0.0
  0
LINE
  8
0
  6
CONTINUOUS
 62
              80
  5
12B
 10
382.24646000000001
 20
23.589233
 30
0.0
 11
382.24646000000001
 21
23.910706000000001
 31
0.0
  0
LINE
  8
0
  6
CONTINUOUS
 62
              80
  5
12C
 10
384.99646000000001
 20
23.589233
 30
0.0
 11
382.24646000000001
 21
23.589233
 31
0.0
  0
LINE
  8
0
  6
CONTINUOUS
 62
              80
  5
12D
 10
384.99646000000001
 20
23.910706000000001
 30
0.0
 11
384.99646000000001
 21
23.589233
 31
0.0
  0
LINE
  8
0
  6
CONTINUOUS
 62
              80
  5
12E
 10
384.06787100000003
 20
23.910706000000001
 30
0.0
 11
384.99646000000001
 21
23.910706000000001
 31
0.0
  0
LINE
  8
0
  6
CONTINUOUS
 62
              80
  5
12F
 10
344.31072999999998
 20
24.339233
 30
0.0
 11
344.31072999999998
 21
24.285706000000001
 31
0.0
  0
LINE
  8
0
  6
CONTINUOUS
 62
              80
  5
130
 10
355.62525499999998
 20
27.339227000000001
 30
0.0
 11
356.17042099999998
 21
26.785634999999999
 31
0.0
  0
LINE
  8
0
  6
CONTINUOUS
 62
              80
  5
131
 10
359.96045800000002
 20
27.339237000000001
 30
0.0
 11
359.41528099999999
 21
26.785634000000002
 31
0.0
  0
LINE
  8
0
  6
CONTINUOUS
 62
              80
  5
132
 10
337.58724999999998
 20
26.446472
 30
0.0
 11
337.855774
 21
26.446472
 31
0.0
  0
LINE
  8
0
  6
CONTINUOUS
 62
              80
  5
133
 10
337.58724999999998
 20
26.482116999999999
 30
0.0
 11
337.76675399999999
 21
26.482116999999999
 31
0.0
  0
LINE
  8
0
  6
CONTINUOUS
 62
              80
  5
134
 10
337.58724999999998
 20
26.017821999999999
 30
0.0
 11
337.855774
 21
26.017821999999999
 31
0.0
  0
LINE
  8
0
  6
CONTINUOUS
 62
              80
  5
135
 10
337.58724999999998
 20
26.053405999999999
 30
0.0
 11
337.76675399999999
 21
26.053405999999999
 31
0.0
  0
LINE
  8
0
  6
CONTINUOUS
 62
              80
  5
136
 10
340.301422
 20
26.446472
 30
0.0
 11
340.56994600000002
 21
26.446472
 31
0.0
  0
LINE
  8
0
  6
CONTINUOUS
 62
              80
  5
137
 10
340.301422
 20
26.482116999999999
 30
0.0
 11
340.48092700000001
 21
26.482116999999999
 31
0.0
  0
LINE
  8
0
  6
CONTINUOUS
 62
              80
  5
138
 10
336.489349
 20
27.357116999999999
 30
0.0
 11
341.66787699999998
 21
27.357116999999999
 31
0.0
  0
LINE
  8
0
  6
CONTINUOUS
 62
              80
  5
139
 10
336.203644
 20
26.857116999999999
 30
0.0
 11
341.95370500000001
 21
26.857116999999999
 31
0.0
  0
LINE
  8
0
  6
CONTINUOUS
 62
              80
  5
13A
 10
336.56072999999998
 20
25.564330999999999
 30
0.0
 11
341.59652699999998
 21
25.564330999999999
 31
0.0
  0
LINE
  8
0
  6
CONTINUOUS
 62
              80
  5
13B
 10
336.56072999999998
 20
24.964233
 30
0.0
 11
341.59652699999998
 21
24.964233
 31
0.0
  0
LINE
  8
0
  6
CONTINUOUS
 62
              80
  5
13C
 10
336.56072999999998
 20
24.364258
 30
0.0
 11
338.48931900000002
 21
24.364258
 31
0.0
  0
LINE
  8
0
  6
CONTINUOUS
 62
              80
  5
13D
 10
339.66787699999998
 20
24.364258
 30
0.0
 11
341.59652699999998
 21
24.364258
 31
0.0
  0
LINE
  8
0
  6
CONTINUOUS
 62
              80
  5
13E
 10
338.689301
 20
23.642821999999999
 30
0.0
 11
341.46792599999998
 21
23.642821999999999
 31
0.0
  0
LINE
  8
0
  6
CONTINUOUS
 62
              80
  5
13F
 10
354.91787699999998
 20
26.785644999999999
 30
0.0
 11
360.59646600000002
 21
26.785644999999999
 31
0.0
  0
LINE
  8
0
  6
CONTINUOUS
 62
              80
  5
140
 10
354.91787699999998
 20
26.071411000000001
 30
0.0
 11
360.59646600000002
 21
26.071411000000001
 31
0.0
  0
LINE
  8
0
  6
CONTINUOUS
 62
              80
  5
141
 10
360.59646600000002
 20
25.571411000000001
 30
0.0
 11
354.91787699999998
 21
25.571411000000001
 31
0.0
  0
LINE
  8
0
  6
CONTINUOUS
 62
              80
  5
142
 10
360.59646600000002
 20
25.071411000000001
 30
0.0
 11
354.91787699999998
 21
25.071411000000001
 31
0.0
  0
LINE
  8
0
  6
CONTINUOUS
 62
              80
  5
143
 10
356.15840600000001
 20
27.339238999999999
 30
0.0
 11
356.70357200000001
 21
26.785647000000001
 31
0.0
  0
LINE
  8
0
  6
CONTINUOUS
 62
              80
  5
144
 10
359.42732799999999
 20
27.339227000000001
 30
0.0
 11
358.88215200000002
 21
26.785623999999999
 31
0.0
  0
LINE
  8
0
  6
CONTINUOUS
 62
              80
  5
145
 10
364.63217200000003
 20
25.981383999999998
 30
0.0
 11
364.63217200000003
 21
26.447144000000002
 31
0.0
  0
LINE
  8
0
  6
CONTINUOUS
 62
              80
  5
146
 10
366.66787699999998
 20
25.981383999999998
 30
0.0
 11
365.31076000000002
 21
25.981383999999998
 31
0.0
  0
LINE
  8
0
  6
CONTINUOUS
 62
              80
  5
147
 10
366.66787699999998
 20
25.661438
 30
0.0
 11
365.31076000000002
 21
25.661438
 31
0.0
  0
LINE
  8
0
  6
CONTINUOUS
 62
              80
  5
148
 10
363.48931900000002
 20
26.447144000000002
 30
0.0
 11
364.63217200000003
 21
26.447144000000002
 31
0.0
  0
LINE
  8
0
  6
CONTINUOUS
 62
              80
  5
149
 10
361.06072999999998
 20
26.447144000000002
 30
0.0
 11
361.68652300000002
 21
26.447144000000002
 31
0.0
  0
LINE
  8
0
  6
CONTINUOUS
 62
              80
  5
14A
 10
361.06072999999998
 20
26.76709
 30
0.0
 11
361.70358299999998
 21
26.76709
 31
0.0
  0
LINE
  8
0
  6
CONTINUOUS
 62
              80
  5
14B
 10
363.48931900000002
 20
25.981383999999998
 30
0.0
 11
363.48931900000002
 21
25.661438
 31
0.0
  0
LINE
  8
0
  6
CONTINUOUS
 62
              80
  5
14C
 10
366.66787699999998
 20
25.981383999999998
 30
0.0
 11
366.66787699999998
 21
25.661438
 31
0.0
  0
LINE
  8
0
  6
CONTINUOUS
 62
              80
  5
14D
 10
364.23931900000002
 20
26.76709
 30
0.0
 11
364.63217200000003
 21
26.76709
 31
0.0
  0
LINE
  8
0
  6
CONTINUOUS
 62
              80
  5
14E
 10
366.66787699999998
 20
26.76709
 30
0.0
 11
366.66787699999998
 21
26.447144000000002
 31
0.0
  0
LINE
  8
0
  6
CONTINUOUS
 62
              80
  5
14F
 10
361.06072999999998
 20
26.76709
 30
0.0
 11
361.06072999999998
 21
26.447144000000002
 31
0.0
  0
LINE
  8
0
  6
CONTINUOUS
 62
              80
  5
150
 10
363.09646600000002
 20
26.76709
 30
0.0
 11
363.09646600000002
 21
26.447144000000002
 31
0.0
  0
LINE
  8
0
  6
CONTINUOUS
 62
              80
  5
151
 10
362.45358299999998
 20
26.447144000000002
 30
0.0
 11
363.09646600000002
 21
26.447144000000002
 31
0.0
  0
LINE
  8
0
  6
CONTINUOUS
 62
              80
  5
152
 10
362.45358299999998
 20
26.76709
 30
0.0
 11
363.09646600000002
 21
26.76709
 31
0.0
  0
LINE
  8
0
  6
CONTINUOUS
 62
              80
  5
153
 10
364.09258999999997
 20
25.661438
 30
0.0
 11
363.48931900000002
 21
25.661438
 31
0.0
  0
LINE
  8
0
  6
CONTINUOUS
 62
              80
  5
154
 10
365.31076000000002
 20
26.447144000000002
 30
0.0
 11
366.66787699999998
 21
26.447144000000002
 31
0.0
  0
LINE
  8
0
  6
CONTINUOUS
 62
              80
  5
155
 10
364.63217200000003
 20
25.981383999999998
 30
0.0
 11
363.48931900000002
 21
25.981383999999998
 31
0.0
  0
LINE
  8
0
  6
CONTINUOUS
 62
              80
  5
156
 10
365.31076000000002
 20
26.76709
 30
0.0
 11
366.66787699999998
 21
26.76709
 31
0.0
  0
LINE
  8
0
  6
CONTINUOUS
 62
              80
  5
157
 10
364.63217200000003
 20
26.76709
 30
0.0
 11
364.63217200000003
 21
27.410706000000001
 31
0.0
  0
LINE
  8
0
  6
CONTINUOUS
 62
              80
  5
158
 10
365.31076000000002
 20
26.447144000000002
 30
0.0
 11
365.31076000000002
 21
25.981383999999998
 31
0.0
  0
LINE
  8
0
  6
CONTINUOUS
 62
              80
  5
159
 10
365.31076000000002
 20
25.661438
 30
0.0
 11
365.31076000000002
 21
23.589233
 31
0.0
  0
LINE
  8
0
  6
CONTINUOUS
 62
               3
  5
15A
 10
233.0
 20
53.0
 30
0.0
 11
397.0
 21
53.0
 31
0.0
  0
LINE
  8
0
  6
CONTINUOUS
 62
               3
  5
15B
 10
233.0
 20
27.0
 30
0.0
 11
271.0
 21
27.0
 31
0.0
  0
LINE
  8
0
  6
CONTINUOUS
 62
              80
  5
15C
 10
233.0
 20
33.5
 30
0.0
 11
271.0
 21
33.5
 31
0.0
  0
LINE
  8
0
  6
CONTINUOUS
 62
              80
  5
15D
 10
233.0
 20
23.0
 30
0.0
 11
271.0
 21
23.0
 31
0.0
  0
CIRCLE
  8
0
  6
CONTINUOUS
 62
               3
  5
15E
 10
274.0
 20
272.99998499999998
 30
0.0
 40
0.2
  0
CIRCLE
  8
0
  6
CONTINUOUS
 62
               3
  5
15F
 10
279.0
 20
272.99998499999998
 30
0.0
 40
0.2
  0
CIRCLE
  8
0
  6
CONTINUOUS
 62
               3
  5
160
 10
274.0
 20
267.99998499999998
 30
0.0
 40
0.2
  0
CIRCLE
  8
0
  6
CONTINUOUS
 62
               3
  5
161
 10
279.0
 20
267.99998499999998
 30
0.0
 40
0.2
  0
CIRCLE
  8
0
  6
CONTINUOUS
 62
               3
  5
162
 10
274.0
 20
257.99998900000003
 30
0.0
 40
0.2
  0
CIRCLE
  8
0
  6
CONTINUOUS
 62
               3
  5
163
 10
279.0
 20
257.99998900000003
 30
0.0
 40
0.2
  0
ARC
  8
0
  6
CONTINUOUS
 62
              80
  5
164
 10
324.75717200000003
 20
26.0
 30
0.0
 40
0.767857
 50
269.99999700000001
 51
0.0
  0
ARC
  8
0
  6
CONTINUOUS
 62
              80
  5
165
 10
323.68572999999998
 20
26.214233
 30
0.0
 40
0.446429
 50
269.99999700000001
 51
0.0
  0
ARC
  8
0
  6
CONTINUOUS
 62
              80
  5
166
 10
320.97146600000002
 20
24.428528
 30
0.0
 40
0.375
 50
269.99999700000001
 51
0.0
  0
ARC
  8
0
  6
CONTINUOUS
 62
              80
  5
167
 10
322.25717200000003
 20
24.142821999999999
 30
0.0
 40
0.553571
 50
269.99999700000001
 51
0.0
  0
ARC
  8
0
  6
CONTINUOUS
 62
              80
  5
168
 10
345.75717200000003
 20
23.785706000000001
 30
0.0
 40
0.196429
 50
269.99999700000001
 51
0.0
  0
ARC
  8
0
  6
CONTINUOUS
 62
              80
  5
169
 10
343.68572999999998
 20
23.785706000000001
 30
0.0
 40
0.196429
 50
179.99999099999999
 51
270.000001
  0
ARC
  8
0
  6
CONTINUOUS
 62
              80
  5
16A
 10
344.54287699999998
 20
24.285706000000001
 30
0.0
 40
0.232143
 50
179.99999099999999
 51
270.000001
  0
CIRCLE
  8
0
  6
CONTINUOUS
 62
              80
  5
16B
 10
360.18572999999998
 20
24.142821999999999
 30
0.0
 40
0.375
  0
CIRCLE
  8
0
  6
CONTINUOUS
 62
              80
  5
16C
 10
366.25717200000003
 20
24.357116999999999
 30
0.0
 40
0.375
  0
CIRCLE
  8
0
  6
CONTINUOUS
 62
              80
  5
16D
 10
371.985748
 20
27.142821999999999
 30
0.0
 40
0.375
  0
CIRCLE
  8
0
  6
CONTINUOUS
 62
              80
  5
16E
 10
382.15716600000002
 20
24.785706000000001
 30
0.0
 40
0.375
  0
ARC
  8
0
  6
CONTINUOUS
 62
              80
  5
16F
 10
339.89788800000002
 20
23.872803000000001
 30
0.0
 40
0.23
 50
179.99999500000001
 51
269.99999700000001
  0
ARC
  8
0
  6
CONTINUOUS
 62
              80
  5
170
 10
338.689301
 20
23.842773000000001
 30
0.0
 40
0.2
 50
179.99999500000001
 51
269.99999700000001
  0
ARC
  8
0
  6
CONTINUOUS
 62
              80
  5
171
 10
341.46792599999998
 20
23.842773000000001
 30
0.0
 40
0.2
 50
269.99999700000001
 51
0.0
  0
POLYLINE
  8
0
  6
CONTINUOUS
 62
              80
  5
172
 66
               1
 10
0.0
 20
0.0
 30
0.0
  0
VERTEX
  8
0
  6
CONTINUOUS
 62
              80
  5
48A
 10
346.53179899999998
 20
26.946411000000001
 30
0.0
  0
VERTEX
  8
0
  6
CONTINUOUS
 62
              80
  5
48B
 10
346.52337899999998
 20
26.935423
 30
0.0
  0
VERTEX
  8
0
  6
CONTINUOUS
 62
              80
  5
48C
 10
346.51482399999998
 20
26.924522
 30
0.0
  0
VERTEX
  8
0
  6
CONTINUOUS
 62
              80
  5
48D
 10
346.50613499999997
 20
26.913713999999999
 30
0.0
  0
VERTEX
  8
0
  6
CONTINUOUS
 62
              80
  5
48E
 10
346.49731000000003
 20
26.903006999999999
 30
0.0
  0
VERTEX
  8
0
  6
CONTINUOUS
 62
              80
  5
48F
 10
346.48835000000003
 20
26.892406000000001
 30
0.0
  0
VERTEX
  8
0
  6
CONTINUOUS
 62
              80
  5
490
 10
346.47925300000003
 20
26.881917999999999
 30
0.0
  0
VERTEX
  8
0
  6
CONTINUOUS
 62
              80
  5
491
 10
346.47002099999997
 20
26.871549000000002
 30
0.0
  0
VERTEX
  8
0
  6
CONTINUOUS
 62
              80
  5
492
 10
346.46065099999998
 20
26.861305000000002
 30
0.0
  0
VERTEX
  8
0
  6
CONTINUOUS
 62
              80
  5
493
 10
346.451143
 20
26.851192000000001
 30
0.0
  0
VERTEX
  8
0
  6
CONTINUOUS
 62
              80
  5
494
 10
346.44149800000002
 20
26.841215999999999
 30
0.0
  0
VERTEX
  8
0
  6
CONTINUOUS
 62
              80
  5
495
 10
346.431715
 20
26.831385000000001
 30
0.0
  0
VERTEX
  8
0
  6
CONTINUOUS
 62
              80
  5
496
 10
346.42179299999998
 20
26.821704
 30
0.0
  0
VERTEX
  8
0
  6
CONTINUOUS
 62
              80
  5
497
 10
346.41173099999997
 20
26.812179
 30
0.0
  0
VERTEX
  8
0
  6
CONTINUOUS
 62
              80
  5
498
 10
346.40152999999998
 20
26.802817999999998
 30
0.0
  0
VERTEX
  8
0
  6
CONTINUOUS
 62
              80
  5
499
 10
346.391189
 20
26.793624999999999
 30
0.0
  0
VERTEX
  8
0
  6
CONTINUOUS
 62
              80
  5
49A
 10
346.38070699999997
 20
26.784607000000001
 30
0.0
  0
VERTEX
  8
0
  6
CONTINUOUS
 62
              80
  5
49B
 10
346.36802899999998
 20
26.774090999999999
 30
0.0
  0
VERTEX
  8
0
  6
CONTINUOUS
 62
              80
  5
49C
 10
346.35516200000001
 20
26.763819999999999
 30
0.0
  0
VERTEX
  8
0
  6
CONTINUOUS
 62
              80
  5
49D
 10
346.34211499999998
 20
26.753779999999999
 30
0.0
  0
VERTEX
  8
0
  6
CONTINUOUS
 62
              80
  5
49E
 10
346.32890099999997
 20
26.743959
 30
0.0
  0
VERTEX
  8
0
  6
CONTINUOUS
 62
              80
  5
49F
 10
346.31552900000003
 20
26.734342000000002
 30
0.0
  0
VERTEX
  8
0
  6
CONTINUOUS
 62
              80
  5
4A0
 10
346.30201
 20
26.724917000000001
 30
0.0
  0
VERTEX
  8
0
  6
CONTINUOUS
 62
              80
  5
4A1
 10
346.28835500000002
 20
26.715669999999999
 30
0.0
  0
VERTEX
  8
0
  6
CONTINUOUS
 62
              80
  5
4A2
 10
346.27457500000003
 20
26.706586999999999
 30
0.0
  0
VERTEX
  8
0
  6
CONTINUOUS
 62
              80
  5
4A3
 10
346.26067999999998
 20
26.697655999999998
 30
0.0
  0
VERTEX
  8
0
  6
CONTINUOUS
 62
              80
  5
4A4
 10
346.24668100000002
 20
26.688862
 30
0.0
  0
VERTEX
  8
0
  6
CONTINUOUS
 62
              80
  5
4A5
 10
346.23258900000002
 20
26.680192999999999
 30
0.0
  0
VERTEX
  8
0
  6
CONTINUOUS
 62
              80
  5
4A6
 10
346.218414
 20
26.671634999999998
 30
0.0
  0
VERTEX
  8
0
  6
CONTINUOUS
 62
              80
  5
4A7
 10
346.20416699999998
 20
26.663174000000001
 30
0.0
  0
VERTEX
  8
0
  6
CONTINUOUS
 62
              80
  5
4A8
 10
346.18985900000001
 20
26.654798
 30
0.0
  0
VERTEX
  8
0
  6
CONTINUOUS
 62
              80
  5
4A9
 10
346.175501
 20
26.646493
 30
0.0
  0
VERTEX
  8
0
  6
CONTINUOUS
 62
              80
  5
4AA
 10
346.16110200000003
 20
26.638245000000001
 30
0.0
  0
VERTEX
  8
0
  6
CONTINUOUS
 62
              80
  5
4AB
 10
346.08392500000002
 20
26.595092000000001
 30
0.0
  0
VERTEX
  8
0
  6
CONTINUOUS
 62
              80
  5
4AC
 10
346.00594000000001
 20
26.553263000000001
 30
0.0
  0
VERTEX
  8
0
  6
CONTINUOUS
 62
              80
  5
4AD
 10
345.92717800000003
 20
26.512815
 30
0.0
  0
VERTEX
  8
0
  6
CONTINUOUS
 62
              80
  5
4AE
 10
345.847667
 20
26.473807000000001
 30
0.0
  0
VERTEX
  8
0
  6
CONTINUOUS
 62
              80
  5
4AF
 10
345.76743800000003
 20
26.436298000000001
 30
0.0
  0
VERTEX
  8
0
  6
CONTINUOUS
 62
              80
  5
4B0
 10
345.68651999999997
 20
26.400344
 30
0.0
  0
VERTEX
  8
0
  6
CONTINUOUS
 62
              80
  5
4B1
 10
345.60494199999999
 20
26.366005000000001
 30
0.0
  0
VERTEX
  8
0
  6
CONTINUOUS
 62
              80
  5
4B2
 10
345.52273300000002
 20
26.333337
 30
0.0
  0
VERTEX
  8
0
  6
CONTINUOUS
 62
              80
  5
4B3
 10
345.43992400000002
 20
26.302401
 30
0.0
  0
VERTEX
  8
0
  6
CONTINUOUS
 62
              80
  5
4B4
 10
345.35654199999999
 20
26.273253
 30
0.0
  0
VERTEX
  8
0
  6
CONTINUOUS
 62
              80
  5
4B5
 10
345.27261900000002
 20
26.245951000000002
 30
0.0
  0
VERTEX
  8
0
  6
CONTINUOUS
 62
              80
  5
4B6
 10
345.18818299999998
 20
26.220555000000001
 30
0.0
  0
VERTEX
  8
0
  6
CONTINUOUS
 62
              80
  5
4B7
 10
345.10326400000002
 20
26.197120999999999
 30
0.0
  0
VERTEX
  8
0
  6
CONTINUOUS
 62
              80
  5
4B8
 10
345.01789100000002
 20
26.175709000000001
 30
0.0
  0
VERTEX
  8
0
  6
CONTINUOUS
 62
              80
  5
4B9
 10
344.93209300000001
 20
26.156375000000001
 30
0.0
  0
VERTEX
  8
0
  6
CONTINUOUS
 62
              80
  5
4BA
 10
344.84590100000003
 20
26.139178999999999
 30
0.0
  0
SEQEND
  8
0
  6
CONTINUOUS
 62
              80
  5
4BB
  0
POLYLINE
  8
0
  6
CONTINUOUS
 62
              80
  5
173
 66
               1
 10
0.0
 20
0.0
 30
0.0
  0
VERTEX
  8
0
  6
CONTINUOUS
 62
              80
  5
4BC
 10
348.16696200000001
 20
26.908446999999999
 30
0.0
  0
VERTEX
  8
0
  6
CONTINUOUS
 62
              80
  5
4BD
 10
348.09205700000001
 20
26.866399999999999
 30
0.0
  0
VERTEX
  8
0
  6
CONTINUOUS
 62
              80
  5
4BE
 10
348.016817
 20
26.824998999999998
 30
0.0
  0
VERTEX
  8
0
  6
CONTINUOUS
 62
              80
  5
4BF
 10
347.94125500000001
 20
26.784212
 30
0.0
  0
VERTEX
  8
0
  6
CONTINUOUS
 62
              80
  5
4C0
 10
347.865385
 20
26.744009999999999
 30
0.0
  0
VERTEX
  8
0
  6
CONTINUOUS
 62
              80
  5
4C1
 10
347.78922299999999
 20
26.704363000000001
 30
0.0
  0
VERTEX
  8
0
  6
CONTINUOUS
 62
              80
  5
4C2
 10
347.71278100000001
 20
26.665241000000002
 30
0.0
  0
VERTEX
  8
0
  6
CONTINUOUS
 62
              80
  5
4C3
 10
347.63607400000001
 20
26.626612999999999
 30
0.0
  0
VERTEX
  8
0
  6
CONTINUOUS
 62
              80
  5
4C4
 10
347.55911700000001
 20
26.588450000000002
 30
0.0
  0
VERTEX
  8
0
  6
CONTINUOUS
 62
              80
  5
4C5
 10
347.48192299999999
 20
26.550720999999999
 30
0.0
  0
VERTEX
  8
0
  6
CONTINUOUS
 62
              80
  5
4C6
 10
347.40450600000003
 20
26.513397000000001
 30
0.0
  0
VERTEX
  8
0
  6
CONTINUOUS
 62
              80
  5
4C7
 10
347.32688200000001
 20
26.476448000000001
 30
0.0
  0
VERTEX
  8
0
  6
CONTINUOUS
 62
              80
  5
4C8
 10
347.24906199999998
 20
26.439843
 30
0.0
  0
VERTEX
  8
0
  6
CONTINUOUS
 62
              80
  5
4C9
 10
347.171063
 20
26.403552000000001
 30
0.0
  0
VERTEX
  8
0
  6
CONTINUOUS
 62
              80
  5
4CA
 10
347.09289799999999
 20
26.367545
 30
0.0
  0
VERTEX
  8
0
  6
CONTINUOUS
 62
              80
  5
4CB
 10
347.01458100000002
 20
26.331793000000001
 30
0.0
  0
VERTEX
  8
0
  6
CONTINUOUS
 62
              80
  5
4CC
 10
346.936127
 20
26.296264999999998
 30
0.0
  0
VERTEX
  8
0
  6
CONTINUOUS
 62
              80
  5
4CD
 10
346.87966799999998
 20
26.270866999999999
 30
0.0
  0
VERTEX
  8
0
  6
CONTINUOUS
 62
              80
  5
4CE
 10
346.823127
 20
26.245628
 30
0.0
  0
VERTEX
  8
0
  6
CONTINUOUS
 62
              80
  5
4CF
 10
346.76648999999998
 20
26.220604999999999
 30
0.0
  0
VERTEX
  8
0
  6
CONTINUOUS
 62
              80
  5
4D0
 10
346.70973900000001
 20
26.195858000000001
 30
0.0
  0
VERTEX
  8
0
  6
CONTINUOUS
 62
              80
  5
4D1
 10
346.65285899999998
 20
26.171444999999999
 30
0.0
  0
VERTEX
  8
0
  6
CONTINUOUS
 62
              80
  5
4D2
 10
346.59583500000002
 20
26.147424000000001
 30
0.0
  0
VERTEX
  8
0
  6
CONTINUOUS
 62
              80
  5
4D3
 10
346.53864900000002
 20
26.123854000000001
 30
0.0
  0
VERTEX
  8
0
  6
CONTINUOUS
 62
              80
  5
4D4
 10
346.48128800000001
 20
26.100792999999999
 30
0.0
  0
VERTEX
  8
0
  6
CONTINUOUS
 62
              80
  5
4D5
 10
346.42373300000003
 20
26.078299999999999
 30
0.0
  0
VERTEX
  8
0
  6
CONTINUOUS
 62
              80
  5
4D6
 10
346.36597
 20
26.056432000000001
 30
0.0
  0
VERTEX
  8
0
  6
CONTINUOUS
 62
              80
  5
4D7
 10
346.30798299999998
 20
26.035249
 30
0.0
  0
VERTEX
  8
0
  6
CONTINUOUS
 62
              80
  5
4D8
 10
346.24975599999999
 20
26.014810000000001
 30
0.0
  0
VERTEX
  8
0
  6
CONTINUOUS
 62
              80
  5
4D9
 10
346.19127300000002
 20
25.995172
 30
0.0
  0
VERTEX
  8
0
  6
CONTINUOUS
 62
              80
  5
4DA
 10
346.132518
 20
25.976393000000002
 30
0.0
  0
VERTEX
  8
0
  6
CONTINUOUS
 62
              80
  5
4DB
 10
346.07347600000003
 20
25.958532999999999
 30
0.0
  0
VERTEX
  8
0
  6
CONTINUOUS
 62
              80
  5
4DC
 10
346.01413000000002
 20
25.941649999999999
 30
0.0
  0
VERTEX
  8
0
  6
CONTINUOUS
 62
              80
  5
4DD
 10
346.01035400000001
 20
25.940612999999999
 30
0.0
  0
VERTEX
  8
0
  6
CONTINUOUS
 62
              80
  5
4DE
 10
346.00657699999999
 20
25.939579999999999
 30
0.0
  0
VERTEX
  8
0
  6
CONTINUOUS
 62
              80
  5
4DF
 10
346.00279799999998
 20
25.938551
 30
0.0
  0
VERTEX
  8
0
  6
CONTINUOUS
 62
              80
  5
4E0
 10
345.99901799999998
 20
25.937525000000001
 30
0.0
  0
VERTEX
  8
0
  6
CONTINUOUS
 62
              80
  5
4E1
 10
345.99523599999998
 20
25.936502999999998
 30
0.0
  0
VERTEX
  8
0
  6
CONTINUOUS
 62
              80
  5
4E2
 10
345.99145399999998
 20
25.935485
 30
0.0
  0
VERTEX
  8
0
  6
CONTINUOUS
 62
              80
  5
4E3
 10
345.98766999999998
 20
25.934470000000001
 30
0.0
  0
VERTEX
  8
0
  6
CONTINUOUS
 62
              80
  5
4E4
 10
345.98388599999998
 20
25.933458000000002
 30
0.0
  0
VERTEX
  8
0
  6
CONTINUOUS
 62
              80
  5
4E5
 10
345.98009999999999
 20
25.932449999999999
 30
0.0
  0
VERTEX
  8
0
  6
CONTINUOUS
 62
              80
  5
4E6
 10
345.976314
 20
25.931443999999999
 30
0.0
  0
VERTEX
  8
0
  6
CONTINUOUS
 62
              80
  5
4E7
 10
345.97252600000002
 20
25.930441999999999
 30
0.0
  0
VERTEX
  8
0
  6
CONTINUOUS
 62
              80
  5
4E8
 10
345.96873900000003
 20
25.929442999999999
 30
0.0
  0
VERTEX
  8
0
  6
CONTINUOUS
 62
              80
  5
4E9
 10
345.96494999999999
 20
25.928446999999998
 30
0.0
  0
VERTEX
  8
0
  6
CONTINUOUS
 62
              80
  5
4EA
 10
345.961161
 20
25.927454000000001
 30
0.0
  0
VERTEX
  8
0
  6
CONTINUOUS
 62
              80
  5
4EB
 10
345.95737200000002
 20
25.926463999999999
 30
0.0
  0
VERTEX
  8
0
  6
CONTINUOUS
 62
              80
  5
4EC
 10
345.95358299999998
 20
25.925476
 30
0.0
  0
SEQEND
  8
0
  6
CONTINUOUS
 62
              80
  5
4ED
  0
POLYLINE
  8
0
  6
CONTINUOUS
 62
              80
  5
174
 66
               1
 10
0.0
 20
0.0
 30
0.0
  0
VERTEX
  8
0
  6
CONTINUOUS
 62
              80
  5
4EE
 10
357.27502399999997
 20
24.562988000000001
 30
0.0
  0
VERTEX
  8
0
  6
CONTINUOUS
 62
              80
  5
4EF
 10
357.26625899999999
 20
24.554252999999999
 30
0.0
  0
VERTEX
  8
0
  6
CONTINUOUS
 62
              80
  5
4F0
 10
357.25746199999998
 20
24.545546999999999
 30
0.0
  0
VERTEX
  8
0
  6
CONTINUOUS
 62
              80
  5
4F1
 10
357.24863199999999
 20
24.536873
 30
0.0
  0
VERTEX
  8
0
  6
CONTINUOUS
 62
              80
  5
4F2
 10
357.23977000000002
 20
24.528231999999999
 30
0.0
  0
VERTEX
  8
0
  6
CONTINUOUS
 62
              80
  5
4F3
 10
357.23087399999997
 20
24.519622999999999
 30
0.0
  0
VERTEX
  8
0
  6
CONTINUOUS
 62
              80
  5
4F4
 10
357.22194500000001
 20
24.511050000000001
 30
0.0
  0
VERTEX
  8
0
  6
CONTINUOUS
 62
              80
  5
4F5
 10
357.21298100000001
 20
24.502510999999998
 30
0.0
  0
VERTEX
  8
0
  6
CONTINUOUS
 62
              80
  5
4F6
 10
357.20398299999999
 20
24.494008999999998
 30
0.0
  0
VERTEX
  8
0
  6
CONTINUOUS
 62
              80
  5
4F7
 10
357.194951
 20
24.485544999999998
 30
0.0
  0
VERTEX
  8
0
  6
CONTINUOUS
 62
              80
  5
4F8
 10
357.18588199999999
 20
24.477118999999998
 30
0.0
  0
VERTEX
  8
0
  6
CONTINUOUS
 62
              80
  5
4F9
 10
357.17677800000001
 20
24.468731999999999
 30
0.0
  0
VERTEX
  8
0
  6
CONTINUOUS
 62
              80
  5
4FA
 10
357.16763800000001
 20
24.460387000000001
 30
0.0
  0
VERTEX
  8
0
  6
CONTINUOUS
 62
              80
  5
4FB
 10
357.15846099999999
 20
24.452082000000001
 30
0.0
  0
VERTEX
  8
0
  6
CONTINUOUS
 62
              80
  5
4FC
 10
357.149248
 20
24.443821
 30
0.0
  0
VERTEX
  8
0
  6
CONTINUOUS
 62
              80
  5
4FD
 10
357.139996
 20
24.435603
 30
0.0
  0
VERTEX
  8
0
  6
CONTINUOUS
 62
              80
  5
4FE
 10
357.13070699999997
 20
24.427429
 30
0.0
  0
VERTEX
  8
0
  6
CONTINUOUS
 62
              80
  5
4FF
 10
357.07984499999998
 20
24.384039999999999
 30
0.0
  0
VERTEX
  8
0
  6
CONTINUOUS
 62
              80
  5
500
 10
357.02791100000002
 20
24.341949
 30
0.0
  0
VERTEX
  8
0
  6
CONTINUOUS
 62
              80
  5
501
 10
356.974962
 20
24.301114999999999
 30
0.0
  0
VERTEX
  8
0
  6
CONTINUOUS
 62
              80
  5
502
 10
356.92105199999997
 20
24.261499000000001
 30
0.0
  0
VERTEX
  8
0
  6
CONTINUOUS
 62
              80
  5
503
 10
356.86623700000001
 20
24.223061000000001
 30
0.0
  0
VERTEX
  8
0
  6
CONTINUOUS
 62
              80
  5
504
 10
356.81057199999998
 20
24.185760999999999
 30
0.0
  0
VERTEX
  8
0
  6
CONTINUOUS
 62
              80
  5
505
 10
356.75411200000002
 20
24.149560000000001
 30
0.0
  0
VERTEX
  8
0
  6
CONTINUOUS
 62
              80
  5
506
 10
356.69691399999999
 20
24.114415999999999
 30
0.0
  0
VERTEX
  8
0
  6
CONTINUOUS
 62
              80
  5
507
 10
356.63903099999999
 20
24.080290999999999
 30
0.0
  0
VERTEX
  8
0
  6
CONTINUOUS
 62
              80
  5
508
 10
356.58052099999998
 20
24.047143999999999
 30
0.0
  0
VERTEX
  8
0
  6
CONTINUOUS
 62
              80
  5
509
 10
356.52143699999999
 20
24.014935999999999
 30
0.0
  0
VERTEX
  8
0
  6
CONTINUOUS
 62
              80
  5
50A
 10
356.46183500000001
 20
23.983626000000001
 30
0.0
  0
VERTEX
  8
0
  6
CONTINUOUS
 62
              80
  5
50B
 10
356.40177199999999
 20
23.953175000000002
 30
0.0
  0
VERTEX
  8
0
  6
CONTINUOUS
 62
              80
  5
50C
 10
356.34130099999999
 20
23.923544
 30
0.0
  0
VERTEX
  8
0
  6
CONTINUOUS
 62
              80
  5
50D
 10
356.28047900000001
 20
23.894691000000002
 30
0.0
  0
VERTEX
  8
0
  6
CONTINUOUS
 62
              80
  5
50E
 10
356.21935999999999
 20
23.866576999999999
 30
0.0
  0
VERTEX
  8
0
  6
CONTINUOUS
 62
              80
  5
50F
 10
356.17285299999998
 20
23.845734
 30
0.0
  0
VERTEX
  8
0
  6
CONTINUOUS
 62
              80
  5
510
 10
356.12620600000002
 20
23.825303999999999
 30
0.0
  0
VERTEX
  8
0
  6
CONTINUOUS
 62
              80
  5
511
 10
356.07941599999998
 20
23.805295999999998
 30
0.0
  0
VERTEX
  8
0
  6
CONTINUOUS
 62
              80
  5
512
 10
356.03248100000002
 20
23.785722
 30
0.0
  0
VERTEX
  8
0
  6
CONTINUOUS
 62
              80
  5
513
 10
355.98539899999997
 20
23.766593
 30
0.0
  0
VERTEX
  8
0
  6
CONTINUOUS
 62
              80
  5
514
 10
355.93816700000002
 20
23.747917999999999
 30
0.0
  0
VERTEX
  8
0
  6
CONTINUOUS
 62
              80
  5
515
 10
355.890783
 20
23.729710000000001
 30
0.0
  0
VERTEX
  8
0
  6
CONTINUOUS
 62
              80
  5
516
 10
355.84324500000002
 20
23.711977999999998
 30
0.0
  0
VERTEX
  8
0
  6
CONTINUOUS
 62
              80
  5
517
 10
355.79554999999999
 20
23.694732999999999
 30
0.0
  0
VERTEX
  8
0
  6
CONTINUOUS
 62
              80
  5
518
 10
355.74769700000002
 20
23.677985
 30
0.0
  0
VERTEX
  8
0
  6
CONTINUOUS
 62
              80
  5
519
 10
355.699682
 20
23.661746999999998
 30
0.0
  0
VERTEX
  8
0
  6
CONTINUOUS
 62
              80
  5
51A
 10
355.65150299999999
 20
23.646027
 30
0.0
  0
VERTEX
  8
0
  6
CONTINUOUS
 62
              80
  5
51B
 10
355.60315900000001
 20
23.630838000000001
 30
0.0
  0
VERTEX
  8
0
  6
CONTINUOUS
 62
              80
  5
51C
 10
355.55464599999999
 20
23.616188999999999
 30
0.0
  0
VERTEX
  8
0
  6
CONTINUOUS
 62
              80
  5
51D
 10
355.50596300000001
 20
23.602091000000001
 30
0.0
  0
VERTEX
  8
0
  6
CONTINUOUS
 62
              80
  5
51E
 10
355.45710600000001
 20
23.588554999999999
 30
0.0
  0
SEQEND
  8
0
  6
CONTINUOUS
 62
              80
  5
51F
  0
POLYLINE
  8
0
  6
CONTINUOUS
 62
              80
  5
175
 66
               1
 10
0.0
 20
0.0
 30
0.0
  0
VERTEX
  8
0
  6
CONTINUOUS
 62
              80
  5
520
 10
361.70358299999998
 20
24.961608999999999
 30
0.0
  0
VERTEX
  8
0
  6
CONTINUOUS
 62
              80
  5
521
 10
361.69394499999999
 20
24.949807
 30
0.0
  0
VERTEX
  8
0
  6
CONTINUOUS
 62
              80
  5
522
 10
361.68429500000002
 20
24.938015
 30
0.0
  0
VERTEX
  8
0
  6
CONTINUOUS
 62
              80
  5
523
 10
361.67463299999997
 20
24.926234000000001
 30
0.0
  0
VERTEX
  8
0
  6
CONTINUOUS
 62
              80
  5
524
 10
361.66495900000001
 20
24.914463000000001
 30
0.0
  0
VERTEX
  8
0
  6
CONTINUOUS
 62
              80
  5
525
 10
361.65527300000002
 20
24.902702000000001
 30
0.0
  0
VERTEX
  8
0
  6
CONTINUOUS
 62
              80
  5
526
 10
361.64557600000001
 20
24.890951000000001
 30
0.0
  0
VERTEX
  8
0
  6
CONTINUOUS
 62
              80
  5
527
 10
361.63586600000002
 20
24.87921
 30
0.0
  0
VERTEX
  8
0
  6
CONTINUOUS
 62
              80
  5
528
 10
361.62614500000001
 20
24.867478999999999
 30
0.0
  0
VERTEX
  8
0
  6
CONTINUOUS
 62
              80
  5
529
 10
361.61641200000003
 20
24.855758000000002
 30
0.0
  0
VERTEX
  8
0
  6
CONTINUOUS
 62
              80
  5
52A
 10
361.60666600000002
 20
24.844047
 30
0.0
  0
VERTEX
  8
0
  6
CONTINUOUS
 62
              80
  5
52B
 10
361.59690899999998
 20
24.832346000000001
 30
0.0
  0
VERTEX
  8
0
  6
CONTINUOUS
 62
              80
  5
52C
 10
361.58713999999998
 20
24.820654000000001
 30
0.0
  0
VERTEX
  8
0
  6
CONTINUOUS
 62
              80
  5
52D
 10
361.577359
 20
24.808973000000002
 30
0.0
  0
VERTEX
  8
0
  6
CONTINUOUS
 62
              80
  5
52E
 10
361.567566
 20
24.797301000000001
 30
0.0
  0
VERTEX
  8
0
  6
CONTINUOUS
 62
              80
  5
52F
 10
361.55775999999997
 20
24.785639
 30
0.0
  0
VERTEX
  8
0
  6
CONTINUOUS
 62
              80
  5
530
 10
361.54794299999998
 20
24.773987000000002
 30
0.0
  0
VERTEX
  8
0
  6
CONTINUOUS
 62
              80
  5
531
 10
361.51836200000002
 20
24.739021000000001
 30
0.0
  0
VERTEX
  8
0
  6
CONTINUOUS
 62
              80
  5
532
 10
361.48867200000001
 20
24.704145
 30
0.0
  0
VERTEX
  8
0
  6
CONTINUOUS
 62
              80
  5
533
 10
361.45887499999998
 20
24.669359
 30
0.0
  0
VERTEX
  8
0
  6
CONTINUOUS
 62
              80
  5
534
 10
361.42897099999999
 20
24.634664000000001
 30
0.0
  0
VERTEX
  8
0
  6
CONTINUOUS
 62
              80
  5
535
 10
361.39895899999999
 20
24.600059999999999
 30
0.0
  0
VERTEX
  8
0
  6
CONTINUOUS
 62
              80
  5
536
 10
361.36884099999997
 20
24.565546999999999
 30
0.0
  0
VERTEX
  8
0
  6
CONTINUOUS
 62
              80
  5
537
 10
361.338617
 20
24.531127000000001
 30
0.0
  0
VERTEX
  8
0
  6
CONTINUOUS
 62
              80
  5
538
 10
361.30828700000001
 20
24.496798999999999
 30
0.0
  0
VERTEX
  8
0
  6
CONTINUOUS
 62
              80
  5
539
 10
361.277852
 20
24.462564
 30
0.0
  0
VERTEX
  8
0
  6
CONTINUOUS
 62
              80
  5
53A
 10
361.24731200000002
 20
24.428422000000001
 30
0.0
  0
VERTEX
  8
0
  6
CONTINUOUS
 62
              80
  5
53B
 10
361.21666800000003
 20
24.394373999999999
 30
0.0
  0
VERTEX
  8
0
  6
CONTINUOUS
 62
              80
  5
53C
 10
361.18591900000001
 20
24.360420000000001
 30
0.0
  0
VERTEX
  8
0
  6
CONTINUOUS
 62
              80
  5
53D
 10
361.15506699999997
 20
24.326561000000002
 30
0.0
  0
VERTEX
  8
0
  6
CONTINUOUS
 62
              80
  5
53E
 10
361.12411200000003
 20
24.292797
 30
0.0
  0
VERTEX
  8
0
  6
CONTINUOUS
 62
              80
  5
53F
 10
361.093054
 20
24.259129000000001
 30
0.0
  0
VERTEX
  8
0
  6
CONTINUOUS
 62
              80
  5
540
 10
361.061893
 20
24.225556999999998
 30
0.0
  0
SEQEND
  8
0
  6
CONTINUOUS
 62
              80
  5
541
  0
POLYLINE
  8
0
  6
CONTINUOUS
 62
              80
  5
176
 66
               1
 10
0.0
 20
0.0
 30
0.0
  0
VERTEX
  8
0
  6
CONTINUOUS
 62
              80
  5
542
 10
362.45358299999998
 20
25.056090999999999
 30
0.0
  0
VERTEX
  8
0
  6
CONTINUOUS
 62
              80
  5
543
 10
362.462762
 20
25.047855999999999
 30
0.0
  0
VERTEX
  8
0
  6
CONTINUOUS
 62
              80
  5
544
 10
362.47194500000001
 20
25.039625999999998
 30
0.0
  0
VERTEX
  8
0
  6
CONTINUOUS
 62
              80
  5
545
 10
362.481134
 20
25.031400999999999
 30
0.0
  0
VERTEX
  8
0
  6
CONTINUOUS
 62
              80
  5
546
 10
362.49032599999998
 20
25.023181000000001
 30
0.0
  0
VERTEX
  8
0
  6
CONTINUOUS
 62
              80
  5
547
 10
362.49952400000001
 20
25.014966000000001
 30
0.0
  0
VERTEX
  8
0
  6
CONTINUOUS
 62
              80
  5
548
 10
362.50872500000003
 20
25.006755999999999
 30
0.0
  0
VERTEX
  8
0
  6
CONTINUOUS
 62
              80
  5
549
 10
362.51793099999998
 20
24.998550999999999
 30
0.0
  0
VERTEX
  8
0
  6
CONTINUOUS
 62
              80
  5
54A
 10
362.52714200000003
 20
24.990351
 30
0.0
  0
VERTEX
  8
0
  6
CONTINUOUS
 62
              80
  5
54B
 10
362.53635700000001
 20
24.982156
 30
0.0
  0
VERTEX
  8
0
  6
CONTINUOUS
 62
              80
  5
54C
 10
362.54557599999998
 20
24.973966000000001
 30
0.0
  0
VERTEX
  8
0
  6
CONTINUOUS
 62
              80
  5
54D
 10
362.5548
 20
24.965779999999999
 30
0.0
  0
VERTEX
  8
0
  6
CONTINUOUS
 62
              80
  5
54E
 10
362.56402800000001
 20
24.957599999999999
 30
0.0
  0
VERTEX
  8
0
  6
CONTINUOUS
 62
              80
  5
54F
 10
362.57326
 20
24.949424
 30
0.0
  0
VERTEX
  8
0
  6
CONTINUOUS
 62
              80
  5
550
 10
362.58249699999999
 20
24.941254000000001
 30
0.0
  0
VERTEX
  8
0
  6
CONTINUOUS
 62
              80
  5
551
 10
362.59173800000002
 20
24.933088000000001
 30
0.0
  0
VERTEX
  8
0
  6
CONTINUOUS
 62
              80
  5
552
 10
362.60098299999999
 20
24.924927
 30
0.0
  0
VERTEX
  8
0
  6
CONTINUOUS
 62
              80
  5
553
 10
362.62744400000003
 20
24.901616000000001
 30
0.0
  0
VERTEX
  8
0
  6
CONTINUOUS
 62
              80
  5
554
 10
362.65394099999997
 20
24.878346000000001
 30
0.0
  0
VERTEX
  8
0
  6
CONTINUOUS
 62
              80
  5
555
 10
362.680474
 20
24.855115999999999
 30
0.0
  0
VERTEX
  8
0
  6
CONTINUOUS
 62
              80
  5
556
 10
362.707043
 20
24.831927
 30
0.0
  0
VERTEX
  8
0
  6
CONTINUOUS
 62
              80
  5
557
 10
362.73364700000002
 20
24.808778
 30
0.0
  0
VERTEX
  8
0
  6
CONTINUOUS
 62
              80
  5
558
 10
362.76028700000001
 20
24.78567
 30
0.0
  0
VERTEX
  8
0
  6
CONTINUOUS
 62
              80
  5
559
 10
362.78696200000002
 20
24.762602000000001
 30
0.0
  0
VERTEX
  8
0
  6
CONTINUOUS
 62
              80
  5
55A
 10
362.81367299999999
 20
24.739574999999999
 30
0.0
  0
VERTEX
  8
0
  6
CONTINUOUS
 62
              80
  5
55B
 10
362.840419
 20
24.716588999999999
 30
0.0
  0
VERTEX
  8
0
  6
CONTINUOUS
 62
              80
  5
55C
 10
362.86720000000003
 20
24.693643999999999
 30
0.0
  0
VERTEX
  8
0
  6
CONTINUOUS
 62
              80
  5
55D
 10
362.89401600000002
 20
24.670739999999999
 30
0.0
  0
VERTEX
  8
0
  6
CONTINUOUS
 62
              80
  5
55E
 10
362.92086699999999
 20
24.647877000000001
 30
0.0
  0
VERTEX
  8
0
  6
CONTINUOUS
 62
              80
  5
55F
 10
362.94775299999998
 20
24.625056000000001
 30
0.0
  0
VERTEX
  8
0
  6
CONTINUOUS
 62
              80
  5
560
 10
362.97467399999999
 20
24.602276
 30
0.0
  0
VERTEX
  8
0
  6
CONTINUOUS
 62
              80
  5
561
 10
363.00162999999998
 20
24.579537999999999
 30
0.0
  0
VERTEX
  8
0
  6
CONTINUOUS
 62
              80
  5
562
 10
363.02861999999999
 20
24.556840999999999
 30
0.0
  0
SEQEND
  8
0
  6
CONTINUOUS
 62
              80
  5
563
  0
POLYLINE
  8
0
  6
CONTINUOUS
 62
              80
  5
177
 66
               1
 10
0.0
 20
0.0
 30
0.0
  0
VERTEX
  8
0
  6
CONTINUOUS
 62
              80
  5
564
 10
362.45358299999998
 20
25.827271
 30
0.0
  0
VERTEX
  8
0
  6
CONTINUOUS
 62
              80
  5
565
 10
362.45506899999998
 20
25.825334999999999
 30
0.0
  0
VERTEX
  8
0
  6
CONTINUOUS
 62
              80
  5
566
 10
362.45655699999998
 20
25.823399999999999
 30
0.0
  0
VERTEX
  8
0
  6
CONTINUOUS
 62
              80
  5
567
 10
362.45804500000003
 20
25.821466000000001
 30
0.0
  0
VERTEX
  8
0
  6
CONTINUOUS
 62
              80
  5
568
 10
362.45953400000002
 20
25.819534000000001
 30
0.0
  0
VERTEX
  8
0
  6
CONTINUOUS
 62
              80
  5
569
 10
362.46102400000001
 20
25.817602000000001
 30
0.0
  0
VERTEX
  8
0
  6
CONTINUOUS
 62
              80
  5
56A
 10
362.462514
 20
25.815670999999998
 30
0.0
  0
VERTEX
  8
0
  6
CONTINUOUS
 62
              80
  5
56B
 10
362.46400599999998
 20
25.813741
 30
0.0
  0
VERTEX
  8
0
  6
CONTINUOUS
 62
              80
  5
56C
 10
362.46549700000003
 20
25.811810999999999
 30
0.0
  0
VERTEX
  8
0
  6
CONTINUOUS
 62
              80
  5
56D
 10
362.46699000000001
 20
25.809882000000002
 30
0.0
  0
VERTEX
  8
0
  6
CONTINUOUS
 62
              80
  5
56E
 10
362.46848199999999
 20
25.807953000000001
 30
0.0
  0
VERTEX
  8
0
  6
CONTINUOUS
 62
              80
  5
56F
 10
362.46997599999997
 20
25.806025000000002
 30
0.0
  0
VERTEX
  8
0
  6
CONTINUOUS
 62
              80
  5
570
 10
362.47146900000001
 20
25.804096999999999
 30
0.0
  0
VERTEX
  8
0
  6
CONTINUOUS
 62
              80
  5
571
 10
362.47296299999999
 20
25.802168999999999
 30
0.0
  0
VERTEX
  8
0
  6
CONTINUOUS
 62
              80
  5
572
 10
362.47445800000003
 20
25.800242000000001
 30
0.0
  0
VERTEX
  8
0
  6
CONTINUOUS
 62
              80
  5
573
 10
362.475953
 20
25.798314000000001
 30
0.0
  0
VERTEX
  8
0
  6
CONTINUOUS
 62
              80
  5
574
 10
362.47744799999998
 20
25.796386999999999
 30
0.0
  0
VERTEX
  8
0
  6
CONTINUOUS
 62
              80
  5
575
 10
362.52363400000002
 20
25.737442000000001
 30
0.0
  0
VERTEX
  8
0
  6
CONTINUOUS
 62
              80
  5
576
 10
362.57041500000003
 20
25.678934000000002
 30
0.0
  0
VERTEX
  8
0
  6
CONTINUOUS
 62
              80
  5
577
 10
362.61778299999997
 20
25.620868999999999
 30
0.0
  0
VERTEX
  8
0
  6
CONTINUOUS
 62
              80
  5
578
 10
362.66573
 20
25.563253
 30
0.0
  0
VERTEX
  8
0
  6
CONTINUOUS
 62
              80
  5
579
 10
362.714248
 20
25.506094999999998
 30
0.0
  0
VERTEX
  8
0
  6
CONTINUOUS
 62
              80
  5
57A
 10
362.76333
 20
25.449401000000002
 30
0.0
  0
VERTEX
  8
0
  6
CONTINUOUS
 62
              80
  5
57B
 10
362.81296600000002
 20
25.393177999999999
 30
0.0
  0
VERTEX
  8
0
  6
CONTINUOUS
 62
              80
  5
57C
 10
362.86315100000002
 20
25.337433000000001
 30
0.0
  0
VERTEX
  8
0
  6
CONTINUOUS
 62
              80
  5
57D
 10
362.91387500000002
 20
25.282174000000001
 30
0.0
  0
VERTEX
  8
0
  6
CONTINUOUS
 62
              80
  5
57E
 10
362.96513099999999
 20
25.227406999999999
 30
0.0
  0
VERTEX
  8
0
  6
CONTINUOUS
 62
              80
  5
57F
 10
363.01691099999999
 20
25.173138999999999
 30
0.0
  0
VERTEX
  8
0
  6
CONTINUOUS
 62
              80
  5
580
 10
363.069208
 20
25.119377
 30
0.0
  0
VERTEX
  8
0
  6
CONTINUOUS
 62
              80
  5
581
 10
363.12201199999998
 20
25.066129
 30
0.0
  0
VERTEX
  8
0
  6
CONTINUOUS
 62
              80
  5
582
 10
363.175318
 20
25.013401000000002
 30
0.0
  0
VERTEX
  8
0
  6
CONTINUOUS
 62
              80
  5
583
 10
363.22911599999998
 20
24.961200000000002
 30
0.0
  0
VERTEX
  8
0
  6
CONTINUOUS
 62
              80
  5
584
 10
363.28339899999997
 20
24.909534000000001
 30
0.0
  0
SEQEND
  8
0
  6
CONTINUOUS
 62
              80
  5
585
  0
POLYLINE
  8
0
  6
CONTINUOUS
 62
              80
  5
178
 66
               1
 10
0.0
 20
0.0
 30
0.0
  0
VERTEX
  8
0
  6
CONTINUOUS
 62
              80
  5
586
 10
364.63217200000003
 20
24.643677
 30
0.0
  0
VERTEX
  8
0
  6
CONTINUOUS
 62
              80
  5
587
 10
364.62309199999999
 20
24.634385999999999
 30
0.0
  0
VERTEX
  8
0
  6
CONTINUOUS
 62
              80
  5
588
 10
364.61399899999998
 20
24.625108999999998
 30
0.0
  0
VERTEX
  8
0
  6
CONTINUOUS
 62
              80
  5
589
 10
364.60489200000001
 20
24.615846999999999
 30
0.0
  0
VERTEX
  8
0
  6
CONTINUOUS
 62
              80
  5
58A
 10
364.59577100000001
 20
24.606598000000002
 30
0.0
  0
VERTEX
  8
0
  6
CONTINUOUS
 62
              80
  5
58B
 10
364.586636
 20
24.597363999999999
 30
0.0
  0
VERTEX
  8
0
  6
CONTINUOUS
 62
              80
  5
58C
 10
364.57748800000002
 20
24.588144
 30
0.0
  0
VERTEX
  8
0
  6
CONTINUOUS
 62
              80
  5
58D
 10
364.56832500000002
 20
24.578937
 30
0.0
  0
VERTEX
  8
0
  6
CONTINUOUS
 62
              80
  5
58E
 10
364.55914899999999
 20
24.569745000000001
 30
0.0
  0
VERTEX
  8
0
  6
CONTINUOUS
 62
              80
  5
58F
 10
364.549958
 20
24.560566000000001
 30
0.0
  0
VERTEX
  8
0
  6
CONTINUOUS
 62
              80
  5
590
 10
364.54075399999999
 20
24.551402
 30
0.0
  0
VERTEX
  8
0
  6
CONTINUOUS
 62
              80
  5
591
 10
364.53153500000002
 20
24.542251
 30
0.0
  0
VERTEX
  8
0
  6
CONTINUOUS
 62
              80
  5
592
 10
364.52230300000002
 20
24.533114000000001
 30
0.0
  0
VERTEX
  8
0
  6
CONTINUOUS
 62
              80
  5
593
 10
364.51305600000001
 20
24.523990999999999
 30
0.0
  0
VERTEX
  8
0
  6
CONTINUOUS
 62
              80
  5
594
 10
364.50379500000003
 20
24.514882
 30
0.0
  0
VERTEX
  8
0
  6
CONTINUOUS
 62
              80
  5
595
 10
364.49451900000003
 20
24.505786000000001
 30
0.0
  0
VERTEX
  8
0
  6
CONTINUOUS
 62
              80
  5
596
 10
364.485229
 20
24.496704000000001
 30
0.0
  0
VERTEX
  8
0
  6
CONTINUOUS
 62
              80
  5
597
 10
364.43301100000002
 20
24.446166000000002
 30
0.0
  0
VERTEX
  8
0
  6
CONTINUOUS
 62
              80
  5
598
 10
364.38035200000002
 20
24.396066000000001
 30
0.0
  0
VERTEX
  8
0
  6
CONTINUOUS
 62
              80
  5
599
 10
364.32725699999997
 20
24.346408
 30
0.0
  0
VERTEX
  8
0
  6
CONTINUOUS
 62
              80
  5
59A
 10
364.273732
 20
24.297197000000001
 30
0.0
  0
VERTEX
  8
0
  6
CONTINUOUS
 62
              80
  5
59B
 10
364.219785
 20
24.248436000000002
 30
0.0
  0
VERTEX
  8
0
  6
CONTINUOUS
 62
              80
  5
59C
 10
364.16541999999998
 20
24.200130000000001
 30
0.0
  0
VERTEX
  8
0
  6
CONTINUOUS
 62
              80
  5
59D
 10
364.11064499999998
 20
24.152283000000001
 30
0.0
  0
VERTEX
  8
0
  6
CONTINUOUS
 62
              80
  5
59E
 10
364.05546399999997
 20
24.104901000000002
 30
0.0
  0
VERTEX
  8
0
  6
CONTINUOUS
 62
              80
  5
59F
 10
363.99988500000001
 20
24.057986
 30
0.0
  0
VERTEX
  8
0
  6
CONTINUOUS
 62
              80
  5
5A0
 10
363.94391400000001
 20
24.011544000000001
 30
0.0
  0
VERTEX
  8
0
  6
CONTINUOUS
 62
              80
  5
5A1
 10
363.88755500000002
 20
23.965579000000002
 30
0.0
  0
VERTEX
  8
0
  6
CONTINUOUS
 62
              80
  5
5A2
 10
363.83081700000002
 20
23.920095
 30
0.0
  0
VERTEX
  8
0
  6
CONTINUOUS
 62
              80
  5
5A3
 10
363.77370400000001
 20
23.875095999999999
 30
0.0
  0
VERTEX
  8
0
  6
CONTINUOUS
 62
              80
  5
5A4
 10
363.71622300000001
 20
23.830587999999999
 30
0.0
  0
VERTEX
  8
0
  6
CONTINUOUS
 62
              80
  5
5A5
 10
363.65838000000002
 20
23.786573000000001
 30
0.0
  0
VERTEX
  8
0
  6
CONTINUOUS
 62
              80
  5
5A6
 10
363.60018100000002
 20
23.743058000000001
 30
0.0
  0
SEQEND
  8
0
  6
CONTINUOUS
 62
              80
  5
5A7
  0
POLYLINE
  8
0
  6
CONTINUOUS
 62
              80
  5
179
 66
               1
 10
0.0
 20
0.0
 30
0.0
  0
VERTEX
  8
0
  6
CONTINUOUS
 62
              80
  5
5A8
 10
373.28953799999999
 20
25.906122
 30
0.0
  0
VERTEX
  8
0
  6
CONTINUOUS
 62
              80
  5
5A9
 10
373.46219300000001
 20
25.958884000000001
 30
0.0
  0
VERTEX
  8
0
  6
CONTINUOUS
 62
              80
  5
5AA
 10
373.63471800000002
 20
26.012051
 30
0.0
  0
VERTEX
  8
0
  6
CONTINUOUS
 62
              80
  5
5AB
 10
373.80711400000001
 20
26.065626000000002
 30
0.0
  0
VERTEX
  8
0
  6
CONTINUOUS
 62
              80
  5
5AC
 10
373.97938199999999
 20
26.119606999999998
 30
0.0
  0
VERTEX
  8
0
  6
CONTINUOUS
 62
              80
  5
5AD
 10
374.151522
 20
26.173995999999999
 30
0.0
  0
VERTEX
  8
0
  6
CONTINUOUS
 62
              80
  5
5AE
 10
374.323534
 20
26.228791000000001
 30
0.0
  0
VERTEX
  8
0
  6
CONTINUOUS
 62
              80
  5
5AF
 10
374.49541900000003
 20
26.283994
 30
0.0
  0
VERTEX
  8
0
  6
CONTINUOUS
 62
              80
  5
5B0
 10
374.66717899999998
 20
26.339604999999999
 30
0.0
  0
VERTEX
  8
0
  6
CONTINUOUS
 62
              80
  5
5B1
 10
374.83881200000002
 20
26.395623000000001
 30
0.0
  0
VERTEX
  8
0
  6
CONTINUOUS
 62
              80
  5
5B2
 10
375.01032099999998
 20
26.45205
 30
0.0
  0
VERTEX
  8
0
  6
CONTINUOUS
 62
              80
  5
5B3
 10
375.18170400000002
 20
26.508884999999999
 30
0.0
  0
VERTEX
  8
0
  6
CONTINUOUS
 62
              80
  5
5B4
 10
375.35296399999999
 20
26.566129
 30
0.0
  0
VERTEX
  8
0
  6
CONTINUOUS
 62
              80
  5
5B5
 10
375.52409999999998
 20
26.623781999999999
 30
0.0
  0
VERTEX
  8
0
  6
CONTINUOUS
 62
              80
  5
5B6
 10
375.69511399999999
 20
26.681843000000001
 30
0.0
  0
VERTEX
  8
0
  6
CONTINUOUS
 62
              80
  5
5B7
 10
375.86600499999997
 20
26.740314000000001
 30
0.0
  0
VERTEX
  8
0
  6
CONTINUOUS
 62
              80
  5
5B8
 10
376.03677399999998
 20
26.799194
 30
0.0
  0
VERTEX
  8
0
  6
CONTINUOUS
 62
              80
  5
5B9
 10
376.03849500000001
 20
26.799790000000002
 30
0.0
  0
VERTEX
  8
0
  6
CONTINUOUS
 62
              80
  5
5BA
 10
376.04021599999999
 20
26.800384999999999
 30
0.0
  0
VERTEX
  8
0
  6
CONTINUOUS
 62
              80
  5
5BB
 10
376.04193600000002
 20
26.800979999999999
 30
0.0
  0
VERTEX
  8
0
  6
CONTINUOUS
 62
              80
  5
5BC
 10
376.043657
 20
26.801575
 30
0.0
  0
VERTEX
  8
0
  6
CONTINUOUS
 62
              80
  5
5BD
 10
376.04537699999997
 20
26.80217
 30
0.0
  0
VERTEX
  8
0
  6
CONTINUOUS
 62
              80
  5
5BE
 10
376.04709700000001
 20
26.802765000000001
 30
0.0
  0
VERTEX
  8
0
  6
CONTINUOUS
 62
              80
  5
5BF
 10
376.04881699999999
 20
26.803359
 30
0.0
  0
VERTEX
  8
0
  6
CONTINUOUS
 62
              80
  5
5C0
 10
376.05053800000002
 20
26.803954000000001
 30
0.0
  0
VERTEX
  8
0
  6
CONTINUOUS
 62
              80
  5
5C1
 10
376.05225799999999
 20
26.804548
 30
0.0
  0
VERTEX
  8
0
  6
CONTINUOUS
 62
              80
  5
5C2
 10
376.05397799999997
 20
26.805143000000001
 30
0.0
  0
VERTEX
  8
0
  6
CONTINUOUS
 62
              80
  5
5C3
 10
376.05569800000001
 20
26.805738000000002
 30
0.0
  0
VERTEX
  8
0
  6
CONTINUOUS
 62
              80
  5
5C4
 10
376.05741799999998
 20
26.806332999999999
 30
0.0
  0
VERTEX
  8
0
  6
CONTINUOUS
 62
              80
  5
5C5
 10
376.05913800000002
 20
26.806927999999999
 30
0.0
  0
VERTEX
  8
0
  6
CONTINUOUS
 62
              80
  5
5C6
 10
376.06085899999999
 20
26.807524000000001
 30
0.0
  0
VERTEX
  8
0
  6
CONTINUOUS
 62
              80
  5
5C7
 10
376.06258000000003
 20
26.808119999999999
 30
0.0
  0
VERTEX
  8
0
  6
CONTINUOUS
 62
              80
  5
5C8
 10
376.064301
 20
26.808716
 30
0.0
  0
SEQEND
  8
0
  6
CONTINUOUS
 62
              80
  5
5C9
  0
POLYLINE
  8
0
  6
CONTINUOUS
 62
              80
  5
17A
 66
               1
 10
0.0
 20
0.0
 30
0.0
  0
VERTEX
  8
0
  6
CONTINUOUS
 62
              80
  5
5CA
 10
376.064301
 20
26.808716
 30
0.0
  0
VERTEX
  8
0
  6
CONTINUOUS
 62
              80
  5
5CB
 10
376.06602099999998
 20
26.808119999999999
 30
0.0
  0
VERTEX
  8
0
  6
CONTINUOUS
 62
              80
  5
5CC
 10
376.06774200000001
 20
26.807524000000001
 30
0.0
  0
VERTEX
  8
0
  6
CONTINUOUS
 62
              80
  5
5CD
 10
376.06946199999999
 20
26.806927999999999
 30
0.0
  0
VERTEX
  8
0
  6
CONTINUOUS
 62
              80
  5
5CE
 10
376.07118300000002
 20
26.806332999999999
 30
0.0
  0
VERTEX
  8
0
  6
CONTINUOUS
 62
              80
  5
5CF
 10
376.072903
 20
26.805738000000002
 30
0.0
  0
VERTEX
  8
0
  6
CONTINUOUS
 62
              80
  5
5D0
 10
376.07462399999997
 20
26.805143000000001
 30
0.0
  0
VERTEX
  8
0
  6
CONTINUOUS
 62
              80
  5
5D1
 10
376.07634400000001
 20
26.804548
 30
0.0
  0
VERTEX
  8
0
  6
CONTINUOUS
 62
              80
  5
5D2
 10
376.07806499999998
 20
26.803953
 30
0.0
  0
VERTEX
  8
0
  6
CONTINUOUS
 62
              80
  5
5D3
 10
376.07978500000002
 20
26.803359
 30
0.0
  0
VERTEX
  8
0
  6
CONTINUOUS
 62
              80
  5
5D4
 10
376.08150499999999
 20
26.802764
 30
0.0
  0
VERTEX
  8
0
  6
CONTINUOUS
 62
              80
  5
5D5
 10
376.08322600000002
 20
26.802168999999999
 30
0.0
  0
VERTEX
  8
0
  6
CONTINUOUS
 62
              80
  5
5D6
 10
376.084946
 20
26.801575
 30
0.0
  0
VERTEX
  8
0
  6
CONTINUOUS
 62
              80
  5
5D7
 10
376.08666599999998
 20
26.800979999999999
 30
0.0
  0
VERTEX
  8
0
  6
CONTINUOUS
 62
              80
  5
5D8
 10
376.08838700000001
 20
26.800384999999999
 30
0.0
  0
VERTEX
  8
0
  6
CONTINUOUS
 62
              80
  5
5D9
 10
376.09010699999999
 20
26.799790000000002
 30
0.0
  0
VERTEX
  8
0
  6
CONTINUOUS
 62
              80
  5
5DA
 10
376.09182700000002
 20
26.799194
 30
0.0
  0
VERTEX
  8
0
  6
CONTINUOUS
 62
              80
  5
5DB
 10
376.26252199999999
 20
26.740326
 30
0.0
  0
VERTEX
  8
0
  6
CONTINUOUS
 62
              80
  5
5DC
 10
376.433359
 20
26.681861000000001
 30
0.0
  0
VERTEX
  8
0
  6
CONTINUOUS
 62
              80
  5
5DD
 10
376.60433699999999
 20
26.623801
 30
0.0
  0
VERTEX
  8
0
  6
CONTINUOUS
 62
              80
  5
5DE
 10
376.77545600000002
 20
26.566146
 30
0.0
  0
VERTEX
  8
0
  6
CONTINUOUS
 62
              80
  5
5DF
 10
376.94671199999999
 20
26.508896
 30
0.0
  0
VERTEX
  8
0
  6
CONTINUOUS
 62
              80
  5
5E0
 10
377.11810600000001
 20
26.452052999999999
 30
0.0
  0
VERTEX
  8
0
  6
CONTINUOUS
 62
              80
  5
5E1
 10
377.28963499999998
 20
26.395616
 30
0.0
  0
VERTEX
  8
0
  6
CONTINUOUS
 62
              80
  5
5E2
 10
377.461299
 20
26.339586000000001
 30
0.0
  0
VERTEX
  8
0
  6
CONTINUOUS
 62
              80
  5
5E3
 10
377.63309400000003
 20
26.283963
 30
0.0
  0
VERTEX
  8
0
  6
CONTINUOUS
 62
              80
  5
5E4
 10
377.80502100000001
 20
26.228748
 30
0.0
  0
VERTEX
  8
0
  6
CONTINUOUS
 62
              80
  5
5E5
 10
377.97707800000001
 20
26.173942
 30
0.0
  0
VERTEX
  8
0
  6
CONTINUOUS
 62
              80
  5
5E6
 10
378.14926300000002
 20
26.119544000000001
 30
0.0
  0
VERTEX
  8
0
  6
CONTINUOUS
 62
              80
  5
5E7
 10
378.321575
 20
26.065556000000001
 30
0.0
  0
VERTEX
  8
0
  6
CONTINUOUS
 62
              80
  5
5E8
 10
378.494012
 20
26.011977999999999
 30
0.0
  0
VERTEX
  8
0
  6
CONTINUOUS
 62
              80
  5
5E9
 10
378.66657400000003
 20
25.95881
 30
0.0
  0
VERTEX
  8
0
  6
CONTINUOUS
 62
              80
  5
5EA
 10
378.83925699999998
 20
25.906053
 30
0.0
  0
SEQEND
  8
0
  6
CONTINUOUS
 62
              80
  5
5EB
  0
POLYLINE
  8
0
  6
CONTINUOUS
 62
              80
  5
17B
 66
               1
 10
0.0
 20
0.0
 30
0.0
  0
VERTEX
  8
0
  6
CONTINUOUS
 62
              80
  5
5EC
 10
374.34576399999997
 20
24.875
 30
0.0
  0
VERTEX
  8
0
  6
CONTINUOUS
 62
              80
  5
5ED
 10
374.28532799999999
 20
24.794633999999999
 30
0.0
  0
VERTEX
  8
0
  6
CONTINUOUS
 62
              80
  5
5EE
 10
374.22489200000001
 20
24.714268000000001
 30
0.0
  0
VERTEX
  8
0
  6
CONTINUOUS
 62
              80
  5
5EF
 10
374.16445599999997
 20
24.633901000000002
 30
0.0
  0
VERTEX
  8
0
  6
CONTINUOUS
 62
              80
  5
5F0
 10
374.10401899999999
 20
24.553533000000002
 30
0.0
  0
VERTEX
  8
0
  6
CONTINUOUS
 62
              80
  5
5F1
 10
374.04358300000001
 20
24.473164000000001
 30
0.0
  0
VERTEX
  8
0
  6
CONTINUOUS
 62
              80
  5
5F2
 10
373.98314599999998
 20
24.392795
 30
0.0
  0
VERTEX
  8
0
  6
CONTINUOUS
 62
              80
  5
5F3
 10
373.922709
 20
24.312425999999999
 30
0.0
  0
VERTEX
  8
0
  6
CONTINUOUS
 62
              80
  5
5F4
 10
373.86227200000002
 20
24.232056
 30
0.0
  0
VERTEX
  8
0
  6
CONTINUOUS
 62
              80
  5
5F5
 10
373.80183599999998
 20
24.151686000000002
 30
0.0
  0
VERTEX
  8
0
  6
CONTINUOUS
 62
              80
  5
5F6
 10
373.741399
 20
24.071317000000001
 30
0.0
  0
VERTEX
  8
0
  6
CONTINUOUS
 62
              80
  5
5F7
 10
373.68096200000002
 20
23.990946999999998
 30
0.0
  0
VERTEX
  8
0
  6
CONTINUOUS
 62
              80
  5
5F8
 10
373.62052499999999
 20
23.910578000000001
 30
0.0
  0
VERTEX
  8
0
  6
CONTINUOUS
 62
              80
  5
5F9
 10
373.56008800000001
 20
23.830209
 30
0.0
  0
VERTEX
  8
0
  6
CONTINUOUS
 62
              80
  5
5FA
 10
373.49965200000003
 20
23.749839999999999
 30
0.0
  0
VERTEX
  8
0
  6
CONTINUOUS
 62
              80
  5
5FB
 10
373.43921499999999
 20
23.669473
 30
0.0
  0
VERTEX
  8
0
  6
CONTINUOUS
 62
              80
  5
5FC
 10
373.37877900000001
 20
23.589105
 30
0.0
  0
SEQEND
  8
0
  6
CONTINUOUS
 62
              80
  5
5FD
  0
POLYLINE
  8
0
  6
CONTINUOUS
 62
              80
  5
17C
 66
               1
 10
0.0
 20
0.0
 30
0.0
  0
VERTEX
  8
0
  6
CONTINUOUS
 62
              80
  5
5FE
 10
377.77255200000002
 20
24.875
 30
0.0
  0
VERTEX
  8
0
  6
CONTINUOUS
 62
              80
  5
5FF
 10
377.83356900000001
 20
24.794633999999999
 30
0.0
  0
VERTEX
  8
0
  6
CONTINUOUS
 62
              80
  5
600
 10
377.89458500000001
 20
24.714268000000001
 30
0.0
  0
VERTEX
  8
0
  6
CONTINUOUS
 62
              80
  5
601
 10
377.955602
 20
24.633901000000002
 30
0.0
  0
VERTEX
  8
0
  6
CONTINUOUS
 62
              80
  5
602
 10
378.01661799999999
 20
24.553533000000002
 30
0.0
  0
VERTEX
  8
0
  6
CONTINUOUS
 62
              80
  5
603
 10
378.07763399999999
 20
24.473164000000001
 30
0.0
  0
VERTEX
  8
0
  6
CONTINUOUS
 62
              80
  5
604
 10
378.13864999999998
 20
24.392795
 30
0.0
  0
VERTEX
  8
0
  6
CONTINUOUS
 62
              80
  5
605
 10
378.19966699999998
 20
24.312425999999999
 30
0.0
  0
VERTEX
  8
0
  6
CONTINUOUS
 62
              80
  5
606
 10
378.26068299999997
 20
24.232056
 30
0.0
  0
VERTEX
  8
0
  6
CONTINUOUS
 62
              80
  5
607
 10
378.32169900000002
 20
24.151686000000002
 30
0.0
  0
VERTEX
  8
0
  6
CONTINUOUS
 62
              80
  5
608
 10
378.38271500000002
 20
24.071317000000001
 30
0.0
  0
VERTEX
  8
0
  6
CONTINUOUS
 62
              80
  5
609
 10
378.44373100000001
 20
23.990946999999998
 30
0.0
  0
VERTEX
  8
0
  6
CONTINUOUS
 62
              80
  5
60A
 10
378.50474700000001
 20
23.910578000000001
 30
0.0
  0
VERTEX
  8
0
  6
CONTINUOUS
 62
              80
  5
60B
 10
378.565764
 20
23.830209
 30
0.0
  0
VERTEX
  8
0
  6
CONTINUOUS
 62
              80
  5
60C
 10
378.62678
 20
23.749839999999999
 30
0.0
  0
VERTEX
  8
0
  6
CONTINUOUS
 62
              80
  5
60D
 10
378.68779599999999
 20
23.669473
 30
0.0
  0
VERTEX
  8
0
  6
CONTINUOUS
 62
              80
  5
60E
 10
378.74881199999999
 20
23.589105
 30
0.0
  0
SEQEND
  8
0
  6
CONTINUOUS
 62
              80
  5
60F
  0
POLYLINE
  8
0
  6
CONTINUOUS
 62
              80
  5
17D
 66
               1
 10
0.0
 20
0.0
 30
0.0
  0
VERTEX
  8
0
  6
CONTINUOUS
 62
              80
  5
610
 10
375.35476699999998
 20
24.875
 30
0.0
  0
VERTEX
  8
0
  6
CONTINUOUS
 62
              80
  5
611
 10
375.322247
 20
24.814731999999999
 30
0.0
  0
VERTEX
  8
0
  6
CONTINUOUS
 62
              80
  5
612
 10
375.28972700000003
 20
24.754463999999999
 30
0.0
  0
VERTEX
  8
0
  6
CONTINUOUS
 62
              80
  5
613
 10
375.25720699999999
 20
24.694196000000002
 30
0.0
  0
VERTEX
  8
0
  6
CONTINUOUS
 62
              80
  5
614
 10
375.22468700000002
 20
24.633927
 30
0.0
  0
VERTEX
  8
0
  6
CONTINUOUS
 62
              80
  5
615
 10
375.19216599999999
 20
24.573658999999999
 30
0.0
  0
VERTEX
  8
0
  6
CONTINUOUS
 62
              80
  5
616
 10
375.15964600000001
 20
24.513390000000001
 30
0.0
  0
VERTEX
  8
0
  6
CONTINUOUS
 62
              80
  5
617
 10
375.12712499999998
 20
24.453120999999999
 30
0.0
  0
VERTEX
  8
0
  6
CONTINUOUS
 62
              80
  5
618
 10
375.094604
 20
24.392852999999999
 30
0.0
  0
VERTEX
  8
0
  6
CONTINUOUS
 62
              80
  5
619
 10
375.06208400000003
 20
24.332584000000001
 30
0.0
  0
VERTEX
  8
0
  6
CONTINUOUS
 62
              80
  5
61A
 10
375.029563
 20
24.272314999999999
 30
0.0
  0
VERTEX
  8
0
  6
CONTINUOUS
 62
              80
  5
61B
 10
374.99704300000002
 20
24.212046999999998
 30
0.0
  0
VERTEX
  8
0
  6
CONTINUOUS
 62
              80
  5
61C
 10
374.96452199999999
 20
24.151778
 30
0.0
  0
VERTEX
  8
0
  6
CONTINUOUS
 62
              80
  5
61D
 10
374.93200200000001
 20
24.09151
 30
0.0
  0
VERTEX
  8
0
  6
CONTINUOUS
 62
              80
  5
61E
 10
374.89948199999998
 20
24.031241999999999
 30
0.0
  0
VERTEX
  8
0
  6
CONTINUOUS
 62
              80
  5
61F
 10
374.866962
 20
23.970973999999998
 30
0.0
  0
VERTEX
  8
0
  6
CONTINUOUS
 62
              80
  5
620
 10
374.83444200000002
 20
23.910706000000001
 30
0.0
  0
SEQEND
  8
0
  6
CONTINUOUS
 62
              80
  5
621
  0
POLYLINE
  8
0
  6
CONTINUOUS
 62
              80
  5
17E
 66
               1
 10
0.0
 20
0.0
 30
0.0
  0
VERTEX
  8
0
  6
CONTINUOUS
 62
              80
  5
622
 10
376.772064
 20
24.875
 30
0.0
  0
VERTEX
  8
0
  6
CONTINUOUS
 62
              80
  5
623
 10
376.80458399999998
 20
24.814731999999999
 30
0.0
  0
VERTEX
  8
0
  6
CONTINUOUS
 62
              80
  5
624
 10
376.83710400000001
 20
24.754463999999999
 30
0.0
  0
VERTEX
  8
0
  6
CONTINUOUS
 62
              80
  5
625
 10
376.86962399999999
 20
24.694196000000002
 30
0.0
  0
VERTEX
  8
0
  6
CONTINUOUS
 62
              80
  5
626
 10
376.90214400000002
 20
24.633927
 30
0.0
  0
VERTEX
  8
0
  6
CONTINUOUS
 62
              80
  5
627
 10
376.934665
 20
24.573658999999999
 30
0.0
  0
VERTEX
  8
0
  6
CONTINUOUS
 62
              80
  5
628
 10
376.96718499999997
 20
24.513390000000001
 30
0.0
  0
VERTEX
  8
0
  6
CONTINUOUS
 62
              80
  5
629
 10
376.999706
 20
24.453120999999999
 30
0.0
  0
VERTEX
  8
0
  6
CONTINUOUS
 62
              80
  5
62A
 10
377.03222699999998
 20
24.392852999999999
 30
0.0
  0
VERTEX
  8
0
  6
CONTINUOUS
 62
              80
  5
62B
 10
377.06474700000001
 20
24.332584000000001
 30
0.0
  0
VERTEX
  8
0
  6
CONTINUOUS
 62
              80
  5
62C
 10
377.09726799999999
 20
24.272314999999999
 30
0.0
  0
VERTEX
  8
0
  6
CONTINUOUS
 62
              80
  5
62D
 10
377.12978800000002
 20
24.212046999999998
 30
0.0
  0
VERTEX
  8
0
  6
CONTINUOUS
 62
              80
  5
62E
 10
377.16230899999999
 20
24.151778
 30
0.0
  0
VERTEX
  8
0
  6
CONTINUOUS
 62
              80
  5
62F
 10
377.19482900000003
 20
24.09151
 30
0.0
  0
VERTEX
  8
0
  6
CONTINUOUS
 62
              80
  5
630
 10
377.227349
 20
24.031241999999999
 30
0.0
  0
VERTEX
  8
0
  6
CONTINUOUS
 62
              80
  5
631
 10
377.25986899999998
 20
23.970973999999998
 30
0.0
  0
VERTEX
  8
0
  6
CONTINUOUS
 62
              80
  5
632
 10
377.29238900000001
 20
23.910706000000001
 30
0.0
  0
SEQEND
  8
0
  6
CONTINUOUS
 62
              80
  5
633
  0
POLYLINE
  8
0
  6
CONTINUOUS
 62
              80
  5
17F
 66
               1
 10
0.0
 20
0.0
 30
0.0
  0
VERTEX
  8
0
  6
CONTINUOUS
 62
              80
  5
634
 10
380.38931300000002
 20
24.804687999999999
 30
0.0
  0
VERTEX
  8
0
  6
CONTINUOUS
 62
              80
  5
635
 10
380.38090499999998
 20
24.799347000000001
 30
0.0
  0
VERTEX
  8
0
  6
CONTINUOUS
 62
              80
  5
636
 10
380.37249500000001
 20
24.794011000000001
 30
0.0
  0
VERTEX
  8
0
  6
CONTINUOUS
 62
              80
  5
637
 10
380.364082
 20
24.788678999999998
 30
0.0
  0
VERTEX
  8
0
  6
CONTINUOUS
 62
              80
  5
638
 10
380.35566699999998
 20
24.783349999999999
 30
0.0
  0
VERTEX
  8
0
  6
CONTINUOUS
 62
              80
  5
639
 10
380.34724899999998
 20
24.778025
 30
0.0
  0
VERTEX
  8
0
  6
CONTINUOUS
 62
              80
  5
63A
 10
380.33882899999998
 20
24.772703
 30
0.0
  0
VERTEX
  8
0
  6
CONTINUOUS
 62
              80
  5
63B
 10
380.33040699999998
 20
24.767385000000001
 30
0.0
  0
VERTEX
  8
0
  6
CONTINUOUS
 62
              80
  5
63C
 10
380.32198299999999
 20
24.762070000000001
 30
0.0
  0
VERTEX
  8
0
  6
CONTINUOUS
 62
              80
  5
63D
 10
380.313557
 20
24.756758999999999
 30
0.0
  0
VERTEX
  8
0
  6
CONTINUOUS
 62
              80
  5
63E
 10
380.30512800000002
 20
24.751449999999998
 30
0.0
  0
VERTEX
  8
0
  6
CONTINUOUS
 62
              80
  5
63F
 10
380.29669799999999
 20
24.746144999999999
 30
0.0
  0
VERTEX
  8
0
  6
CONTINUOUS
 62
              80
  5
640
 10
380.28826500000002
 20
24.740843000000002
 30
0.0
  0
VERTEX
  8
0
  6
CONTINUOUS
 62
              80
  5
641
 10
380.279831
 20
24.735544999999998
 30
0.0
  0
VERTEX
  8
0
  6
CONTINUOUS
 62
              80
  5
642
 10
380.27139499999998
 20
24.730249000000001
 30
0.0
  0
VERTEX
  8
0
  6
CONTINUOUS
 62
              80
  5
643
 10
380.26295699999997
 20
24.724955999999999
 30
0.0
  0
VERTEX
  8
0
  6
CONTINUOUS
 62
              80
  5
644
 10
380.25451700000002
 20
24.719666
 30
0.0
  0
VERTEX
  8
0
  6
CONTINUOUS
 62
              80
  5
645
 10
380.195806
 20
24.682991999999999
 30
0.0
  0
VERTEX
  8
0
  6
CONTINUOUS
 62
              80
  5
646
 10
380.13699300000002
 20
24.646477999999998
 30
0.0
  0
VERTEX
  8
0
  6
CONTINUOUS
 62
              80
  5
647
 10
380.078078
 20
24.610126000000001
 30
0.0
  0
VERTEX
  8
0
  6
CONTINUOUS
 62
              80
  5
648
 10
380.01906200000002
 20
24.573936
 30
0.0
  0
VERTEX
  8
0
  6
CONTINUOUS
 62
              80
  5
649
 10
379.959946
 20
24.537908000000002
 30
0.0
  0
VERTEX
  8
0
  6
CONTINUOUS
 62
              80
  5
64A
 10
379.90073000000001
 20
24.502041999999999
 30
0.0
  0
VERTEX
  8
0
  6
CONTINUOUS
 62
              80
  5
64B
 10
379.84141499999998
 20
24.466339000000001
 30
0.0
  0
VERTEX
  8
0
  6
CONTINUOUS
 62
              80
  5
64C
 10
379.78200199999998
 20
24.430799
 30
0.0
  0
VERTEX
  8
0
  6
CONTINUOUS
 62
              80
  5
64D
 10
379.72249099999999
 20
24.395423000000001
 30
0.0
  0
VERTEX
  8
0
  6
CONTINUOUS
 62
              80
  5
64E
 10
379.66288200000002
 20
24.360212000000001
 30
0.0
  0
VERTEX
  8
0
  6
CONTINUOUS
 62
              80
  5
64F
 10
379.60317700000002
 20
24.325164999999998
 30
0.0
  0
VERTEX
  8
0
  6
CONTINUOUS
 62
              80
  5
650
 10
379.54337600000002
 20
24.290282999999999
 30
0.0
  0
VERTEX
  8
0
  6
CONTINUOUS
 62
              80
  5
651
 10
379.48347899999999
 20
24.255566000000002
 30
0.0
  0
VERTEX
  8
0
  6
CONTINUOUS
 62
              80
  5
652
 10
379.42348800000002
 20
24.221015000000001
 30
0.0
  0
VERTEX
  8
0
  6
CONTINUOUS
 62
              80
  5
653
 10
379.36340300000001
 20
24.186630999999998
 30
0.0
  0
VERTEX
  8
0
  6
CONTINUOUS
 62
              80
  5
654
 10
379.303225
 20
24.152412999999999
 30
0.0
  0
SEQEND
  8
0
  6
CONTINUOUS
 62
              80
  5
655
  0
POLYLINE
  8
0
  6
CONTINUOUS
 62
              80
  5
180
 66
               1
 10
0.0
 20
0.0
 30
0.0
  0
VERTEX
  8
0
  6
CONTINUOUS
 62
              80
  5
656
 10
356.08239700000001
 20
25.071411000000001
 30
0.0
  0
VERTEX
  8
0
  6
CONTINUOUS
 62
              80
  5
657
 10
356.07601799999998
 20
25.058282999999999
 30
0.0
  0
VERTEX
  8
0
  6
CONTINUOUS
 62
              80
  5
658
 10
356.06953600000003
 20
25.045193999999999
 30
0.0
  0
VERTEX
  8
0
  6
CONTINUOUS
 62
              80
  5
659
 10
356.062949
 20
25.032149
 30
0.0
  0
VERTEX
  8
0
  6
CONTINUOUS
 62
              80
  5
65A
 10
356.05625300000003
 20
25.019151999999998
 30
0.0
  0
VERTEX
  8
0
  6
CONTINUOUS
 62
              80
  5
65B
 10
356.04944599999999
 20
25.006209999999999
 30
0.0
  0
VERTEX
  8
0
  6
CONTINUOUS
 62
              80
  5
65C
 10
356.04252500000001
 20
24.993326
 30
0.0
  0
VERTEX
  8
0
  6
CONTINUOUS
 62
              80
  5
65D
 10
356.03548699999999
 20
24.980505999999998
 30
0.0
  0
VERTEX
  8
0
  6
CONTINUOUS
 62
              80
  5
65E
 10
356.02832899999999
 20
24.967753999999999
 30
0.0
  0
VERTEX
  8
0
  6
CONTINUOUS
 62
              80
  5
65F
 10
356.02104800000001
 20
24.955076999999999
 30
0.0
  0
VERTEX
  8
0
  6
CONTINUOUS
 62
              80
  5
660
 10
356.013642
 20
24.942478999999999
 30
0.0
  0
VERTEX
  8
0
  6
CONTINUOUS
 62
              80
  5
661
 10
356.00610699999999
 20
24.929966
 30
0.0
  0
VERTEX
  8
0
  6
CONTINUOUS
 62
              80
  5
662
 10
355.99844000000002
 20
24.917541
 30
0.0
  0
VERTEX
  8
0
  6
CONTINUOUS
 62
              80
  5
663
 10
355.99063899999999
 20
24.90521
 30
0.0
  0
VERTEX
  8
0
  6
CONTINUOUS
 62
              80
  5
664
 10
355.98270000000002
 20
24.892979
 30
0.0
  0
VERTEX
  8
0
  6
CONTINUOUS
 62
              80
  5
665
 10
355.97462200000001
 20
24.880852999999998
 30
0.0
  0
VERTEX
  8
0
  6
CONTINUOUS
 62
              80
  5
666
 10
355.96640000000002
 20
24.868835000000001
 30
0.0
  0
VERTEX
  8
0
  6
CONTINUOUS
 62
              80
  5
667
 10
355.94403299999999
 20
24.837686999999999
 30
0.0
  0
VERTEX
  8
0
  6
CONTINUOUS
 62
              80
  5
668
 10
355.92071600000003
 20
24.807286999999999
 30
0.0
  0
VERTEX
  8
0
  6
CONTINUOUS
 62
              80
  5
669
 10
355.89651300000003
 20
24.777588999999999
 30
0.0
  0
VERTEX
  8
0
  6
CONTINUOUS
 62
              80
  5
66A
 10
355.87149199999999
 20
24.748543000000002
 30
0.0
  0
VERTEX
  8
0
  6
CONTINUOUS
 62
              80
  5
66B
 10
355.84571599999998
 20
24.720103000000002
 30
0.0
  0
VERTEX
  8
0
  6
CONTINUOUS
 62
              80
  5
66C
 10
355.81925200000001
 20
24.692221
 30
0.0
  0
VERTEX
  8
0
  6
CONTINUOUS
 62
              80
  5
66D
 10
355.79216600000001
 20
24.664849
 30
0.0
  0
VERTEX
  8
0
  6
CONTINUOUS
 62
              80
  5
66E
 10
355.764521
 20
24.637938999999999
 30
0.0
  0
VERTEX
  8
0
  6
CONTINUOUS
 62
              80
  5
66F
 10
355.73638499999998
 20
24.611445
 30
0.0
  0
VERTEX
  8
0
  6
CONTINUOUS
 62
              80
  5
670
 10
355.70782300000002
 20
24.585317
 30
0.0
  0
VERTEX
  8
0
  6
CONTINUOUS
 62
              80
  5
671
 10
355.678899
 20
24.559508999999998
 30
0.0
  0
VERTEX
  8
0
  6
CONTINUOUS
 62
              80
  5
672
 10
355.64967999999999
 20
24.533973
 30
0.0
  0
VERTEX
  8
0
  6
CONTINUOUS
 62
              80
  5
673
 10
355.62023099999999
 20
24.508661
 30
0.0
  0
VERTEX
  8
0
  6
CONTINUOUS
 62
              80
  5
674
 10
355.59061800000001
 20
24.483526000000001
 30
0.0
  0
VERTEX
  8
0
  6
CONTINUOUS
 62
              80
  5
675
 10
355.56090499999999
 20
24.458518999999999
 30
0.0
  0
VERTEX
  8
0
  6
CONTINUOUS
 62
              80
  5
676
 10
355.531158
 20
24.433593999999999
 30
0.0
  0
VERTEX
  8
0
  6
CONTINUOUS
 62
              80
  5
677
 10
355.49352800000003
 20
24.402100999999998
 30
0.0
  0
VERTEX
  8
0
  6
CONTINUOUS
 62
              80
  5
678
 10
355.45592299999998
 20
24.370685999999999
 30
0.0
  0
VERTEX
  8
0
  6
CONTINUOUS
 62
              80
  5
679
 10
355.418319
 20
24.339372999999998
 30
0.0
  0
VERTEX
  8
0
  6
CONTINUOUS
 62
              80
  5
67A
 10
355.38068900000002
 20
24.308187
 30
0.0
  0
VERTEX
  8
0
  6
CONTINUOUS
 62
              80
  5
67B
 10
355.343008
 20
24.277152000000001
 30
0.0
  0
VERTEX
  8
0
  6
CONTINUOUS
 62
              80
  5
67C
 10
355.305251
 20
24.246290999999999
 30
0.0
  0
VERTEX
  8
0
  6
CONTINUOUS
 62
              80
  5
67D
 10
355.26739199999997
 20
24.215630000000001
 30
0.0
  0
VERTEX
  8
0
  6
CONTINUOUS
 62
              80
  5
67E
 10
355.22940599999998
 20
24.185192000000001
 30
0.0
  0
VERTEX
  8
0
  6
CONTINUOUS
 62
              80
  5
67F
 10
355.19126699999998
 20
24.155002
 30
0.0
  0
VERTEX
  8
0
  6
CONTINUOUS
 62
              80
  5
680
 10
355.15294999999998
 20
24.125084000000001
 30
0.0
  0
VERTEX
  8
0
  6
CONTINUOUS
 62
              80
  5
681
 10
355.11443000000003
 20
24.095462999999999
 30
0.0
  0
VERTEX
  8
0
  6
CONTINUOUS
 62
              80
  5
682
 10
355.07567999999998
 20
24.066161999999998
 30
0.0
  0
VERTEX
  8
0
  6
CONTINUOUS
 62
              80
  5
683
 10
355.036676
 20
24.037206000000001
 30
0.0
  0
VERTEX
  8
0
  6
CONTINUOUS
 62
              80
  5
684
 10
354.99739099999999
 20
24.008618999999999
 30
0.0
  0
VERTEX
  8
0
  6
CONTINUOUS
 62
              80
  5
685
 10
354.95780100000002
 20
23.980426000000001
 30
0.0
  0
VERTEX
  8
0
  6
CONTINUOUS
 62
              80
  5
686
 10
354.91788000000003
 20
23.952649999999998
 30
0.0
  0
SEQEND
  8
0
  6
CONTINUOUS
 62
              80
  5
687
  0
POLYLINE
  8
0
  6
CONTINUOUS
 62
              80
  5
181
 66
               1
 10
0.0
 20
0.0
 30
0.0
  0
VERTEX
  8
0
  6
CONTINUOUS
 62
              80
  5
688
 10
361.68658900000003
 20
26.447209999999998
 30
0.0
  0
VERTEX
  8
0
  6
CONTINUOUS
 62
              80
  5
689
 10
361.67875099999998
 20
26.398164999999999
 30
0.0
  0
VERTEX
  8
0
  6
CONTINUOUS
 62
              80
  5
68A
 10
361.67025999999998
 20
26.349209999999999
 30
0.0
  0
VERTEX
  8
0
  6
CONTINUOUS
 62
              80
  5
68B
 10
361.66111699999999
 20
26.300355
 30
0.0
  0
VERTEX
  8
0
  6
CONTINUOUS
 62
              80
  5
68C
 10
361.651319
 20
26.251612000000002
 30
0.0
  0
VERTEX
  8
0
  6
CONTINUOUS
 62
              80
  5
68D
 10
361.64086700000001
 20
26.202992999999999
 30
0.0
  0
VERTEX
  8
0
  6
CONTINUOUS
 62
              80
  5
68E
 10
361.62975699999998
 20
26.154509000000001
 30
0.0
  0
VERTEX
  8
0
  6
CONTINUOUS
 62
              80
  5
68F
 10
361.61799100000002
 20
26.106171
 30
0.0
  0
VERTEX
  8
0
  6
CONTINUOUS
 62
              80
  5
690
 10
361.60556500000001
 20
26.057991999999999
 30
0.0
  0
VERTEX
  8
0
  6
CONTINUOUS
 62
              80
  5
691
 10
361.59247900000003
 20
26.009982000000001
 30
0.0
  0
VERTEX
  8
0
  6
CONTINUOUS
 62
              80
  5
692
 10
361.578733
 20
25.962154000000002
 30
0.0
  0
VERTEX
  8
0
  6
CONTINUOUS
 62
              80
  5
693
 10
361.564323
 20
25.914518000000001
 30
0.0
  0
VERTEX
  8
0
  6
CONTINUOUS
 62
              80
  5
694
 10
361.54925100000003
 20
25.867084999999999
 30
0.0
  0
VERTEX
  8
0
  6
CONTINUOUS
 62
              80
  5
695
 10
361.53351300000003
 20
25.819869000000001
 30
0.0
  0
VERTEX
  8
0
  6
CONTINUOUS
 62
              80
  5
696
 10
361.51711
 20
25.772879
 30
0.0
  0
VERTEX
  8
0
  6
CONTINUOUS
 62
              80
  5
697
 10
361.50003900000002
 20
25.726127999999999
 30
0.0
  0
VERTEX
  8
0
  6
CONTINUOUS
 62
              80
  5
698
 10
361.48230000000001
 20
25.679625999999999
 30
0.0
  0
VERTEX
  8
0
  6
CONTINUOUS
 62
              80
  5
699
 10
361.46172999999999
 20
25.628076
 30
0.0
  0
VERTEX
  8
0
  6
CONTINUOUS
 62
              80
  5
69A
 10
361.44033899999999
 20
25.57686
 30
0.0
  0
VERTEX
  8
0
  6
CONTINUOUS
 62
              80
  5
69B
 10
361.418139
 20
25.525991000000001
 30
0.0
  0
VERTEX
  8
0
  6
CONTINUOUS
 62
              80
  5
69C
 10
361.39514300000002
 20
25.475477999999999
 30
0.0
  0
VERTEX
  8
0
  6
CONTINUOUS
 62
              80
  5
69D
 10
361.37136199999998
 20
25.425332000000001
 30
0.0
  0
VERTEX
  8
0
  6
CONTINUOUS
 62
              80
  5
69E
 10
361.34680800000001
 20
25.375564000000001
 30
0.0
  0
VERTEX
  8
0
  6
CONTINUOUS
 62
              80
  5
69F
 10
361.32149399999997
 20
25.326183
 30
0.0
  0
VERTEX
  8
0
  6
CONTINUOUS
 62
              80
  5
6A0
 10
361.29543000000001
 20
25.277201000000002
 30
0.0
  0
VERTEX
  8
0
  6
CONTINUOUS
 62
              80
  5
6A1
 10
361.26862899999998
 20
25.228628
 30
0.0
  0
VERTEX
  8
0
  6
CONTINUOUS
 62
              80
  5
6A2
 10
361.24110300000001
 20
25.180475000000001
 30
0.0
  0
VERTEX
  8
0
  6
CONTINUOUS
 62
              80
  5
6A3
 10
361.21286500000002
 20
25.132752
 30
0.0
  0
VERTEX
  8
0
  6
CONTINUOUS
 62
              80
  5
6A4
 10
361.18392499999999
 20
25.085469
 30
0.0
  0
VERTEX
  8
0
  6
CONTINUOUS
 62
              80
  5
6A5
 10
361.15429499999999
 20
25.038637999999999
 30
0.0
  0
VERTEX
  8
0
  6
CONTINUOUS
 62
              80
  5
6A6
 10
361.12398899999999
 20
24.992267999999999
 30
0.0
  0
VERTEX
  8
0
  6
CONTINUOUS
 62
              80
  5
6A7
 10
361.09301699999997
 20
24.946370999999999
 30
0.0
  0
VERTEX
  8
0
  6
CONTINUOUS
 62
              80
  5
6A8
 10
361.06139300000001
 20
24.900956000000001
 30
0.0
  0
SEQEND
  8
0
  6
CONTINUOUS
 62
              80
  5
6A9
  0
POLYLINE
  8
0
  6
CONTINUOUS
 62
              80
  5
182
 66
               1
 10
0.0
 20
0.0
 30
0.0
  0
VERTEX
  8
0
  6
CONTINUOUS
 62
              80
  5
6AA
 10
380.35159299999998
 20
26.302612
 30
0.0
  0
VERTEX
  8
0
  6
CONTINUOUS
 62
              80
  5
6AB
 10
380.33168000000001
 20
26.235296999999999
 30
0.0
  0
VERTEX
  8
0
  6
CONTINUOUS
 62
              80
  5
6AC
 10
380.31023499999998
 20
26.168329
 30
0.0
  0
VERTEX
  8
0
  6
CONTINUOUS
 62
              80
  5
6AD
 10
380.287263
 20
26.101763999999999
 30
0.0
  0
VERTEX
  8
0
  6
CONTINUOUS
 62
              80
  5
6AE
 10
380.26277099999999
 20
26.035655999999999
 30
0.0
  0
VERTEX
  8
0
  6
CONTINUOUS
 62
              80
  5
6AF
 10
380.23676499999999
 20
25.970057000000001
 30
0.0
  0
VERTEX
  8
0
  6
CONTINUOUS
 62
              80
  5
6B0
 10
380.20925
 20
25.905021999999999
 30
0.0
  0
VERTEX
  8
0
  6
CONTINUOUS
 62
              80
  5
6B1
 10
380.18023199999999
 20
25.840606000000001
 30
0.0
  0
VERTEX
  8
0
  6
CONTINUOUS
 62
              80
  5
6B2
 10
380.149719
 20
25.776861
 30
0.0
  0
VERTEX
  8
0
  6
CONTINUOUS
 62
              80
  5
6B3
 10
380.11771399999998
 20
25.713840999999999
 30
0.0
  0
VERTEX
  8
0
  6
CONTINUOUS
 62
              80
  5
6B4
 10
380.084225
 20
25.651600999999999
 30
0.0
  0
VERTEX
  8
0
  6
CONTINUOUS
 62
              80
  5
6B5
 10
380.04925800000001
 20
25.590194
 30
0.0
  0
VERTEX
  8
0
  6
CONTINUOUS
 62
              80
  5
6B6
 10
380.01281699999998
 20
25.529675000000001
 30
0.0
  0
VERTEX
  8
0
  6
CONTINUOUS
 62
              80
  5
6B7
 10
379.97491000000002
 20
25.470096999999999
 30
0.0
  0
VERTEX
  8
0
  6
CONTINUOUS
 62
              80
  5
6B8
 10
379.935542
 20
25.411512999999999
 30
0.0
  0
VERTEX
  8
0
  6
CONTINUOUS
 62
              80
  5
6B9
 10
379.89471900000001
 20
25.353978000000001
 30
0.0
  0
VERTEX
  8
0
  6
CONTINUOUS
 62
              80
  5
6BA
 10
379.85244799999998
 20
25.297546000000001
 30
0.0
  0
VERTEX
  8
0
  6
CONTINUOUS
 62
              80
  5
6BB
 10
379.822563
 20
25.259430999999999
 30
0.0
  0
VERTEX
  8
0
  6
CONTINUOUS
 62
              80
  5
6BC
 10
379.79201399999999
 20
25.221865000000001
 30
0.0
  0
VERTEX
  8
0
  6
CONTINUOUS
 62
              80
  5
6BD
 10
379.76081599999998
 20
25.184854999999999
 30
0.0
  0
VERTEX
  8
0
  6
CONTINUOUS
 62
              80
  5
6BE
 10
379.72898500000002
 20
25.148402000000001
 30
0.0
  0
VERTEX
  8
0
  6
CONTINUOUS
 62
              80
  5
6BF
 10
379.69653799999998
 20
25.112511000000001
 30
0.0
  0
VERTEX
  8
0
  6
CONTINUOUS
 62
              80
  5
6C0
 10
379.66349200000002
 20
25.077185
 30
0.0
  0
VERTEX
  8
0
  6
CONTINUOUS
 62
              80
  5
6C1
 10
379.62986100000001
 20
25.042428000000001
 30
0.0
  0
VERTEX
  8
0
  6
CONTINUOUS
 62
              80
  5
6C2
 10
379.595663
 20
25.008243
 30
0.0
  0
VERTEX
  8
0
  6
CONTINUOUS
 62
              80
  5
6C3
 10
379.56091300000003
 20
24.974633999999998
 30
0.0
  0
VERTEX
  8
0
  6
CONTINUOUS
 62
              80
  5
6C4
 10
379.52562799999998
 20
24.941604999999999
 30
0.0
  0
VERTEX
  8
0
  6
CONTINUOUS
 62
              80
  5
6C5
 10
379.489824
 20
24.909158000000001
 30
0.0
  0
VERTEX
  8
0
  6
CONTINUOUS
 62
              80
  5
6C6
 10
379.45351799999997
 20
24.877299000000001
 30
0.0
  0
VERTEX
  8
0
  6
CONTINUOUS
 62
              80
  5
6C7
 10
379.41672499999999
 20
24.846029000000001
 30
0.0
  0
VERTEX
  8
0
  6
CONTINUOUS
 62
              80
  5
6C8
 10
379.37946199999999
 20
24.815353999999999
 30
0.0
  0
VERTEX
  8
0
  6
CONTINUOUS
 62
              80
  5
6C9
 10
379.34174400000001
 20
24.785274999999999
 30
0.0
  0
VERTEX
  8
0
  6
CONTINUOUS
 62
              80
  5
6CA
 10
379.30358899999999
 20
24.755797999999999
 30
0.0
  0
SEQEND
  8
0
  6
CONTINUOUS
 62
              80
  5
6CB
  0
TEXT
  8
0
  6
CONTINUOUS
 62
               3
  5
183
 10
270.45211798447792
 20
55.331558000000001
 30
0.0
 40
3.0
  1
ＮＯ．
 41
0.7812499689559154
  7
MX_NOTE_STANDARD
 11
270.45211798447792
 21
56.831558000000001
 31
0.0
 73
               2
  0
TEXT
  8
0
  6
CONTINUOUS
 62
               3
  5
184
 10
279.93289697451468
 20
55.277695000000001
 30
0.0
 40
2.0
  1
ＮAＭＥ　ＯＦ　ＰＡＲＴＳ
 41
0.7913959235440568
  7
MX_NOTE_STANDARD
 11
279.93289697451468
 21
56.277695000000001
 31
0.0
 73
               2
  0
TEXT
  8
0
  6
CONTINUOUS
 62
               3
  5
185
 10
305.89977998447796
 20
55.054625999999999
 30
0.0
 40
3.0
  1
品名
 41
0.7812499689559154
  7
MX_NOTE_STANDARD
 11
305.89977998447796
 21
56.554625999999999
 31
0.0
 73
               2
  0
TEXT
  8
0
  6
CONTINUOUS
 62
               3
  5
186
 10
317.53106698447795
 20
53.946883999999997
 30
0.0
 40
3.0
  1
数量
 41
0.7812499689559154
  7
MX_NOTE_STANDARD
 11
317.53106698447795
 21
55.446883999999997
 31
0.0
 73
               2
  0
TEXT
  8
0
  6
CONTINUOUS
 62
               3
  5
187
 10
341.90130598447791
 20
55.054625999999999
 30
0.0
 40
3.0
  1
材質
 41
0.7812499689559154
  7
MX_NOTE_STANDARD
 11
341.90130598447791
 21
56.554625999999999
 31
0.0
 73
               2
  0
TEXT
  8
0
  6
CONTINUOUS
 62
               3
  5
188
 10
387.31860398447793
 20
55.331558000000001
 30
0.0
 40
3.0
  1
備考
 41
0.7812499689559154
  7
MX_NOTE_STANDARD
 11
387.31860398447793
 21
56.831558000000001
 31
0.0
 73
               2
  0
TEXT
  8
0
  6
CONTINUOUS
 62
               3
  5
189
 10
314.82328295653826
 20
57.770111
 30
0.0
 40
2.0
  1
Ｃｏ．Ｎｏ．
 41
0.7812498696148448
  7
MX_NOTE_STANDARD
 11
314.82328295653826
 21
58.770111
 31
0.0
 73
               2
  0
TEXT
  8
0
  6
CONTINUOUS
 62
               3
  5
18A
 10
330.33164495653824
 20
55.554625999999999
 30
0.0
 40
2.0
  1
ＭＴＲＬ
 41
0.7812498696148448
  7
MX_NOTE_STANDARD
 11
330.33164495653824
 21
56.554625999999999
 31
0.0
 73
               2
  0
TEXT
  8
0
  6
CONTINUOUS
 62
               3
  5
18B
 10
356.91739895653825
 20
55.554625999999999
 30
0.0
 40
2.0
  1
ＮＯＴＥ　Ａ　ＲＥＭＡＲＫ
 41
0.7812498696148448
  7
MX_NOTE_STANDARD
 11
356.91739895653825
 21
56.554625999999999
 31
0.0
 73
               2
  0
TEXT
  8
0
  6
CONTINUOUS
 62
               3
  5
18C
 10
272.90188337169798
 20
61.5
 30
0.0
 40
3.0
  1
1
 41
1.6537657433960282
  7
MX_NOTE_STANDARD
 11
272.90188337169798
 21
63.0
 31
0.0
 73
               2
  0
TEXT
  8
0
  6
CONTINUOUS
 62
               3
  5
18D
 10
272.60000502414636
 20
73.5
 30
0.0
 40
3.0
  1
3
 41
1.0500100482927037
  7
MX_NOTE_STANDARD
 11
272.60000502414636
 21
75.0
 31
0.0
 73
               2
  0
TEXT
  8
0
  6
CONTINUOUS
 62
               3
  5
18E
 10
272.60000502414636
 20
79.5
 30
0.0
 40
3.0
  1
4
 41
1.0500100482927037
  7
MX_NOTE_STANDARD
 11
272.60000502414636
 21
81.0
 31
0.0
 73
               2
  0
TEXT
  8
0
  6
CONTINUOUS
 62
               3
  5
18F
 10
272.60000502414636
 20
85.5
 30
0.0
 40
3.0
  1
5
 41
1.0500100482927037
  7
MX_NOTE_STANDARD
 11
272.60000502414636
 21
87.0
 31
0.0
 73
               2
  0
TEXT
  8
0
  6
CONTINUOUS
 62
               3
  5
190
 10
272.60000502414636
 20
67.5
 30
0.0
 40
3.0
  1
2
 41
1.0500100482927037
  7
MX_NOTE_STANDARD
 11
272.60000502414636
 21
69.0
 31
0.0
 73
               2
  0
TEXT
  8
0
  6
CONTINUOUS
 62
               3
  5
191
 10
45.876568781932576
 20
282.24998499999998
 30
0.0
 40
2.5
  1
1
 41
1.653765676638189
  7
MX_NOTE_STANDARD
 11
45.876568781932576
 21
283.49998499999998
 31
0.0
 73
               2
  0
TEXT
  8
0
  6
CONTINUOUS
 62
               3
  5
192
 10
92.375003992306191
 20
282.24998499999998
 30
0.0
 40
2.5
  1
2
 41
1.0500099815348627
  7
MX_NOTE_STANDARD
 11
92.375003992306191
 21
283.49998499999998
 31
0.0
 73
               2
  0
TEXT
  8
0
  6
CONTINUOUS
 62
               3
  5
193
 10
139.1250039923062
 20
282.24998499999998
 30
0.0
 40
2.5
  1
3
 41
1.0500099815348627
  7
MX_NOTE_STANDARD
 11
139.1250039923062
 21
283.49998499999998
 31
0.0
 73
               2
  0
TEXT
  8
0
  6
CONTINUOUS
 62
               3
  5
194
 10
185.8750039923062
 20
282.24998499999998
 30
0.0
 40
2.5
  1
4
 41
1.0500099815348627
  7
MX_NOTE_STANDARD
 11
185.8750039923062
 21
283.49998499999998
 31
0.0
 73
               2
  0
TEXT
  8
0
  6
CONTINUOUS
 62
               3
  5
195
 10
19.500003992306194
 20
257.24998499999998
 30
0.0
 40
2.5
  1
A
 41
1.0500099815348627
  7
MX_NOTE_STANDARD
 11
19.500003992306194
 21
258.49998499999998
 31
0.0
 73
               2
  0
TEXT
  8
0
  6
CONTINUOUS
 62
               3
  5
196
 10
19.500003992306194
 20
213.24999
 30
0.0
 40
2.5
  1
B
 41
1.0500099815348627
  7
MX_NOTE_STANDARD
 11
19.500003992306194
 21
214.49999
 31
0.0
 73
               2
  0
TEXT
  8
0
  6
CONTINUOUS
 62
               3
  5
197
 10
19.500003992306194
 20
169.24999600000001
 30
0.0
 40
2.5
  1
C
 41
1.0500099815348627
  7
MX_NOTE_STANDARD
 11
19.500003992306194
 21
170.49999600000001
 31
0.0
 73
               2
  0
TEXT
  8
0
  6
CONTINUOUS
 62
               3
  5
198
 10
19.500003992306194
 20
125.25
 30
0.0
 40
2.5
  1
D
 41
1.0500099815348627
  7
MX_NOTE_STANDARD
 11
19.500003992306194
 21
126.5
 31
0.0
 73
               2
  0
TEXT
  8
0
  6
CONTINUOUS
 62
               3
  5
199
 10
19.500003992306194
 20
81.249992000000006
 30
0.0
 40
2.5
  1
E
 41
1.0500099815348627
  7
MX_NOTE_STANDARD
 11
19.500003992306194
 21
82.499992000000006
 31
0.0
 73
               2
  0
TEXT
  8
0
  6
CONTINUOUS
 62
               3
  5
19A
 10
19.500003992306194
 20
37.25
 30
0.0
 40
2.5
  1
F
 41
1.0500099815348627
  7
MX_NOTE_STANDARD
 11
19.500003992306194
 21
38.5
 31
0.0
 73
               2
  0
TEXT
  8
0
  6
CONTINUOUS
 62
               3
  5
19B
 10
399.00000399230618
 20
81.249992000000006
 30
0.0
 40
2.5
  1
E
 41
1.0500099815348627
  7
MX_NOTE_STANDARD
 11
399.00000399230618
 21
82.499992000000006
 31
0.0
 73
               2
  0
TEXT
  8
0
  6
CONTINUOUS
 62
               3
  5
19C
 10
399.00000399230618
 20
257.24998499999998
 30
0.0
 40
2.5
  1
A
 41
1.0500099815348627
  7
MX_NOTE_STANDARD
 11
399.00000399230618
 21
258.49998499999998
 31
0.0
 73
               2
  0
TEXT
  8
0
  6
CONTINUOUS
 62
               3
  5
19D
 10
399.00000399230618
 20
125.25
 30
0.0
 40
2.5
  1
D
 41
1.0500099815348627
  7
MX_NOTE_STANDARD
 11
399.00000399230618
 21
126.5
 31
0.0
 73
               2
  0
TEXT
  8
0
  6
CONTINUOUS
 62
               3
  5
19E
 10
399.00000399230618
 20
213.24999
 30
0.0
 40
2.5
  1
B
 41
1.0500099815348627
  7
MX_NOTE_STANDARD
 11
399.00000399230618
 21
214.49999
 31
0.0
 73
               2
  0
TEXT
  8
0
  6
CONTINUOUS
 62
               3
  5
19F
 10
399.00000399230618
 20
37.25
 30
0.0
 40
2.5
  1
F
 41
1.0500099815348627
  7
MX_NOTE_STANDARD
 11
399.00000399230618
 21
38.5
 31
0.0
 73
               2
  0
TEXT
  8
0
  6
CONTINUOUS
 62
               3
  5
1A0
 10
399.00000399230618
 20
169.24999600000001
 30
0.0
 40
2.5
  1
C
 41
1.0500099815348627
  7
MX_NOTE_STANDARD
 11
399.00000399230618
 21
170.49999600000001
 31
0.0
 73
               2
  0
TEXT
  8
0
  6
CONTINUOUS
 62
               3
  5
1A1
 10
272.36224399882855
 20
276.39998497615812
 30
0.0
 40
3.2000000476837158
  1
日　付
 41
0.7916669860068115
  7
MX_NOTE_STANDARD
 11
272.36224399882855
 21
277.99998499999998
 31
0.0
 73
               2
  0
TEXT
  8
0
  6
CONTINUOUS
 62
               3
  5
1A2
 10
286.38220299882857
 20
276.39998497615812
 30
0.0
 40
3.2000000476837158
  1
符号
 41
0.7916669860068115
  7
MX_NOTE_STANDARD
 11
286.38220299882857
 21
277.99998499999998
 31
0.0
 73
               2
  0
TEXT
  8
0
  6
CONTINUOUS
 62
               3
  5
1A3
 10
333.2222299988286
 20
276.39998497615812
 30
0.0
 40
3.2000000476837158
  1
訂　　正　　事　　項
 41
0.7916669860068115
  7
MX_NOTE_STANDARD
 11
333.2222299988286
 21
277.99998499999998
 31
0.0
 73
               2
  0
TEXT
  8
0
  6
CONTINUOUS
 62
               3
  5
1A4
 10
387.86224399882855
 20
276.39998497615812
 30
0.0
 40
3.2000000476837158
  1
訂正者
 41
0.7916669860068115
  7
MX_NOTE_STANDARD
 11
387.86224399882855
 21
277.99998499999998
 31
0.0
 73
               2
  0
TEXT
  8
0
  6
CONTINUOUS
 62
               3
  5
1A5
 10
271.61031309474117
 20
34.5
 30
0.0
 40
2.0
  1
CONFIRMED By
 41
0.813081284223433
  7
MX_NOTE_STANDARD
 11
271.61031309474117
 21
35.5
 31
0.0
 73
               2
  0
TEXT
  8
0
  6
CONTINUOUS
 62
               3
  5
1A6
 10
290.61031309474117
 20
34.5
 30
0.0
 40
2.0
  1
SECTION HEAD
 41
0.813081284223433
  7
MX_NOTE_STANDARD
 11
290.61031309474117
 21
35.5
 31
0.0
 73
               2
  0
TEXT
  8
0
  6
CONTINUOUS
 62
               3
  5
1A7
 10
276.62083300304101
 20
30.5
 30
0.0
 40
3.0
  1
確認者
 41
0.7916670060819915
  7
MX_NOTE_STANDARD
 11
276.62083300304101
 21
32.0
 31
0.0
 73
               2
  0
TEXT
  8
0
  6
CONTINUOUS
 62
               3
  5
1A8
 10
295.62083300304101
 20
30.5
 30
0.0
 40
3.0
  1
部門長
 41
0.7916670060819915
  7
MX_NOTE_STANDARD
 11
295.62083300304101
 21
32.0
 31
0.0
 73
               2
  0
TEXT
  8
0
  6
CONTINUOUS
 62
               3
  5
1A9
 10
313.12694804979759
 20
33.0
 30
0.0
 40
3.0
  1
ARROW ELECTRONICS IND. CO.,LTD.
 41
0.9980740995950784
  7
MX_NOTE_STANDARD
 11
313.12694804979759
 21
34.5
 31
0.0
 73
               2
  0
TEXT
  8
0
  6
CONTINUOUS
 62
               3
  5
1AA
 10
232.6250039923062
 20
282.24998499999998
 30
0.0
 40
2.5
  1
5
 41
1.0500099815348627
  7
MX_NOTE_STANDARD
 11
232.6250039923062
 21
283.49998499999998
 31
0.0
 73
               2
  0
TEXT
  8
0
  6
CONTINUOUS
 62
               3
  5
1AB
 10
279.37500399230618
 20
282.24998499999998
 30
0.0
 40
2.5
  1
6
 41
1.0500099815348627
  7
MX_NOTE_STANDARD
 11
279.37500399230618
 21
283.49998499999998
 31
0.0
 73
               2
  0
TEXT
  8
0
  6
CONTINUOUS
 62
               3
  5
1AC
 10
326.12500399230618
 20
282.24998499999998
 30
0.0
 40
2.5
  1
7
 41
1.0500099815348627
  7
MX_NOTE_STANDARD
 11
326.12500399230618
 21
283.49998499999998
 31
0.0
 73
               2
  0
TEXT
  8
0
  6
CONTINUOUS
 62
               3
  5
1AD
 10
372.87500399230618
 20
282.24998499999998
 30
0.0
 40
2.5
  1
8
 41
1.0500099815348627
  7
MX_NOTE_STANDARD
 11
372.87500399230618
 21
283.49998499999998
 31
0.0
 73
               2
  0
TEXT
  8
0
  6
CONTINUOUS
 62
               3
  5
1AE
 10
45.876568781932576
 20
12.25
 30
0.0
 40
2.5
  1
1
 41
1.653765676638189
  7
MX_NOTE_STANDARD
 11
45.876568781932576
 21
13.5
 31
0.0
 73
               2
  0
TEXT
  8
0
  6
CONTINUOUS
 62
               3
  5
1AF
 10
92.375003992306191
 20
12.25
 30
0.0
 40
2.5
  1
2
 41
1.0500099815348627
  7
MX_NOTE_STANDARD
 11
92.375003992306191
 21
13.5
 31
0.0
 73
               2
  0
TEXT
  8
0
  6
CONTINUOUS
 62
               3
  5
1B0
 10
139.1250039923062
 20
12.25
 30
0.0
 40
2.5
  1
3
 41
1.0500099815348627
  7
MX_NOTE_STANDARD
 11
139.1250039923062
 21
13.5
 31
0.0
 73
               2
  0
TEXT
  8
0
  6
CONTINUOUS
 62
               3
  5
1B1
 10
185.8750039923062
 20
12.25
 30
0.0
 40
2.5
  1
4
 41
1.0500099815348627
  7
MX_NOTE_STANDARD
 11
185.8750039923062
 21
13.5
 31
0.0
 73
               2
  0
TEXT
  8
0
  6
CONTINUOUS
 62
               3
  5
1B2
 10
232.6250039923062
 20
12.25
 30
0.0
 40
2.5
  1
5
 41
1.0500099815348627
  7
MX_NOTE_STANDARD
 11
232.6250039923062
 21
13.5
 31
0.0
 73
               2
  0
TEXT
  8
0
  6
CONTINUOUS
 62
               3
  5
1B3
 10
279.37500399230618
 20
12.25
 30
0.0
 40
2.5
  1
6
 41
1.0500099815348627
  7
MX_NOTE_STANDARD
 11
279.37500399230618
 21
13.5
 31
0.0
 73
               2
  0
TEXT
  8
0
  6
CONTINUOUS
 62
               3
  5
1B4
 10
326.12500399230618
 20
12.25
 30
0.0
 40
2.5
  1
7
 41
1.0500099815348627
  7
MX_NOTE_STANDARD
 11
326.12500399230618
 21
13.5
 31
0.0
 73
               2
  0
TEXT
  8
0
  6
CONTINUOUS
 62
               3
  5
1B5
 10
372.87500399230618
 20
12.25
 30
0.0
 40
2.5
  1
8
 41
1.0500099815348627
  7
MX_NOTE_STANDARD
 11
372.87500399230618
 21
13.5
 31
0.0
 73
               2
  0
TEXT
  8
0
  6
CONTINUOUS
 62
               3
  5
1B6
 10
235.54874988679168
 20
49.019767000000002
 30
0.0
 40
2.5
  1
TITLE　図名
 41
0.9193547282999833
  7
MX_NOTE_STANDARD
 11
235.54874988679168
 21
50.269767000000002
 31
0.0
 73
               2
  0
TEXT
  8
0
  6
CONTINUOUS
 62
               3
  5
1B7
 10
341.77612776889993
 20
48.737588000000002
 30
0.0
 40
2.5
  1
DRAWING.No.　図番
 41
1.002512445359764
  7
MX_NOTE_STANDARD
 11
341.77612776889993
 21
49.987588000000002
 31
0.0
 73
               2
  0
TEXT
  8
0
  6
CONTINUOUS
 62
               3
  5
1B8
 10
285.41737395653831
 20
48.815311000000001
 30
0.0
 40
2.5
  1
TYPE　型式
 41
0.8749998956918736
  7
MX_NOTE_STANDARD
 11
285.41737395653831
 21
50.065311000000001
 31
0.0
 73
               2
  0
TEXT
  8
0
  6
CONTINUOUS
 62
               3
  5
1B9
 10
234.3753190178773
 20
34.5
 30
0.0
 40
2.0
  1
DESIGN DATE
 41
0.8179210536318921
  7
MX_NOTE_STANDARD
 11
234.3753190178773
 21
35.5
 31
0.0
 73
               2
  0
TEXT
  8
0
  6
CONTINUOUS
 62
               3
  5
1BA
 10
234.3753190178773
 20
24.0
 30
0.0
 40
2.0
  1
DESIGNED BY
 41
0.8179210536318921
  7
MX_NOTE_STANDARD
 11
234.3753190178773
 21
25.0
 31
0.0
 73
               2
  0
TEXT
  8
0
  6
CONTINUOUS
 62
               3
  5
1BB
 10
255.14236101357207
 20
23.75
 30
0.0
 40
2.5
  1
設計者
 41
0.7916670325729436
  7
MX_NOTE_STANDARD
 11
255.14236101357207
 21
25.0
 31
0.0
 73
               2
  0
TEXT
  8
0
  6
CONTINUOUS
 62
               3
  5
1BC
 10
255.14236101357207
 20
34.25
 30
0.0
 40
2.5
  1
設計日
 41
0.7916670325729436
  7
MX_NOTE_STANDARD
 11
255.14236101357207
 21
35.5
 31
0.0
 73
               2
  0
SOLID
  8
0
  6
CONTINUOUS
 62
              80
  5
1BD
 10
336.328644
 20
26.732116999999999
 30
0.0
 11
336.82870500000001
 21
26.732116999999999
 31
0.0
 12
336.328644
 22
26.142761
 32
0.0
 13
336.82870500000001
 23
26.142761
 33
0.0
  0
SOLID
  8
0
  6
CONTINUOUS
 62
              80
  5
1BE
 10
338.61431900000002
 20
27.232116999999999
 30
0.0
 11
339.54287699999998
 21
27.232116999999999
 31
0.0
 12
338.61431900000002
 22
26.142761
 32
0.0
 13
339.54287699999998
 23
26.142761
 33
0.0
  0
SOLID
  8
0
  6
CONTINUOUS
 62
              80
  5
1BF
 10
341.32849099999999
 20
26.732116999999999
 30
0.0
 11
341.82870500000001
 21
26.732116999999999
 31
0.0
 12
341.32849099999999
 22
26.142761
 32
0.0
 13
341.82870500000001
 23
26.142761
 33
0.0
  0
SOLID
  8
0
  6
CONTINUOUS
 62
              80
  5
1C0
 10
336.68572999999998
 20
25.439330999999999
 30
0.0
 11
337.17150900000001
 21
25.439330999999999
 31
0.0
 12
336.68572999999998
 22
24.489258
 32
0.0
 13
337.17150900000001
 23
24.489258
 33
0.0
  0
SOLID
  8
0
  6
CONTINUOUS
 62
              80
  5
1C1
 10
340.98568699999998
 20
25.439330999999999
 30
0.0
 11
341.47152699999998
 21
25.439330999999999
 31
0.0
 12
340.98568699999998
 22
24.489258
 32
0.0
 13
341.47152699999998
 23
24.489258
 33
0.0
  0
SOLID
  8
0
  6
CONTINUOUS
 62
              80
  5
1C2
 10
332.257385
 20
25.643004999999999
 30
0.0
 11
335.68579099999999
 21
25.643004999999999
 31
0.0
 12
332.257385
 22
25.142761
 32
0.0
 13
335.68579099999999
 23
25.142761
 33
0.0
  0
SOLID
  8
0
  6
CONTINUOUS
 62
              80
  5
1C3
 10
355.92382800000001
 20
27.214233
 30
0.0
 11
356.10607900000002
 21
27.214233
 31
0.0
 12
356.22277800000001
 22
26.910644999999999
 32
0.0
 13
356.40505999999999
 23
26.910644999999999
 33
0.0
  0
SOLID
  8
0
  6
CONTINUOUS
 62
              80
  5
1C4
 10
356.82858299999998
 20
27.214233
 30
0.0
 11
357.18572999999998
 21
27.214233
 31
0.0
 12
356.82858299999998
 22
26.910644999999999
 32
0.0
 13
357.18572999999998
 23
26.910644999999999
 33
0.0
  0
SOLID
  8
0
  6
CONTINUOUS
 62
              80
  5
1C5
 10
358.40002399999997
 20
27.214233
 30
0.0
 11
358.75717200000003
 21
27.214233
 31
0.0
 12
358.40002399999997
 22
26.910644999999999
 32
0.0
 13
358.75717200000003
 23
26.910644999999999
 33
0.0
  0
SOLID
  8
0
  6
CONTINUOUS
 62
              80
  5
1C6
 10
359.47967499999999
 20
27.214233
 30
0.0
 11
359.66192599999999
 21
27.214233
 31
0.0
 12
359.18069500000001
 22
26.910644999999999
 32
0.0
 13
359.36294600000002
 23
26.910644999999999
 33
0.0
  0
SOLID
  8
0
  6
CONTINUOUS
 62
              80
  5
1C7
 10
356.20214800000002
 20
26.660644999999999
 30
0.0
 11
356.58010899999999
 21
26.660644999999999
 31
0.0
 12
356.43426499999998
 22
26.196411000000001
 32
0.0
 13
356.81222500000001
 23
26.196411000000001
 33
0.0
  0
SOLID
  8
0
  6
CONTINUOUS
 62
              80
  5
1C8
 10
359.00564600000001
 20
26.660644999999999
 30
0.0
 11
359.38363600000002
 21
26.660644999999999
 31
0.0
 12
358.773529
 22
26.196411000000001
 32
0.0
 13
359.15152
 23
26.196411000000001
 33
0.0
  0
SOLID
  8
0
  6
CONTINUOUS
 62
              80
  5
1C9
 10
357.40002399999997
 20
25.946411000000001
 30
0.0
 11
358.25717200000003
 21
25.946411000000001
 31
0.0
 12
357.40002399999997
 22
23.714233
 32
0.0
 13
358.25717200000003
 23
23.714233
 33
0.0
  0
SOLID
  8
0
  6
CONTINUOUS
 62
              80
  5
1CA
 10
374.55715900000001
 20
25.928528
 30
0.0
 11
377.55715900000001
 21
25.928528
 31
0.0
 12
374.55715900000001
 22
25.857116999999999
 32
0.0
 13
377.55715900000001
 23
25.857116999999999
 33
0.0
  0
SOLID
  8
0
  6
CONTINUOUS
 62
              80
  5
1CB
 10
379.42858899999999
 20
27.285706000000001
 30
0.0
 11
381.87146000000001
 21
27.285706000000001
 31
0.0
 12
379.42858899999999
 22
27.214233
 32
0.0
 13
381.87146000000001
 23
27.214233
 33
0.0
  0
POLYLINE
  8
0
  6
CONTINUOUS
 62
              80
  5
1CC
 66
               1
 10
0.0
 20
0.0
 30
0.0
  0
VERTEX
  8
0
  6
CONTINUOUS
 62
              80
  5
6CC
 10
363.97146600000002
 20
25.571411000000001
 30
0.0
  0
VERTEX
  8
0
  6
CONTINUOUS
 62
              80
  5
6CD
 10
363.94487800000002
 20
25.523004
 30
0.0
  0
VERTEX
  8
0
  6
CONTINUOUS
 62
              80
  5
6CE
 10
363.918002
 20
25.474753
 30
0.0
  0
VERTEX
  8
0
  6
CONTINUOUS
 62
              80
  5
6CF
 10
363.89083799999997
 20
25.426659999999998
 30
0.0
  0
VERTEX
  8
0
  6
CONTINUOUS
 62
              80
  5
6D0
 10
363.86338799999999
 20
25.378727000000001
 30
0.0
  0
VERTEX
  8
0
  6
CONTINUOUS
 62
              80
  5
6D1
 10
363.83565099999998
 20
25.330954999999999
 30
0.0
  0
VERTEX
  8
0
  6
CONTINUOUS
 62
              80
  5
6D2
 10
363.80762900000002
 20
25.283346999999999
 30
0.0
  0
VERTEX
  8
0
  6
CONTINUOUS
 62
              80
  5
6D3
 10
363.77932199999998
 20
25.235904000000001
 30
0.0
  0
VERTEX
  8
0
  6
CONTINUOUS
 62
              80
  5
6D4
 10
363.75073099999997
 20
25.18863
 30
0.0
  0
VERTEX
  8
0
  6
CONTINUOUS
 62
              80
  5
6D5
 10
363.721857
 20
25.141525000000001
 30
0.0
  0
VERTEX
  8
0
  6
CONTINUOUS
 62
              80
  5
6D6
 10
363.692701
 20
25.094591999999999
 30
0.0
  0
VERTEX
  8
0
  6
CONTINUOUS
 62
              80
  5
6D7
 10
363.66326299999997
 20
25.047832
 30
0.0
  0
VERTEX
  8
0
  6
CONTINUOUS
 62
              80
  5
6D8
 10
363.63354399999997
 20
25.001249000000001
 30
0.0
  0
VERTEX
  8
0
  6
CONTINUOUS
 62
              80
  5
6D9
 10
363.603544
 20
24.954843
 30
0.0
  0
VERTEX
  8
0
  6
CONTINUOUS
 62
              80
  5
6DA
 10
363.57326499999999
 20
24.908615999999999
 30
0.0
  0
VERTEX
  8
0
  6
CONTINUOUS
 62
              80
  5
6DB
 10
363.54270700000001
 20
24.862572
 30
0.0
  0
VERTEX
  8
0
  6
CONTINUOUS
 62
              80
  5
6DC
 10
363.51187099999999
 20
24.816711000000002
 30
0.0
  0
VERTEX
  8
0
  6
CONTINUOUS
 62
              80
  5
6DD
 10
363.47236700000002
 20
24.758818000000002
 30
0.0
  0
VERTEX
  8
0
  6
CONTINUOUS
 62
              80
  5
6DE
 10
363.43241799999998
 20
24.701226999999999
 30
0.0
  0
VERTEX
  8
0
  6
CONTINUOUS
 62
              80
  5
6DF
 10
363.39202999999998
 20
24.643940000000001
 30
0.0
  0
VERTEX
  8
0
  6
CONTINUOUS
 62
              80
  5
6E0
 10
363.35120599999999
 20
24.586960999999999
 30
0.0
  0
VERTEX
  8
0
  6
CONTINUOUS
 62
              80
  5
6E1
 10
363.30994900000002
 20
24.530293
 30
0.0
  0
VERTEX
  8
0
  6
CONTINUOUS
 62
              80
  5
6E2
 10
363.26826299999999
 20
24.473942000000001
 30
0.0
  0
VERTEX
  8
0
  6
CONTINUOUS
 62
              80
  5
6E3
 10
363.22615100000002
 20
24.417908000000001
 30
0.0
  0
VERTEX
  8
0
  6
CONTINUOUS
 62
              80
  5
6E4
 10
363.18361800000002
 20
24.362196999999998
 30
0.0
  0
VERTEX
  8
0
  6
CONTINUOUS
 62
              80
  5
6E5
 10
363.14066500000001
 20
24.306812000000001
 30
0.0
  0
VERTEX
  8
0
  6
CONTINUOUS
 62
              80
  5
6E6
 10
363.09729800000002
 20
24.251756
 30
0.0
  0
VERTEX
  8
0
  6
CONTINUOUS
 62
              80
  5
6E7
 10
363.05351999999999
 20
24.197032
 30
0.0
  0
VERTEX
  8
0
  6
CONTINUOUS
 62
              80
  5
6E8
 10
363.00933400000002
 20
24.142645000000002
 30
0.0
  0
VERTEX
  8
0
  6
CONTINUOUS
 62
              80
  5
6E9
 10
362.964743
 20
24.088597
 30
0.0
  0
VERTEX
  8
0
  6
CONTINUOUS
 62
              80
  5
6EA
 10
362.91975200000002
 20
24.034893
 30
0.0
  0
VERTEX
  8
0
  6
CONTINUOUS
 62
              80
  5
6EB
 10
362.87436400000001
 20
23.981535000000001
 30
0.0
  0
VERTEX
  8
0
  6
CONTINUOUS
 62
              80
  5
6EC
 10
362.82858299999998
 20
23.928528
 30
0.0
  0
SEQEND
  8
0
  6
CONTINUOUS
 62
              80
  5
6ED
  0
POLYLINE
  8
0
  6
CONTINUOUS
 62
              80
  5
1CD
 66
               1
 10
0.0
 20
0.0
 30
0.0
  0
VERTEX
  8
0
  6
CONTINUOUS
 62
              80
  5
6EE
 10
363.283638
 20
24.91011
 30
0.0
  0
VERTEX
  8
0
  6
CONTINUOUS
 62
              80
  5
6EF
 10
363.26824800000003
 20
24.887719000000001
 30
0.0
  0
VERTEX
  8
0
  6
CONTINUOUS
 62
              80
  5
6F0
 10
363.25279
 20
24.865373999999999
 30
0.0
  0
VERTEX
  8
0
  6
CONTINUOUS
 62
              80
  5
6F1
 10
363.23726299999998
 20
24.843076
 30
0.0
  0
VERTEX
  8
0
  6
CONTINUOUS
 62
              80
  5
6F2
 10
363.22166800000002
 20
24.820824000000002
 30
0.0
  0
VERTEX
  8
0
  6
CONTINUOUS
 62
              80
  5
6F3
 10
363.206005
 20
24.79862
 30
0.0
  0
VERTEX
  8
0
  6
CONTINUOUS
 62
              80
  5
6F4
 10
363.19027499999999
 20
24.776461999999999
 30
0.0
  0
VERTEX
  8
0
  6
CONTINUOUS
 62
              80
  5
6F5
 10
363.17447600000003
 20
24.754351
 30
0.0
  0
VERTEX
  8
0
  6
CONTINUOUS
 62
              80
  5
6F6
 10
363.15861100000001
 20
24.732288
 30
0.0
  0
VERTEX
  8
0
  6
CONTINUOUS
 62
              80
  5
6F7
 10
363.14267799999999
 20
24.710272
 30
0.0
  0
VERTEX
  8
0
  6
CONTINUOUS
 62
              80
  5
6F8
 10
363.12667800000003
 20
24.688305
 30
0.0
  0
VERTEX
  8
0
  6
CONTINUOUS
 62
              80
  5
6F9
 10
363.110612
 20
24.666384999999998
 30
0.0
  0
VERTEX
  8
0
  6
CONTINUOUS
 62
              80
  5
6FA
 10
363.09447899999998
 20
24.644514000000001
 30
0.0
  0
VERTEX
  8
0
  6
CONTINUOUS
 62
              80
  5
6FB
 10
363.07828000000001
 20
24.622692000000001
 30
0.0
  0
VERTEX
  8
0
  6
CONTINUOUS
 62
              80
  5
6FC
 10
363.06201499999997
 20
24.600918
 30
0.0
  0
VERTEX
  8
0
  6
CONTINUOUS
 62
              80
  5
6FD
 10
363.04568499999999
 20
24.579193
 30
0.0
  0
VERTEX
  8
0
  6
CONTINUOUS
 62
              80
  5
6FE
 10
363.02928800000001
 20
24.557518000000002
 30
0.0
  0
SEQEND
  8
0
  6
CONTINUOUS
 62
              80
  5
6FF
  0
POLYLINE
  8
0
  6
CONTINUOUS
 62
              80
  5
1CE
 66
               1
 10
0.0
 20
0.0
 30
0.0
  0
VERTEX
  8
0
  6
CONTINUOUS
 62
              80
  5
700
 10
370.18576000000002
 20
27.428528
 30
0.0
  0
VERTEX
  8
0
  6
CONTINUOUS
 62
              80
  5
701
 10
370.19775800000002
 20
27.379061
 30
0.0
  0
VERTEX
  8
0
  6
CONTINUOUS
 62
              80
  5
702
 10
370.209948
 20
27.329637999999999
 30
0.0
  0
VERTEX
  8
0
  6
CONTINUOUS
 62
              80
  5
703
 10
370.222328
 20
27.280262
 30
0.0
  0
VERTEX
  8
0
  6
CONTINUOUS
 62
              80
  5
704
 10
370.23489699999999
 20
27.230931999999999
 30
0.0
  0
VERTEX
  8
0
  6
CONTINUOUS
 62
              80
  5
705
 10
370.24765300000001
 20
27.181650000000001
 30
0.0
  0
VERTEX
  8
0
  6
CONTINUOUS
 62
              80
  5
706
 10
370.26059700000002
 20
27.132414000000001
 30
0.0
  0
VERTEX
  8
0
  6
CONTINUOUS
 62
              80
  5
707
 10
370.27372500000001
 20
27.083227999999998
 30
0.0
  0
VERTEX
  8
0
  6
CONTINUOUS
 62
              80
  5
708
 10
370.287038
 20
27.034089999999999
 30
0.0
  0
VERTEX
  8
0
  6
CONTINUOUS
 62
              80
  5
709
 10
370.30053400000003
 20
26.985001
 30
0.0
  0
VERTEX
  8
0
  6
CONTINUOUS
 62
              80
  5
70A
 10
370.314212
 20
26.935963000000001
 30
0.0
  0
VERTEX
  8
0
  6
CONTINUOUS
 62
              80
  5
70B
 10
370.32807000000003
 20
26.886976000000001
 30
0.0
  0
VERTEX
  8
0
  6
CONTINUOUS
 62
              80
  5
70C
 10
370.342107
 20
26.838039999999999
 30
0.0
  0
VERTEX
  8
0
  6
CONTINUOUS
 62
              80
  5
70D
 10
370.35632199999998
 20
26.789155999999998
 30
0.0
  0
VERTEX
  8
0
  6
CONTINUOUS
 62
              80
  5
70E
 10
370.37071500000002
 20
26.740324000000001
 30
0.0
  0
VERTEX
  8
0
  6
CONTINUOUS
 62
              80
  5
70F
 10
370.38528200000002
 20
26.691545999999999
 30
0.0
  0
VERTEX
  8
0
  6
CONTINUOUS
 62
              80
  5
710
 10
370.40002399999997
 20
26.642821999999999
 30
0.0
  0
SEQEND
  8
0
  6
CONTINUOUS
 62
              80
  5
711
  0
POLYLINE
  8
0
  6
CONTINUOUS
 62
              80
  5
1CF
 66
               1
 10
0.0
 20
0.0
 30
0.0
  0
VERTEX
  8
0
  6
CONTINUOUS
 62
              80
  5
712
 10
370.29976399999998
 20
27.338467000000001
 30
0.0
  0
VERTEX
  8
0
  6
CONTINUOUS
 62
              80
  5
713
 10
370.31035500000002
 20
27.296354999999998
 30
0.0
  0
VERTEX
  8
0
  6
CONTINUOUS
 62
              80
  5
714
 10
370.32108499999998
 20
27.254276000000001
 30
0.0
  0
VERTEX
  8
0
  6
CONTINUOUS
 62
              80
  5
715
 10
370.331952
 20
27.212230000000002
 30
0.0
  0
VERTEX
  8
0
  6
CONTINUOUS
 62
              80
  5
716
 10
370.34295700000001
 20
27.170217999999998
 30
0.0
  0
VERTEX
  8
0
  6
CONTINUOUS
 62
              80
  5
717
 10
370.35409800000002
 20
27.128239000000001
 30
0.0
  0
VERTEX
  8
0
  6
CONTINUOUS
 62
              80
  5
718
 10
370.36537499999997
 20
27.086295
 30
0.0
  0
VERTEX
  8
0
  6
CONTINUOUS
 62
              80
  5
719
 10
370.37678699999998
 20
27.044385999999999
 30
0.0
  0
VERTEX
  8
0
  6
CONTINUOUS
 62
              80
  5
71A
 10
370.38833299999999
 20
27.002511999999999
 30
0.0
  0
VERTEX
  8
0
  6
CONTINUOUS
 62
              80
  5
71B
 10
370.400012
 20
26.960673
 30
0.0
  0
VERTEX
  8
0
  6
CONTINUOUS
 62
              80
  5
71C
 10
370.41182400000002
 20
26.918869999999998
 30
0.0
  0
VERTEX
  8
0
  6
CONTINUOUS
 62
              80
  5
71D
 10
370.423768
 20
26.877103999999999
 30
0.0
  0
VERTEX
  8
0
  6
CONTINUOUS
 62
              80
  5
71E
 10
370.43584299999998
 20
26.835374999999999
 30
0.0
  0
VERTEX
  8
0
  6
CONTINUOUS
 62
              80
  5
71F
 10
370.44804799999997
 20
26.793682
 30
0.0
  0
VERTEX
  8
0
  6
CONTINUOUS
 62
              80
  5
720
 10
370.46038299999998
 20
26.752026999999998
 30
0.0
  0
VERTEX
  8
0
  6
CONTINUOUS
 62
              80
  5
721
 10
370.472846
 20
26.71041
 30
0.0
  0
VERTEX
  8
0
  6
CONTINUOUS
 62
              80
  5
722
 10
370.48543799999999
 20
26.668831999999998
 30
0.0
  0
VERTEX
  8
0
  6
CONTINUOUS
 62
              80
  5
723
 10
370.48764299999999
 20
26.661598000000001
 30
0.0
  0
VERTEX
  8
0
  6
CONTINUOUS
 62
              80
  5
724
 10
370.48985199999998
 20
26.654364999999999
 30
0.0
  0
VERTEX
  8
0
  6
CONTINUOUS
 62
              80
  5
725
 10
370.49206400000003
 20
26.647134000000001
 30
0.0
  0
VERTEX
  8
0
  6
CONTINUOUS
 62
              80
  5
726
 10
370.494281
 20
26.639904000000001
 30
0.0
  0
VERTEX
  8
0
  6
CONTINUOUS
 62
              80
  5
727
 10
370.49650100000002
 20
26.632674999999999
 30
0.0
  0
VERTEX
  8
0
  6
CONTINUOUS
 62
              80
  5
728
 10
370.49872499999998
 20
26.625447999999999
 30
0.0
  0
VERTEX
  8
0
  6
CONTINUOUS
 62
              80
  5
729
 10
370.50095299999998
 20
26.618221999999999
 30
0.0
  0
VERTEX
  8
0
  6
CONTINUOUS
 62
              80
  5
72A
 10
370.50318499999997
 20
26.610997999999999
 30
0.0
  0
VERTEX
  8
0
  6
CONTINUOUS
 62
              80
  5
72B
 10
370.50542100000001
 20
26.603774999999999
 30
0.0
  0
VERTEX
  8
0
  6
CONTINUOUS
 62
              80
  5
72C
 10
370.50766099999998
 20
26.596554000000001
 30
0.0
  0
VERTEX
  8
0
  6
CONTINUOUS
 62
              80
  5
72D
 10
370.50990400000001
 20
26.589334000000001
 30
0.0
  0
VERTEX
  8
0
  6
CONTINUOUS
 62
              80
  5
72E
 10
370.51215200000001
 20
26.582115000000002
 30
0.0
  0
VERTEX
  8
0
  6
CONTINUOUS
 62
              80
  5
72F
 10
370.51440400000001
 20
26.574898000000001
 30
0.0
  0
VERTEX
  8
0
  6
CONTINUOUS
 62
              80
  5
730
 10
370.516659
 20
26.567682999999999
 30
0.0
  0
VERTEX
  8
0
  6
CONTINUOUS
 62
              80
  5
731
 10
370.51891899999998
 20
26.560469000000001
 30
0.0
  0
VERTEX
  8
0
  6
CONTINUOUS
 62
              80
  5
732
 10
370.52118200000001
 20
26.553256000000001
 30
0.0
  0
SEQEND
  8
0
  6
CONTINUOUS
 62
              80
  5
733
  0
POLYLINE
  8
0
  6
CONTINUOUS
 62
              80
  5
1D0
 66
               1
 10
0.0
 20
0.0
 30
0.0
  0
VERTEX
  8
0
  6
CONTINUOUS
 62
              80
  5
734
 10
371.18576000000002
 20
27.428528
 30
0.0
  0
VERTEX
  8
0
  6
CONTINUOUS
 62
              80
  5
735
 10
371.196685
 20
27.378554000000001
 30
0.0
  0
VERTEX
  8
0
  6
CONTINUOUS
 62
              80
  5
736
 10
371.20802600000002
 20
27.328654
 30
0.0
  0
VERTEX
  8
0
  6
CONTINUOUS
 62
              80
  5
737
 10
371.21978999999999
 20
27.278835999999998
 30
0.0
  0
VERTEX
  8
0
  6
CONTINUOUS
 62
              80
  5
738
 10
371.23198500000001
 20
27.229109000000001
 30
0.0
  0
VERTEX
  8
0
  6
CONTINUOUS
 62
              80
  5
739
 10
371.24461600000001
 20
27.179483000000001
 30
0.0
  0
VERTEX
  8
0
  6
CONTINUOUS
 62
              80
  5
73A
 10
371.25769100000002
 20
27.129966
 30
0.0
  0
VERTEX
  8
0
  6
CONTINUOUS
 62
              80
  5
73B
 10
371.27121699999998
 20
27.080568
 30
0.0
  0
VERTEX
  8
0
  6
CONTINUOUS
 62
              80
  5
73C
 10
371.28519899999998
 20
27.031298
 30
0.0
  0
VERTEX
  8
0
  6
CONTINUOUS
 62
              80
  5
73D
 10
371.299645
 20
26.982164999999998
 30
0.0
  0
VERTEX
  8
0
  6
CONTINUOUS
 62
              80
  5
73E
 10
371.31456100000003
 20
26.933177000000001
 30
0.0
  0
VERTEX
  8
0
  6
CONTINUOUS
 62
              80
  5
73F
 10
371.32995399999999
 20
26.884343999999999
 30
0.0
  0
VERTEX
  8
0
  6
CONTINUOUS
 62
              80
  5
740
 10
371.34582999999998
 20
26.835675999999999
 30
0.0
  0
VERTEX
  8
0
  6
CONTINUOUS
 62
              80
  5
741
 10
371.36219699999998
 20
26.787179999999999
 30
0.0
  0
VERTEX
  8
0
  6
CONTINUOUS
 62
              80
  5
742
 10
371.37906099999998
 20
26.738866000000002
 30
0.0
  0
VERTEX
  8
0
  6
CONTINUOUS
 62
              80
  5
743
 10
371.39642900000001
 20
26.690743999999999
 30
0.0
  0
VERTEX
  8
0
  6
CONTINUOUS
 62
              80
  5
744
 10
371.41430700000001
 20
26.642821999999999
 30
0.0
  0
SEQEND
  8
0
  6
CONTINUOUS
 62
              80
  5
745
  0
POLYLINE
  8
0
  6
CONTINUOUS
 62
              80
  5
1D1
 66
               1
 10
0.0
 20
0.0
 30
0.0
  0
VERTEX
  8
0
  6
CONTINUOUS
 62
              80
  5
746
 10
371.11428000000001
 20
27.338024999999998
 30
0.0
  0
VERTEX
  8
0
  6
CONTINUOUS
 62
              80
  5
747
 10
371.12491299999999
 20
27.291903999999999
 30
0.0
  0
VERTEX
  8
0
  6
CONTINUOUS
 62
              80
  5
748
 10
371.13590900000003
 20
27.245842
 30
0.0
  0
VERTEX
  8
0
  6
CONTINUOUS
 62
              80
  5
749
 10
371.14727099999999
 20
27.199847999999999
 30
0.0
  0
VERTEX
  8
0
  6
CONTINUOUS
 62
              80
  5
74A
 10
371.15900499999998
 20
27.153928000000001
 30
0.0
  0
VERTEX
  8
0
  6
CONTINUOUS
 62
              80
  5
74B
 10
371.17111699999998
 20
27.108089
 30
0.0
  0
VERTEX
  8
0
  6
CONTINUOUS
 62
              80
  5
74C
 10
371.18361199999998
 20
27.062338
 30
0.0
  0
VERTEX
  8
0
  6
CONTINUOUS
 62
              80
  5
74D
 10
371.19649600000002
 20
27.016680999999998
 30
0.0
  0
VERTEX
  8
0
  6
CONTINUOUS
 62
              80
  5
74E
 10
371.20977299999998
 20
26.971125000000001
 30
0.0
  0
VERTEX
  8
0
  6
CONTINUOUS
 62
              80
  5
74F
 10
371.22345000000001
 20
26.925678000000001
 30
0.0
  0
VERTEX
  8
0
  6
CONTINUOUS
 62
              80
  5
750
 10
371.23753199999999
 20
26.880345999999999
 30
0.0
  0
VERTEX
  8
0
  6
CONTINUOUS
 62
              80
  5
751
 10
371.25202300000001
 20
26.835135999999999
 30
0.0
  0
VERTEX
  8
0
  6
CONTINUOUS
 62
              80
  5
752
 10
371.26693
 20
26.790054999999999
 30
0.0
  0
VERTEX
  8
0
  6
CONTINUOUS
 62
              80
  5
753
 10
371.28225800000001
 20
26.74511
 30
0.0
  0
VERTEX
  8
0
  6
CONTINUOUS
 62
              80
  5
754
 10
371.29801300000003
 20
26.700308
 30
0.0
  0
VERTEX
  8
0
  6
CONTINUOUS
 62
              80
  5
755
 10
371.31419899999997
 20
26.655656
 30
0.0
  0
VERTEX
  8
0
  6
CONTINUOUS
 62
              80
  5
756
 10
371.33082300000001
 20
26.611160999999999
 30
0.0
  0
VERTEX
  8
0
  6
CONTINUOUS
 62
              80
  5
757
 10
371.33219000000003
 20
26.607562000000001
 30
0.0
  0
VERTEX
  8
0
  6
CONTINUOUS
 62
              80
  5
758
 10
371.33355899999998
 20
26.603964000000001
 30
0.0
  0
VERTEX
  8
0
  6
CONTINUOUS
 62
              80
  5
759
 10
371.33493199999998
 20
26.600366999999999
 30
0.0
  0
VERTEX
  8
0
  6
CONTINUOUS
 62
              80
  5
75A
 10
371.33630699999998
 20
26.596772000000001
 30
0.0
  0
VERTEX
  8
0
  6
CONTINUOUS
 62
              80
  5
75B
 10
371.33768400000002
 20
26.593178000000002
 30
0.0
  0
VERTEX
  8
0
  6
CONTINUOUS
 62
              80
  5
75C
 10
371.33906500000001
 20
26.589586000000001
 30
0.0
  0
VERTEX
  8
0
  6
CONTINUOUS
 62
              80
  5
75D
 10
371.34044799999998
 20
26.585995
 30
0.0
  0
VERTEX
  8
0
  6
CONTINUOUS
 62
              80
  5
75E
 10
371.34183400000001
 20
26.582405000000001
 30
0.0
  0
VERTEX
  8
0
  6
CONTINUOUS
 62
              80
  5
75F
 10
371.34322200000003
 20
26.578817000000001
 30
0.0
  0
VERTEX
  8
0
  6
CONTINUOUS
 62
              80
  5
760
 10
371.34461299999998
 20
26.575230000000001
 30
0.0
  0
VERTEX
  8
0
  6
CONTINUOUS
 62
              80
  5
761
 10
371.34600699999999
 20
26.571645
 30
0.0
  0
VERTEX
  8
0
  6
CONTINUOUS
 62
              80
  5
762
 10
371.34740399999998
 20
26.568061
 30
0.0
  0
VERTEX
  8
0
  6
CONTINUOUS
 62
              80
  5
763
 10
371.34880299999998
 20
26.564478000000001
 30
0.0
  0
VERTEX
  8
0
  6
CONTINUOUS
 62
              80
  5
764
 10
371.35020400000002
 20
26.560897000000001
 30
0.0
  0
VERTEX
  8
0
  6
CONTINUOUS
 62
              80
  5
765
 10
371.351609
 20
26.557317999999999
 30
0.0
  0
VERTEX
  8
0
  6
CONTINUOUS
 62
              80
  5
766
 10
371.35301600000003
 20
26.553739
 30
0.0
  0
SEQEND
  8
0
  6
CONTINUOUS
 62
              80
  5
767
  0
POLYLINE
  8
0
  6
CONTINUOUS
 62
              80
  5
1D2
 66
               1
 10
0.0
 20
0.0
 30
0.0
  0
VERTEX
  8
0
  6
CONTINUOUS
 62
              80
  5
768
 10
371.70004299999999
 20
26.0
 30
0.0
  0
VERTEX
  8
0
  6
CONTINUOUS
 62
              80
  5
769
 10
371.773529
 20
25.851220999999999
 30
0.0
  0
VERTEX
  8
0
  6
CONTINUOUS
 62
              80
  5
76A
 10
371.848274
 20
25.703039
 30
0.0
  0
VERTEX
  8
0
  6
CONTINUOUS
 62
              80
  5
76B
 10
371.924306
 20
25.555492999999998
 30
0.0
  0
VERTEX
  8
0
  6
CONTINUOUS
 62
              80
  5
76C
 10
372.00165299999998
 20
25.408626000000002
 30
0.0
  0
VERTEX
  8
0
  6
CONTINUOUS
 62
              80
  5
76D
 10
372.08034400000003
 20
25.262478000000002
 30
0.0
  0
VERTEX
  8
0
  6
CONTINUOUS
 62
              80
  5
76E
 10
372.16040800000002
 20
25.117093000000001
 30
0.0
  0
VERTEX
  8
0
  6
CONTINUOUS
 62
              80
  5
76F
 10
372.241873
 20
24.97251
 30
0.0
  0
VERTEX
  8
0
  6
CONTINUOUS
 62
              80
  5
770
 10
372.324769
 20
24.828771
 30
0.0
  0
VERTEX
  8
0
  6
CONTINUOUS
 62
              80
  5
771
 10
372.40912400000002
 20
24.685918999999998
 30
0.0
  0
VERTEX
  8
0
  6
CONTINUOUS
 62
              80
  5
772
 10
372.49496699999997
 20
24.543993
 30
0.0
  0
VERTEX
  8
0
  6
CONTINUOUS
 62
              80
  5
773
 10
372.58232600000002
 20
24.403036
 30
0.0
  0
VERTEX
  8
0
  6
CONTINUOUS
 62
              80
  5
774
 10
372.67123099999998
 20
24.263089999999998
 30
0.0
  0
VERTEX
  8
0
  6
CONTINUOUS
 62
              80
  5
775
 10
372.76170999999999
 20
24.124195
 30
0.0
  0
VERTEX
  8
0
  6
CONTINUOUS
 62
              80
  5
776
 10
372.853791
 20
23.986393
 30
0.0
  0
VERTEX
  8
0
  6
CONTINUOUS
 62
              80
  5
777
 10
372.94750399999998
 20
23.849724999999999
 30
0.0
  0
VERTEX
  8
0
  6
CONTINUOUS
 62
              80
  5
778
 10
373.04287699999998
 20
23.714233
 30
0.0
  0
SEQEND
  8
0
  6
CONTINUOUS
 62
              80
  5
779
  0
POLYLINE
  8
0
  6
CONTINUOUS
 62
              80
  5
1D3
 66
               1
 10
0.0
 20
0.0
 30
0.0
  0
VERTEX
  8
0
  6
CONTINUOUS
 62
              80
  5
77A
 10
371.55771399999998
 20
26.089227000000001
 30
0.0
  0
VERTEX
  8
0
  6
CONTINUOUS
 62
              80
  5
77B
 10
371.56156399999998
 20
26.081171999999999
 30
0.0
  0
VERTEX
  8
0
  6
CONTINUOUS
 62
              80
  5
77C
 10
371.56541800000002
 20
26.073121
 30
0.0
  0
VERTEX
  8
0
  6
CONTINUOUS
 62
              80
  5
77D
 10
371.569277
 20
26.065073000000002
 30
0.0
  0
VERTEX
  8
0
  6
CONTINUOUS
 62
              80
  5
77E
 10
371.57314200000002
 20
26.057030000000001
 30
0.0
  0
VERTEX
  8
0
  6
CONTINUOUS
 62
              80
  5
77F
 10
371.57700999999997
 20
26.048991000000001
 30
0.0
  0
VERTEX
  8
0
  6
CONTINUOUS
 62
              80
  5
780
 10
371.58088400000003
 20
26.040955
 30
0.0
  0
VERTEX
  8
0
  6
CONTINUOUS
 62
              80
  5
781
 10
371.58476100000001
 20
26.032923
 30
0.0
  0
VERTEX
  8
0
  6
CONTINUOUS
 62
              80
  5
782
 10
371.58864299999999
 20
26.024894
 30
0.0
  0
VERTEX
  8
0
  6
CONTINUOUS
 62
              80
  5
783
 10
371.59252900000001
 20
26.016869
 30
0.0
  0
VERTEX
  8
0
  6
CONTINUOUS
 62
              80
  5
784
 10
371.59641800000003
 20
26.008848
 30
0.0
  0
VERTEX
  8
0
  6
CONTINUOUS
 62
              80
  5
785
 10
371.60031199999997
 20
26.000830000000001
 30
0.0
  0
VERTEX
  8
0
  6
CONTINUOUS
 62
              80
  5
786
 10
371.60420800000003
 20
25.992815
 30
0.0
  0
VERTEX
  8
0
  6
CONTINUOUS
 62
              80
  5
787
 10
371.60810900000001
 20
25.984802999999999
 30
0.0
  0
VERTEX
  8
0
  6
CONTINUOUS
 62
              80
  5
788
 10
371.61201199999999
 20
25.976794999999999
 30
0.0
  0
VERTEX
  8
0
  6
CONTINUOUS
 62
              80
  5
789
 10
371.61591900000002
 20
25.968789999999998
 30
0.0
  0
VERTEX
  8
0
  6
CONTINUOUS
 62
              80
  5
78A
 10
371.61982799999998
 20
25.960788000000001
 30
0.0
  0
VERTEX
  8
0
  6
CONTINUOUS
 62
              80
  5
78B
 10
371.68884000000003
 20
25.820975000000001
 30
0.0
  0
VERTEX
  8
0
  6
CONTINUOUS
 62
              80
  5
78C
 10
371.75896499999999
 20
25.681664999999999
 30
0.0
  0
VERTEX
  8
0
  6
CONTINUOUS
 62
              80
  5
78D
 10
371.83022799999998
 20
25.542891999999998
 30
0.0
  0
VERTEX
  8
0
  6
CONTINUOUS
 62
              80
  5
78E
 10
371.90265199999999
 20
25.404689999999999
 30
0.0
  0
VERTEX
  8
0
  6
CONTINUOUS
 62
              80
  5
78F
 10
371.97626100000002
 20
25.267092999999999
 30
0.0
  0
VERTEX
  8
0
  6
CONTINUOUS
 62
              80
  5
790
 10
372.05108000000001
 20
25.130134999999999
 30
0.0
  0
VERTEX
  8
0
  6
CONTINUOUS
 62
              80
  5
791
 10
372.12713200000002
 20
24.993850999999999
 30
0.0
  0
VERTEX
  8
0
  6
CONTINUOUS
 62
              80
  5
792
 10
372.20444199999997
 20
24.858274000000002
 30
0.0
  0
VERTEX
  8
0
  6
CONTINUOUS
 62
              80
  5
793
 10
372.28303299999999
 20
24.723438999999999
 30
0.0
  0
VERTEX
  8
0
  6
CONTINUOUS
 62
              80
  5
794
 10
372.362931
 20
24.589379999999998
 30
0.0
  0
VERTEX
  8
0
  6
CONTINUOUS
 62
              80
  5
795
 10
372.44415800000002
 20
24.456130000000002
 30
0.0
  0
VERTEX
  8
0
  6
CONTINUOUS
 62
              80
  5
796
 10
372.52673900000002
 20
24.323725
 30
0.0
  0
VERTEX
  8
0
  6
CONTINUOUS
 62
              80
  5
797
 10
372.61069900000001
 20
24.192198999999999
 30
0.0
  0
VERTEX
  8
0
  6
CONTINUOUS
 62
              80
  5
798
 10
372.69605999999999
 20
24.061585000000001
 30
0.0
  0
VERTEX
  8
0
  6
CONTINUOUS
 62
              80
  5
799
 10
372.782848
 20
23.931919000000001
 30
0.0
  0
VERTEX
  8
0
  6
CONTINUOUS
 62
              80
  5
79A
 10
372.87108599999999
 20
23.803234
 30
0.0
  0
SEQEND
  8
0
  6
CONTINUOUS
 62
              80
  5
79B
  0
POLYLINE
  8
0
  6
CONTINUOUS
 62
              80
  5
1D4
 66
               1
 10
0.0
 20
0.0
 30
0.0
  0
VERTEX
  8
0
  6
CONTINUOUS
 62
              80
  5
79C
 10
370.61431900000002
 20
26.0
 30
0.0
  0
VERTEX
  8
0
  6
CONTINUOUS
 62
              80
  5
79D
 10
370.67028800000003
 20
25.850248000000001
 30
0.0
  0
VERTEX
  8
0
  6
CONTINUOUS
 62
              80
  5
79E
 10
370.72845599999999
 20
25.701252
 30
0.0
  0
VERTEX
  8
0
  6
CONTINUOUS
 62
              80
  5
79F
 10
370.788793
 20
25.553046999999999
 30
0.0
  0
VERTEX
  8
0
  6
CONTINUOUS
 62
              80
  5
7A0
 10
370.85127
 20
25.405667999999999
 30
0.0
  0
VERTEX
  8
0
  6
CONTINUOUS
 62
              80
  5
7A1
 10
370.91585700000002
 20
25.259150000000002
 30
0.0
  0
VERTEX
  8
0
  6
CONTINUOUS
 62
              80
  5
7A2
 10
370.98252500000001
 20
25.113527000000001
 30
0.0
  0
VERTEX
  8
0
  6
CONTINUOUS
 62
              80
  5
7A3
 10
371.05124499999999
 20
24.968834999999999
 30
0.0
  0
VERTEX
  8
0
  6
CONTINUOUS
 62
              80
  5
7A4
 10
371.12198599999999
 20
24.825106999999999
 30
0.0
  0
VERTEX
  8
0
  6
CONTINUOUS
 62
              80
  5
7A5
 10
371.19472000000002
 20
24.682380999999999
 30
0.0
  0
VERTEX
  8
0
  6
CONTINUOUS
 62
              80
  5
7A6
 10
371.26941699999998
 20
24.540689
 30
0.0
  0
VERTEX
  8
0
  6
CONTINUOUS
 62
              80
  5
7A7
 10
371.346047
 20
24.400068000000001
 30
0.0
  0
VERTEX
  8
0
  6
CONTINUOUS
 62
              80
  5
7A8
 10
371.42458199999999
 20
24.260551
 30
0.0
  0
VERTEX
  8
0
  6
CONTINUOUS
 62
              80
  5
7A9
 10
371.50499100000002
 20
24.122174999999999
 30
0.0
  0
VERTEX
  8
0
  6
CONTINUOUS
 62
              80
  5
7AA
 10
371.587245
 20
23.984973
 30
0.0
  0
VERTEX
  8
0
  6
CONTINUOUS
 62
              80
  5
7AB
 10
371.67131499999999
 20
23.848980999999998
 30
0.0
  0
VERTEX
  8
0
  6
CONTINUOUS
 62
              80
  5
7AC
 10
371.75717200000003
 20
23.714233
 30
0.0
  0
SEQEND
  8
0
  6
CONTINUOUS
 62
              80
  5
7AD
  0
POLYLINE
  8
0
  6
CONTINUOUS
 62
              80
  5
1D5
 66
               1
 10
0.0
 20
0.0
 30
0.0
  0
VERTEX
  8
0
  6
CONTINUOUS
 62
              80
  5
7AE
 10
370.67697299999998
 20
26.089193999999999
 30
0.0
  0
VERTEX
  8
0
  6
CONTINUOUS
 62
              80
  5
7AF
 10
370.67828900000001
 20
26.085531
 30
0.0
  0
VERTEX
  8
0
  6
CONTINUOUS
 62
              80
  5
7B0
 10
370.67960599999998
 20
26.081869000000001
 30
0.0
  0
VERTEX
  8
0
  6
CONTINUOUS
 62
              80
  5
7B1
 10
370.680924
 20
26.078206999999999
 30
0.0
  0
VERTEX
  8
0
  6
CONTINUOUS
 62
              80
  5
7B2
 10
370.68224400000003
 20
26.074546000000002
 30
0.0
  0
VERTEX
  8
0
  6
CONTINUOUS
 62
              80
  5
7B3
 10
370.68356499999999
 20
26.070885000000001
 30
0.0
  0
VERTEX
  8
0
  6
CONTINUOUS
 62
              80
  5
7B4
 10
370.684887
 20
26.067225000000001
 30
0.0
  0
VERTEX
  8
0
  6
CONTINUOUS
 62
              80
  5
7B5
 10
370.68621000000002
 20
26.063565000000001
 30
0.0
  0
VERTEX
  8
0
  6
CONTINUOUS
 62
              80
  5
7B6
 10
370.68753500000003
 20
26.059905000000001
 30
0.0
  0
VERTEX
  8
0
  6
CONTINUOUS
 62
              80
  5
7B7
 10
370.68886099999997
 20
26.056246000000002
 30
0.0
  0
VERTEX
  8
0
  6
CONTINUOUS
 62
              80
  5
7B8
 10
370.69018899999998
 20
26.052588
 30
0.0
  0
VERTEX
  8
0
  6
CONTINUOUS
 62
              80
  5
7B9
 10
370.69151699999998
 20
26.048929999999999
 30
0.0
  0
VERTEX
  8
0
  6
CONTINUOUS
 62
              80
  5
7BA
 10
370.69284699999997
 20
26.045272000000001
 30
0.0
  0
VERTEX
  8
0
  6
CONTINUOUS
 62
              80
  5
7BB
 10
370.69417800000002
 20
26.041615
 30
0.0
  0
VERTEX
  8
0
  6
CONTINUOUS
 62
              80
  5
7BC
 10
370.69551100000001
 20
26.037959000000001
 30
0.0
  0
VERTEX
  8
0
  6
CONTINUOUS
 62
              80
  5
7BD
 10
370.696845
 20
26.034302
 30
0.0
  0
VERTEX
  8
0
  6
CONTINUOUS
 62
              80
  5
7BE
 10
370.69817999999998
 20
26.030646999999998
 30
0.0
  0
VERTEX
  8
0
  6
CONTINUOUS
 62
              80
  5
7BF
 10
370.75263200000001
 20
25.884893999999999
 30
0.0
  0
VERTEX
  8
0
  6
CONTINUOUS
 62
              80
  5
7C0
 10
370.80918800000001
 20
25.739853
 30
0.0
  0
VERTEX
  8
0
  6
CONTINUOUS
 62
              80
  5
7C1
 10
370.86781999999999
 20
25.595556999999999
 30
0.0
  0
VERTEX
  8
0
  6
CONTINUOUS
 62
              80
  5
7C2
 10
370.92850099999998
 20
25.45204
 30
0.0
  0
VERTEX
  8
0
  6
CONTINUOUS
 62
              80
  5
7C3
 10
370.99120299999998
 20
25.309335999999998
 30
0.0
  0
VERTEX
  8
0
  6
CONTINUOUS
 62
              80
  5
7C4
 10
371.05589900000001
 20
25.167476000000001
 30
0.0
  0
VERTEX
  8
0
  6
CONTINUOUS
 62
              80
  5
7C5
 10
371.12256000000002
 20
25.026496000000002
 30
0.0
  0
VERTEX
  8
0
  6
CONTINUOUS
 62
              80
  5
7C6
 10
371.19116000000002
 20
24.886427000000001
 30
0.0
  0
VERTEX
  8
0
  6
CONTINUOUS
 62
              80
  5
7C7
 10
371.26166899999998
 20
24.747304
 30
0.0
  0
VERTEX
  8
0
  6
CONTINUOUS
 62
              80
  5
7C8
 10
371.33406200000002
 20
24.609159999999999
 30
0.0
  0
VERTEX
  8
0
  6
CONTINUOUS
 62
              80
  5
7C9
 10
371.40830899999997
 20
24.472028000000002
 30
0.0
  0
VERTEX
  8
0
  6
CONTINUOUS
 62
              80
  5
7CA
 10
371.48438299999998
 20
24.335940999999998
 30
0.0
  0
VERTEX
  8
0
  6
CONTINUOUS
 62
              80
  5
7CB
 10
371.56225699999999
 20
24.200932999999999
 30
0.0
  0
VERTEX
  8
0
  6
CONTINUOUS
 62
              80
  5
7CC
 10
371.64190100000002
 20
24.067038
 30
0.0
  0
VERTEX
  8
0
  6
CONTINUOUS
 62
              80
  5
7CD
 10
371.72328900000002
 20
23.934287000000001
 30
0.0
  0
VERTEX
  8
0
  6
CONTINUOUS
 62
              80
  5
7CE
 10
371.80639300000001
 20
23.802716
 30
0.0
  0
SEQEND
  8
0
  6
CONTINUOUS
 62
              80
  5
7CF
  0
POLYLINE
  8
0
  6
CONTINUOUS
 62
              80
  5
1D6
 66
               1
 10
0.0
 20
0.0
 30
0.0
  0
VERTEX
  8
0
  6
CONTINUOUS
 62
              80
  5
7D0
 10
370.18576000000002
 20
24.357116999999999
 30
0.0
  0
VERTEX
  8
0
  6
CONTINUOUS
 62
              80
  5
7D1
 10
370.11910499999999
 20
24.346088000000002
 30
0.0
  0
VERTEX
  8
0
  6
CONTINUOUS
 62
              80
  5
7D2
 10
370.05240500000002
 20
24.335279
 30
0.0
  0
VERTEX
  8
0
  6
CONTINUOUS
 62
              80
  5
7D3
 10
369.98566099999999
 20
24.324703
 30
0.0
  0
VERTEX
  8
0
  6
CONTINUOUS
 62
              80
  5
7D4
 10
369.91887300000002
 20
24.314374000000001
 30
0.0
  0
VERTEX
  8
0
  6
CONTINUOUS
 62
              80
  5
7D5
 10
369.85204299999998
 20
24.304302
 30
0.0
  0
VERTEX
  8
0
  6
CONTINUOUS
 62
              80
  5
7D6
 10
369.78517199999999
 20
24.294502999999999
 30
0.0
  0
VERTEX
  8
0
  6
CONTINUOUS
 62
              80
  5
7D7
 10
369.71825899999999
 20
24.284987000000001
 30
0.0
  0
VERTEX
  8
0
  6
CONTINUOUS
 62
              80
  5
7D8
 10
369.65130599999998
 20
24.275767999999999
 30
0.0
  0
VERTEX
  8
0
  6
CONTINUOUS
 62
              80
  5
7D9
 10
369.58431300000001
 20
24.266859
 30
0.0
  0
VERTEX
  8
0
  6
CONTINUOUS
 62
              80
  5
7DA
 10
369.51728200000002
 20
24.258272000000002
 30
0.0
  0
VERTEX
  8
0
  6
CONTINUOUS
 62
              80
  5
7DB
 10
369.45021200000002
 20
24.250019999999999
 30
0.0
  0
VERTEX
  8
0
  6
CONTINUOUS
 62
              80
  5
7DC
 10
369.383106
 20
24.242115999999999
 30
0.0
  0
VERTEX
  8
0
  6
CONTINUOUS
 62
              80
  5
7DD
 10
369.31596200000001
 20
24.234573000000001
 30
0.0
  0
VERTEX
  8
0
  6
CONTINUOUS
 62
              80
  5
7DE
 10
369.248783
 20
24.227402999999999
 30
0.0
  0
VERTEX
  8
0
  6
CONTINUOUS
 62
              80
  5
7DF
 10
369.18156800000003
 20
24.220618999999999
 30
0.0
  0
VERTEX
  8
0
  6
CONTINUOUS
 62
              80
  5
7E0
 10
369.11431900000002
 20
24.214233
 30
0.0
  0
SEQEND
  8
0
  6
CONTINUOUS
 62
              80
  5
7E1
  0
POLYLINE
  8
0
  6
CONTINUOUS
 62
              80
  5
1D7
 66
               1
 10
0.0
 20
0.0
 30
0.0
  0
VERTEX
  8
0
  6
CONTINUOUS
 62
              80
  5
7E2
 10
370.09632099999999
 20
24.251916000000001
 30
0.0
  0
VERTEX
  8
0
  6
CONTINUOUS
 62
              80
  5
7E3
 10
370.03580599999998
 20
24.242218999999999
 30
0.0
  0
VERTEX
  8
0
  6
CONTINUOUS
 62
              80
  5
7E4
 10
369.97524199999998
 20
24.232714999999999
 30
0.0
  0
VERTEX
  8
0
  6
CONTINUOUS
 62
              80
  5
7E5
 10
369.91462899999999
 20
24.223413999999998
 30
0.0
  0
VERTEX
  8
0
  6
CONTINUOUS
 62
              80
  5
7E6
 10
369.85396900000001
 20
24.214326
 30
0.0
  0
VERTEX
  8
0
  6
CONTINUOUS
 62
              80
  5
7E7
 10
369.79326099999997
 20
24.205459999999999
 30
0.0
  0
VERTEX
  8
0
  6
CONTINUOUS
 62
              80
  5
7E8
 10
369.732507
 20
24.196825
 30
0.0
  0
VERTEX
  8
0
  6
CONTINUOUS
 62
              80
  5
7E9
 10
369.67170499999997
 20
24.188431999999999
 30
0.0
  0
VERTEX
  8
0
  6
CONTINUOUS
 62
              80
  5
7EA
 10
369.61085800000001
 20
24.180288999999998
 30
0.0
  0
VERTEX
  8
0
  6
CONTINUOUS
 62
              80
  5
7EB
 10
369.54996599999998
 20
24.172407
 30
0.0
  0
VERTEX
  8
0
  6
CONTINUOUS
 62
              80
  5
7EC
 10
369.48902900000002
 20
24.164795000000002
 30
0.0
  0
VERTEX
  8
0
  6
CONTINUOUS
 62
              80
  5
7ED
 10
369.42804699999999
 20
24.157461999999999
 30
0.0
  0
VERTEX
  8
0
  6
CONTINUOUS
 62
              80
  5
7EE
 10
369.36702100000002
 20
24.150417999999998
 30
0.0
  0
VERTEX
  8
0
  6
CONTINUOUS
 62
              80
  5
7EF
 10
369.30595199999999
 20
24.143671999999999
 30
0.0
  0
VERTEX
  8
0
  6
CONTINUOUS
 62
              80
  5
7F0
 10
369.24484000000001
 20
24.137235
 30
0.0
  0
VERTEX
  8
0
  6
CONTINUOUS
 62
              80
  5
7F1
 10
369.18368600000002
 20
24.131115000000001
 30
0.0
  0
VERTEX
  8
0
  6
CONTINUOUS
 62
              80
  5
7F2
 10
369.12248899999997
 20
24.125322000000001
 30
0.0
  0
VERTEX
  8
0
  6
CONTINUOUS
 62
              80
  5
7F3
 10
369.11635000000001
 20
24.124759999999998
 30
0.0
  0
VERTEX
  8
0
  6
CONTINUOUS
 62
              80
  5
7F4
 10
369.11021
 20
24.124200999999999
 30
0.0
  0
VERTEX
  8
0
  6
CONTINUOUS
 62
              80
  5
7F5
 10
369.10406999999998
 20
24.123645
 30
0.0
  0
VERTEX
  8
0
  6
CONTINUOUS
 62
              80
  5
7F6
 10
369.09793100000002
 20
24.123093000000001
 30
0.0
  0
VERTEX
  8
0
  6
CONTINUOUS
 62
              80
  5
7F7
 10
369.091792
 20
24.122544000000001
 30
0.0
  0
VERTEX
  8
0
  6
CONTINUOUS
 62
              80
  5
7F8
 10
369.08565199999998
 20
24.121998000000001
 30
0.0
  0
VERTEX
  8
0
  6
CONTINUOUS
 62
              80
  5
7F9
 10
369.07951300000002
 20
24.121455000000001
 30
0.0
  0
VERTEX
  8
0
  6
CONTINUOUS
 62
              80
  5
7FA
 10
369.073374
 20
24.120916000000001
 30
0.0
  0
VERTEX
  8
0
  6
CONTINUOUS
 62
              80
  5
7FB
 10
369.06723599999998
 20
24.120380000000001
 30
0.0
  0
VERTEX
  8
0
  6
CONTINUOUS
 62
              80
  5
7FC
 10
369.06109700000002
 20
24.119847
 30
0.0
  0
VERTEX
  8
0
  6
CONTINUOUS
 62
              80
  5
7FD
 10
369.054958
 20
24.119316999999999
 30
0.0
  0
VERTEX
  8
0
  6
CONTINUOUS
 62
              80
  5
7FE
 10
369.04881999999998
 20
24.118791000000002
 30
0.0
  0
VERTEX
  8
0
  6
CONTINUOUS
 62
              80
  5
7FF
 10
369.04268200000001
 20
24.118266999999999
 30
0.0
  0
VERTEX
  8
0
  6
CONTINUOUS
 62
              80
  5
800
 10
369.03654399999999
 20
24.117747000000001
 30
0.0
  0
VERTEX
  8
0
  6
CONTINUOUS
 62
              80
  5
801
 10
369.03040600000003
 20
24.117228999999998
 30
0.0
  0
VERTEX
  8
0
  6
CONTINUOUS
 62
              80
  5
802
 10
369.02426800000001
 20
24.116714999999999
 30
0.0
  0
SEQEND
  8
0
  6
CONTINUOUS
 62
              80
  5
803
  0
POLYLINE
  8
0
  6
CONTINUOUS
 62
              80
  5
1D8
 66
               1
 10
0.0
 20
0.0
 30
0.0
  0
VERTEX
  8
0
  6
CONTINUOUS
 62
              80
  5
804
 10
368.04287699999998
 20
24.142821999999999
 30
0.0
  0
VERTEX
  8
0
  6
CONTINUOUS
 62
              80
  5
805
 10
367.98479300000002
 20
24.138978000000002
 30
0.0
  0
VERTEX
  8
0
  6
CONTINUOUS
 62
              80
  5
806
 10
367.92671899999999
 20
24.135006000000001
 30
0.0
  0
VERTEX
  8
0
  6
CONTINUOUS
 62
              80
  5
807
 10
367.86865499999999
 20
24.130915999999999
 30
0.0
  0
VERTEX
  8
0
  6
CONTINUOUS
 62
              80
  5
808
 10
367.81059900000002
 20
24.126719000000001
 30
0.0
  0
VERTEX
  8
0
  6
CONTINUOUS
 62
              80
  5
809
 10
367.75255099999998
 20
24.122423000000001
 30
0.0
  0
VERTEX
  8
0
  6
CONTINUOUS
 62
              80
  5
80A
 10
367.69450999999998
 20
24.118037999999999
 30
0.0
  0
VERTEX
  8
0
  6
CONTINUOUS
 62
              80
  5
80B
 10
367.63647600000002
 20
24.113572999999999
 30
0.0
  0
VERTEX
  8
0
  6
CONTINUOUS
 62
              80
  5
80C
 10
367.57844699999998
 20
24.10904
 30
0.0
  0
VERTEX
  8
0
  6
CONTINUOUS
 62
              80
  5
80D
 10
367.520422
 20
24.104445999999999
 30
0.0
  0
VERTEX
  8
0
  6
CONTINUOUS
 62
              80
  5
80E
 10
367.462402
 20
24.099800999999999
 30
0.0
  0
VERTEX
  8
0
  6
CONTINUOUS
 62
              80
  5
80F
 10
367.40438499999999
 20
24.095116000000001
 30
0.0
  0
VERTEX
  8
0
  6
CONTINUOUS
 62
              80
  5
810
 10
367.34636999999998
 20
24.090399000000001
 30
0.0
  0
VERTEX
  8
0
  6
CONTINUOUS
 62
              80
  5
811
 10
367.28835700000002
 20
24.085661000000002
 30
0.0
  0
VERTEX
  8
0
  6
CONTINUOUS
 62
              80
  5
812
 10
367.230345
 20
24.080909999999999
 30
0.0
  0
VERTEX
  8
0
  6
CONTINUOUS
 62
              80
  5
813
 10
367.17233199999998
 20
24.076156999999998
 30
0.0
  0
VERTEX
  8
0
  6
CONTINUOUS
 62
              80
  5
814
 10
367.11431900000002
 20
24.071411000000001
 30
0.0
  0
SEQEND
  8
0
  6
CONTINUOUS
 62
              80
  5
815
  0
POLYLINE
  8
0
  6
CONTINUOUS
 62
              80
  5
1D9
 66
               1
 10
0.0
 20
0.0
 30
0.0
  0
VERTEX
  8
0
  6
CONTINUOUS
 62
              80
  5
816
 10
368.13213999999999
 20
24.059021999999999
 30
0.0
  0
VERTEX
  8
0
  6
CONTINUOUS
 62
              80
  5
817
 10
368.12691999999998
 20
24.058698
 30
0.0
  0
VERTEX
  8
0
  6
CONTINUOUS
 62
              80
  5
818
 10
368.12170099999997
 20
24.058373
 30
0.0
  0
VERTEX
  8
0
  6
CONTINUOUS
 62
              80
  5
819
 10
368.11648200000002
 20
24.058046999999998
 30
0.0
  0
VERTEX
  8
0
  6
CONTINUOUS
 62
              80
  5
81A
 10
368.11126400000001
 20
24.05772
 30
0.0
  0
VERTEX
  8
0
  6
CONTINUOUS
 62
              80
  5
81B
 10
368.10604599999999
 20
24.057392
 30
0.0
  0
VERTEX
  8
0
  6
CONTINUOUS
 62
              80
  5
81C
 10
368.10082799999998
 20
24.057064
 30
0.0
  0
VERTEX
  8
0
  6
CONTINUOUS
 62
              80
  5
81D
 10
368.09561100000002
 20
24.056733999999999
 30
0.0
  0
VERTEX
  8
0
  6
CONTINUOUS
 62
              80
  5
81E
 10
368.090394
 20
24.056404000000001
 30
0.0
  0
VERTEX
  8
0
  6
CONTINUOUS
 62
              80
  5
81F
 10
368.08517699999999
 20
24.056072
 30
0.0
  0
VERTEX
  8
0
  6
CONTINUOUS
 62
              80
  5
820
 10
368.07996100000003
 20
24.05574
 30
0.0
  0
VERTEX
  8
0
  6
CONTINUOUS
 62
              80
  5
821
 10
368.07474500000001
 20
24.055406999999999
 30
0.0
  0
VERTEX
  8
0
  6
CONTINUOUS
 62
              80
  5
822
 10
368.06952999999999
 20
24.055071999999999
 30
0.0
  0
VERTEX
  8
0
  6
CONTINUOUS
 62
              80
  5
823
 10
368.06431400000002
 20
24.054736999999999
 30
0.0
  0
VERTEX
  8
0
  6
CONTINUOUS
 62
              80
  5
824
 10
368.0591
 20
24.054400999999999
 30
0.0
  0
VERTEX
  8
0
  6
CONTINUOUS
 62
              80
  5
825
 10
368.05388599999998
 20
24.054062999999999
 30
0.0
  0
VERTEX
  8
0
  6
CONTINUOUS
 62
              80
  5
826
 10
368.04867200000001
 20
24.053725
 30
0.0
  0
VERTEX
  8
0
  6
CONTINUOUS
 62
              80
  5
827
 10
367.99588199999999
 20
24.050236000000002
 30
0.0
  0
VERTEX
  8
0
  6
CONTINUOUS
 62
              80
  5
828
 10
367.94308799999999
 20
24.04664
 30
0.0
  0
VERTEX
  8
0
  6
CONTINUOUS
 62
              80
  5
829
 10
367.89028999999999
 20
24.042943999999999
 30
0.0
  0
VERTEX
  8
0
  6
CONTINUOUS
 62
              80
  5
82A
 10
367.83748800000001
 20
24.039155999999998
 30
0.0
  0
VERTEX
  8
0
  6
CONTINUOUS
 62
              80
  5
82B
 10
367.78467899999998
 20
24.035281999999999
 30
0.0
  0
VERTEX
  8
0
  6
CONTINUOUS
 62
              80
  5
82C
 10
367.73186500000003
 20
24.031330000000001
 30
0.0
  0
VERTEX
  8
0
  6
CONTINUOUS
 62
              80
  5
82D
 10
367.67904399999998
 20
24.027307
 30
0.0
  0
VERTEX
  8
0
  6
CONTINUOUS
 62
              80
  5
82E
 10
367.626216
 20
24.023220999999999
 30
0.0
  0
VERTEX
  8
0
  6
CONTINUOUS
 62
              80
  5
82F
 10
367.57337999999999
 20
24.019078
 30
0.0
  0
VERTEX
  8
0
  6
CONTINUOUS
 62
              80
  5
830
 10
367.52053599999999
 20
24.014886000000001
 30
0.0
  0
VERTEX
  8
0
  6
CONTINUOUS
 62
              80
  5
831
 10
367.46768200000002
 20
24.010652
 30
0.0
  0
VERTEX
  8
0
  6
CONTINUOUS
 62
              80
  5
832
 10
367.41481900000002
 20
24.006383
 30
0.0
  0
VERTEX
  8
0
  6
CONTINUOUS
 62
              80
  5
833
 10
367.36194599999999
 20
24.002087
 30
0.0
  0
VERTEX
  8
0
  6
CONTINUOUS
 62
              80
  5
834
 10
367.30906099999999
 20
23.997769999999999
 30
0.0
  0
VERTEX
  8
0
  6
CONTINUOUS
 62
              80
  5
835
 10
367.25616600000001
 20
23.993441000000001
 30
0.0
  0
VERTEX
  8
0
  6
CONTINUOUS
 62
              80
  5
836
 10
367.20325800000001
 20
23.989106
 30
0.0
  0
SEQEND
  8
0
  6
CONTINUOUS
 62
              80
  5
837
  0
POLYLINE
  8
0
  6
CONTINUOUS
 62
              80
  5
1DA
 66
               1
 10
0.0
 20
0.0
 30
0.0
  0
VERTEX
  8
0
  6
CONTINUOUS
 62
              80
  5
838
 10
367.11431900000002
 20
23.428528
 30
0.0
  0
VERTEX
  8
0
  6
CONTINUOUS
 62
              80
  5
839
 10
367.17244599999998
 20
23.43159
 30
0.0
  0
VERTEX
  8
0
  6
CONTINUOUS
 62
              80
  5
83A
 10
367.23056300000002
 20
23.434843000000001
 30
0.0
  0
VERTEX
  8
0
  6
CONTINUOUS
 62
              80
  5
83B
 10
367.28867100000002
 20
23.438286000000002
 30
0.0
  0
VERTEX
  8
0
  6
CONTINUOUS
 62
              80
  5
83C
 10
367.346767
 20
23.441918000000001
 30
0.0
  0
VERTEX
  8
0
  6
CONTINUOUS
 62
              80
  5
83D
 10
367.404853
 20
23.445739
 30
0.0
  0
VERTEX
  8
0
  6
CONTINUOUS
 62
              80
  5
83E
 10
367.46292599999998
 20
23.449746999999999
 30
0.0
  0
VERTEX
  8
0
  6
CONTINUOUS
 62
              80
  5
83F
 10
367.52098699999999
 20
23.453942999999999
 30
0.0
  0
VERTEX
  8
0
  6
CONTINUOUS
 62
              80
  5
840
 10
367.57903499999998
 20
23.458324999999999
 30
0.0
  0
VERTEX
  8
0
  6
CONTINUOUS
 62
              80
  5
841
 10
367.63706999999999
 20
23.462892
 30
0.0
  0
VERTEX
  8
0
  6
CONTINUOUS
 62
              80
  5
842
 10
367.69508999999999
 20
23.467644
 30
0.0
  0
VERTEX
  8
0
  6
CONTINUOUS
 62
              80
  5
843
 10
367.75309499999997
 20
23.472581000000002
 30
0.0
  0
VERTEX
  8
0
  6
CONTINUOUS
 62
              80
  5
844
 10
367.81108499999999
 20
23.477699999999999
 30
0.0
  0
VERTEX
  8
0
  6
CONTINUOUS
 62
              80
  5
845
 10
367.869058
 20
23.483003
 30
0.0
  0
VERTEX
  8
0
  6
CONTINUOUS
 62
              80
  5
846
 10
367.92701499999998
 20
23.488488
 30
0.0
  0
VERTEX
  8
0
  6
CONTINUOUS
 62
              80
  5
847
 10
367.98495500000001
 20
23.494153000000001
 30
0.0
  0
VERTEX
  8
0
  6
CONTINUOUS
 62
              80
  5
848
 10
368.04287699999998
 20
23.5
 30
0.0
  0
VERTEX
  8
0
  6
CONTINUOUS
 62
              80
  5
849
 10
368.11008099999998
 20
23.507012
 30
0.0
  0
VERTEX
  8
0
  6
CONTINUOUS
 62
              80
  5
84A
 10
368.17725899999999
 20
23.514268999999999
 30
0.0
  0
VERTEX
  8
0
  6
CONTINUOUS
 62
              80
  5
84B
 10
368.24441000000002
 20
23.521774000000001
 30
0.0
  0
VERTEX
  8
0
  6
CONTINUOUS
 62
              80
  5
84C
 10
368.311533
 20
23.529527999999999
 30
0.0
  0
VERTEX
  8
0
  6
CONTINUOUS
 62
              80
  5
84D
 10
368.378626
 20
23.537533
 30
0.0
  0
VERTEX
  8
0
  6
CONTINUOUS
 62
              80
  5
84E
 10
368.44568800000002
 20
23.545791999999999
 30
0.0
  0
VERTEX
  8
0
  6
CONTINUOUS
 62
              80
  5
84F
 10
368.51271800000001
 20
23.554307000000001
 30
0.0
  0
VERTEX
  8
0
  6
CONTINUOUS
 62
              80
  5
850
 10
368.57971400000002
 20
23.563081
 30
0.0
  0
VERTEX
  8
0
  6
CONTINUOUS
 62
              80
  5
851
 10
368.64667500000002
 20
23.572115
 30
0.0
  0
VERTEX
  8
0
  6
CONTINUOUS
 62
              80
  5
852
 10
368.71359999999999
 20
23.581410999999999
 30
0.0
  0
VERTEX
  8
0
  6
CONTINUOUS
 62
              80
  5
853
 10
368.78048799999999
 20
23.590972000000001
 30
0.0
  0
VERTEX
  8
0
  6
CONTINUOUS
 62
              80
  5
854
 10
368.84733599999998
 20
23.600798999999999
 30
0.0
  0
VERTEX
  8
0
  6
CONTINUOUS
 62
              80
  5
855
 10
368.91414500000002
 20
23.610896
 30
0.0
  0
VERTEX
  8
0
  6
CONTINUOUS
 62
              80
  5
856
 10
368.98091299999999
 20
23.621264
 30
0.0
  0
VERTEX
  8
0
  6
CONTINUOUS
 62
              80
  5
857
 10
369.04763800000001
 20
23.631905
 30
0.0
  0
VERTEX
  8
0
  6
CONTINUOUS
 62
              80
  5
858
 10
369.11431900000002
 20
23.642821999999999
 30
0.0
  0
VERTEX
  8
0
  6
CONTINUOUS
 62
              80
  5
859
 10
369.18167899999997
 20
23.654139000000001
 30
0.0
  0
VERTEX
  8
0
  6
CONTINUOUS
 62
              80
  5
85A
 10
369.24899199999999
 20
23.665738000000001
 30
0.0
  0
VERTEX
  8
0
  6
CONTINUOUS
 62
              80
  5
85B
 10
369.31625700000001
 20
23.677617999999999
 30
0.0
  0
VERTEX
  8
0
  6
CONTINUOUS
 62
              80
  5
85C
 10
369.38347299999998
 20
23.689778
 30
0.0
  0
VERTEX
  8
0
  6
CONTINUOUS
 62
              80
  5
85D
 10
369.45063800000003
 20
23.702217000000001
 30
0.0
  0
VERTEX
  8
0
  6
CONTINUOUS
 62
              80
  5
85E
 10
369.51775199999997
 20
23.714932999999998
 30
0.0
  0
VERTEX
  8
0
  6
CONTINUOUS
 62
              80
  5
85F
 10
369.584813
 20
23.727924999999999
 30
0.0
  0
VERTEX
  8
0
  6
CONTINUOUS
 62
              80
  5
860
 10
369.65181899999999
 20
23.741192999999999
 30
0.0
  0
VERTEX
  8
0
  6
CONTINUOUS
 62
              80
  5
861
 10
369.71876900000001
 20
23.754736000000001
 30
0.0
  0
VERTEX
  8
0
  6
CONTINUOUS
 62
              80
  5
862
 10
369.785663
 20
23.768550999999999
 30
0.0
  0
VERTEX
  8
0
  6
CONTINUOUS
 62
              80
  5
863
 10
369.85249900000002
 20
23.782637999999999
 30
0.0
  0
VERTEX
  8
0
  6
CONTINUOUS
 62
              80
  5
864
 10
369.91927500000003
 20
23.796997000000001
 30
0.0
  0
VERTEX
  8
0
  6
CONTINUOUS
 62
              80
  5
865
 10
369.98599100000001
 20
23.811624999999999
 30
0.0
  0
VERTEX
  8
0
  6
CONTINUOUS
 62
              80
  5
866
 10
370.05264399999999
 20
23.826522000000001
 30
0.0
  0
VERTEX
  8
0
  6
CONTINUOUS
 62
              80
  5
867
 10
370.119235
 20
23.841685999999999
 30
0.0
  0
VERTEX
  8
0
  6
CONTINUOUS
 62
              80
  5
868
 10
370.18576000000002
 20
23.857116999999999
 30
0.0
  0
SEQEND
  8
0
  6
CONTINUOUS
 62
              80
  5
869
  0
POLYLINE
  8
0
  6
CONTINUOUS
 62
              80
  5
1DB
 66
               1
 10
0.0
 20
0.0
 30
0.0
  0
VERTEX
  8
0
  6
CONTINUOUS
 62
              80
  5
86A
 10
367.20294100000001
 20
23.5227
 30
0.0
  0
VERTEX
  8
0
  6
CONTINUOUS
 62
              80
  5
86B
 10
367.25493999999998
 20
23.525706
 30
0.0
  0
VERTEX
  8
0
  6
CONTINUOUS
 62
              80
  5
86C
 10
367.30693100000002
 20
23.528865
 30
0.0
  0
VERTEX
  8
0
  6
CONTINUOUS
 62
              80
  5
86D
 10
367.35891400000003
 20
23.532176
 30
0.0
  0
VERTEX
  8
0
  6
CONTINUOUS
 62
              80
  5
86E
 10
367.410888
 20
23.535637999999999
 30
0.0
  0
VERTEX
  8
0
  6
CONTINUOUS
 62
              80
  5
86F
 10
367.46285399999999
 20
23.539252000000001
 30
0.0
  0
VERTEX
  8
0
  6
CONTINUOUS
 62
              80
  5
870
 10
367.51481100000001
 20
23.543016000000001
 30
0.0
  0
VERTEX
  8
0
  6
CONTINUOUS
 62
              80
  5
871
 10
367.56675799999999
 20
23.546928999999999
 30
0.0
  0
VERTEX
  8
0
  6
CONTINUOUS
 62
              80
  5
872
 10
367.618694
 20
23.550992999999998
 30
0.0
  0
VERTEX
  8
0
  6
CONTINUOUS
 62
              80
  5
873
 10
367.67062099999998
 20
23.555205000000001
 30
0.0
  0
VERTEX
  8
0
  6
CONTINUOUS
 62
              80
  5
874
 10
367.72253599999999
 20
23.559566
 30
0.0
  0
VERTEX
  8
0
  6
CONTINUOUS
 62
              80
  5
875
 10
367.77444000000003
 20
23.564074999999999
 30
0.0
  0
VERTEX
  8
0
  6
CONTINUOUS
 62
              80
  5
876
 10
367.82633199999998
 20
23.568731
 30
0.0
  0
VERTEX
  8
0
  6
CONTINUOUS
 62
              80
  5
877
 10
367.87821100000002
 20
23.573533999999999
 30
0.0
  0
VERTEX
  8
0
  6
CONTINUOUS
 62
              80
  5
878
 10
367.93007799999998
 20
23.578484
 30
0.0
  0
VERTEX
  8
0
  6
CONTINUOUS
 62
              80
  5
879
 10
367.98193199999997
 20
23.583579
 30
0.0
  0
VERTEX
  8
0
  6
CONTINUOUS
 62
              80
  5
87A
 10
368.033772
 20
23.588819999999998
 30
0.0
  0
VERTEX
  8
0
  6
CONTINUOUS
 62
              80
  5
87B
 10
368.10065400000002
 20
23.595799
 30
0.0
  0
VERTEX
  8
0
  6
CONTINUOUS
 62
              80
  5
87C
 10
368.167507
 20
23.603020999999998
 30
0.0
  0
VERTEX
  8
0
  6
CONTINUOUS
 62
              80
  5
87D
 10
368.23433
 20
23.610488
 30
0.0
  0
VERTEX
  8
0
  6
CONTINUOUS
 62
              80
  5
87E
 10
368.30112100000002
 20
23.618203999999999
 30
0.0
  0
VERTEX
  8
0
  6
CONTINUOUS
 62
              80
  5
87F
 10
368.36788000000001
 20
23.626169999999998
 30
0.0
  0
VERTEX
  8
0
  6
CONTINUOUS
 62
              80
  5
880
 10
368.43460499999998
 20
23.634387
 30
0.0
  0
VERTEX
  8
0
  6
CONTINUOUS
 62
              80
  5
881
 10
368.50129500000003
 20
23.642859999999999
 30
0.0
  0
VERTEX
  8
0
  6
CONTINUOUS
 62
              80
  5
882
 10
368.567949
 20
23.651588
 30
0.0
  0
VERTEX
  8
0
  6
CONTINUOUS
 62
              80
  5
883
 10
368.63456500000001
 20
23.660575000000001
 30
0.0
  0
VERTEX
  8
0
  6
CONTINUOUS
 62
              80
  5
884
 10
368.70114100000001
 20
23.669823000000001
 30
0.0
  0
VERTEX
  8
0
  6
CONTINUOUS
 62
              80
  5
885
 10
368.76767799999999
 20
23.679334000000001
 30
0.0
  0
VERTEX
  8
0
  6
CONTINUOUS
 62
              80
  5
886
 10
368.83417300000002
 20
23.689108999999998
 30
0.0
  0
VERTEX
  8
0
  6
CONTINUOUS
 62
              80
  5
887
 10
368.90062399999999
 20
23.699152000000002
 30
0.0
  0
VERTEX
  8
0
  6
CONTINUOUS
 62
              80
  5
888
 10
368.96703200000002
 20
23.709464000000001
 30
0.0
  0
VERTEX
  8
0
  6
CONTINUOUS
 62
              80
  5
889
 10
369.03339499999998
 20
23.720047999999998
 30
0.0
  0
VERTEX
  8
0
  6
CONTINUOUS
 62
              80
  5
88A
 10
369.09971000000002
 20
23.730905
 30
0.0
  0
VERTEX
  8
0
  6
CONTINUOUS
 62
              80
  5
88B
 10
369.16239899999999
 20
23.741427999999999
 30
0.0
  0
VERTEX
  8
0
  6
CONTINUOUS
 62
              80
  5
88C
 10
369.22504800000002
 20
23.752198
 30
0.0
  0
VERTEX
  8
0
  6
CONTINUOUS
 62
              80
  5
88D
 10
369.28765700000002
 20
23.763211999999999
 30
0.0
  0
VERTEX
  8
0
  6
CONTINUOUS
 62
              80
  5
88E
 10
369.35022400000003
 20
23.774470000000001
 30
0.0
  0
VERTEX
  8
0
  6
CONTINUOUS
 62
              80
  5
88F
 10
369.41274800000002
 20
23.785972000000001
 30
0.0
  0
VERTEX
  8
0
  6
CONTINUOUS
 62
              80
  5
890
 10
369.47522800000002
 20
23.797716000000001
 30
0.0
  0
VERTEX
  8
0
  6
CONTINUOUS
 62
              80
  5
891
 10
369.53766400000001
 20
23.809701
 30
0.0
  0
VERTEX
  8
0
  6
CONTINUOUS
 62
              80
  5
892
 10
369.600054
 20
23.821926999999999
 30
0.0
  0
VERTEX
  8
0
  6
CONTINUOUS
 62
              80
  5
893
 10
369.662396
 20
23.834392000000001
 30
0.0
  0
VERTEX
  8
0
  6
CONTINUOUS
 62
              80
  5
894
 10
369.72469100000001
 20
23.847096000000001
 30
0.0
  0
VERTEX
  8
0
  6
CONTINUOUS
 62
              80
  5
895
 10
369.78693700000002
 20
23.860037999999999
 30
0.0
  0
VERTEX
  8
0
  6
CONTINUOUS
 62
              80
  5
896
 10
369.84913299999999
 20
23.873215999999999
 30
0.0
  0
VERTEX
  8
0
  6
CONTINUOUS
 62
              80
  5
897
 10
369.91127799999998
 20
23.88663
 30
0.0
  0
VERTEX
  8
0
  6
CONTINUOUS
 62
              80
  5
898
 10
369.97336999999999
 20
23.900279999999999
 30
0.0
  0
VERTEX
  8
0
  6
CONTINUOUS
 62
              80
  5
899
 10
370.03541000000001
 20
23.914162999999999
 30
0.0
  0
VERTEX
  8
0
  6
CONTINUOUS
 62
              80
  5
89A
 10
370.09739500000001
 20
23.928280000000001
 30
0.0
  0
SEQEND
  8
0
  6
CONTINUOUS
 62
              80
  5
89B
  0
POLYLINE
  8
0
  6
CONTINUOUS
 62
              80
  5
1DC
 66
               1
 10
0.0
 20
0.0
 30
0.0
  0
VERTEX
  8
0
  6
CONTINUOUS
 62
              80
  5
89C
 10
376.064301
 20
27.5
 30
0.0
  0
VERTEX
  8
0
  6
CONTINUOUS
 62
              80
  5
89D
 10
375.88528300000002
 20
27.441963999999999
 30
0.0
  0
VERTEX
  8
0
  6
CONTINUOUS
 62
              80
  5
89E
 10
375.70626600000003
 20
27.383928000000001
 30
0.0
  0
VERTEX
  8
0
  6
CONTINUOUS
 62
              80
  5
89F
 10
375.52724999999998
 20
27.325890999999999
 30
0.0
  0
VERTEX
  8
0
  6
CONTINUOUS
 62
              80
  5
8A0
 10
375.34823299999999
 20
27.267854
 30
0.0
  0
VERTEX
  8
0
  6
CONTINUOUS
 62
              80
  5
8A1
 10
375.169218
 20
27.209817000000001
 30
0.0
  0
VERTEX
  8
0
  6
CONTINUOUS
 62
              80
  5
8A2
 10
374.99020200000001
 20
27.151779999999999
 30
0.0
  0
VERTEX
  8
0
  6
CONTINUOUS
 62
              80
  5
8A3
 10
374.81118700000002
 20
27.093743
 30
0.0
  0
VERTEX
  8
0
  6
CONTINUOUS
 62
              80
  5
8A4
 10
374.63217200000003
 20
27.035706000000001
 30
0.0
  0
VERTEX
  8
0
  6
CONTINUOUS
 62
              80
  5
8A5
 10
374.45315599999998
 20
26.977668000000001
 30
0.0
  0
VERTEX
  8
0
  6
CONTINUOUS
 62
              80
  5
8A6
 10
374.27414099999999
 20
26.919630999999999
 30
0.0
  0
VERTEX
  8
0
  6
CONTINUOUS
 62
              80
  5
8A7
 10
374.09512599999999
 20
26.861594
 30
0.0
  0
VERTEX
  8
0
  6
CONTINUOUS
 62
              80
  5
8A8
 10
373.91611
 20
26.803557000000001
 30
0.0
  0
VERTEX
  8
0
  6
CONTINUOUS
 62
              80
  5
8A9
 10
373.73709400000001
 20
26.745519999999999
 30
0.0
  0
VERTEX
  8
0
  6
CONTINUOUS
 62
              80
  5
8AA
 10
373.55807700000003
 20
26.687483
 30
0.0
  0
VERTEX
  8
0
  6
CONTINUOUS
 62
              80
  5
8AB
 10
373.37905999999998
 20
26.629446999999999
 30
0.0
  0
VERTEX
  8
0
  6
CONTINUOUS
 62
              80
  5
8AC
 10
373.20004299999999
 20
26.571411000000001
 30
0.0
  0
SEQEND
  8
0
  6
CONTINUOUS
 62
              80
  5
8AD
  0
POLYLINE
  8
0
  6
CONTINUOUS
 62
              80
  5
1DD
 66
               1
 10
0.0
 20
0.0
 30
0.0
  0
VERTEX
  8
0
  6
CONTINUOUS
 62
              80
  5
8AE
 10
376.06498299999998
 20
27.406361
 30
0.0
  0
VERTEX
  8
0
  6
CONTINUOUS
 62
              80
  5
8AF
 10
375.89145600000001
 20
27.350104999999999
 30
0.0
  0
VERTEX
  8
0
  6
CONTINUOUS
 62
              80
  5
8B0
 10
375.71793000000002
 20
27.293849000000002
 30
0.0
  0
VERTEX
  8
0
  6
CONTINUOUS
 62
              80
  5
8B1
 10
375.54440399999999
 20
27.237591999999999
 30
0.0
  0
VERTEX
  8
0
  6
CONTINUOUS
 62
              80
  5
8B2
 10
375.370879
 20
27.181335000000001
 30
0.0
  0
VERTEX
  8
0
  6
CONTINUOUS
 62
              80
  5
8B3
 10
375.19735400000002
 20
27.125078999999999
 30
0.0
  0
VERTEX
  8
0
  6
CONTINUOUS
 62
              80
  5
8B4
 10
375.02382899999998
 20
27.068821
 30
0.0
  0
VERTEX
  8
0
  6
CONTINUOUS
 62
              80
  5
8B5
 10
374.85030499999999
 20
27.012564000000001
 30
0.0
  0
VERTEX
  8
0
  6
CONTINUOUS
 62
              80
  5
8B6
 10
374.67678000000001
 20
26.956306999999999
 30
0.0
  0
VERTEX
  8
0
  6
CONTINUOUS
 62
              80
  5
8B7
 10
374.50325600000002
 20
26.90005
 30
0.0
  0
VERTEX
  8
0
  6
CONTINUOUS
 62
              80
  5
8B8
 10
374.32973099999998
 20
26.843792000000001
 30
0.0
  0
VERTEX
  8
0
  6
CONTINUOUS
 62
              80
  5
8B9
 10
374.156206
 20
26.787534999999998
 30
0.0
  0
VERTEX
  8
0
  6
CONTINUOUS
 62
              80
  5
8BA
 10
373.98268100000001
 20
26.731278
 30
0.0
  0
VERTEX
  8
0
  6
CONTINUOUS
 62
              80
  5
8BB
 10
373.80915499999998
 20
26.675021000000001
 30
0.0
  0
VERTEX
  8
0
  6
CONTINUOUS
 62
              80
  5
8BC
 10
373.63562899999999
 20
26.618765
 30
0.0
  0
VERTEX
  8
0
  6
CONTINUOUS
 62
              80
  5
8BD
 10
373.46210300000001
 20
26.562508000000001
 30
0.0
  0
VERTEX
  8
0
  6
CONTINUOUS
 62
              80
  5
8BE
 10
373.28857599999998
 20
26.506252
 30
0.0
  0
SEQEND
  8
0
  6
CONTINUOUS
 62
              80
  5
8BF
  0
POLYLINE
  8
0
  6
CONTINUOUS
 62
              80
  5
1DE
 66
               1
 10
0.0
 20
0.0
 30
0.0
  0
VERTEX
  8
0
  6
CONTINUOUS
 62
              80
  5
8C0
 10
376.064301
 20
27.5
 30
0.0
  0
VERTEX
  8
0
  6
CONTINUOUS
 62
              80
  5
8C1
 10
376.24331799999999
 20
27.441963999999999
 30
0.0
  0
VERTEX
  8
0
  6
CONTINUOUS
 62
              80
  5
8C2
 10
376.42233599999997
 20
27.383928000000001
 30
0.0
  0
VERTEX
  8
0
  6
CONTINUOUS
 62
              80
  5
8C3
 10
376.60135400000001
 20
27.325890999999999
 30
0.0
  0
VERTEX
  8
0
  6
CONTINUOUS
 62
              80
  5
8C4
 10
376.780372
 20
27.267854
 30
0.0
  0
VERTEX
  8
0
  6
CONTINUOUS
 62
              80
  5
8C5
 10
376.95938999999998
 20
27.209817000000001
 30
0.0
  0
VERTEX
  8
0
  6
CONTINUOUS
 62
              80
  5
8C6
 10
377.13840900000002
 20
27.151779999999999
 30
0.0
  0
VERTEX
  8
0
  6
CONTINUOUS
 62
              80
  5
8C7
 10
377.31742700000001
 20
27.093743
 30
0.0
  0
VERTEX
  8
0
  6
CONTINUOUS
 62
              80
  5
8C8
 10
377.49644499999999
 20
27.035706000000001
 30
0.0
  0
VERTEX
  8
0
  6
CONTINUOUS
 62
              80
  5
8C9
 10
377.67546299999998
 20
26.977668000000001
 30
0.0
  0
VERTEX
  8
0
  6
CONTINUOUS
 62
              80
  5
8CA
 10
377.85448100000002
 20
26.919630999999999
 30
0.0
  0
VERTEX
  8
0
  6
CONTINUOUS
 62
              80
  5
8CB
 10
378.03349900000001
 20
26.861594
 30
0.0
  0
VERTEX
  8
0
  6
CONTINUOUS
 62
              80
  5
8CC
 10
378.21251699999999
 20
26.803557000000001
 30
0.0
  0
VERTEX
  8
0
  6
CONTINUOUS
 62
              80
  5
8CD
 10
378.39153499999998
 20
26.745519999999999
 30
0.0
  0
VERTEX
  8
0
  6
CONTINUOUS
 62
              80
  5
8CE
 10
378.57055300000002
 20
26.687483
 30
0.0
  0
VERTEX
  8
0
  6
CONTINUOUS
 62
              80
  5
8CF
 10
378.749571
 20
26.629446999999999
 30
0.0
  0
VERTEX
  8
0
  6
CONTINUOUS
 62
              80
  5
8D0
 10
378.92858899999999
 20
26.571411000000001
 30
0.0
  0
SEQEND
  8
0
  6
CONTINUOUS
 62
              80
  5
8D1
  0
POLYLINE
  8
0
  6
CONTINUOUS
 62
              80
  5
1DF
 66
               1
 10
0.0
 20
0.0
 30
0.0
  0
VERTEX
  8
0
  6
CONTINUOUS
 62
              80
  5
8D2
 10
376.06361800000002
 20
27.406361
 30
0.0
  0
VERTEX
  8
0
  6
CONTINUOUS
 62
              80
  5
8D3
 10
376.237146
 20
27.350104999999999
 30
0.0
  0
VERTEX
  8
0
  6
CONTINUOUS
 62
              80
  5
8D4
 10
376.41067299999997
 20
27.293849000000002
 30
0.0
  0
VERTEX
  8
0
  6
CONTINUOUS
 62
              80
  5
8D5
 10
376.58420000000001
 20
27.237591999999999
 30
0.0
  0
VERTEX
  8
0
  6
CONTINUOUS
 62
              80
  5
8D6
 10
376.75772699999999
 20
27.181335000000001
 30
0.0
  0
VERTEX
  8
0
  6
CONTINUOUS
 62
              80
  5
8D7
 10
376.93125400000002
 20
27.125077999999998
 30
0.0
  0
VERTEX
  8
0
  6
CONTINUOUS
 62
              80
  5
8D8
 10
377.104782
 20
27.068821
 30
0.0
  0
VERTEX
  8
0
  6
CONTINUOUS
 62
              80
  5
8D9
 10
377.27830899999998
 20
27.012564000000001
 30
0.0
  0
VERTEX
  8
0
  6
CONTINUOUS
 62
              80
  5
8DA
 10
377.45183600000001
 20
26.956306999999999
 30
0.0
  0
VERTEX
  8
0
  6
CONTINUOUS
 62
              80
  5
8DB
 10
377.62536399999999
 20
26.90005
 30
0.0
  0
VERTEX
  8
0
  6
CONTINUOUS
 62
              80
  5
8DC
 10
377.79889100000003
 20
26.843792000000001
 30
0.0
  0
VERTEX
  8
0
  6
CONTINUOUS
 62
              80
  5
8DD
 10
377.972418
 20
26.787534999999998
 30
0.0
  0
VERTEX
  8
0
  6
CONTINUOUS
 62
              80
  5
8DE
 10
378.14594599999998
 20
26.731278
 30
0.0
  0
VERTEX
  8
0
  6
CONTINUOUS
 62
              80
  5
8DF
 10
378.31947300000002
 20
26.675021000000001
 30
0.0
  0
VERTEX
  8
0
  6
CONTINUOUS
 62
              80
  5
8E0
 10
378.49300099999999
 20
26.618765
 30
0.0
  0
VERTEX
  8
0
  6
CONTINUOUS
 62
              80
  5
8E1
 10
378.66652800000003
 20
26.562508000000001
 30
0.0
  0
VERTEX
  8
0
  6
CONTINUOUS
 62
              80
  5
8E2
 10
378.84005500000001
 20
26.506252
 30
0.0
  0
SEQEND
  8
0
  6
CONTINUOUS
 62
              80
  5
8E3
  0
POLYLINE
  8
0
  6
CONTINUOUS
 62
              80
  5
1E0
 66
               1
 10
0.0
 20
0.0
 30
0.0
  0
VERTEX
  8
0
  6
CONTINUOUS
 62
              80
  5
8E4
 10
364.22176200000001
 20
25.662002999999999
 30
0.0
  0
VERTEX
  8
0
  6
CONTINUOUS
 62
              80
  5
8E5
 10
364.22121299999998
 20
25.659748
 30
0.0
  0
VERTEX
  8
0
  6
CONTINUOUS
 62
              80
  5
8E6
 10
364.22066100000001
 20
25.657494
 30
0.0
  0
VERTEX
  8
0
  6
CONTINUOUS
 62
              80
  5
8E7
 10
364.22010499999999
 20
25.655241
 30
0.0
  0
VERTEX
  8
0
  6
CONTINUOUS
 62
              80
  5
8E8
 10
364.21954499999998
 20
25.652989000000002
 30
0.0
  0
VERTEX
  8
0
  6
CONTINUOUS
 62
              80
  5
8E9
 10
364.21898199999998
 20
25.650736999999999
 30
0.0
  0
VERTEX
  8
0
  6
CONTINUOUS
 62
              80
  5
8EA
 10
364.21841599999999
 20
25.648486999999999
 30
0.0
  0
VERTEX
  8
0
  6
CONTINUOUS
 62
              80
  5
8EB
 10
364.21784600000001
 20
25.646238
 30
0.0
  0
VERTEX
  8
0
  6
CONTINUOUS
 62
              80
  5
8EC
 10
364.21727199999998
 20
25.643989000000001
 30
0.0
  0
VERTEX
  8
0
  6
CONTINUOUS
 62
              80
  5
8ED
 10
364.21669500000002
 20
25.641742000000001
 30
0.0
  0
VERTEX
  8
0
  6
CONTINUOUS
 62
              80
  5
8EE
 10
364.216114
 20
25.639495
 30
0.0
  0
VERTEX
  8
0
  6
CONTINUOUS
 62
              80
  5
8EF
 10
364.21553
 20
25.637250000000002
 30
0.0
  0
VERTEX
  8
0
  6
CONTINUOUS
 62
              80
  5
8F0
 10
364.21494200000001
 20
25.635005
 30
0.0
  0
VERTEX
  8
0
  6
CONTINUOUS
 62
              80
  5
8F1
 10
364.21435100000002
 20
25.632762
 30
0.0
  0
VERTEX
  8
0
  6
CONTINUOUS
 62
              80
  5
8F2
 10
364.21375599999999
 20
25.630519
 30
0.0
  0
VERTEX
  8
0
  6
CONTINUOUS
 62
              80
  5
8F3
 10
364.21315700000002
 20
25.628278000000002
 30
0.0
  0
VERTEX
  8
0
  6
CONTINUOUS
 62
              80
  5
8F4
 10
364.21255500000001
 20
25.626038000000001
 30
0.0
  0
VERTEX
  8
0
  6
CONTINUOUS
 62
              80
  5
8F5
 10
364.21012100000002
 20
25.617125000000001
 30
0.0
  0
VERTEX
  8
0
  6
CONTINUOUS
 62
              80
  5
8F6
 10
364.20763099999999
 20
25.608229000000001
 30
0.0
  0
VERTEX
  8
0
  6
CONTINUOUS
 62
              80
  5
8F7
 10
364.205085
 20
25.599352
 30
0.0
  0
VERTEX
  8
0
  6
CONTINUOUS
 62
              80
  5
8F8
 10
364.20248400000003
 20
25.590492000000001
 30
0.0
  0
VERTEX
  8
0
  6
CONTINUOUS
 62
              80
  5
8F9
 10
364.19982800000002
 20
25.58165
 30
0.0
  0
VERTEX
  8
0
  6
CONTINUOUS
 62
              80
  5
8FA
 10
364.19711899999999
 20
25.572827
 30
0.0
  0
VERTEX
  8
0
  6
CONTINUOUS
 62
              80
  5
8FB
 10
364.19435600000003
 20
25.564022000000001
 30
0.0
  0
VERTEX
  8
0
  6
CONTINUOUS
 62
              80
  5
8FC
 10
364.19154099999997
 20
25.555236000000001
 30
0.0
  0
VERTEX
  8
0
  6
CONTINUOUS
 62
              80
  5
8FD
 10
364.18867399999999
 20
25.546468999999998
 30
0.0
  0
VERTEX
  8
0
  6
CONTINUOUS
 62
              80
  5
8FE
 10
364.18575600000003
 20
25.537721999999999
 30
0.0
  0
VERTEX
  8
0
  6
CONTINUOUS
 62
              80
  5
8FF
 10
364.18278700000002
 20
25.528994000000001
 30
0.0
  0
VERTEX
  8
0
  6
CONTINUOUS
 62
              80
  5
900
 10
364.17976800000002
 20
25.520285999999999
 30
0.0
  0
VERTEX
  8
0
  6
CONTINUOUS
 62
              80
  5
901
 10
364.17669999999998
 20
25.511597999999999
 30
0.0
  0
VERTEX
  8
0
  6
CONTINUOUS
 62
              80
  5
902
 10
364.17358300000001
 20
25.502929999999999
 30
0.0
  0
VERTEX
  8
0
  6
CONTINUOUS
 62
              80
  5
903
 10
364.17041799999998
 20
25.494282999999999
 30
0.0
  0
VERTEX
  8
0
  6
CONTINUOUS
 62
              80
  5
904
 10
364.16720600000002
 20
25.485657
 30
0.0
  0
VERTEX
  8
0
  6
CONTINUOUS
 62
              80
  5
905
 10
364.14594699999998
 20
25.431903999999999
 30
0.0
  0
VERTEX
  8
0
  6
CONTINUOUS
 62
              80
  5
906
 10
364.12294100000003
 20
25.378948999999999
 30
0.0
  0
VERTEX
  8
0
  6
CONTINUOUS
 62
              80
  5
907
 10
364.09831100000002
 20
25.326740000000001
 30
0.0
  0
VERTEX
  8
0
  6
CONTINUOUS
 62
              80
  5
908
 10
364.07217900000001
 20
25.275227000000001
 30
0.0
  0
VERTEX
  8
0
  6
CONTINUOUS
 62
              80
  5
909
 10
364.044669
 20
25.224357999999999
 30
0.0
  0
VERTEX
  8
0
  6
CONTINUOUS
 62
              80
  5
90A
 10
364.01590499999998
 20
25.17408
 30
0.0
  0
VERTEX
  8
0
  6
CONTINUOUS
 62
              80
  5
90B
 10
363.98601000000002
 20
25.124343
 30
0.0
  0
VERTEX
  8
0
  6
CONTINUOUS
 62
              80
  5
90C
 10
363.955107
 20
25.075094
 30
0.0
  0
VERTEX
  8
0
  6
CONTINUOUS
 62
              80
  5
90D
 10
363.92331999999999
 20
25.026281999999998
 30
0.0
  0
VERTEX
  8
0
  6
CONTINUOUS
 62
              80
  5
90E
 10
363.89077099999997
 20
24.977855999999999
 30
0.0
  0
VERTEX
  8
0
  6
CONTINUOUS
 62
              80
  5
90F
 10
363.85758499999997
 20
24.929763999999999
 30
0.0
  0
VERTEX
  8
0
  6
CONTINUOUS
 62
              80
  5
910
 10
363.82388400000002
 20
24.881954
 30
0.0
  0
VERTEX
  8
0
  6
CONTINUOUS
 62
              80
  5
911
 10
363.78979199999998
 20
24.834375000000001
 30
0.0
  0
VERTEX
  8
0
  6
CONTINUOUS
 62
              80
  5
912
 10
363.75543199999998
 20
24.786975000000002
 30
0.0
  0
VERTEX
  8
0
  6
CONTINUOUS
 62
              80
  5
913
 10
363.72092700000002
 20
24.739702000000001
 30
0.0
  0
VERTEX
  8
0
  6
CONTINUOUS
 62
              80
  5
914
 10
363.68640099999999
 20
24.692505000000001
 30
0.0
  0
VERTEX
  8
0
  6
CONTINUOUS
 62
              80
  5
915
 10
363.655484
 20
24.650182000000001
 30
0.0
  0
VERTEX
  8
0
  6
CONTINUOUS
 62
              80
  5
916
 10
363.62462799999997
 20
24.607889
 30
0.0
  0
VERTEX
  8
0
  6
CONTINUOUS
 62
              80
  5
917
 10
363.59381300000001
 20
24.565639000000001
 30
0.0
  0
VERTEX
  8
0
  6
CONTINUOUS
 62
              80
  5
918
 10
363.563017
 20
24.523440999999998
 30
0.0
  0
VERTEX
  8
0
  6
CONTINUOUS
 62
              80
  5
919
 10
363.53222099999999
 20
24.481307999999999
 30
0.0
  0
VERTEX
  8
0
  6
CONTINUOUS
 62
              80
  5
91A
 10
363.50140199999998
 20
24.439250000000001
 30
0.0
  0
VERTEX
  8
0
  6
CONTINUOUS
 62
              80
  5
91B
 10
363.47054100000003
 20
24.397279000000001
 30
0.0
  0
VERTEX
  8
0
  6
CONTINUOUS
 62
              80
  5
91C
 10
363.439615
 20
24.355405000000001
 30
0.0
  0
VERTEX
  8
0
  6
CONTINUOUS
 62
              80
  5
91D
 10
363.40860600000002
 20
24.313639999999999
 30
0.0
  0
VERTEX
  8
0
  6
CONTINUOUS
 62
              80
  5
91E
 10
363.37749000000002
 20
24.271995
 30
0.0
  0
VERTEX
  8
0
  6
CONTINUOUS
 62
              80
  5
91F
 10
363.346249
 20
24.230481000000001
 30
0.0
  0
VERTEX
  8
0
  6
CONTINUOUS
 62
              80
  5
920
 10
363.31486000000001
 20
24.189108999999998
 30
0.0
  0
VERTEX
  8
0
  6
CONTINUOUS
 62
              80
  5
921
 10
363.28330299999999
 20
24.147891000000001
 30
0.0
  0
VERTEX
  8
0
  6
CONTINUOUS
 62
              80
  5
922
 10
363.25155699999999
 20
24.106836999999999
 30
0.0
  0
VERTEX
  8
0
  6
CONTINUOUS
 62
              80
  5
923
 10
363.21960100000001
 20
24.065957999999998
 30
0.0
  0
VERTEX
  8
0
  6
CONTINUOUS
 62
              80
  5
924
 10
363.18741499999999
 20
24.025266999999999
 30
0.0
  0
SEQEND
  8
0
  6
CONTINUOUS
 62
              80
  5
925
  0
POLYLINE
  8
0
  6
CONTINUOUS
 62
              80
  5
1E1
 66
               1
 10
0.0
 20
0.0
 30
0.0
  0
VERTEX
  8
0
  6
CONTINUOUS
 62
              80
  5
926
 10
364.09256800000003
 20
25.661199
 30
0.0
  0
VERTEX
  8
0
  6
CONTINUOUS
 62
              80
  5
927
 10
364.09252500000002
 20
25.661034999999998
 30
0.0
  0
VERTEX
  8
0
  6
CONTINUOUS
 62
              80
  5
928
 10
364.09248100000002
 20
25.660871
 30
0.0
  0
VERTEX
  8
0
  6
CONTINUOUS
 62
              80
  5
929
 10
364.09243700000002
 20
25.660706999999999
 30
0.0
  0
VERTEX
  8
0
  6
CONTINUOUS
 62
              80
  5
92A
 10
364.09239300000002
 20
25.660543000000001
 30
0.0
  0
VERTEX
  8
0
  6
CONTINUOUS
 62
              80
  5
92B
 10
364.09234900000001
 20
25.660378999999999
 30
0.0
  0
VERTEX
  8
0
  6
CONTINUOUS
 62
              80
  5
92C
 10
364.09230500000001
 20
25.660215000000001
 30
0.0
  0
VERTEX
  8
0
  6
CONTINUOUS
 62
              80
  5
92D
 10
364.09226100000001
 20
25.660052
 30
0.0
  0
VERTEX
  8
0
  6
CONTINUOUS
 62
              80
  5
92E
 10
364.09221700000001
 20
25.659887999999999
 30
0.0
  0
VERTEX
  8
0
  6
CONTINUOUS
 62
              80
  5
92F
 10
364.092173
 20
25.659724000000001
 30
0.0
  0
VERTEX
  8
0
  6
CONTINUOUS
 62
              80
  5
930
 10
364.092129
 20
25.659559999999999
 30
0.0
  0
VERTEX
  8
0
  6
CONTINUOUS
 62
              80
  5
931
 10
364.092085
 20
25.659396000000001
 30
0.0
  0
VERTEX
  8
0
  6
CONTINUOUS
 62
              80
  5
932
 10
364.09204099999999
 20
25.659231999999999
 30
0.0
  0
VERTEX
  8
0
  6
CONTINUOUS
 62
              80
  5
933
 10
364.09199699999999
 20
25.659068999999999
 30
0.0
  0
VERTEX
  8
0
  6
CONTINUOUS
 62
              80
  5
934
 10
364.09195299999999
 20
25.658905000000001
 30
0.0
  0
VERTEX
  8
0
  6
CONTINUOUS
 62
              80
  5
935
 10
364.09190899999999
 20
25.658740999999999
 30
0.0
  0
VERTEX
  8
0
  6
CONTINUOUS
 62
              80
  5
936
 10
364.09186499999998
 20
25.658577000000001
 30
0.0
  0
VERTEX
  8
0
  6
CONTINUOUS
 62
              80
  5
937
 10
364.08964200000003
 20
25.650438000000001
 30
0.0
  0
VERTEX
  8
0
  6
CONTINUOUS
 62
              80
  5
938
 10
364.08736599999997
 20
25.642309000000001
 30
0.0
  0
VERTEX
  8
0
  6
CONTINUOUS
 62
              80
  5
939
 10
364.085037
 20
25.634188000000002
 30
0.0
  0
VERTEX
  8
0
  6
CONTINUOUS
 62
              80
  5
93A
 10
364.08265599999999
 20
25.626076999999999
 30
0.0
  0
VERTEX
  8
0
  6
CONTINUOUS
 62
              80
  5
93B
 10
364.08022299999999
 20
25.617975999999999
 30
0.0
  0
VERTEX
  8
0
  6
CONTINUOUS
 62
              80
  5
93C
 10
364.07773900000001
 20
25.609885999999999
 30
0.0
  0
VERTEX
  8
0
  6
CONTINUOUS
 62
              80
  5
93D
 10
364.07520299999999
 20
25.601804999999999
 30
0.0
  0
VERTEX
  8
0
  6
CONTINUOUS
 62
              80
  5
93E
 10
364.07261799999998
 20
25.593736
 30
0.0
  0
VERTEX
  8
0
  6
CONTINUOUS
 62
              80
  5
93F
 10
364.06998199999998
 20
25.585677
 30
0.0
  0
VERTEX
  8
0
  6
CONTINUOUS
 62
              80
  5
940
 10
364.06729799999999
 20
25.577629999999999
 30
0.0
  0
VERTEX
  8
0
  6
CONTINUOUS
 62
              80
  5
941
 10
364.06456400000002
 20
25.569595
 30
0.0
  0
VERTEX
  8
0
  6
CONTINUOUS
 62
              80
  5
942
 10
364.06178299999999
 20
25.561572000000002
 30
0.0
  0
VERTEX
  8
0
  6
CONTINUOUS
 62
              80
  5
943
 10
364.05895400000003
 20
25.553560000000001
 30
0.0
  0
VERTEX
  8
0
  6
CONTINUOUS
 62
              80
  5
944
 10
364.05607700000002
 20
25.545562
 30
0.0
  0
VERTEX
  8
0
  6
CONTINUOUS
 62
              80
  5
945
 10
364.053155
 20
25.537576000000001
 30
0.0
  0
VERTEX
  8
0
  6
CONTINUOUS
 62
              80
  5
946
 10
364.050186
 20
25.529603999999999
 30
0.0
  0
VERTEX
  8
0
  6
CONTINUOUS
 62
              80
  5
947
 10
364.030506
 20
25.479842999999999
 30
0.0
  0
VERTEX
  8
0
  6
CONTINUOUS
 62
              80
  5
948
 10
364.00909799999999
 20
25.430569999999999
 30
0.0
  0
VERTEX
  8
0
  6
CONTINUOUS
 62
              80
  5
949
 10
363.98605700000002
 20
25.381732
 30
0.0
  0
VERTEX
  8
0
  6
CONTINUOUS
 62
              80
  5
94A
 10
363.961478
 20
25.333280999999999
 30
0.0
  0
VERTEX
  8
0
  6
CONTINUOUS
 62
              80
  5
94B
 10
363.93545999999998
 20
25.285170999999998
 30
0.0
  0
VERTEX
  8
0
  6
CONTINUOUS
 62
              80
  5
94C
 10
363.90810599999998
 20
25.237359999999999
 30
0.0
  0
VERTEX
  8
0
  6
CONTINUOUS
 62
              80
  5
94D
 10
363.87952200000001
 20
25.189803999999999
 30
0.0
  0
VERTEX
  8
0
  6
CONTINUOUS
 62
              80
  5
94E
 10
363.84981499999998
 20
25.142462999999999
 30
0.0
  0
VERTEX
  8
0
  6
CONTINUOUS
 62
              80
  5
94F
 10
363.819098
 20
25.095296000000001
 30
0.0
  0
VERTEX
  8
0
  6
CONTINUOUS
 62
              80
  5
950
 10
363.78748300000001
 20
25.048259000000002
 30
0.0
  0
VERTEX
  8
0
  6
CONTINUOUS
 62
              80
  5
951
 10
363.75508500000001
 20
25.00131
 30
0.0
  0
VERTEX
  8
0
  6
CONTINUOUS
 62
              80
  5
952
 10
363.72202099999998
 20
24.954404
 30
0.0
  0
VERTEX
  8
0
  6
CONTINUOUS
 62
              80
  5
953
 10
363.68841099999997
 20
24.907496999999999
 30
0.0
  0
VERTEX
  8
0
  6
CONTINUOUS
 62
              80
  5
954
 10
363.65437300000002
 20
24.860541000000001
 30
0.0
  0
VERTEX
  8
0
  6
CONTINUOUS
 62
              80
  5
955
 10
363.62002799999999
 20
24.813488
 30
0.0
  0
VERTEX
  8
0
  6
CONTINUOUS
 62
              80
  5
956
 10
363.58549799999997
 20
24.766285
 30
0.0
  0
VERTEX
  8
0
  6
CONTINUOUS
 62
              80
  5
957
 10
363.54790400000002
 20
24.714815000000002
 30
0.0
  0
VERTEX
  8
0
  6
CONTINUOUS
 62
              80
  5
958
 10
363.51044300000001
 20
24.663459
 30
0.0
  0
VERTEX
  8
0
  6
CONTINUOUS
 62
              80
  5
959
 10
363.47307699999999
 20
24.612238999999999
 30
0.0
  0
VERTEX
  8
0
  6
CONTINUOUS
 62
              80
  5
95A
 10
363.43576999999999
 20
24.561174999999999
 30
0.0
  0
VERTEX
  8
0
  6
CONTINUOUS
 62
              80
  5
95B
 10
363.398484
 20
24.510286000000001
 30
0.0
  0
VERTEX
  8
0
  6
CONTINUOUS
 62
              80
  5
95C
 10
363.36118199999999
 20
24.459592000000001
 30
0.0
  0
VERTEX
  8
0
  6
CONTINUOUS
 62
              80
  5
95D
 10
363.32382799999999
 20
24.409113999999999
 30
0.0
  0
VERTEX
  8
0
  6
CONTINUOUS
 62
              80
  5
95E
 10
363.286385
 20
24.358871000000001
 30
0.0
  0
VERTEX
  8
0
  6
CONTINUOUS
 62
              80
  5
95F
 10
363.24881599999998
 20
24.308881
 30
0.0
  0
VERTEX
  8
0
  6
CONTINUOUS
 62
              80
  5
960
 10
363.21108500000003
 20
24.259164999999999
 30
0.0
  0
VERTEX
  8
0
  6
CONTINUOUS
 62
              80
  5
961
 10
363.17315600000001
 20
24.209741000000001
 30
0.0
  0
VERTEX
  8
0
  6
CONTINUOUS
 62
              80
  5
962
 10
363.13499200000001
 20
24.160629
 30
0.0
  0
VERTEX
  8
0
  6
CONTINUOUS
 62
              80
  5
963
 10
363.09655600000002
 20
24.111847000000001
 30
0.0
  0
VERTEX
  8
0
  6
CONTINUOUS
 62
              80
  5
964
 10
363.05781400000001
 20
24.063413000000001
 30
0.0
  0
VERTEX
  8
0
  6
CONTINUOUS
 62
              80
  5
965
 10
363.01872700000001
 20
24.015346999999998
 30
0.0
  0
VERTEX
  8
0
  6
CONTINUOUS
 62
              80
  5
966
 10
362.97926100000001
 20
23.967665
 30
0.0
  0
SEQEND
  8
0
  6
CONTINUOUS
 62
              80
  5
967
  0
LINE
  8
0
  6
CONTINUOUS
 62
              80
  5
1E2
 10
304.0
 20
280.49998499999998
 30
0.0
 11
304.0
 21
255.499989
 31
0.0
  0
TEXT
  8
0
  6
CONTINUOUS
 62
               3
  5
1E3
 10
294.91666698344318
 20
276.39998497615812
 30
0.0
 40
3.2000000476837158
  1
訂正数
 41
0.7812499573143839
  7
MX_NOTE_STANDARD
 11
294.91666698344318
 21
277.99998499999998
 31
0.0
 73
               2
  0
LINE
  8
0
  6
CONTINUOUS
 62
               3
  5
1E4
 10
283.0
 20
53.0
 30
0.0
 11
283.0
 21
37.5
 31
0.0
  0
LINE
  8
0
  6
CONTINUOUS
 62
               3
  5
1E5
 10
340.0
 20
53.0
 30
0.0
 11
340.0
 21
37.5
 31
0.0
  0
TEXT
  8
0
  6
CONTINUOUS
 62
               3
  5
1E6
 10
372.89273805218915
 20
18.040420000000001
 30
0.0
 40
3.0
  1
様式　D-094
 41
0.901186104378319
  7
MX_NOTE_STANDARD
 11
372.89273805218915
 21
19.540420000000001
 31
0.0
 73
               2
  0
LINE
  8
0
  6
CONTINUOUS
 62
               3
  5
1E7
 10
0.0
 20
297.0
 30
0.0
 11
420.0
 21
297.0
 31
0.0
  0
TEXT
  8
0
  6
CONTINUOUS
 62
               3
  5
1E8
 10
239.41337595364081
 20
39.228823880790713
 30
0.0
 40
3.2000000476837158
  1
　　　　商品仕様図
 41
0.7999999011556357
  7
MX_NOTE_STANDARD
  0
TEXT
  8
0
  6
CONTINUOUS
 62
               3
  5
1E9
 10
239.41337595364081
 20
44.428822880790712
 30
0.0
 40
3.2000000476837158
  1
ＳＰＥＣＩＦＩＣＡＴＩＯＮ
 41
0.7999999011556357
  7
MX_NOTE_STANDARD
  0
POINT
  8
0
  6
CONTINUOUS
 62
              80
  5
1EA
 10
368.5
 20
42.25
 30
0.0
  0
POINT
  8
0
  6
CONTINUOUS
 62
              80
  5
1EB
 10
311.5
 20
42.25
 30
0.0
  0
POINT
  8
0
  6
CONTINUOUS
 62
              80
  5
1EC
 10
320.0
 20
63.0
 30
0.0
  0
POINT
  8
0
  6
CONTINUOUS
 62
              80
  5
1ED
 10
252.0
 20
30.25
 30
0.0
  0
POINT
  8
0
  6
CONTINUOUS
 62
              80
  5
1EE
 10
320.0
 20
69.0
 30
0.0
  0
POINT
  8
0
  6
CONTINUOUS
 62
              80
  5
1EF
 10
320.0
 20
75.0
 30
0.0
  0
POINT
  8
0
  6
CONTINUOUS
 62
              80
  5
1F0
 10
320.0
 20
81.0
 30
0.0
  0
POINT
  8
0
  6
CONTINUOUS
 62
              80
  5
1F1
 10
320.0
 20
87.0
 30
0.0
  0
POINT
  8
0
  6
CONTINUOUS
 62
              80
  5
1F2
 10
281.0
 20
63.0
 30
0.0
  0
POINT
  8
0
  6
CONTINUOUS
 62
              80
  5
1F3
 10
329.0
 20
63.0
 30
0.0
  0
POINT
  8
0
  6
CONTINUOUS
 62
              80
  5
1F4
 10
355.0
 20
63.0
 30
0.0
  0
POINT
  8
0
  6
CONTINUOUS
 62
              80
  5
1F5
 10
281.0
 20
69.0
 30
0.0
  0
POINT
  8
0
  6
CONTINUOUS
 62
              80
  5
1F6
 10
329.0
 20
69.0
 30
0.0
  0
POINT
  8
0
  6
CONTINUOUS
 62
              80
  5
1F7
 10
355.0
 20
69.0
 30
0.0
  0
POINT
  8
0
  6
CONTINUOUS
 62
              80
  5
1F8
 10
281.0
 20
75.0
 30
0.0
  0
POINT
  8
0
  6
CONTINUOUS
 62
              80
  5
1F9
 10
329.0
 20
75.0
 30
0.0
  0
POINT
  8
0
  6
CONTINUOUS
 62
              80
  5
1FA
 10
355.0
 20
75.0
 30
0.0
  0
POINT
  8
0
  6
CONTINUOUS
 62
              80
  5
1FB
 10
281.0
 20
81.0
 30
0.0
  0
POINT
  8
0
  6
CONTINUOUS
 62
              80
  5
1FC
 10
329.0
 20
81.0
 30
0.0
  0
POINT
  8
0
  6
CONTINUOUS
 62
              80
  5
1FD
 10
355.0
 20
81.0
 30
0.0
  0
POINT
  8
0
  6
CONTINUOUS
 62
              80
  5
1FE
 10
281.0
 20
87.0
 30
0.0
  0
POINT
  8
0
  6
CONTINUOUS
 62
              80
  5
1FF
 10
329.0
 20
87.0
 30
0.0
  0
POINT
  8
0
  6
CONTINUOUS
 62
              80
  5
200
 10
355.0
 20
87.0
 30
0.0
  0
POINT
  8
0
  6
CONTINUOUS
 62
              80
  5
201
 10
258.0
 20
42.25
 30
0.0
  0
POINT
  8
0
  6
CONTINUOUS
 62
              80
  5
202
 10
306.5
 20
272.99998499999998
 30
0.0
  0
POINT
  8
0
  6
CONTINUOUS
 62
              80
  5
203
 10
299.0
 20
272.99998499999998
 30
0.0
  0
POINT
  8
0
  6
CONTINUOUS
 62
              80
  5
204
 10
276.5
 20
272.99998499999998
 30
0.0
  0
POINT
  8
0
  6
CONTINUOUS
 62
              80
  5
205
 10
291.5
 20
272.99998499999998
 30
0.0
  0
POINT
  8
0
  6
CONTINUOUS
 62
              80
  5
206
 10
276.5
 20
267.99998499999998
 30
0.0
  0
POINT
  8
0
  6
CONTINUOUS
 62
              80
  5
207
 10
291.5
 20
267.99998499999998
 30
0.0
  0
POINT
  8
0
  6
CONTINUOUS
 62
              80
  5
208
 10
299.0
 20
267.99998499999998
 30
0.0
  0
POINT
  8
0
  6
CONTINUOUS
 62
              80
  5
209
 10
306.5
 20
267.99998499999998
 30
0.0
  0
POINT
  8
0
  6
CONTINUOUS
 62
              80
  5
20A
 10
291.5
 20
262.99998900000003
 30
0.0
  0
POINT
  8
0
  6
CONTINUOUS
 62
              80
  5
20B
 10
299.0
 20
262.99998900000003
 30
0.0
  0
POINT
  8
0
  6
CONTINUOUS
 62
              80
  5
20C
 10
306.5
 20
262.99998900000003
 30
0.0
  0
POINT
  8
0
  6
CONTINUOUS
 62
              80
  5
20D
 10
276.5
 20
257.99998900000003
 30
0.0
  0
POINT
  8
0
  6
CONTINUOUS
 62
              80
  5
20E
 10
291.5
 20
257.99998900000003
 30
0.0
  0
POINT
  8
0
  6
CONTINUOUS
 62
              80
  5
20F
 10
299.0
 20
257.99998900000003
 30
0.0
  0
POINT
  8
0
  6
CONTINUOUS
 62
              80
  5
210
 10
306.5
 20
257.99998900000003
 30
0.0
  0
POINT
  8
0
  6
CONTINUOUS
 62
              80
  5
211
 10
392.0
 20
272.99998499999998
 30
0.0
  0
POINT
  8
0
  6
CONTINUOUS
 62
              80
  5
212
 10
392.0
 20
267.99998499999998
 30
0.0
  0
POINT
  8
0
  6
CONTINUOUS
 62
              80
  5
213
 10
392.0
 20
262.99998499999998
 30
0.0
  0
POINT
  8
0
  6
CONTINUOUS
 62
              80
  5
214
 10
392.0
 20
257.99998499999998
 30
0.0
  0
POINT
  8
0
  6
CONTINUOUS
 62
              80
  5
215
 10
299.5
 20
23.0
 30
0.0
  0
POINT
  8
0
  6
CONTINUOUS
 62
              80
  5
216
 10
280.5
 20
23.0
 30
0.0
  0
POINT
  8
0
  6
CONTINUOUS
 62
              80
  5
217
 10
252.0
 20
19.75
 30
0.0
  0
POINT
  8
0
  6
CONTINUOUS
 62
              80
  5
218
 10
0.0
 20
0.0
 30
0.0
  0
LINE
  8
0
  6
CONTINUOUS
 62
              80
  5
219
 10
269.0
 20
260.49998499999998
 30
0.0
 11
397.0
 21
260.49998499999998
 31
0.0
  0
POINT
  8
0
  6
CONTINUOUS
 62
              80
  5
21A
 10
276.5
 20
262.99998499999998
 30
0.0
  0
CIRCLE
  8
0
  6
CONTINUOUS
 62
               3
  5
21B
 10
279.0
 20
262.99998499999998
 30
0.0
 40
0.2
  0
CIRCLE
  8
0
  6
CONTINUOUS
 62
               3
  5
21C
 10
274.0
 20
262.99998499999998
 30
0.0
 40
0.2
  0
LINE
  8
0
  6
CONTINUOUS
 62
              80
  5
21D
 10
284.75
 20
261.48444000000001
 30
0.0
 11
288.25
 21
261.48444000000001
 31
0.0
  0
LINE
  8
0
  6
CONTINUOUS
 62
              80
  5
21E
 10
286.49996900000002
 20
264.51553899999999
 30
0.0
 11
284.74996900000002
 21
261.48444999999998
 31
0.0
  0
LINE
  8
0
  6
CONTINUOUS
 62
              80
  5
21F
 10
286.49998199999999
 20
264.51549599999998
 30
0.0
 11
288.24998199999999
 21
261.48440699999998
 31
0.0
  0
LINE
  8
0
  6
CONTINUOUS
 62
              80
  5
220
 10
269.0
 20
265.49998699999998
 30
0.0
 11
397.0
 21
265.49998699999998
 31
0.0
  0
LINE
  8
0
  6
CONTINUOUS
 62
              80
  5
221
 10
269.0
 20
96.0
 30
0.0
 11
397.0
 21
96.0
 31
0.0
  0
TEXT
  8
0
  6
CONTINUOUS
 62
               3
  5
222
 10
272.60000502414636
 20
91.5
 30
0.0
 40
3.0
  1
6
 41
1.0500100482927037
  7
MX_NOTE_STANDARD
 11
272.60000502414636
 21
93.0
 31
0.0
 73
               2
  0
ENDBLK
  8
0
  5
223
  0
BLOCK
  8
0
  5
224
  2
*X1
 70
               1
 10
0.0
 20
0.0
 30
0.0
  3
*X1
  0
LINE
  8
0
  6
CONTINUOUS
 62
              90
  5
225
 10
381.5
 20
26.428528
 30
0.0
 11
381.5
 21
26.5
 31
0.0
  0
LINE
  8
0
  6
CONTINUOUS
 62
              90
  5
226
 10
381.0
 20
23.714233
 30
0.0
 11
381.0
 21
26.5
 31
0.0
  0
LINE
  8
0
  6
CONTINUOUS
 62
              90
  5
227
 10
380.5
 20
26.428529999999999
 30
0.0
 11
380.5
 21
26.5
 31
0.0
  0
LINE
  8
0
  6
CONTINUOUS
 62
              90
  5
228
 10
380.5
 20
25.034887000000001
 30
0.0
 11
380.5
 21
26.369992
 31
0.0
  0
LINE
  8
0
  6
CONTINUOUS
 62
              90
  5
229
 10
380.0
 20
26.428529000000001
 30
0.0
 11
380.0
 21
26.5
 31
0.0
  0
LINE
  8
0
  6
CONTINUOUS
 62
              90
  5
22A
 10
380.0
 20
24.709453
 30
0.0
 11
380.0
 21
25.2879
 31
0.0
  0
LINE
  8
0
  6
CONTINUOUS
 62
              90
  5
22B
 10
379.5
 20
26.428528
 30
0.0
 11
379.5
 21
26.5
 31
0.0
  0
LINE
  8
0
  6
CONTINUOUS
 62
              90
  5
22C
 10
379.5
 20
24.409911000000001
 30
0.0
 11
379.5
 21
24.743966
 31
0.0
  0
LINE
  8
0
  6
CONTINUOUS
 62
              90
  5
22D
 10
379.42858899999999
 20
26.5
 30
0.0
 11
381.87146000000001
 21
26.5
 31
0.0
  0
LINE
  8
0
  6
CONTINUOUS
 62
              90
  5
22E
 10
380.38200499999999
 20
26.0
 30
0.0
 11
381.15716600000002
 21
26.0
 31
0.0
  0
LINE
  8
0
  6
CONTINUOUS
 62
              90
  5
22F
 10
380.13826699999998
 20
25.5
 30
0.0
 11
381.15716600000002
 21
25.5
 31
0.0
  0
LINE
  8
0
  6
CONTINUOUS
 62
              90
  5
230
 10
380.51431400000001
 20
25.0
 30
0.0
 11
381.15716600000002
 21
25.0
 31
0.0
  0
LINE
  8
0
  6
CONTINUOUS
 62
              90
  5
231
 10
379.76547299999999
 20
25.0
 30
0.0
 11
380.45250499999997
 21
25.0
 31
0.0
  0
LINE
  8
0
  6
CONTINUOUS
 62
              90
  5
232
 10
380.51431400000001
 20
24.5
 30
0.0
 11
381.15716600000002
 21
24.5
 31
0.0
  0
LINE
  8
0
  6
CONTINUOUS
 62
              90
  5
233
 10
379.42813699999999
 20
24.5
 30
0.0
 11
379.65267799999998
 21
24.5
 31
0.0
  0
LINE
  8
0
  6
CONTINUOUS
 62
              90
  5
234
 10
380.51431300000002
 20
24.0
 30
0.0
 11
381.15716600000002
 21
24.0
 31
0.0
  0
ENDBLK
  8
0
  5
235
  0
BLOCK
  8
0
  5
236
  2
*X2
 70
               1
 10
0.0
 20
0.0
 30
0.0
  3
*X2
  0
LINE
  8
0
  6
CONTINUOUS
 62
              90
  5
237
 10
384.5
 20
26.428528
 30
0.0
 11
384.5
 21
26.5
 31
0.0
  0
LINE
  8
0
  6
CONTINUOUS
 62
              90
  5
238
 10
384.5
 20
23.714233
 30
0.0
 11
384.5
 21
23.785706000000001
 31
0.0
  0
LINE
  8
0
  6
CONTINUOUS
 62
              90
  5
239
 10
384.0
 20
26.428528
 30
0.0
 11
384.0
 21
26.5
 31
0.0
  0
LINE
  8
0
  6
CONTINUOUS
 62
              90
  5
23A
 10
384.0
 20
23.714233
 30
0.0
 11
384.0
 21
23.785706000000001
 31
0.0
  0
LINE
  8
0
  6
CONTINUOUS
 62
              90
  5
23B
 10
383.5
 20
23.714233
 30
0.0
 11
383.5
 21
27.285706000000001
 31
0.0
  0
LINE
  8
0
  6
CONTINUOUS
 62
              90
  5
23C
 10
383.0
 20
26.428528
 30
0.0
 11
383.0
 21
26.5
 31
0.0
  0
LINE
  8
0
  6
CONTINUOUS
 62
              90
  5
23D
 10
383.0
 20
23.714233
 30
0.0
 11
383.0
 21
23.785706000000001
 31
0.0
  0
LINE
  8
0
  6
CONTINUOUS
 62
              90
  5
23E
 10
382.5
 20
23.714233
 30
0.0
 11
382.5
 21
23.785706000000001
 31
0.0
  0
LINE
  8
0
  6
CONTINUOUS
 62
              90
  5
23F
 10
383.37146000000001
 20
27.0
 30
0.0
 11
383.94287100000003
 21
27.0
 31
0.0
  0
LINE
  8
0
  6
CONTINUOUS
 62
              90
  5
240
 10
382.58572400000003
 20
26.5
 30
0.0
 11
384.87146000000001
 21
26.5
 31
0.0
  0
LINE
  8
0
  6
CONTINUOUS
 62
              90
  5
241
 10
383.37146000000001
 20
26.0
 30
0.0
 11
383.94287100000003
 21
26.0
 31
0.0
  0
LINE
  8
0
  6
CONTINUOUS
 62
              90
  5
242
 10
383.37146000000001
 20
25.5
 30
0.0
 11
383.94287100000003
 21
25.5
 31
0.0
  0
LINE
  8
0
  6
CONTINUOUS
 62
              90
  5
243
 10
383.37146000000001
 20
25.0
 30
0.0
 11
383.94287100000003
 21
25.0
 31
0.0
  0
LINE
  8
0
  6
CONTINUOUS
 62
              90
  5
244
 10
383.37146000000001
 20
24.5
 30
0.0
 11
383.94287100000003
 21
24.5
 31
0.0
  0
LINE
  8
0
  6
CONTINUOUS
 62
              90
  5
245
 10
383.37146000000001
 20
24.0
 30
0.0
 11
383.94287100000003
 21
24.0
 31
0.0
  0
ENDBLK
  8
0
  5
246
  0
BLOCK
  8
0
  5
247
  2
*X3
 70
               1
 10
0.0
 20
0.0
 30
0.0
  3
*X3
  0
LINE
  8
0
  6
CONTINUOUS
 62
              90
  5
248
 10
382.0
 20
24.591286
 30
0.0
 11
382.0
 21
24.980125000000001
 31
0.0
  0
LINE
  8
0
  6
CONTINUOUS
 62
              90
  5
249
 10
382.02841000000001
 20
25.0
 30
0.0
 11
382.28592099999997
 21
25.0
 31
0.0
  0
ENDBLK
  8
0
  5
24A
  0
BLOCK
  8
0
  5
24B
  2
*X4
 70
               1
 10
0.0
 20
0.0
 30
0.0
  3
*X4
  0
LINE
  8
0
  6
CONTINUOUS
 62
              90
  5
24C
 10
378.5
 20
25.0
 30
0.0
 11
378.5
 21
25.142821999999999
 31
0.0
  0
LINE
  8
0
  6
CONTINUOUS
 62
              90
  5
24D
 10
378.0
 20
25.0
 30
0.0
 11
378.0
 21
25.142821999999999
 31
0.0
  0
LINE
  8
0
  6
CONTINUOUS
 62
              90
  5
24E
 10
378.0
 20
23.714183999999999
 30
0.0
 11
378.0
 21
24.367705999999998
 31
0.0
  0
LINE
  8
0
  6
CONTINUOUS
 62
              90
  5
24F
 10
377.5
 20
23.820602000000001
 30
0.0
 11
377.5
 21
25.142821999999999
 31
0.0
  0
LINE
  8
0
  6
CONTINUOUS
 62
              90
  5
250
 10
377.5
 20
23.714133
 30
0.0
 11
377.5
 21
23.785706000000001
 31
0.0
  0
LINE
  8
0
  6
CONTINUOUS
 62
              90
  5
251
 10
377.0
 20
24.741282999999999
 30
0.0
 11
377.0
 21
25.142821999999999
 31
0.0
  0
LINE
  8
0
  6
CONTINUOUS
 62
              90
  5
252
 10
377.0
 20
23.714082999999999
 30
0.0
 11
377.0
 21
23.785706000000001
 31
0.0
  0
LINE
  8
0
  6
CONTINUOUS
 62
              90
  5
253
 10
376.5
 20
25.0
 30
0.0
 11
376.5
 21
25.142821999999999
 31
0.0
  0
LINE
  8
0
  6
CONTINUOUS
 62
              90
  5
254
 10
376.5
 20
23.714033000000001
 30
0.0
 11
376.5
 21
23.785706000000001
 31
0.0
  0
LINE
  8
0
  6
CONTINUOUS
 62
              90
  5
255
 10
376.0
 20
25.0
 30
0.0
 11
376.0
 21
25.142821999999999
 31
0.0
  0
LINE
  8
0
  6
CONTINUOUS
 62
              90
  5
256
 10
376.0
 20
23.713982999999999
 30
0.0
 11
376.0
 21
23.785706000000001
 31
0.0
  0
LINE
  8
0
  6
CONTINUOUS
 62
              90
  5
257
 10
375.5
 20
25.0
 30
0.0
 11
375.5
 21
25.142821999999999
 31
0.0
  0
LINE
  8
0
  6
CONTINUOUS
 62
              90
  5
258
 10
375.5
 20
23.713933000000001
 30
0.0
 11
375.5
 21
23.785706000000001
 31
0.0
  0
LINE
  8
0
  6
CONTINUOUS
 62
              90
  5
259
 10
375.0
 20
24.492328000000001
 30
0.0
 11
375.0
 21
25.142821999999999
 31
0.0
  0
LINE
  8
0
  6
CONTINUOUS
 62
              90
  5
25A
 10
375.0
 20
23.713882999999999
 30
0.0
 11
375.0
 21
23.785706000000001
 31
0.0
  0
LINE
  8
0
  6
CONTINUOUS
 62
              90
  5
25B
 10
374.5
 20
25.0
 30
0.0
 11
374.5
 21
25.142821999999999
 31
0.0
  0
LINE
  8
0
  6
CONTINUOUS
 62
              90
  5
25C
 10
374.5
 20
23.713832
 30
0.0
 11
374.5
 21
24.844407
 31
0.0
  0
LINE
  8
0
  6
CONTINUOUS
 62
              90
  5
25D
 10
374.0
 20
25.0
 30
0.0
 11
374.0
 21
25.142821999999999
 31
0.0
  0
LINE
  8
0
  6
CONTINUOUS
 62
              90
  5
25E
 10
374.0
 20
23.713781999999998
 30
0.0
 11
374.0
 21
24.195416999999999
 31
0.0
  0
LINE
  8
0
  6
CONTINUOUS
 62
              90
  5
25F
 10
373.5
 20
25.0
 30
0.0
 11
373.5
 21
25.142821999999999
 31
0.0
  0
LINE
  8
0
  6
CONTINUOUS
 62
              90
  5
260
 10
373.41430700000001
 20
25.0
 30
0.0
 11
378.71432499999997
 21
25.0
 31
0.0
  0
LINE
  8
0
  6
CONTINUOUS
 62
              90
  5
261
 10
377.131035
 20
24.5
 30
0.0
 11
377.89935100000002
 21
24.5
 31
0.0
  0
LINE
  8
0
  6
CONTINUOUS
 62
              90
  5
262
 10
374.23465900000002
 20
24.5
 30
0.0
 11
375.00412699999998
 21
24.5
 31
0.0
  0
LINE
  8
0
  6
CONTINUOUS
 62
              90
  5
263
 10
377.40257300000002
 20
24.0
 30
0.0
 11
378.27975099999998
 21
24.0
 31
0.0
  0
LINE
  8
0
  6
CONTINUOUS
 62
              90
  5
264
 10
373.849445
 20
24.0
 30
0.0
 11
374.73515300000003
 21
24.0
 31
0.0
  0
ENDBLK
  8
0
  5
265
  0
BLOCK
  8
0
  5
266
  2
*X5
 70
               1
 10
0.0
 20
0.0
 30
0.0
  3
*X5
  0
LINE
  8
0
  6
CONTINUOUS
 62
              90
  5
267
 10
378.5
 20
26.15025
 30
0.0
 11
378.5
 21
26.485126000000001
 31
0.0
  0
LINE
  8
0
  6
CONTINUOUS
 62
              90
  5
268
 10
378.0
 20
26.312746000000001
 30
0.0
 11
378.0
 21
26.647282000000001
 31
0.0
  0
LINE
  8
0
  6
CONTINUOUS
 62
              90
  5
269
 10
377.5
 20
26.475242000000001
 30
0.0
 11
377.5
 21
26.809436999999999
 31
0.0
  0
LINE
  8
0
  6
CONTINUOUS
 62
              90
  5
26A
 10
377.0
 20
26.637737999999999
 30
0.0
 11
377.0
 21
26.971592999999999
 31
0.0
  0
LINE
  8
0
  6
CONTINUOUS
 62
              90
  5
26B
 10
376.5
 20
26.800235000000001
 30
0.0
 11
376.5
 21
27.133749000000002
 31
0.0
  0
LINE
  8
0
  6
CONTINUOUS
 62
              90
  5
26C
 10
376.0
 20
26.920936000000001
 30
0.0
 11
376.0
 21
27.253907999999999
 31
0.0
  0
LINE
  8
0
  6
CONTINUOUS
 62
              90
  5
26D
 10
375.5
 20
26.75844
 30
0.0
 11
375.5
 21
27.091805999999998
 31
0.0
  0
LINE
  8
0
  6
CONTINUOUS
 62
              90
  5
26E
 10
375.0
 20
26.595943999999999
 30
0.0
 11
375.0
 21
26.929704999999998
 31
0.0
  0
LINE
  8
0
  6
CONTINUOUS
 62
              90
  5
26F
 10
374.5
 20
26.433447999999999
 30
0.0
 11
374.5
 21
26.767603000000001
 31
0.0
  0
LINE
  8
0
  6
CONTINUOUS
 62
              90
  5
270
 10
374.0
 20
26.270952000000001
 30
0.0
 11
374.0
 21
26.605502000000001
 31
0.0
  0
LINE
  8
0
  6
CONTINUOUS
 62
              90
  5
271
 10
373.5
 20
26.108456
 30
0.0
 11
373.5
 21
26.4434
 31
0.0
  0
LINE
  8
0
  6
CONTINUOUS
 62
              90
  5
272
 10
375.21682499999997
 20
27.0
 30
0.0
 11
376.91240800000003
 21
27.0
 31
0.0
  0
LINE
  8
0
  6
CONTINUOUS
 62
              90
  5
273
 10
377.42382099999998
 20
26.5
 30
0.0
 11
378.454137
 21
26.5
 31
0.0
  0
LINE
  8
0
  6
CONTINUOUS
 62
              90
  5
274
 10
373.67458199999999
 20
26.5
 30
0.0
 11
374.70478000000003
 21
26.5
 31
0.0
  0
ENDBLK
  8
0
  5
275
  0
BLOCK
  8
0
  5
276
  2
*X6
 70
               1
 10
0.0
 20
0.0
 30
0.0
  3
*X6
  0
LINE
  8
0
  6
CONTINUOUS
 62
              90
  5
277
 10
369.5
 20
25.214233
 30
0.0
 11
369.5
 21
25.285706000000001
 31
0.0
  0
LINE
  8
0
  6
CONTINUOUS
 62
              90
  5
278
 10
369.5
 20
23.929746000000002
 30
0.0
 11
369.5
 21
24.040247999999998
 31
0.0
  0
LINE
  8
0
  6
CONTINUOUS
 62
              90
  5
279
 10
369.0
 20
25.214233
 30
0.0
 11
369.0
 21
25.285706000000001
 31
0.0
  0
LINE
  8
0
  6
CONTINUOUS
 62
              90
  5
27A
 10
369.0
 20
23.841335999999998
 30
0.0
 11
369.0
 21
23.989279
 31
0.0
  0
LINE
  8
0
  6
CONTINUOUS
 62
              90
  5
27B
 10
368.5
 20
23.768713999999999
 30
0.0
 11
368.5
 21
25.285706000000001
 31
0.0
  0
LINE
  8
0
  6
CONTINUOUS
 62
              90
  5
27C
 10
368.0
 20
25.214233
 30
0.0
 11
368.0
 21
25.285706000000001
 31
0.0
  0
LINE
  8
0
  6
CONTINUOUS
 62
              90
  5
27D
 10
368.0
 20
23.711010000000002
 30
0.0
 11
368.0
 21
23.925125999999999
 31
0.0
  0
LINE
  8
0
  6
CONTINUOUS
 62
              90
  5
27E
 10
367.5
 20
25.214233
 30
0.0
 11
367.5
 21
25.285706000000001
 31
0.0
  0
LINE
  8
0
  6
CONTINUOUS
 62
              90
  5
27F
 10
367.5
 20
23.667258
 30
0.0
 11
367.5
 21
23.887993000000002
 31
0.0
  0
LINE
  8
0
  6
CONTINUOUS
 62
              90
  5
280
 10
368.25706400000001
 20
25.0
 30
0.0
 11
368.90024599999998
 21
25.0
 31
0.0
  0
LINE
  8
0
  6
CONTINUOUS
 62
              90
  5
281
 10
368.25681400000002
 20
24.5
 30
0.0
 11
368.90076399999998
 21
24.5
 31
0.0
  0
LINE
  8
0
  6
CONTINUOUS
 62
              90
  5
282
 10
369.12477699999999
 20
24.0
 30
0.0
 11
369.84420299999999
 21
24.0
 31
0.0
  0
LINE
  8
0
  6
CONTINUOUS
 62
              90
  5
283
 10
368.25656400000003
 20
24.0
 30
0.0
 11
368.90128299999998
 21
24.0
 31
0.0
  0
ENDBLK
  8
0
  5
284
  0
BLOCK
  8
0
  5
285
  2
*X7
 70
               1
 10
0.0
 20
0.0
 30
0.0
  3
*X7
  0
LINE
  8
0
  6
CONTINUOUS
 62
              90
  5
286
 10
372.0
 20
26.893229000000002
 30
0.0
 11
372.0
 21
27.392416000000001
 31
0.0
  0
LINE
  8
0
  6
CONTINUOUS
 62
              90
  5
287
 10
371.78056099999998
 20
27.0
 30
0.0
 11
372.19093600000002
 21
27.0
 31
0.0
  0
ENDBLK
  8
0
  5
288
  0
BLOCK
  8
0
  5
289
  2
*X8
 70
               1
 10
0.0
 20
0.0
 30
0.0
  3
*X8
  0
LINE
  8
0
  6
CONTINUOUS
 62
              90
  5
28A
 10
372.5
 20
26.21424
 30
0.0
 11
372.5
 21
26.428450999999999
 31
0.0
  0
LINE
  8
0
  6
CONTINUOUS
 62
              90
  5
28B
 10
372.5
 20
23.928540000000002
 30
0.0
 11
372.5
 21
24.13456
 31
0.0
  0
LINE
  8
0
  6
CONTINUOUS
 62
              90
  5
28C
 10
372.0
 20
26.214265999999999
 30
0.0
 11
372.0
 21
26.428152999999998
 31
0.0
  0
LINE
  8
0
  6
CONTINUOUS
 62
              90
  5
28D
 10
372.0
 20
23.929268
 30
0.0
 11
372.0
 21
24.964572
 31
0.0
  0
LINE
  8
0
  6
CONTINUOUS
 62
              90
  5
28E
 10
371.5
 20
26.214293000000001
 30
0.0
 11
371.5
 21
26.427855000000001
 31
0.0
  0
LINE
  8
0
  6
CONTINUOUS
 62
              90
  5
28F
 10
371.5
 20
24.564254999999999
 30
0.0
 11
371.5
 21
25.921237999999999
 31
0.0
  0
LINE
  8
0
  6
CONTINUOUS
 62
              90
  5
290
 10
371.0
 20
25.604206000000001
 30
0.0
 11
371.0
 21
27.214928
 31
0.0
  0
LINE
  8
0
  6
CONTINUOUS
 62
              90
  5
291
 10
370.5
 20
27.067774
 30
0.0
 11
370.5
 21
27.213652
 31
0.0
  0
LINE
  8
0
  6
CONTINUOUS
 62
              90
  5
292
 10
370.5
 20
26.214835999999998
 30
0.0
 11
370.5
 21
26.428276
 31
0.0
  0
LINE
  8
0
  6
CONTINUOUS
 62
              90
  5
293
 10
370.0
 20
26.214741
 30
0.0
 11
370.0
 21
26.428315999999999
 31
0.0
  0
LINE
  8
0
  6
CONTINUOUS
 62
              90
  5
294
 10
369.5
 20
26.214645999999998
 30
0.0
 11
369.5
 21
26.428355
 31
0.0
  0
LINE
  8
0
  6
CONTINUOUS
 62
              90
  5
295
 10
369.0
 20
26.214551
 30
0.0
 11
369.0
 21
26.428394999999998
 31
0.0
  0
LINE
  8
0
  6
CONTINUOUS
 62
              90
  5
296
 10
368.5
 20
26.214455999999998
 30
0.0
 11
368.5
 21
26.428435
 31
0.0
  0
LINE
  8
0
  6
CONTINUOUS
 62
              90
  5
297
 10
368.0
 20
26.214361
 30
0.0
 11
368.0
 21
26.428474000000001
 31
0.0
  0
LINE
  8
0
  6
CONTINUOUS
 62
              90
  5
298
 10
367.5
 20
26.214265999999999
 30
0.0
 11
367.5
 21
26.428514
 31
0.0
  0
LINE
  8
0
  6
CONTINUOUS
 62
              90
  5
299
 10
370.51880999999997
 20
27.0
 30
0.0
 11
371.07115900000002
 21
27.0
 31
0.0
  0
LINE
  8
0
  6
CONTINUOUS
 62
              90
  5
29A
 10
370.66930300000001
 20
26.5
 30
0.0
 11
371.23985099999999
 21
26.5
 31
0.0
  0
LINE
  8
0
  6
CONTINUOUS
 62
              90
  5
29B
 10
370.84287499999999
 20
26.0
 30
0.0
 11
371.46179899999998
 21
26.0
 31
0.0
  0
LINE
  8
0
  6
CONTINUOUS
 62
              90
  5
29C
 10
371.04428799999999
 20
25.5
 30
0.0
 11
371.710646
 21
25.5
 31
0.0
  0
LINE
  8
0
  6
CONTINUOUS
 62
              90
  5
29D
 10
371.27443499999998
 20
25.0
 30
0.0
 11
371.98007699999999
 21
25.0
 31
0.0
  0
LINE
  8
0
  6
CONTINUOUS
 62
              90
  5
29E
 10
371.53533199999998
 20
24.5
 30
0.0
 11
372.27184099999999
 21
24.5
 31
0.0
  0
LINE
  8
0
  6
CONTINUOUS
 62
              90
  5
29F
 10
371.82950199999999
 20
24.0
 30
0.0
 11
372.58732199999997
 21
24.0
 31
0.0
  0
ENDBLK
  8
0
  5
2A0
  0
BLOCK
  8
0
  5
2A1
  2
*X9
 70
               1
 10
0.0
 20
0.0
 30
0.0
  3
*X9
  0
LINE
  8
0
  6
CONTINUOUS
 62
              90
  5
2A2
 10
366.5
 20
26.572144000000002
 30
0.0
 11
366.5
 21
26.64209
 31
0.0
  0
LINE
  8
0
  6
CONTINUOUS
 62
              90
  5
2A3
 10
366.5
 20
25.786438
 30
0.0
 11
366.5
 21
25.856383999999998
 31
0.0
  0
LINE
  8
0
  6
CONTINUOUS
 62
              90
  5
2A4
 10
366.0
 20
26.572144000000002
 30
0.0
 11
366.0
 21
26.64209
 31
0.0
  0
LINE
  8
0
  6
CONTINUOUS
 62
              90
  5
2A5
 10
366.0
 20
25.786438
 30
0.0
 11
366.0
 21
25.856383999999998
 31
0.0
  0
LINE
  8
0
  6
CONTINUOUS
 62
              90
  5
2A6
 10
365.5
 20
26.572144000000002
 30
0.0
 11
365.5
 21
26.64209
 31
0.0
  0
LINE
  8
0
  6
CONTINUOUS
 62
              90
  5
2A7
 10
365.5
 20
25.786438
 30
0.0
 11
365.5
 21
25.856383999999998
 31
0.0
  0
LINE
  8
0
  6
CONTINUOUS
 62
              90
  5
2A8
 10
365.0
 20
23.714233
 30
0.0
 11
365.0
 21
27.285706000000001
 31
0.0
  0
LINE
  8
0
  6
CONTINUOUS
 62
              90
  5
2A9
 10
364.5
 20
26.572144000000002
 30
0.0
 11
364.5
 21
26.64209
 31
0.0
  0
LINE
  8
0
  6
CONTINUOUS
 62
              90
  5
2AA
 10
364.5
 20
24.688027999999999
 30
0.0
 11
364.5
 21
25.856383999999998
 31
0.0
  0
LINE
  8
0
  6
CONTINUOUS
 62
              90
  5
2AB
 10
364.0
 20
26.572144000000002
 30
0.0
 11
364.0
 21
27.285706000000001
 31
0.0
  0
LINE
  8
0
  6
CONTINUOUS
 62
              90
  5
2AC
 10
364.0
 20
25.786071
 30
0.0
 11
364.0
 21
25.856383999999998
 31
0.0
  0
LINE
  8
0
  6
CONTINUOUS
 62
              90
  5
2AD
 10
364.0
 20
24.221005000000002
 30
0.0
 11
364.0
 21
25.151509000000001
 31
0.0
  0
LINE
  8
0
  6
CONTINUOUS
 62
              90
  5
2AE
 10
363.5
 20
23.911773
 30
0.0
 11
363.5
 21
24.436568999999999
 31
0.0
  0
LINE
  8
0
  6
CONTINUOUS
 62
              90
  5
2AF
 10
364.75717200000003
 20
27.0
 30
0.0
 11
365.18576000000002
 21
27.0
 31
0.0
  0
LINE
  8
0
  6
CONTINUOUS
 62
              90
  5
2B0
 10
363.61431900000002
 20
27.0
 30
0.0
 11
364.11431900000002
 21
27.0
 31
0.0
  0
LINE
  8
0
  6
CONTINUOUS
 62
              90
  5
2B1
 10
364.75717200000003
 20
26.5
 30
0.0
 11
365.18576000000002
 21
26.5
 31
0.0
  0
LINE
  8
0
  6
CONTINUOUS
 62
              90
  5
2B2
 10
364.75717200000003
 20
26.0
 30
0.0
 11
365.18576000000002
 21
26.0
 31
0.0
  0
LINE
  8
0
  6
CONTINUOUS
 62
              90
  5
2B3
 10
364.17251800000003
 20
25.5
 30
0.0
 11
365.18576000000002
 21
25.5
 31
0.0
  0
LINE
  8
0
  6
CONTINUOUS
 62
              90
  5
2B4
 10
363.90832499999999
 20
25.0
 30
0.0
 11
365.18576000000002
 21
25.0
 31
0.0
  0
LINE
  8
0
  6
CONTINUOUS
 62
              90
  5
2B5
 10
364.75699400000002
 20
24.5
 30
0.0
 11
365.18576000000002
 21
24.5
 31
0.0
  0
LINE
  8
0
  6
CONTINUOUS
 62
              90
  5
2B6
 10
363.546763
 20
24.5
 30
0.0
 11
364.30870199999998
 21
24.5
 31
0.0
  0
LINE
  8
0
  6
CONTINUOUS
 62
              90
  5
2B7
 10
364.75710700000002
 20
24.0
 30
0.0
 11
365.18576000000002
 21
24.0
 31
0.0
  0
LINE
  8
0
  6
CONTINUOUS
 62
              90
  5
2B8
 10
363.25699300000002
 20
24.0
 30
0.0
 11
363.73108200000001
 21
24.0
 31
0.0
  0
ENDBLK
  8
0
  5
2B9
  0
BLOCK
  8
0
  5
2BA
  2
*X10
 70
               1
 10
0.0
 20
0.0
 30
0.0
  3
*X10
  0
LINE
  8
0
  6
CONTINUOUS
 62
              90
  5
2BB
 10
363.0
 20
24.744809
 30
0.0
 11
363.0
 21
25.010915000000001
 31
0.0
  0
LINE
  8
0
  6
CONTINUOUS
 62
              90
  5
2BC
 10
362.5
 20
26.572144000000002
 30
0.0
 11
362.5
 21
26.64209
 31
0.0
  0
LINE
  8
0
  6
CONTINUOUS
 62
              90
  5
2BD
 10
362.5
 20
25.183074000000001
 30
0.0
 11
362.5
 21
25.567218
 31
0.0
  0
LINE
  8
0
  6
CONTINUOUS
 62
              90
  5
2BE
 10
362.0
 20
23.714233
 30
0.0
 11
362.0
 21
27.285706000000001
 31
0.0
  0
LINE
  8
0
  6
CONTINUOUS
 62
              90
  5
2BF
 10
361.5
 20
26.572272000000002
 30
0.0
 11
361.5
 21
26.64209
 31
0.0
  0
LINE
  8
0
  6
CONTINUOUS
 62
              90
  5
2C0
 10
361.5
 20
24.911082
 30
0.0
 11
361.5
 21
25.403438000000001
 31
0.0
  0
LINE
  8
0
  6
CONTINUOUS
 62
              90
  5
2C1
 10
361.82858299999998
 20
27.0
 30
0.0
 11
362.32858299999998
 21
27.0
 31
0.0
  0
LINE
  8
0
  6
CONTINUOUS
 62
              90
  5
2C2
 10
361.81379399999997
 20
26.5
 30
0.0
 11
362.32865900000002
 21
26.5
 31
0.0
  0
LINE
  8
0
  6
CONTINUOUS
 62
              90
  5
2C3
 10
361.71705100000003
 20
26.0
 30
0.0
 11
362.32918999999998
 21
26.0
 31
0.0
  0
LINE
  8
0
  6
CONTINUOUS
 62
              90
  5
2C4
 10
361.54361399999999
 20
25.5
 30
0.0
 11
362.55547100000001
 21
25.5
 31
0.0
  0
LINE
  8
0
  6
CONTINUOUS
 62
              90
  5
2C5
 10
362.70490000000001
 20
25.0
 30
0.0
 11
363.01081699999997
 21
25.0
 31
0.0
  0
LINE
  8
0
  6
CONTINUOUS
 62
              90
  5
2C6
 10
361.82862799999998
 20
25.0
 30
0.0
 11
362.32927799999999
 21
25.0
 31
0.0
  0
LINE
  8
0
  6
CONTINUOUS
 62
              90
  5
2C7
 10
361.278772
 20
25.0
 30
0.0
 11
361.57360599999998
 21
25.0
 31
0.0
  0
LINE
  8
0
  6
CONTINUOUS
 62
              90
  5
2C8
 10
361.82861100000002
 20
24.5
 30
0.0
 11
362.32900699999999
 21
24.5
 31
0.0
  0
LINE
  8
0
  6
CONTINUOUS
 62
              90
  5
2C9
 10
361.82859300000001
 20
24.0
 30
0.0
 11
362.32873699999999
 21
24.0
 31
0.0
  0
ENDBLK
  8
0
  5
2CA
  0
BLOCK
  8
0
  5
2CB
  2
*X11
 70
               1
 10
0.0
 20
0.0
 30
0.0
  3
*X11
  0
LINE
  8
0
  6
CONTINUOUS
 62
              90
  5
2CC
 10
366.5
 20
24.297666
 30
0.0
 11
366.5
 21
24.416567000000001
 31
0.0
  0
LINE
  8
0
  6
CONTINUOUS
 62
              90
  5
2CD
 10
366.05202700000001
 20
24.5
 30
0.0
 11
366.46231599999999
 21
24.5
 31
0.0
  0
ENDBLK
  8
0
  5
2CE
  0
BLOCK
  8
0
  5
2CF
  2
*X12
 70
               1
 10
0.0
 20
0.0
 30
0.0
  3
*X12
  0
LINE
  8
0
  6
CONTINUOUS
 62
              90
  5
2D0
 10
357.0
 20
24.481708000000001
 30
0.0
 11
357.0
 21
24.946456000000001
 31
0.0
  0
LINE
  8
0
  6
CONTINUOUS
 62
              90
  5
2D1
 10
356.5
 20
24.143782000000002
 30
0.0
 11
356.5
 21
24.946604000000001
 31
0.0
  0
LINE
  8
0
  6
CONTINUOUS
 62
              90
  5
2D2
 10
356.0
 20
23.907188000000001
 30
0.0
 11
356.0
 21
24.714065999999999
 31
0.0
  0
LINE
  8
0
  6
CONTINUOUS
 62
              90
  5
2D3
 10
355.5
 20
23.730630999999999
 30
0.0
 11
355.5
 21
24.242455
 31
0.0
  0
LINE
  8
0
  6
CONTINUOUS
 62
              90
  5
2D4
 10
355.79626999999999
 20
24.5
 30
0.0
 11
357.02245299999998
 21
24.5
 31
0.0
  0
LINE
  8
0
  6
CONTINUOUS
 62
              90
  5
2D5
 10
355.19572599999998
 20
24.0
 30
0.0
 11
356.21255000000002
 21
24.0
 31
0.0
  0
ENDBLK
  8
0
  5
2D6
  0
BLOCK
  8
0
  5
2D7
  2
*X13
 70
               1
 10
0.0
 20
0.0
 30
0.0
  3
*X13
  0
LINE
  8
0
  6
CONTINUOUS
 62
              90
  5
2D8
 10
360.0
 20
23.975477000000001
 30
0.0
 11
360.0
 21
24.310167
 31
0.0
  0
LINE
  8
0
  6
CONTINUOUS
 62
              90
  5
2D9
 10
359.98054300000001
 20
24.0
 30
0.0
 11
360.390917
 21
24.0
 31
0.0
  0
ENDBLK
  8
0
  5
2DA
  0
BLOCK
  8
0
  5
2DB
  2
*X14
 70
               1
 10
0.0
 20
0.0
 30
0.0
  3
*X14
  0
LINE
  8
0
  6
CONTINUOUS
 62
              90
  5
2DC
 10
354.0
 20
27.071411000000001
 30
0.0
 11
354.0
 21
27.285706000000001
 31
0.0
  0
LINE
  8
0
  6
CONTINUOUS
 62
              90
  5
2DD
 10
354.0
 20
23.714233
 30
0.0
 11
354.0
 21
23.928650000000001
 31
0.0
  0
LINE
  8
0
  6
CONTINUOUS
 62
              90
  5
2DE
 10
353.5
 20
27.071411000000001
 30
0.0
 11
353.5
 21
27.285706000000001
 31
0.0
  0
LINE
  8
0
  6
CONTINUOUS
 62
              90
  5
2DF
 10
353.5
 20
23.714233
 30
0.0
 11
353.5
 21
23.928650000000001
 31
0.0
  0
LINE
  8
0
  6
CONTINUOUS
 62
              90
  5
2E0
 10
353.0
 20
27.071411000000001
 30
0.0
 11
353.0
 21
27.285706000000001
 31
0.0
  0
LINE
  8
0
  6
CONTINUOUS
 62
              90
  5
2E1
 10
353.0
 20
23.714233
 30
0.0
 11
353.0
 21
23.928650000000001
 31
0.0
  0
LINE
  8
0
  6
CONTINUOUS
 62
              90
  5
2E2
 10
352.5
 20
27.071411000000001
 30
0.0
 11
352.5
 21
27.285706000000001
 31
0.0
  0
LINE
  8
0
  6
CONTINUOUS
 62
              90
  5
2E3
 10
352.5
 20
23.714233
 30
0.0
 11
352.5
 21
23.928650000000001
 31
0.0
  0
LINE
  8
0
  6
CONTINUOUS
 62
              90
  5
2E4
 10
352.0
 20
23.714233
 30
0.0
 11
352.0
 21
27.285706000000001
 31
0.0
  0
LINE
  8
0
  6
CONTINUOUS
 62
              90
  5
2E5
 10
351.5
 20
23.714233
 30
0.0
 11
351.5
 21
27.285706000000001
 31
0.0
  0
LINE
  8
0
  6
CONTINUOUS
 62
              90
  5
2E6
 10
351.0
 20
27.071411000000001
 30
0.0
 11
351.0
 21
27.285706000000001
 31
0.0
  0
LINE
  8
0
  6
CONTINUOUS
 62
              90
  5
2E7
 10
351.0
 20
23.714233
 30
0.0
 11
351.0
 21
23.928650000000001
 31
0.0
  0
LINE
  8
0
  6
CONTINUOUS
 62
              90
  5
2E8
 10
350.5
 20
27.071411000000001
 30
0.0
 11
350.5
 21
27.285706000000001
 31
0.0
  0
LINE
  8
0
  6
CONTINUOUS
 62
              90
  5
2E9
 10
350.5
 20
23.714233
 30
0.0
 11
350.5
 21
23.928650000000001
 31
0.0
  0
LINE
  8
0
  6
CONTINUOUS
 62
              90
  5
2EA
 10
350.0
 20
27.071411000000001
 30
0.0
 11
350.0
 21
27.285706000000001
 31
0.0
  0
LINE
  8
0
  6
CONTINUOUS
 62
              90
  5
2EB
 10
350.0
 20
23.714233
 30
0.0
 11
350.0
 21
23.928650000000001
 31
0.0
  0
LINE
  8
0
  6
CONTINUOUS
 62
              90
  5
2EC
 10
349.5
 20
27.071411000000001
 30
0.0
 11
349.5
 21
27.285706000000001
 31
0.0
  0
LINE
  8
0
  6
CONTINUOUS
 62
              90
  5
2ED
 10
349.5
 20
23.714233
 30
0.0
 11
349.5
 21
23.928650000000001
 31
0.0
  0
LINE
  8
0
  6
CONTINUOUS
 62
              90
  5
2EE
 10
349.0
 20
27.071411000000001
 30
0.0
 11
349.0
 21
27.285706000000001
 31
0.0
  0
LINE
  8
0
  6
CONTINUOUS
 62
              90
  5
2EF
 10
349.0
 20
23.714233
 30
0.0
 11
349.0
 21
23.928650000000001
 31
0.0
  0
LINE
  8
0
  6
CONTINUOUS
 62
              90
  5
2F0
 10
351.11419699999999
 20
27.0
 30
0.0
 11
352.04302999999999
 21
27.0
 31
0.0
  0
LINE
  8
0
  6
CONTINUOUS
 62
              90
  5
2F1
 10
351.11419699999999
 20
26.5
 30
0.0
 11
352.04302999999999
 21
26.5
 31
0.0
  0
LINE
  8
0
  6
CONTINUOUS
 62
              90
  5
2F2
 10
351.11419699999999
 20
26.0
 30
0.0
 11
352.04302999999999
 21
26.0
 31
0.0
  0
LINE
  8
0
  6
CONTINUOUS
 62
              90
  5
2F3
 10
351.11419699999999
 20
25.5
 30
0.0
 11
352.04302999999999
 21
25.5
 31
0.0
  0
LINE
  8
0
  6
CONTINUOUS
 62
              90
  5
2F4
 10
351.11419699999999
 20
25.0
 30
0.0
 11
352.04302999999999
 21
25.0
 31
0.0
  0
LINE
  8
0
  6
CONTINUOUS
 62
              90
  5
2F5
 10
351.11419699999999
 20
24.5
 30
0.0
 11
352.04302999999999
 21
24.5
 31
0.0
  0
LINE
  8
0
  6
CONTINUOUS
 62
              90
  5
2F6
 10
351.11419699999999
 20
24.0
 30
0.0
 11
352.04302999999999
 21
24.0
 31
0.0
  0
ENDBLK
  8
0
  5
2F7
  0
BLOCK
  8
0
  5
2F8
  2
*X15
 70
               1
 10
0.0
 20
0.0
 30
0.0
  3
*X15
  0
LINE
  8
0
  6
CONTINUOUS
 62
              90
  5
2F9
 10
348.0
 20
26.958693
 30
0.0
 11
348.0
 21
27.285706000000001
 31
0.0
  0
LINE
  8
0
  6
CONTINUOUS
 62
              90
  5
2FA
 10
348.0
 20
25.285582999999999
 30
0.0
 11
348.0
 21
25.5
 31
0.0
  0
LINE
  8
0
  6
CONTINUOUS
 62
              90
  5
2FB
 10
347.5
 20
26.698771000000001
 30
0.0
 11
347.5
 21
27.285706000000001
 31
0.0
  0
LINE
  8
0
  6
CONTINUOUS
 62
              90
  5
2FC
 10
347.5
 20
25.285582999999999
 30
0.0
 11
347.5
 21
25.5
 31
0.0
  0
LINE
  8
0
  6
CONTINUOUS
 62
              90
  5
2FD
 10
347.0
 20
26.461718999999999
 30
0.0
 11
347.0
 21
27.285706000000001
 31
0.0
  0
LINE
  8
0
  6
CONTINUOUS
 62
              90
  5
2FE
 10
347.0
 20
25.285582999999999
 30
0.0
 11
347.0
 21
25.5
 31
0.0
  0
LINE
  8
0
  6
CONTINUOUS
 62
              90
  5
2FF
 10
346.5
 20
27.071480000000001
 30
0.0
 11
346.5
 21
27.285706000000001
 31
0.0
  0
LINE
  8
0
  6
CONTINUOUS
 62
              90
  5
300
 10
346.5
 20
26.242383
 30
0.0
 11
346.5
 21
26.722788999999999
 31
0.0
  0
LINE
  8
0
  6
CONTINUOUS
 62
              90
  5
301
 10
346.5
 20
25.285582999999999
 30
0.0
 11
346.5
 21
25.5
 31
0.0
  0
LINE
  8
0
  6
CONTINUOUS
 62
              90
  5
302
 10
346.0
 20
27.071470999999999
 30
0.0
 11
346.0
 21
27.285706000000001
 31
0.0
  0
LINE
  8
0
  6
CONTINUOUS
 62
              90
  5
303
 10
346.0
 20
26.067899000000001
 30
0.0
 11
346.0
 21
26.407388000000001
 31
0.0
  0
LINE
  8
0
  6
CONTINUOUS
 62
              90
  5
304
 10
346.0
 20
25.285582999999999
 30
0.0
 11
346.0
 21
25.5
 31
0.0
  0
LINE
  8
0
  6
CONTINUOUS
 62
              90
  5
305
 10
345.5
 20
27.071462
 30
0.0
 11
345.5
 21
27.285706000000001
 31
0.0
  0
LINE
  8
0
  6
CONTINUOUS
 62
              90
  5
306
 10
345.5
 20
23.714276999999999
 30
0.0
 11
345.5
 21
26.190550999999999
 31
0.0
  0
LINE
  8
0
  6
CONTINUOUS
 62
              90
  5
307
 10
345.0
 20
27.071453999999999
 30
0.0
 11
345.0
 21
27.285706000000001
 31
0.0
  0
LINE
  8
0
  6
CONTINUOUS
 62
              90
  5
308
 10
345.0
 20
23.714276999999999
 30
0.0
 11
345.0
 21
26.043427000000001
 31
0.0
  0
LINE
  8
0
  6
CONTINUOUS
 62
              90
  5
309
 10
344.5
 20
27.071445000000001
 30
0.0
 11
344.5
 21
27.285706000000001
 31
0.0
  0
LINE
  8
0
  6
CONTINUOUS
 62
              90
  5
30A
 10
344.5
 20
25.285582999999999
 30
0.0
 11
344.5
 21
25.5
 31
0.0
  0
LINE
  8
0
  6
CONTINUOUS
 62
              90
  5
30B
 10
344.5
 20
23.714276999999999
 30
0.0
 11
344.5
 21
23.931145999999998
 31
0.0
  0
LINE
  8
0
  6
CONTINUOUS
 62
              90
  5
30C
 10
344.0
 20
27.071435999999999
 30
0.0
 11
344.0
 21
27.285706000000001
 31
0.0
  0
LINE
  8
0
  6
CONTINUOUS
 62
              90
  5
30D
 10
344.0
 20
25.285582999999999
 30
0.0
 11
344.0
 21
25.5
 31
0.0
  0
LINE
  8
0
  6
CONTINUOUS
 62
              90
  5
30E
 10
344.0
 20
23.714276999999999
 30
0.0
 11
344.0
 21
24.214238999999999
 31
0.0
  0
LINE
  8
0
  6
CONTINUOUS
 62
              90
  5
30F
 10
343.5
 20
27.071427
 30
0.0
 11
343.5
 21
27.285706000000001
 31
0.0
  0
LINE
  8
0
  6
CONTINUOUS
 62
              90
  5
310
 10
343.5
 20
25.285582999999999
 30
0.0
 11
343.5
 21
25.5
 31
0.0
  0
LINE
  8
0
  6
CONTINUOUS
 62
              90
  5
311
 10
343.0
 20
27.071418000000001
 30
0.0
 11
343.0
 21
27.285706000000001
 31
0.0
  0
LINE
  8
0
  6
CONTINUOUS
 62
              90
  5
312
 10
343.0
 20
25.285582999999999
 30
0.0
 11
343.0
 21
25.5
 31
0.0
  0
LINE
  8
0
  6
CONTINUOUS
 62
              90
  5
313
 10
346.70883600000002
 20
27.0
 30
0.0
 11
348.04365300000001
 21
27.0
 31
0.0
  0
LINE
  8
0
  6
CONTINUOUS
 62
              90
  5
314
 10
346.17173000000003
 20
26.5
 30
0.0
 11
347.08400699999999
 21
26.5
 31
0.0
  0
LINE
  8
0
  6
CONTINUOUS
 62
              90
  5
315
 10
344.97137199999997
 20
26.0
 30
0.0
 11
345.82804099999998
 21
26.0
 31
0.0
  0
LINE
  8
0
  6
CONTINUOUS
 62
              90
  5
316
 10
342.61431900000002
 20
25.5
 30
0.0
 11
348.04287699999998
 21
25.5
 31
0.0
  0
LINE
  8
0
  6
CONTINUOUS
 62
              90
  5
317
 10
344.97146600000002
 20
25.0
 30
0.0
 11
345.82858599999997
 21
25.0
 31
0.0
  0
LINE
  8
0
  6
CONTINUOUS
 62
              90
  5
318
 10
344.97146600000002
 20
24.5
 30
0.0
 11
345.82859200000001
 21
24.5
 31
0.0
  0
LINE
  8
0
  6
CONTINUOUS
 62
              90
  5
319
 10
344.97146600000002
 20
24.0
 30
0.0
 11
345.828598
 21
24.0
 31
0.0
  0
LINE
  8
0
  6
CONTINUOUS
 62
              90
  5
31A
 10
343.61430999999999
 20
24.0
 30
0.0
 11
344.32857999999999
 21
24.0
 31
0.0
  0
ENDBLK
  8
0
  5
31B
  0
BLOCK
  8
0
  5
31C
  2
*X16
 70
               1
 10
0.0
 20
0.0
 30
0.0
  3
*X16
  0
LINE
  8
0
  6
CONTINUOUS
 62
              90
  5
31D
 10
331.0
 20
24.474205999999999
 30
0.0
 11
331.0
 21
27.071655
 31
0.0
  0
LINE
  8
0
  6
CONTINUOUS
 62
              90
  5
31E
 10
330.5
 20
23.857116999999999
 30
0.0
 11
330.5
 21
27.071655
 31
0.0
  0
LINE
  8
0
  6
CONTINUOUS
 62
              90
  5
31F
 10
330.0
 20
26.856995000000001
 30
0.0
 11
330.0
 21
27.071655
 31
0.0
  0
LINE
  8
0
  6
CONTINUOUS
 62
              90
  5
320
 10
330.0
 20
23.857116999999999
 30
0.0
 11
330.0
 21
24.480433000000001
 31
0.0
  0
LINE
  8
0
  6
CONTINUOUS
 62
              90
  5
321
 10
329.5
 20
26.856995000000001
 30
0.0
 11
329.5
 21
27.071655
 31
0.0
  0
LINE
  8
0
  6
CONTINUOUS
 62
              90
  5
322
 10
329.5
 20
23.857116999999999
 30
0.0
 11
329.5
 21
24.070495999999999
 31
0.0
  0
LINE
  8
0
  6
CONTINUOUS
 62
              90
  5
323
 10
329.0
 20
26.856995000000001
 30
0.0
 11
329.0
 21
27.071655
 31
0.0
  0
LINE
  8
0
  6
CONTINUOUS
 62
              90
  5
324
 10
329.0
 20
23.857116999999999
 30
0.0
 11
329.0
 21
24.070495999999999
 31
0.0
  0
LINE
  8
0
  6
CONTINUOUS
 62
              90
  5
325
 10
328.5
 20
26.856995000000001
 30
0.0
 11
328.5
 21
27.071655
 31
0.0
  0
LINE
  8
0
  6
CONTINUOUS
 62
              90
  5
326
 10
328.5
 20
23.857116999999999
 30
0.0
 11
328.5
 21
24.070495999999999
 31
0.0
  0
LINE
  8
0
  6
CONTINUOUS
 62
              90
  5
327
 10
328.0
 20
26.856995000000001
 30
0.0
 11
328.0
 21
27.071655
 31
0.0
  0
LINE
  8
0
  6
CONTINUOUS
 62
              90
  5
328
 10
328.0
 20
23.857116999999999
 30
0.0
 11
328.0
 21
24.070495999999999
 31
0.0
  0
LINE
  8
0
  6
CONTINUOUS
 62
              90
  5
329
 10
327.5
 20
26.856995000000001
 30
0.0
 11
327.5
 21
27.071655
 31
0.0
  0
LINE
  8
0
  6
CONTINUOUS
 62
              90
  5
32A
 10
327.5
 20
23.857116999999999
 30
0.0
 11
327.5
 21
25.109556000000001
 31
0.0
  0
LINE
  8
0
  6
CONTINUOUS
 62
              90
  5
32B
 10
327.0
 20
23.857116999999999
 30
0.0
 11
327.0
 21
27.071655
 31
0.0
  0
LINE
  8
0
  6
CONTINUOUS
 62
              90
  5
32C
 10
326.5
 20
24.988558000000001
 30
0.0
 11
326.5
 21
27.071655
 31
0.0
  0
LINE
  8
0
  6
CONTINUOUS
 62
              90
  5
32D
 10
326.164715
 20
27.0
 30
0.0
 11
331.42095
 21
27.0
 31
0.0
  0
LINE
  8
0
  6
CONTINUOUS
 62
              90
  5
32E
 10
330.275283
 20
26.5
 30
0.0
 11
331.33762000000002
 21
26.5
 31
0.0
  0
LINE
  8
0
  6
CONTINUOUS
 62
              90
  5
32F
 10
326.24806000000001
 20
26.5
 30
0.0
 11
327.31047100000001
 21
26.5
 31
0.0
  0
LINE
  8
0
  6
CONTINUOUS
 62
              90
  5
330
 10
330.20712900000001
 20
26.0
 30
0.0
 11
331.25428900000003
 21
26.0
 31
0.0
  0
LINE
  8
0
  6
CONTINUOUS
 62
              90
  5
331
 10
326.33140400000002
 20
26.0
 30
0.0
 11
327.378625
 21
26.0
 31
0.0
  0
LINE
  8
0
  6
CONTINUOUS
 62
              90
  5
332
 10
330.13897500000002
 20
25.5
 30
0.0
 11
331.17095899999998
 21
25.5
 31
0.0
  0
LINE
  8
0
  6
CONTINUOUS
 62
              90
  5
333
 10
326.41474799999997
 20
25.5
 30
0.0
 11
327.44677899999999
 21
25.5
 31
0.0
  0
LINE
  8
0
  6
CONTINUOUS
 62
              90
  5
334
 10
330.07082100000002
 20
25.0
 30
0.0
 11
331.08762899999999
 21
25.0
 31
0.0
  0
LINE
  8
0
  6
CONTINUOUS
 62
              90
  5
335
 10
326.49809299999998
 20
25.0
 30
0.0
 11
327.51493299999998
 21
25.0
 31
0.0
  0
LINE
  8
0
  6
CONTINUOUS
 62
              90
  5
336
 10
330.00266699999997
 20
24.5
 30
0.0
 11
331.004299
 21
24.5
 31
0.0
  0
LINE
  8
0
  6
CONTINUOUS
 62
              90
  5
337
 10
326.58143699999999
 20
24.5
 30
0.0
 11
327.58308699999998
 21
24.5
 31
0.0
  0
LINE
  8
0
  6
CONTINUOUS
 62
              90
  5
338
 10
326.664782
 20
24.0
 30
0.0
 11
330.92096900000001
 21
24.0
 31
0.0
  0
ENDBLK
  8
0
  5
339
  0
BLOCK
  8
0
  5
33A
  2
*X17
 70
               1
 10
0.0
 20
0.0
 30
0.0
  3
*X17
  0
LINE
  8
0
  6
CONTINUOUS
 62
              90
  5
33B
 10
341.5
 20
23.774978000000001
 30
0.0
 11
341.5
 21
23.857142
 31
0.0
  0
ENDBLK
  8
0
  5
33C
  0
BLOCK
  8
0
  5
33D
  2
*X18
 70
               1
 10
0.0
 20
0.0
 30
0.0
  3
*X18
  0
LINE
  8
0
  6
CONTINUOUS
 62
              90
  5
33E
 10
339.5
 20
23.76782
 30
0.0
 11
339.5
 21
25.439330999999999
 31
0.0
  0
LINE
  8
0
  6
CONTINUOUS
 62
              90
  5
33F
 10
339.0
 20
23.767790999999999
 30
0.0
 11
339.0
 21
25.439330999999999
 31
0.0
  0
LINE
  8
0
  6
CONTINUOUS
 62
              90
  5
340
 10
338.61431399999998
 20
25.0
 30
0.0
 11
339.54287699999998
 21
25.0
 31
0.0
  0
LINE
  8
0
  6
CONTINUOUS
 62
              90
  5
341
 10
338.61430799999999
 20
24.5
 30
0.0
 11
339.54287699999998
 21
24.5
 31
0.0
  0
LINE
  8
0
  6
CONTINUOUS
 62
              90
  5
342
 10
338.61430200000001
 20
24.0
 30
0.0
 11
339.54287699999998
 21
24.0
 31
0.0
  0
ENDBLK
  8
0
  5
343
  0
BLOCK
  8
0
  5
344
  2
*X19
 70
               1
 10
0.0
 20
0.0
 30
0.0
  3
*X19
  0
LINE
  8
0
  6
CONTINUOUS
 62
              90
  5
345
 10
325.0
 20
25.404769000000002
 30
0.0
 11
325.0
 21
27.285706000000001
 31
0.0
  0
LINE
  8
0
  6
CONTINUOUS
 62
              90
  5
346
 10
324.5
 20
25.357140000000001
 30
0.0
 11
324.5
 21
27.285706000000001
 31
0.0
  0
LINE
  8
0
  6
CONTINUOUS
 62
              90
  5
347
 10
324.0
 20
27.071411000000001
 30
0.0
 11
324.0
 21
27.285706000000001
 31
0.0
  0
LINE
  8
0
  6
CONTINUOUS
 62
              90
  5
348
 10
324.0
 20
25.357133000000001
 30
0.0
 11
324.0
 21
25.736986000000002
 31
0.0
  0
LINE
  8
0
  6
CONTINUOUS
 62
              90
  5
349
 10
323.5
 20
27.071411000000001
 30
0.0
 11
323.5
 21
27.285706000000001
 31
0.0
  0
LINE
  8
0
  6
CONTINUOUS
 62
              90
  5
34A
 10
323.5
 20
25.357126999999998
 30
0.0
 11
323.5
 21
25.642807999999999
 31
0.0
  0
LINE
  8
0
  6
CONTINUOUS
 62
              90
  5
34B
 10
323.0
 20
27.071411000000001
 30
0.0
 11
323.0
 21
27.285706000000001
 31
0.0
  0
LINE
  8
0
  6
CONTINUOUS
 62
              90
  5
34C
 10
323.0
 20
25.357120999999999
 30
0.0
 11
323.0
 21
25.642817000000001
 31
0.0
  0
LINE
  8
0
  6
CONTINUOUS
 62
              90
  5
34D
 10
322.5
 20
27.071411000000001
 30
0.0
 11
322.5
 21
27.285706000000001
 31
0.0
  0
LINE
  8
0
  6
CONTINUOUS
 62
              90
  5
34E
 10
322.5
 20
23.789681999999999
 30
0.0
 11
322.5
 21
26.285767
 31
0.0
  0
LINE
  8
0
  6
CONTINUOUS
 62
              90
  5
34F
 10
322.0
 20
27.071411000000001
 30
0.0
 11
322.0
 21
27.285706000000001
 31
0.0
  0
LINE
  8
0
  6
CONTINUOUS
 62
              90
  5
350
 10
322.0
 20
23.714248999999999
 30
0.0
 11
322.0
 21
26.285767
 31
0.0
  0
LINE
  8
0
  6
CONTINUOUS
 62
              90
  5
351
 10
321.5
 20
27.071411000000001
 30
0.0
 11
321.5
 21
27.285706000000001
 31
0.0
  0
LINE
  8
0
  6
CONTINUOUS
 62
              90
  5
352
 10
321.5
 20
23.714244999999998
 30
0.0
 11
321.5
 21
26.285767
 31
0.0
  0
LINE
  8
0
  6
CONTINUOUS
 62
              90
  5
353
 10
321.0
 20
27.071411000000001
 30
0.0
 11
321.0
 21
27.285706000000001
 31
0.0
  0
LINE
  8
0
  6
CONTINUOUS
 62
              90
  5
354
 10
321.0
 20
23.714241000000001
 30
0.0
 11
321.0
 21
23.929342999999999
 31
0.0
  0
LINE
  8
0
  6
CONTINUOUS
 62
              90
  5
355
 10
320.5
 20
27.071411000000001
 30
0.0
 11
320.5
 21
27.285706000000001
 31
0.0
  0
LINE
  8
0
  6
CONTINUOUS
 62
              90
  5
356
 10
320.5
 20
23.714237000000001
 30
0.0
 11
320.5
 21
23.928528
 31
0.0
  0
LINE
  8
0
  6
CONTINUOUS
 62
              90
  5
357
 10
320.0
 20
27.071411000000001
 30
0.0
 11
320.0
 21
27.285706000000001
 31
0.0
  0
LINE
  8
0
  6
CONTINUOUS
 62
              90
  5
358
 10
320.0
 20
23.714234000000001
 30
0.0
 11
320.0
 21
23.928528
 31
0.0
  0
LINE
  8
0
  6
CONTINUOUS
 62
              90
  5
359
 10
324.25717100000003
 20
27.0
 30
0.0
 11
325.40002500000003
 21
27.0
 31
0.0
  0
LINE
  8
0
  6
CONTINUOUS
 62
              90
  5
35A
 10
324.25716299999999
 20
26.5
 30
0.0
 11
325.40002700000002
 21
26.5
 31
0.0
  0
LINE
  8
0
  6
CONTINUOUS
 62
              90
  5
35B
 10
324.21548000000001
 20
26.0
 30
0.0
 11
325.40002900000002
 21
26.0
 31
0.0
  0
LINE
  8
0
  6
CONTINUOUS
 62
              90
  5
35C
 10
321.47146600000002
 20
26.0
 30
0.0
 11
322.68572999999998
 21
26.0
 31
0.0
  0
LINE
  8
0
  6
CONTINUOUS
 62
              90
  5
35D
 10
321.47146600000002
 20
25.5
 30
0.0
 11
325.16123299999998
 21
25.5
 31
0.0
  0
LINE
  8
0
  6
CONTINUOUS
 62
              90
  5
35E
 10
321.47146600000002
 20
25.0
 30
0.0
 11
322.68573400000002
 21
25.0
 31
0.0
  0
LINE
  8
0
  6
CONTINUOUS
 62
              90
  5
35F
 10
321.47146600000002
 20
24.5
 30
0.0
 11
322.68573900000001
 21
24.5
 31
0.0
  0
LINE
  8
0
  6
CONTINUOUS
 62
              90
  5
360
 10
321.22907800000002
 20
24.0
 30
0.0
 11
322.66124500000001
 21
24.0
 31
0.0
  0
ENDBLK
  8
0
  5
361
  0
ENDSEC
  0
SECTION
  2
ENTITIES
  0
LINE
  8
LY_3
  6
CONTINUOUS
 62
               3
  5
362
 10
-42.0
 20
43.0
 30
0.0
 11
42.0
 21
43.0
 31
0.0
  0
LINE
  8
LY_3
  6
CONTINUOUS
 62
               3
  5
363
 10
42.0
 20
55.0
 30
0.0
 11
42.0
 21
45.5
 31
0.0
  0
LINE
  8
LY_3
  6
CONTINUOUS
 62
               3
  5
364
 10
-42.0
 20
55.0
 30
0.0
 11
-42.0
 21
45.5
 31
0.0
  0
LINE
  8
LY_3
  6
CONTINUOUS
 62
               3
  5
365
 10
-42.0
 20
55.0
 30
0.0
 11
-41.0
 21
56.0
 31
0.0
  0
LINE
  8
LY_3
  6
CONTINUOUS
 62
               3
  5
366
 10
-41.0
 20
56.0
 30
0.0
 11
41.0
 21
56.0
 31
0.0
  0
LINE
  8
LY_3
  6
CONTINUOUS
 62
               3
  5
367
 10
-42.0
 20
55.0
 30
0.0
 11
42.0
 21
55.0
 31
0.0
  0
LINE
  8
LY_3
  6
CONTINUOUS
 62
               3
  5
368
 10
42.0
 20
55.0
 30
0.0
 11
41.0
 21
56.0
 31
0.0
  0
LINE
  8
LY_3
  6
CONTINUOUS
 62
               3
  5
369
 10
-41.0
 20
56.0
 30
0.0
 11
-39.916840000000001
 21
89.577962999999997
 31
0.0
  0
LINE
  8
LY_3
  6
CONTINUOUS
 62
               3
  5
36A
 10
41.0
 20
56.0
 30
0.0
 11
40.0
 21
87.0
 31
0.0
  0
ARC
  8
LY_3
  6
CONTINUOUS
 62
               3
  5
36B
 10
0.0
 20
87.0
 30
0.0
 40
40.0
 50
0.0
 51
176.304779
  0
LINE
  8
LY_3
  6
CONTINUOUS
 62
               3
  5
36C
 10
0.0
 20
-9.0
 30
0.0
 11
0.0
 21
-11.0
 31
0.0
  0
ARC
  8
LY_3
  6
CONTINUOUS
 62
               3
  5
36D
 10
-41.375
 20
44.25
 30
0.0
 40
1.25
 50
90.0
 51
270.0
  0
LINE
  8
LY_3
  6
CONTINUOUS
 62
               3
  5
36E
 10
-42.0
 20
45.5
 30
0.0
 11
42.0
 21
45.5
 31
0.0
  0
ARC
  8
LY_3
  6
CONTINUOUS
 62
               3
  5
36F
 10
41.375
 20
44.25
 30
0.0
 40
1.25
 50
270.0
 51
90.0
  0
ARC
  8
LY_3
  6
CONTINUOUS
 62
               3
  5
370
 10
0.0
 20
-105.144623
 30
0.0
 40
3.3999999999999999
 50
320.99979300000001
 51
227.47238099999998
  0
CIRCLE
  8
LY_3
  6
CONTINUOUS
 62
              80
  5
371
 10
0.0
 20
-80.144622999999996
 30
0.0
 40
1.5
  0
CIRCLE
  8
LY_3
  6
CONTINUOUS
 62
              80
  5
372
 10
-21.650635000000001
 20
-117.644623
 30
0.0
 40
1.5
  0
CIRCLE
  8
LY_3
  6
CONTINUOUS
 62
              80
  5
373
 10
21.650635000000001
 20
-117.644623
 30
0.0
 40
1.5
  0
CIRCLE
  8
LY_3
  6
CONTINUOUS
 62
               3
  5
374
 10
0.0
 20
-80.144622999999996
 30
0.0
 40
2.0
  0
CIRCLE
  8
LY_3
  6
CONTINUOUS
 62
               3
  5
375
 10
21.650635000000001
 20
-117.644623
 30
0.0
 40
2.0
  0
CIRCLE
  8
LY_3
  6
CONTINUOUS
 62
               3
  5
376
 10
-21.650635000000001
 20
-117.644623
 30
0.0
 40
2.0
  0
ARC
  8
LY_3
  6
CONTINUOUS
 62
               3
  5
377
 10
0.0
 20
-105.144623
 30
0.0
 40
42.0
 50
268.03719999999998
 51
261.13488000000007
  0
LINE
  8
LY_3
  6
CONTINUOUS
 62
               3
  5
378
 10
-3.0
 20
-121.644623
 30
0.0
 11
-2.3102260000000001
 21
-121.644623
 31
0.0
  0
LINE
  8
LY_3
  6
CONTINUOUS
 62
               3
  5
379
 10
-3.0
 20
-121.644623
 30
0.0
 11
-3.0
 21
-122.144623
 31
0.0
  0
CIRCLE
  8
LY_3
  6
CONTINUOUS
 62
               3
  5
37A
 10
-20.691343
 20
-96.306166000000005
 30
0.0
 40
3.0
  0
CIRCLE
  8
LY_3
  6
CONTINUOUS
 62
               3
  5
37B
 10
-21.650635000000001
 20
-117.644623
 30
0.0
 40
7.0
  0
CIRCLE
  8
LY_3
  6
CONTINUOUS
 62
               3
  5
37C
 10
-21.650635000000001
 20
-117.644623
 30
0.0
 40
6.5
  0
CIRCLE
  8
LY_3
  6
CONTINUOUS
 62
               3
  5
37D
 10
21.650635000000001
 20
-117.644623
 30
0.0
 40
7.0
  0
CIRCLE
  8
LY_3
  6
CONTINUOUS
 62
               3
  5
37E
 10
21.650635000000001
 20
-117.644623
 30
0.0
 40
6.5
  0
CIRCLE
  8
LY_3
  6
CONTINUOUS
 62
               3
  5
37F
 10
0.0
 20
-80.144622999999996
 30
0.0
 40
7.0
  0
CIRCLE
  8
LY_3
  6
CONTINUOUS
 62
               3
  5
380
 10
0.0
 20
-80.144622999999996
 30
0.0
 40
6.5
  0
LINE
  8
LY_3
  6
CONTINUOUS
 62
               3
  5
381
 10
-5.0
 20
-122.144623
 30
0.0
 11
-5.0
 21
-128.144623
 31
0.0
  0
LINE
  8
LY_3
  6
CONTINUOUS
 62
               3
  5
382
 10
-3.0
 20
-128.144623
 30
0.0
 11
-3.0
 21
-128.644623
 31
0.0
  0
LINE
  8
LY_3
  6
CONTINUOUS
 62
               3
  5
383
 10
-2.5
 20
-122.144623
 30
0.0
 11
-2.5
 21
-124.334414
 31
0.0
  0
LINE
  8
LY_3
  6
CONTINUOUS
 62
               3
  5
384
 10
-4.5
 20
-122.144623
 30
0.0
 11
-4.5
 21
-128.144623
 31
0.0
  0
LINE
  8
LY_3
  6
CONTINUOUS
 62
               3
  5
385
 10
3.0
 20
-128.144623
 30
0.0
 11
3.0
 21
-128.644623
 31
0.0
  0
LINE
  8
LY_3
  6
CONTINUOUS
 62
               3
  5
386
 10
5.0
 20
-122.144623
 30
0.0
 11
5.0
 21
-128.144623
 31
0.0
  0
LINE
  8
LY_3
  6
CONTINUOUS
 62
               3
  5
387
 10
4.5
 20
-122.144623
 30
0.0
 11
4.5
 21
-128.144623
 31
0.0
  0
LINE
  8
LY_3
  6
CONTINUOUS
 62
               3
  5
388
 10
3.0
 20
-121.644623
 30
0.0
 11
3.0
 21
-122.144623
 31
0.0
  0
ARC
  8
LY_3
  6
CONTINUOUS
 62
               3
  5
389
 10
0.0
 20
-105.144623
 30
0.0
 40
36.5
 50
269.90173299999998
 51
261.94089000000008
  0
ARC
  8
LY_3
  6
CONTINUOUS
 62
               3
  5
38A
 10
0.0
 20
-105.144623
 30
0.0
 40
41.75
 50
235.19423900000001
 51
244.80576099999999
  0
ARC
  8
LY_3
  6
CONTINUOUS
 62
               3
  5
38B
 10
-31.976367
 20
-143.25257400000001
 30
0.0
 40
9.0
 50
25.167311999999999
 51
74.832688000000005
  0
LINE
  8
LY_3
  6
CONTINUOUS
 62
               3
  5
38C
 10
-29.62162
 20
-134.56608
 30
0.0
 11
-29.938542999999999
 21
-134.60109399999999
 31
0.0
  0
LINE
  8
LY_3
  6
CONTINUOUS
 62
               3
  5
38D
 10
-23.830739000000001
 20
-139.425207
 30
0.0
 11
-23.810186999999999
 21
-139.74339499999999
 31
0.0
  0
ARC
  8
LY_3
  6
CONTINUOUS
 62
               3
  5
38E
 10
-17.01427
 20
-151.89094499999999
 30
0.0
 40
9.0
 50
45.167312000000003
 51
94.832688000000005
  0
LINE
  8
LY_3
  6
CONTINUOUS
 62
               3
  5
38F
 10
-10.668919000000001
 20
-145.50842700000001
 30
0.0
 11
-10.54078
 21
-145.800397
 31
0.0
  0
LINE
  8
LY_3
  6
CONTINUOUS
 62
               3
  5
390
 10
-17.772487000000002
 20
-142.92294000000001
 30
0.0
 11
-18.058320999999999
 21
-143.06423599999999
 31
0.0
  0
ARC
  8
LY_3
  6
CONTINUOUS
 62
               3
  5
391
 10
0.0
 20
-105.144623
 30
0.0
 40
41.75
 50
255.19423900000001
 51
261.17451499999999
  0
ARC
  8
LY_3
  6
CONTINUOUS
 62
               3
  5
392
 10
0.0
 20
-154.891019
 30
0.0
 40
9.0
 50
65.167311999999995
 51
97.177527999999995
  0
LINE
  8
LY_3
  6
CONTINUOUS
 62
               3
  5
393
 10
3.7797290000000001
 20
-146.72317699999999
 30
0.0
 11
4.0
 21
-146.95371299999999
 31
0.0
  0
ARC
  8
LY_3
  6
CONTINUOUS
 62
               3
  5
394
 10
0.0
 20
-105.144623
 30
0.0
 40
41.75
 50
275.19423899999998
 51
284.80576100000002
  0
ARC
  8
LY_3
  6
CONTINUOUS
 62
               3
  5
395
 10
17.01427
 20
-151.89094499999999
 30
0.0
 40
9.0
 50
85.167311999999995
 51
134.83268799999999
  0
LINE
  8
LY_3
  6
CONTINUOUS
 62
               3
  5
396
 10
10.668919000000001
 20
-145.50842700000001
 30
0.0
 11
10.54078
 21
-145.800397
 31
0.0
  0
LINE
  8
LY_3
  6
CONTINUOUS
 62
               3
  5
397
 10
17.772487000000002
 20
-142.92294000000001
 30
0.0
 11
18.058320999999999
 21
-143.06423599999999
 31
0.0
  0
ARC
  8
LY_3
  6
CONTINUOUS
 62
               3
  5
398
 10
0.0
 20
-105.144623
 30
0.0
 40
41.75
 50
295.19423899999998
 51
304.80576100000002
  0
ARC
  8
LY_3
  6
CONTINUOUS
 62
               3
  5
399
 10
31.976367
 20
-143.25257400000001
 30
0.0
 40
9.0
 50
105.167312
 51
154.83268800000002
  0
LINE
  8
LY_3
  6
CONTINUOUS
 62
               3
  5
39A
 10
23.830739000000001
 20
-139.425207
 30
0.0
 11
23.810186999999999
 21
-139.74339499999999
 31
0.0
  0
LINE
  8
LY_3
  6
CONTINUOUS
 62
               3
  5
39B
 10
29.62162
 20
-134.56608
 30
0.0
 11
29.938542999999999
 21
-134.60109399999999
 31
0.0
  0
ARC
  8
LY_3
  6
CONTINUOUS
 62
               3
  5
39C
 10
0.0
 20
-105.144623
 30
0.0
 40
41.75
 50
315.19423899999998
 51
324.80576100000002
  0
ARC
  8
LY_3
  6
CONTINUOUS
 62
               3
  5
39D
 10
43.081643
 20
-130.017821
 30
0.0
 40
9.0
 50
125.16731200000001
 51
174.83268799999999
  0
LINE
  8
LY_3
  6
CONTINUOUS
 62
               3
  5
39E
 10
34.118219000000003
 20
-129.20724200000001
 30
0.0
 11
34.207734000000002
 21
-129.51327000000001
 31
0.0
  0
LINE
  8
LY_3
  6
CONTINUOUS
 62
               3
  5
39F
 10
37.897948999999997
 20
-122.66055900000001
 30
0.0
 11
38.207734000000002
 21
-122.585067
 31
0.0
  0
ARC
  8
LY_3
  6
CONTINUOUS
 62
               3
  5
3A0
 10
0.0
 20
-105.144623
 30
0.0
 40
41.75
 50
335.19423899999998
 51
344.80576100000002
  0
ARC
  8
LY_3
  6
CONTINUOUS
 62
               3
  5
3A1
 10
48.990637
 20
-113.782994
 30
0.0
 40
9.0
 50
145.16731200000001
 51
194.83268799999999
  0
LINE
  8
LY_3
  6
CONTINUOUS
 62
               3
  5
3A2
 10
40.290539000000003
 20
-116.08696999999999
 30
0.0
 11
40.479323000000001
 21
-116.34392699999999
 31
0.0
  0
LINE
  8
LY_3
  6
CONTINUOUS
 62
               3
  5
3A3
 10
41.603225000000002
 20
-108.642357
 30
0.0
 11
41.868509000000003
 21
-108.46546499999999
 31
0.0
  0
ARC
  8
LY_3
  6
CONTINUOUS
 62
               3
  5
3A4
 10
0.0
 20
-105.144623
 30
0.0
 40
41.75
 50
355.19423899999998
 51
4.8057610000000128
  0
ARC
  8
LY_3
  6
CONTINUOUS
 62
               3
  5
3A5
 10
48.990637
 20
-96.506252000000003
 30
0.0
 40
9.0
 50
165.16731200000001
 51
214.83268799999999
  0
LINE
  8
LY_3
  6
CONTINUOUS
 62
               3
  5
3A6
 10
41.603225000000002
 20
-101.64689
 30
0.0
 11
41.868509000000003
 21
-101.82378199999999
 31
0.0
  0
LINE
  8
LY_3
  6
CONTINUOUS
 62
               3
  5
3A7
 10
40.290539000000003
 20
-94.202276999999995
 30
0.0
 11
40.479323000000001
 21
-93.945319999999995
 31
0.0
  0
ARC
  8
LY_3
  6
CONTINUOUS
 62
               3
  5
3A8
 10
0.0
 20
-105.144623
 30
0.0
 40
41.75
 50
15.194239
 51
24.805761
  0
LINE
  8
LY_3
  6
CONTINUOUS
 62
               3
  5
3A9
 10
37.897948999999997
 20
-87.628687999999997
 30
0.0
 11
38.207734000000002
 21
-87.704179999999994
 31
0.0
  0
LINE
  8
LY_3
  6
CONTINUOUS
 62
               3
  5
3AA
 10
23.830739000000001
 20
-70.864040000000003
 30
0.0
 11
23.810186999999999
 21
-70.545851999999996
 31
0.0
  0
ARC
  8
LY_3
  6
CONTINUOUS
 62
               3
  5
3AB
 10
0.0
 20
-105.144623
 30
0.0
 40
41.75
 50
55.194239000000003
 51
62.000680000000003
  0
ARC
  8
LY_3
  6
CONTINUOUS
 62
               3
  5
3AC
 10
17.01427
 20
-58.398302000000001
 30
0.0
 40
9.0
 50
225.810856
 51
274.189144
  0
ARC
  8
LY_3
  6
CONTINUOUS
 62
               3
  5
3AD
 10
0.0
 20
-55.398226999999999
 30
0.0
 40
9.0
 50
245.810856
 51
294.189144
  0
ARC
  8
LY_3
  6
CONTINUOUS
 62
               3
  5
3AE
 10
-17.01427
 20
-58.398302000000001
 30
0.0
 40
9.0
 50
265.81085600000006
 51
314.189144
  0
ARC
  8
LY_3
  6
CONTINUOUS
 62
               3
  5
3AF
 10
0.0
 20
-105.144623
 30
0.0
 40
41.75
 50
117.99932
 51
124.805761
  0
ARC
  8
LY_3
  6
CONTINUOUS
 62
               3
  5
3B0
 10
-31.976367
 20
-67.036672999999993
 30
0.0
 40
9.0
 50
285.16731199999998
 51
334.83268800000002
  0
LINE
  8
LY_3
  6
CONTINUOUS
 62
               3
  5
3B1
 10
-23.830739000000001
 20
-70.864040000000003
 30
0.0
 11
-23.810186999999999
 21
-70.545851999999996
 31
0.0
  0
LINE
  8
LY_3
  6
CONTINUOUS
 62
               3
  5
3B2
 10
-29.62162
 20
-75.723166000000006
 30
0.0
 11
-29.938542999999999
 21
-75.688153
 31
0.0
  0
ARC
  8
LY_3
  6
CONTINUOUS
 62
               3
  5
3B3
 10
0.0
 20
-105.144623
 30
0.0
 40
41.75
 50
135.19423900000001
 51
144.80576099999999
  0
ARC
  8
LY_3
  6
CONTINUOUS
 62
               3
  5
3B4
 10
-43.081643
 20
-80.271424999999994
 30
0.0
 40
9.0
 50
305.16731199999998
 51
354.83268800000002
  0
LINE
  8
LY_3
  6
CONTINUOUS
 62
               3
  5
3B5
 10
-34.118219000000003
 20
-81.082004999999995
 30
0.0
 11
-34.207734000000002
 21
-80.775976999999997
 31
0.0
  0
LINE
  8
LY_3
  6
CONTINUOUS
 62
               3
  5
3B6
 10
-37.897948999999997
 20
-87.628687999999997
 30
0.0
 11
-38.207734000000002
 21
-87.704179999999994
 31
0.0
  0
ARC
  8
LY_3
  6
CONTINUOUS
 62
               3
  5
3B7
 10
0.0
 20
-105.144623
 30
0.0
 40
41.75
 50
155.19423900000001
 51
164.80576099999999
  0
ARC
  8
LY_3
  6
CONTINUOUS
 62
               3
  5
3B8
 10
-48.990637
 20
-96.506252000000003
 30
0.0
 40
9.0
 50
325.16731199999998
 51
14.832687999999987
  0
LINE
  8
LY_3
  6
CONTINUOUS
 62
               3
  5
3B9
 10
-40.290539000000003
 20
-94.202276999999995
 30
0.0
 11
-40.479323000000001
 21
-93.945319999999995
 31
0.0
  0
LINE
  8
LY_3
  6
CONTINUOUS
 62
               3
  5
3BA
 10
-41.603225000000002
 20
-101.64689
 30
0.0
 11
-41.868509000000003
 21
-101.82378199999999
 31
0.0
  0
ARC
  8
LY_3
  6
CONTINUOUS
 62
               3
  5
3BB
 10
0.0
 20
-105.144623
 30
0.0
 40
41.75
 50
175.19423900000001
 51
184.80576099999999
  0
ARC
  8
LY_3
  6
CONTINUOUS
 62
               3
  5
3BC
 10
-48.990637
 20
-113.782994
 30
0.0
 40
9.0
 50
345.16731200000004
 51
34.832688000000012
  0
LINE
  8
LY_3
  6
CONTINUOUS
 62
               3
  5
3BD
 10
-41.603225000000002
 20
-108.642357
 30
0.0
 11
-41.868509000000003
 21
-108.46546499999999
 31
0.0
  0
LINE
  8
LY_3
  6
CONTINUOUS
 62
               3
  5
3BE
 10
-40.290539000000003
 20
-116.08696999999999
 30
0.0
 11
-40.479323000000001
 21
-116.34392699999999
 31
0.0
  0
ARC
  8
LY_3
  6
CONTINUOUS
 62
               3
  5
3BF
 10
0.0
 20
-105.144623
 30
0.0
 40
41.75
 50
195.19423900000001
 51
204.80576099999999
  0
ARC
  8
LY_3
  6
CONTINUOUS
 62
               3
  5
3C0
 10
-43.081643
 20
-130.017821
 30
0.0
 40
9.0
 50
5.1673119999999999
 51
54.832687999999997
  0
LINE
  8
LY_3
  6
CONTINUOUS
 62
               3
  5
3C1
 10
-37.897948999999997
 20
-122.66055900000001
 30
0.0
 11
-38.207734000000002
 21
-122.585067
 31
0.0
  0
LINE
  8
LY_3
  6
CONTINUOUS
 62
               3
  5
3C2
 10
-34.118219000000003
 20
-129.20724200000001
 30
0.0
 11
-34.207734000000002
 21
-129.51327000000001
 31
0.0
  0
ARC
  8
LY_3
  6
CONTINUOUS
 62
               3
  5
3C3
 10
0.0
 20
-105.144623
 30
0.0
 40
41.75
 50
215.19423900000001
 51
224.80576099999999
  0
ARC
  8
LY_3
  6
CONTINUOUS
 62
               3
  5
3C4
 10
43.081643
 20
-80.271424999999994
 30
0.0
 40
9.0
 50
185.16731200000001
 51
234.83268799999999
  0
ARC
  8
LY_3
  6
CONTINUOUS
 62
               3
  5
3C5
 10
31.976367
 20
-67.036672999999993
 30
0.0
 40
9.0
 50
205.16731200000001
 51
254.83268800000002
  0
ARC
  8
LY_3
  6
CONTINUOUS
 62
               3
  5
3C6
 10
0.0
 20
-105.144623
 30
0.0
 40
41.75
 50
35.194239000000003
 51
44.805760999999997
  0
LINE
  8
LY_3
  6
CONTINUOUS
 62
               3
  5
3C7
 10
34.118219000000003
 20
-81.082004999999995
 30
0.0
 11
34.207734000000002
 21
-80.775976999999997
 31
0.0
  0
LINE
  8
LY_3
  6
CONTINUOUS
 62
               3
  5
3C8
 10
29.62162
 20
-75.723166000000006
 30
0.0
 11
29.938542999999999
 21
-75.688153
 31
0.0
  0
LINE
  8
LY_3
  6
CONTINUOUS
 62
               3
  5
3C9
 10
-19.600000000000001
 20
-68.337965999999994
 30
0.0
 11
-19.600000000000001
 21
-67.998425999999995
 31
0.0
  0
LINE
  8
LY_3
  6
CONTINUOUS
 62
               3
  5
3CA
 10
19.600000000000001
 20
-68.337965999999994
 30
0.0
 11
19.600000000000001
 21
-67.998425999999995
 31
0.0
  0
ARC
  8
LY_3
  6
CONTINUOUS
 62
               3
  5
3CB
 10
0.0
 20
-105.144623
 30
0.0
 40
41.700000000000003
 50
61.964146999999997
 51
118.035853
  0
LINE
  8
LY_3
  6
CONTINUOUS
 62
               3
  5
3CC
 10
-28.150635000000001
 20
-7.0
 30
0.0
 11
-15.150634999999999
 21
-7.0
 31
0.0
  0
LINE
  8
LY_3
  6
CONTINUOUS
 62
               3
  5
3CD
 10
15.150634999999999
 20
-7.0
 30
0.0
 11
28.150635000000001
 21
-7.0
 31
0.0
  0
LINE
  8
LY_3
  6
CONTINUOUS
 62
               3
  5
3CE
 10
-6.5
 20
-7.0
 30
0.0
 11
6.5
 21
-7.0
 31
0.0
  0
LINE
  8
LY_3
  6
CONTINUOUS
 62
               3
  5
3CF
 10
-20.150635000000001
 20
-20.5
 30
0.0
 11
-23.150635000000001
 21
-20.5
 31
0.0
  0
LINE
  8
LY_3
  6
CONTINUOUS
 62
               3
  5
3D0
 10
-23.650635000000001
 20
-11.199999999999999
 30
0.0
 11
-23.650635000000001
 21
-20.0
 31
0.0
  0
LINE
  8
LY_3
  6
CONTINUOUS
 62
               3
  5
3D1
 10
-19.650635000000001
 20
-11.199999999999999
 30
0.0
 11
-19.650635000000001
 21
-20.0
 31
0.0
  0
LINE
  8
LY_3
  6
CONTINUOUS
 62
               3
  5
3D2
 10
23.150635000000001
 20
-20.5
 30
0.0
 11
20.150635000000001
 21
-20.5
 31
0.0
  0
LINE
  8
LY_3
  6
CONTINUOUS
 62
               3
  5
3D3
 10
19.650635000000001
 20
-11.199999999999999
 30
0.0
 11
19.650635000000001
 21
-20.0
 31
0.0
  0
LINE
  8
LY_3
  6
CONTINUOUS
 62
               3
  5
3D4
 10
23.650635000000001
 20
-11.199999999999999
 30
0.0
 11
23.650635000000001
 21
-20.0
 31
0.0
  0
LINE
  8
LY_3
  6
CONTINUOUS
 62
               3
  5
3D5
 10
-23.650635000000001
 20
-20.0
 30
0.0
 11
-23.150635000000001
 21
-20.5
 31
0.0
  0
LINE
  8
LY_3
  6
CONTINUOUS
 62
               3
  5
3D6
 10
-20.150635000000001
 20
-20.5
 30
0.0
 11
-19.650635000000001
 21
-20.0
 31
0.0
  0
LINE
  8
LY_3
  6
CONTINUOUS
 62
               3
  5
3D7
 10
20.150635000000001
 20
-20.5
 30
0.0
 11
19.650635000000001
 21
-20.0
 31
0.0
  0
LINE
  8
LY_3
  6
CONTINUOUS
 62
               3
  5
3D8
 10
23.650635000000001
 20
-20.0
 30
0.0
 11
23.150635000000001
 21
-20.5
 31
0.0
  0
LINE
  8
LY_3
  6
CONTINUOUS
 62
              80
  5
3D9
 10
23.150635000000001
 20
-20.5
 30
0.0
 11
23.150635000000001
 21
-11.199999999999999
 31
0.0
  0
LINE
  8
LY_3
  6
CONTINUOUS
 62
              80
  5
3DA
 10
20.150635000000001
 20
-20.5
 30
0.0
 11
20.150635000000001
 21
-11.199999999999999
 31
0.0
  0
LINE
  8
LY_3
  6
CONTINUOUS
 62
              80
  5
3DB
 10
19.650635000000001
 20
-20.0
 30
0.0
 11
23.650635000000001
 21
-20.0
 31
0.0
  0
LINE
  8
LY_3
  6
CONTINUOUS
 62
              80
  5
3DC
 10
-23.650635000000001
 20
-20.0
 30
0.0
 11
-19.650635000000001
 21
-20.0
 31
0.0
  0
LINE
  8
LY_3
  6
CONTINUOUS
 62
              80
  5
3DD
 10
-23.150635000000001
 20
-20.5
 30
0.0
 11
-23.150635000000001
 21
-11.199999999999999
 31
0.0
  0
LINE
  8
LY_3
  6
CONTINUOUS
 62
              80
  5
3DE
 10
-20.150635000000001
 20
-20.5
 30
0.0
 11
-20.150635000000001
 21
-11.199999999999999
 31
0.0
  0
LINE
  8
LY_3
  6
CONTINUOUS
 62
               3
  5
3DF
 10
-38.207734000000002
 20
3.0
 30
0.0
 11
-40.479323000000001
 21
3.0
 31
0.0
  0
LINE
  8
LY_3
  6
CONTINUOUS
 62
               3
  5
3E0
 10
-40.479323000000001
 20
2.4265119999999998
 30
0.0
 11
-40.746395999999997
 21
2.4265119999999998
 31
0.0
  0
LINE
  8
LY_3
  6
CONTINUOUS
 62
               3
  5
3E1
 10
-34.207734000000002
 20
2.4265119999999998
 30
0.0
 11
-38.207734000000002
 21
2.4265119999999998
 31
0.0
  0
LINE
  8
LY_3
  6
CONTINUOUS
 62
               3
  5
3E2
 10
-29.938542999999999
 20
3.0
 30
0.0
 11
-34.207734000000002
 21
3.0
 31
0.0
  0
LINE
  8
LY_3
  6
CONTINUOUS
 62
               3
  5
3E3
 10
-23.810186999999999
 20
2.4265119999999998
 30
0.0
 11
-29.938542999999999
 21
2.4265119999999998
 31
0.0
  0
LINE
  8
LY_3
  6
CONTINUOUS
 62
               3
  5
3E4
 10
-10.54078
 20
2.4265119999999998
 30
0.0
 11
-10.54078
 21
9.5
 31
0.0
  0
LINE
  8
LY_3
  6
CONTINUOUS
 62
               3
  5
3E5
 10
-18.058320999999999
 20
2.4265119999999998
 30
0.0
 11
-18.058320999999999
 21
9.5
 31
0.0
  0
LINE
  8
LY_3
  6
CONTINUOUS
 62
               3
  5
3E6
 10
-10.54078
 20
2.4265119999999998
 30
0.0
 11
-18.058320999999999
 21
2.4265119999999998
 31
0.0
  0
LINE
  8
LY_3
  6
CONTINUOUS
 62
               3
  5
3E7
 10
-10.54078
 20
9.5
 30
0.0
 11
-18.058320999999999
 21
9.5
 31
0.0
  0
LINE
  8
LY_3
  6
CONTINUOUS
 62
               3
  5
3E8
 10
-18.058320999999999
 20
3.0
 30
0.0
 11
-23.810186999999999
 21
3.0
 31
0.0
  0
LINE
  8
LY_3
  6
CONTINUOUS
 62
               3
  5
3E9
 10
-4.0
 20
3.0
 30
0.0
 11
-10.54078
 21
3.0
 31
0.0
  0
POLYLINE
  8
LY_3
  6
CONTINUOUS
 62
               3
  5
3EA
 66
               1
 10
0.0
 20
0.0
 30
0.0
  0
VERTEX
  8
LY_3
  6
CONTINUOUS
 62
               3
  5
968
 10
-40.479323000000001
 20
35.0
 30
0.0
  0
VERTEX
  8
LY_3
  6
CONTINUOUS
 62
               3
  5
969
 10
-40.486398999999999
 20
35.569504000000002
 30
0.0
  0
VERTEX
  8
LY_3
  6
CONTINUOUS
 62
               3
  5
96A
 10
-40.507483000000001
 20
36.127405000000003
 30
0.0
  0
VERTEX
  8
LY_3
  6
CONTINUOUS
 62
               3
  5
96B
 10
-40.542146000000002
 20
36.662334999999999
 30
0.0
  0
VERTEX
  8
LY_3
  6
CONTINUOUS
 62
               3
  5
96C
 10
-40.589680000000001
 20
37.163395000000001
 30
0.0
  0
VERTEX
  8
LY_3
  6
CONTINUOUS
 62
               3
  5
96D
 10
-40.649118000000001
 20
37.620376999999998
 30
0.0
  0
VERTEX
  8
LY_3
  6
CONTINUOUS
 62
               3
  5
96E
 10
-40.719248999999998
 20
38.023969999999998
 30
0.0
  0
VERTEX
  8
LY_3
  6
CONTINUOUS
 62
               3
  5
96F
 10
-40.798644000000003
 20
38.365949999999998
 30
0.0
  0
VERTEX
  8
LY_3
  6
CONTINUOUS
 62
               3
  5
970
 10
-40.885683999999998
 20
38.639349000000003
 30
0.0
  0
VERTEX
  8
LY_3
  6
CONTINUOUS
 62
               3
  5
971
 10
-40.978597000000001
 20
38.838597999999998
 30
0.0
  0
VERTEX
  8
LY_3
  6
CONTINUOUS
 62
               3
  5
972
 10
-41.075490000000002
 20
38.959637000000001
 30
0.0
  0
VERTEX
  8
LY_3
  6
CONTINUOUS
 62
               3
  5
973
 10
-41.174388
 20
38.999999000000003
 30
0.0
  0
VERTEX
  8
LY_3
  6
CONTINUOUS
 62
               3
  5
974
 10
-41.273277
 20
38.958862000000003
 30
0.0
  0
VERTEX
  8
LY_3
  6
CONTINUOUS
 62
               3
  5
975
 10
-41.370140999999997
 20
38.837065000000003
 30
0.0
  0
VERTEX
  8
LY_3
  6
CONTINUOUS
 62
               3
  5
976
 10
-41.463006999999998
 20
38.637087999999999
 30
0.0
  0
VERTEX
  8
LY_3
  6
CONTINUOUS
 62
               3
  5
977
 10
-41.549982999999997
 20
38.363007000000003
 30
0.0
  0
VERTEX
  8
LY_3
  6
CONTINUOUS
 62
               3
  5
978
 10
-41.629295999999997
 20
38.020406000000001
 30
0.0
  0
VERTEX
  8
LY_3
  6
CONTINUOUS
 62
               3
  5
979
 10
-41.699331999999998
 20
37.616264000000001
 30
0.0
  0
VERTEX
  8
LY_3
  6
CONTINUOUS
 62
               3
  5
97A
 10
-41.758662000000001
 20
37.158816999999999
 30
0.0
  0
VERTEX
  8
LY_3
  6
CONTINUOUS
 62
               3
  5
97B
 10
-41.805686000000001
 20
36.662334999999999
 30
0.0
  0
VERTEX
  8
LY_3
  6
CONTINUOUS
 62
               3
  5
97C
 10
-41.840082000000002
 20
36.132623000000002
 30
0.0
  0
SEQEND
  8
LY_3
  6
CONTINUOUS
 62
               3
  5
97D
  0
LINE
  8
LY_3
  6
CONTINUOUS
 62
               3
  5
3EB
 10
-40.479323000000001
 20
2.4265119999999998
 30
0.0
 11
-40.479323000000001
 21
35.0
 31
0.0
  0
POLYLINE
  8
LY_3
  6
CONTINUOUS
 62
               3
  5
3EC
 66
               1
 10
0.0
 20
0.0
 30
0.0
  0
VERTEX
  8
LY_3
  6
CONTINUOUS
 62
               3
  5
97E
 10
-38.207734000000002
 20
35.0
 30
0.0
  0
VERTEX
  8
LY_3
  6
CONTINUOUS
 62
               3
  5
97F
 10
-38.190624
 20
35.522105000000003
 30
0.0
  0
VERTEX
  8
LY_3
  6
CONTINUOUS
 62
               3
  5
980
 10
-38.139586000000001
 20
36.035276000000003
 30
0.0
  0
VERTEX
  8
LY_3
  6
CONTINUOUS
 62
               3
  5
981
 10
-38.055492999999998
 20
36.530734000000002
 30
0.0
  0
VERTEX
  8
LY_3
  6
CONTINUOUS
 62
               3
  5
982
 10
-37.939785000000001
 20
37.0
 30
0.0
  0
VERTEX
  8
LY_3
  6
CONTINUOUS
 62
               3
  5
983
 10
-37.794440999999999
 20
37.435046
 30
0.0
  0
VERTEX
  8
LY_3
  6
CONTINUOUS
 62
               3
  5
984
 10
-37.621948000000003
 20
37.828426999999998
 30
0.0
  0
VERTEX
  8
LY_3
  6
CONTINUOUS
 62
               3
  5
985
 10
-37.425257000000002
 20
38.173412999999996
 30
0.0
  0
VERTEX
  8
LY_3
  6
CONTINUOUS
 62
               3
  5
986
 10
-37.207734000000002
 20
38.464101999999997
 30
0.0
  0
VERTEX
  8
LY_3
  6
CONTINUOUS
 62
               3
  5
987
 10
-36.973101
 20
38.695518
 30
0.0
  0
VERTEX
  8
LY_3
  6
CONTINUOUS
 62
               3
  5
988
 10
-36.725372
 20
38.863703000000001
 30
0.0
  0
VERTEX
  8
LY_3
  6
CONTINUOUS
 62
               3
  5
989
 10
-36.468786000000001
 20
38.965778999999998
 30
0.0
  0
VERTEX
  8
LY_3
  6
CONTINUOUS
 62
               3
  5
98A
 10
-36.207734000000002
 20
39.0
 30
0.0
  0
VERTEX
  8
LY_3
  6
CONTINUOUS
 62
               3
  5
98B
 10
-35.946682000000003
 20
38.965778999999998
 30
0.0
  0
VERTEX
  8
LY_3
  6
CONTINUOUS
 62
               3
  5
98C
 10
-35.690095999999997
 20
38.863703000000001
 30
0.0
  0
VERTEX
  8
LY_3
  6
CONTINUOUS
 62
               3
  5
98D
 10
-35.442366999999997
 20
38.695518
 30
0.0
  0
VERTEX
  8
LY_3
  6
CONTINUOUS
 62
               3
  5
98E
 10
-35.207734000000002
 20
38.464101999999997
 30
0.0
  0
VERTEX
  8
LY_3
  6
CONTINUOUS
 62
               3
  5
98F
 10
-34.990211000000002
 20
38.173412999999996
 30
0.0
  0
VERTEX
  8
LY_3
  6
CONTINUOUS
 62
               3
  5
990
 10
-34.793520000000001
 20
37.828426999999998
 30
0.0
  0
VERTEX
  8
LY_3
  6
CONTINUOUS
 62
               3
  5
991
 10
-34.621026999999998
 20
37.435046
 30
0.0
  0
VERTEX
  8
LY_3
  6
CONTINUOUS
 62
               3
  5
992
 10
-34.475682999999997
 20
37.0
 30
0.0
  0
VERTEX
  8
LY_3
  6
CONTINUOUS
 62
               3
  5
993
 10
-34.359974999999999
 20
36.530734000000002
 30
0.0
  0
VERTEX
  8
LY_3
  6
CONTINUOUS
 62
               3
  5
994
 10
-34.275882000000003
 20
36.035276000000003
 30
0.0
  0
VERTEX
  8
LY_3
  6
CONTINUOUS
 62
               3
  5
995
 10
-34.224843999999997
 20
35.522105000000003
 30
0.0
  0
VERTEX
  8
LY_3
  6
CONTINUOUS
 62
               3
  5
996
 10
-34.207734000000002
 20
35.0
 30
0.0
  0
SEQEND
  8
LY_3
  6
CONTINUOUS
 62
               3
  5
997
  0
POLYLINE
  8
LY_3
  6
CONTINUOUS
 62
               3
  5
3ED
 66
               1
 10
0.0
 20
0.0
 30
0.0
  0
VERTEX
  8
LY_3
  6
CONTINUOUS
 62
               3
  5
998
 10
-29.938542999999999
 20
35.0
 30
0.0
  0
VERTEX
  8
LY_3
  6
CONTINUOUS
 62
               3
  5
999
 10
-29.912327999999999
 20
35.522105000000003
 30
0.0
  0
VERTEX
  8
LY_3
  6
CONTINUOUS
 62
               3
  5
99A
 10
-29.834133000000001
 20
36.035276000000003
 30
0.0
  0
VERTEX
  8
LY_3
  6
CONTINUOUS
 62
               3
  5
99B
 10
-29.705296000000001
 20
36.530734000000002
 30
0.0
  0
VERTEX
  8
LY_3
  6
CONTINUOUS
 62
               3
  5
99C
 10
-29.528020999999999
 20
37.0
 30
0.0
  0
VERTEX
  8
LY_3
  6
CONTINUOUS
 62
               3
  5
99D
 10
-29.305340999999999
 20
37.435046
 30
0.0
  0
VERTEX
  8
LY_3
  6
CONTINUOUS
 62
               3
  5
99E
 10
-29.041066000000001
 20
37.828426999999998
 30
0.0
  0
VERTEX
  8
LY_3
  6
CONTINUOUS
 62
               3
  5
99F
 10
-28.739718
 20
38.173412999999996
 30
0.0
  0
VERTEX
  8
LY_3
  6
CONTINUOUS
 62
               3
  5
9A0
 10
-28.406454
 20
38.464101999999997
 30
0.0
  0
VERTEX
  8
LY_3
  6
CONTINUOUS
 62
               3
  5
9A1
 10
-28.046975
 20
38.695518
 30
0.0
  0
VERTEX
  8
LY_3
  6
CONTINUOUS
 62
               3
  5
9A2
 10
-27.667432999999999
 20
38.863703000000001
 30
0.0
  0
VERTEX
  8
LY_3
  6
CONTINUOUS
 62
               3
  5
9A3
 10
-27.274319999999999
 20
38.965778999999998
 30
0.0
  0
VERTEX
  8
LY_3
  6
CONTINUOUS
 62
               3
  5
9A4
 10
-26.874365000000001
 20
39.0
 30
0.0
  0
VERTEX
  8
LY_3
  6
CONTINUOUS
 62
               3
  5
9A5
 10
-26.474409999999999
 20
38.965778999999998
 30
0.0
  0
VERTEX
  8
LY_3
  6
CONTINUOUS
 62
               3
  5
9A6
 10
-26.081296999999999
 20
38.863703000000001
 30
0.0
  0
VERTEX
  8
LY_3
  6
CONTINUOUS
 62
               3
  5
9A7
 10
-25.701754999999999
 20
38.695518
 30
0.0
  0
VERTEX
  8
LY_3
  6
CONTINUOUS
 62
               3
  5
9A8
 10
-25.342275999999998
 20
38.464101999999997
 30
0.0
  0
VERTEX
  8
LY_3
  6
CONTINUOUS
 62
               3
  5
9A9
 10
-25.009011999999998
 20
38.173412999999996
 30
0.0
  0
VERTEX
  8
LY_3
  6
CONTINUOUS
 62
               3
  5
9AA
 10
-24.707664000000001
 20
37.828426999999998
 30
0.0
  0
VERTEX
  8
LY_3
  6
CONTINUOUS
 62
               3
  5
9AB
 10
-24.443389
 20
37.435046
 30
0.0
  0
VERTEX
  8
LY_3
  6
CONTINUOUS
 62
               3
  5
9AC
 10
-24.220708999999999
 20
37.0
 30
0.0
  0
VERTEX
  8
LY_3
  6
CONTINUOUS
 62
               3
  5
9AD
 10
-24.043434000000001
 20
36.530734000000002
 30
0.0
  0
VERTEX
  8
LY_3
  6
CONTINUOUS
 62
               3
  5
9AE
 10
-23.914597000000001
 20
36.035276000000003
 30
0.0
  0
VERTEX
  8
LY_3
  6
CONTINUOUS
 62
               3
  5
9AF
 10
-23.836402
 20
35.522105000000003
 30
0.0
  0
VERTEX
  8
LY_3
  6
CONTINUOUS
 62
               3
  5
9B0
 10
-23.810186999999999
 20
35.0
 30
0.0
  0
SEQEND
  8
LY_3
  6
CONTINUOUS
 62
               3
  5
9B1
  0
LINE
  8
LY_3
  6
CONTINUOUS
 62
               3
  5
3EE
 10
-38.207734000000002
 20
2.4265119999999998
 30
0.0
 11
-38.207734000000002
 21
35.0
 31
0.0
  0
LINE
  8
LY_3
  6
CONTINUOUS
 62
               3
  5
3EF
 10
-34.207734000000002
 20
35.0
 30
0.0
 11
-34.207734000000002
 21
2.4265119999999998
 31
0.0
  0
LINE
  8
LY_3
  6
CONTINUOUS
 62
               3
  5
3F0
 10
-29.938542999999999
 20
2.4265119999999998
 30
0.0
 11
-29.938542999999999
 21
35.0
 31
0.0
  0
LINE
  8
LY_3
  6
CONTINUOUS
 62
               3
  5
3F1
 10
-23.810186999999999
 20
2.4265119999999998
 30
0.0
 11
-23.810186999999999
 21
35.0
 31
0.0
  0
POLYLINE
  8
LY_3
  6
CONTINUOUS
 62
               3
  5
3F2
 66
               1
 10
0.0
 20
0.0
 30
0.0
  0
VERTEX
  8
LY_3
  6
CONTINUOUS
 62
               3
  5
9B2
 10
41.840082000000002
 20
36.132623000000002
 30
0.0
  0
VERTEX
  8
LY_3
  6
CONTINUOUS
 62
               3
  5
9B3
 10
41.805292999999999
 20
36.667281000000003
 30
0.0
  0
VERTEX
  8
LY_3
  6
CONTINUOUS
 62
               3
  5
9B4
 10
41.757640000000002
 20
37.167968999999999
 30
0.0
  0
VERTEX
  8
LY_3
  6
CONTINUOUS
 62
               3
  5
9B5
 10
41.698093999999998
 20
37.624485
 30
0.0
  0
VERTEX
  8
LY_3
  6
CONTINUOUS
 62
               3
  5
9B6
 10
41.627867999999999
 20
38.027527999999997
 30
0.0
  0
VERTEX
  8
LY_3
  6
CONTINUOUS
 62
               3
  5
9B7
 10
41.548392999999997
 20
38.368886000000003
 30
0.0
  0
VERTEX
  8
LY_3
  6
CONTINUOUS
 62
               3
  5
9B8
 10
41.461288000000003
 20
38.641603000000003
 30
0.0
  0
VERTEX
  8
LY_3
  6
CONTINUOUS
 62
               3
  5
9B9
 10
41.368327999999998
 20
38.840125
 30
0.0
  0
VERTEX
  8
LY_3
  6
CONTINUOUS
 62
               3
  5
9BA
 10
41.271405999999999
 20
38.960403999999997
 30
0.0
  0
VERTEX
  8
LY_3
  6
CONTINUOUS
 62
               3
  5
9BB
 10
41.172499000000002
 20
38.999991999999999
 30
0.0
  0
VERTEX
  8
LY_3
  6
CONTINUOUS
 62
               3
  5
9BC
 10
41.073619999999998
 20
38.958080000000002
 30
0.0
  0
VERTEX
  8
LY_3
  6
CONTINUOUS
 62
               3
  5
9BD
 10
40.976785
 20
38.835524999999997
 30
0.0
  0
VERTEX
  8
LY_3
  6
CONTINUOUS
 62
               3
  5
9BE
 10
40.883966000000001
 20
38.634821000000002
 30
0.0
  0
VERTEX
  8
LY_3
  6
CONTINUOUS
 62
               3
  5
9BF
 10
40.797055
 20
38.360059
 30
0.0
  0
VERTEX
  8
LY_3
  6
CONTINUOUS
 62
               3
  5
9C0
 10
40.717821999999998
 20
38.016835999999998
 30
0.0
  0
VERTEX
  8
LY_3
  6
CONTINUOUS
 62
               3
  5
9C1
 10
40.647883
 20
37.612147
 30
0.0
  0
VERTEX
  8
LY_3
  6
CONTINUOUS
 62
               3
  5
9C2
 10
40.588661000000002
 20
37.154235999999997
 30
0.0
  0
VERTEX
  8
LY_3
  6
CONTINUOUS
 62
               3
  5
9C3
 10
40.541362999999997
 20
36.652431999999997
 30
0.0
  0
VERTEX
  8
LY_3
  6
CONTINUOUS
 62
               3
  5
9C4
 10
40.506953000000003
 20
36.116961000000003
 30
0.0
  0
VERTEX
  8
LY_3
  6
CONTINUOUS
 62
               3
  5
9C5
 10
40.486265000000003
 20
35.564118999999998
 30
0.0
  0
VERTEX
  8
LY_3
  6
CONTINUOUS
 62
               3
  5
9C6
 10
40.479323000000001
 20
35.0
 30
0.0
  0
SEQEND
  8
LY_3
  6
CONTINUOUS
 62
               3
  5
9C7
  0
LINE
  8
LY_3
  6
CONTINUOUS
 62
               3
  5
3F3
 10
40.479323000000001
 20
2.4265119999999998
 30
0.0
 11
40.746395999999997
 21
2.4265119999999998
 31
0.0
  0
LINE
  8
LY_3
  6
CONTINUOUS
 62
               3
  5
3F4
 10
40.479323000000001
 20
2.4265119999999998
 30
0.0
 11
40.479323000000001
 21
35.0
 31
0.0
  0
POLYLINE
  8
LY_3
  6
CONTINUOUS
 62
               3
  5
3F5
 66
               1
 10
0.0
 20
0.0
 30
0.0
  0
VERTEX
  8
LY_3
  6
CONTINUOUS
 62
               3
  5
9C8
 10
38.207734000000002
 20
35.0
 30
0.0
  0
VERTEX
  8
LY_3
  6
CONTINUOUS
 62
               3
  5
9C9
 10
38.190624
 20
35.522105000000003
 30
0.0
  0
VERTEX
  8
LY_3
  6
CONTINUOUS
 62
               3
  5
9CA
 10
38.139586000000001
 20
36.035276000000003
 30
0.0
  0
VERTEX
  8
LY_3
  6
CONTINUOUS
 62
               3
  5
9CB
 10
38.055492999999998
 20
36.530734000000002
 30
0.0
  0
VERTEX
  8
LY_3
  6
CONTINUOUS
 62
               3
  5
9CC
 10
37.939785000000001
 20
37.0
 30
0.0
  0
VERTEX
  8
LY_3
  6
CONTINUOUS
 62
               3
  5
9CD
 10
37.794440999999999
 20
37.435046
 30
0.0
  0
VERTEX
  8
LY_3
  6
CONTINUOUS
 62
               3
  5
9CE
 10
37.621948000000003
 20
37.828426999999998
 30
0.0
  0
VERTEX
  8
LY_3
  6
CONTINUOUS
 62
               3
  5
9CF
 10
37.425257000000002
 20
38.173412999999996
 30
0.0
  0
VERTEX
  8
LY_3
  6
CONTINUOUS
 62
               3
  5
9D0
 10
37.207734000000002
 20
38.464101999999997
 30
0.0
  0
VERTEX
  8
LY_3
  6
CONTINUOUS
 62
               3
  5
9D1
 10
36.973101
 20
38.695518
 30
0.0
  0
VERTEX
  8
LY_3
  6
CONTINUOUS
 62
               3
  5
9D2
 10
36.725372
 20
38.863703000000001
 30
0.0
  0
VERTEX
  8
LY_3
  6
CONTINUOUS
 62
               3
  5
9D3
 10
36.468786000000001
 20
38.965778999999998
 30
0.0
  0
VERTEX
  8
LY_3
  6
CONTINUOUS
 62
               3
  5
9D4
 10
36.207734000000002
 20
39.0
 30
0.0
  0
VERTEX
  8
LY_3
  6
CONTINUOUS
 62
               3
  5
9D5
 10
35.946682000000003
 20
38.965778999999998
 30
0.0
  0
VERTEX
  8
LY_3
  6
CONTINUOUS
 62
               3
  5
9D6
 10
35.690095999999997
 20
38.863703000000001
 30
0.0
  0
VERTEX
  8
LY_3
  6
CONTINUOUS
 62
               3
  5
9D7
 10
35.442366999999997
 20
38.695518
 30
0.0
  0
VERTEX
  8
LY_3
  6
CONTINUOUS
 62
               3
  5
9D8
 10
35.207734000000002
 20
38.464101999999997
 30
0.0
  0
VERTEX
  8
LY_3
  6
CONTINUOUS
 62
               3
  5
9D9
 10
34.990211000000002
 20
38.173412999999996
 30
0.0
  0
VERTEX
  8
LY_3
  6
CONTINUOUS
 62
               3
  5
9DA
 10
34.793520000000001
 20
37.828426999999998
 30
0.0
  0
VERTEX
  8
LY_3
  6
CONTINUOUS
 62
               3
  5
9DB
 10
34.621026999999998
 20
37.435046
 30
0.0
  0
VERTEX
  8
LY_3
  6
CONTINUOUS
 62
               3
  5
9DC
 10
34.475682999999997
 20
37.0
 30
0.0
  0
VERTEX
  8
LY_3
  6
CONTINUOUS
 62
               3
  5
9DD
 10
34.359974999999999
 20
36.530734000000002
 30
0.0
  0
VERTEX
  8
LY_3
  6
CONTINUOUS
 62
               3
  5
9DE
 10
34.275882000000003
 20
36.035276000000003
 30
0.0
  0
VERTEX
  8
LY_3
  6
CONTINUOUS
 62
               3
  5
9DF
 10
34.224843999999997
 20
35.522105000000003
 30
0.0
  0
VERTEX
  8
LY_3
  6
CONTINUOUS
 62
               3
  5
9E0
 10
34.207734000000002
 20
35.0
 30
0.0
  0
SEQEND
  8
LY_3
  6
CONTINUOUS
 62
               3
  5
9E1
  0
POLYLINE
  8
LY_3
  6
CONTINUOUS
 62
               3
  5
3F6
 66
               1
 10
0.0
 20
0.0
 30
0.0
  0
VERTEX
  8
LY_3
  6
CONTINUOUS
 62
               3
  5
9E2
 10
29.938542999999999
 20
35.0
 30
0.0
  0
VERTEX
  8
LY_3
  6
CONTINUOUS
 62
               3
  5
9E3
 10
29.912327999999999
 20
35.522105000000003
 30
0.0
  0
VERTEX
  8
LY_3
  6
CONTINUOUS
 62
               3
  5
9E4
 10
29.834133000000001
 20
36.035276000000003
 30
0.0
  0
VERTEX
  8
LY_3
  6
CONTINUOUS
 62
               3
  5
9E5
 10
29.705296000000001
 20
36.530734000000002
 30
0.0
  0
VERTEX
  8
LY_3
  6
CONTINUOUS
 62
               3
  5
9E6
 10
29.528020999999999
 20
37.0
 30
0.0
  0
VERTEX
  8
LY_3
  6
CONTINUOUS
 62
               3
  5
9E7
 10
29.305340999999999
 20
37.435046
 30
0.0
  0
VERTEX
  8
LY_3
  6
CONTINUOUS
 62
               3
  5
9E8
 10
29.041066000000001
 20
37.828426999999998
 30
0.0
  0
VERTEX
  8
LY_3
  6
CONTINUOUS
 62
               3
  5
9E9
 10
28.739718
 20
38.173412999999996
 30
0.0
  0
VERTEX
  8
LY_3
  6
CONTINUOUS
 62
               3
  5
9EA
 10
28.406454
 20
38.464101999999997
 30
0.0
  0
VERTEX
  8
LY_3
  6
CONTINUOUS
 62
               3
  5
9EB
 10
28.046975
 20
38.695518
 30
0.0
  0
VERTEX
  8
LY_3
  6
CONTINUOUS
 62
               3
  5
9EC
 10
27.667432999999999
 20
38.863703000000001
 30
0.0
  0
VERTEX
  8
LY_3
  6
CONTINUOUS
 62
               3
  5
9ED
 10
27.274319999999999
 20
38.965778999999998
 30
0.0
  0
VERTEX
  8
LY_3
  6
CONTINUOUS
 62
               3
  5
9EE
 10
26.874365000000001
 20
39.0
 30
0.0
  0
VERTEX
  8
LY_3
  6
CONTINUOUS
 62
               3
  5
9EF
 10
26.474409999999999
 20
38.965778999999998
 30
0.0
  0
VERTEX
  8
LY_3
  6
CONTINUOUS
 62
               3
  5
9F0
 10
26.081296999999999
 20
38.863703000000001
 30
0.0
  0
VERTEX
  8
LY_3
  6
CONTINUOUS
 62
               3
  5
9F1
 10
25.701754999999999
 20
38.695518
 30
0.0
  0
VERTEX
  8
LY_3
  6
CONTINUOUS
 62
               3
  5
9F2
 10
25.342275999999998
 20
38.464101999999997
 30
0.0
  0
VERTEX
  8
LY_3
  6
CONTINUOUS
 62
               3
  5
9F3
 10
25.009011999999998
 20
38.173412999999996
 30
0.0
  0
VERTEX
  8
LY_3
  6
CONTINUOUS
 62
               3
  5
9F4
 10
24.707664000000001
 20
37.828426999999998
 30
0.0
  0
VERTEX
  8
LY_3
  6
CONTINUOUS
 62
               3
  5
9F5
 10
24.443389
 20
37.435046
 30
0.0
  0
VERTEX
  8
LY_3
  6
CONTINUOUS
 62
               3
  5
9F6
 10
24.220708999999999
 20
37.0
 30
0.0
  0
VERTEX
  8
LY_3
  6
CONTINUOUS
 62
               3
  5
9F7
 10
24.043434000000001
 20
36.530734000000002
 30
0.0
  0
VERTEX
  8
LY_3
  6
CONTINUOUS
 62
               3
  5
9F8
 10
23.914597000000001
 20
36.035276000000003
 30
0.0
  0
VERTEX
  8
LY_3
  6
CONTINUOUS
 62
               3
  5
9F9
 10
23.836402
 20
35.522105000000003
 30
0.0
  0
VERTEX
  8
LY_3
  6
CONTINUOUS
 62
               3
  5
9FA
 10
23.810186999999999
 20
35.0
 30
0.0
  0
SEQEND
  8
LY_3
  6
CONTINUOUS
 62
               3
  5
9FB
  0
LINE
  8
LY_3
  6
CONTINUOUS
 62
               3
  5
3F7
 10
38.207734000000002
 20
3.0
 30
0.0
 11
40.479323000000001
 21
3.0
 31
0.0
  0
LINE
  8
LY_3
  6
CONTINUOUS
 62
               3
  5
3F8
 10
29.938542999999999
 20
3.0
 30
0.0
 11
34.207734000000002
 21
3.0
 31
0.0
  0
LINE
  8
LY_3
  6
CONTINUOUS
 62
               3
  5
3F9
 10
18.058320999999999
 20
3.0
 30
0.0
 11
23.810186999999999
 21
3.0
 31
0.0
  0
LINE
  8
LY_3
  6
CONTINUOUS
 62
               3
  5
3FA
 10
34.207734000000002
 20
2.4265119999999998
 30
0.0
 11
38.207734000000002
 21
2.4265119999999998
 31
0.0
  0
LINE
  8
LY_3
  6
CONTINUOUS
 62
               3
  5
3FB
 10
23.810186999999999
 20
2.4265119999999998
 30
0.0
 11
29.938542999999999
 21
2.4265119999999998
 31
0.0
  0
LINE
  8
LY_3
  6
CONTINUOUS
 62
               3
  5
3FC
 10
38.207734000000002
 20
2.4265119999999998
 30
0.0
 11
38.207734000000002
 21
35.0
 31
0.0
  0
LINE
  8
LY_3
  6
CONTINUOUS
 62
               3
  5
3FD
 10
34.207734000000002
 20
35.0
 30
0.0
 11
34.207734000000002
 21
2.4265119999999998
 31
0.0
  0
LINE
  8
LY_3
  6
CONTINUOUS
 62
               3
  5
3FE
 10
29.938542999999999
 20
2.4265119999999998
 30
0.0
 11
29.938542999999999
 21
35.0
 31
0.0
  0
LINE
  8
LY_3
  6
CONTINUOUS
 62
               3
  5
3FF
 10
23.810186999999999
 20
2.4265119999999998
 30
0.0
 11
23.810186999999999
 21
35.0
 31
0.0
  0
LINE
  8
LY_3
  6
CONTINUOUS
 62
               3
  5
400
 10
10.54078
 20
9.5
 30
0.0
 11
18.058320999999999
 21
9.5
 31
0.0
  0
LINE
  8
LY_3
  6
CONTINUOUS
 62
               3
  5
401
 10
10.54078
 20
2.4265119999999998
 30
0.0
 11
18.058320999999999
 21
2.4265119999999998
 31
0.0
  0
LINE
  8
LY_3
  6
CONTINUOUS
 62
               3
  5
402
 10
18.058320999999999
 20
2.4265119999999998
 30
0.0
 11
18.058320999999999
 21
9.5
 31
0.0
  0
LINE
  8
LY_3
  6
CONTINUOUS
 62
               3
  5
403
 10
10.54078
 20
2.4265119999999998
 30
0.0
 11
10.54078
 21
9.5
 31
0.0
  0
LINE
  8
LY_3
  6
CONTINUOUS
 62
               3
  5
404
 10
4.0
 20
3.0
 30
0.0
 11
10.54078
 21
3.0
 31
0.0
  0
LINE
  8
LY_3
  6
CONTINUOUS
 62
               3
  5
405
 10
-4.0
 20
2.4265119999999998
 30
0.0
 11
-4.0
 21
9.5
 31
0.0
  0
LINE
  8
LY_3
  6
CONTINUOUS
 62
               3
  5
406
 10
4.0
 20
2.4265119999999998
 30
0.0
 11
4.0
 21
9.5
 31
0.0
  0
LINE
  8
LY_3
  6
CONTINUOUS
 62
               3
  5
407
 10
-4.0
 20
9.5
 30
0.0
 11
4.0
 21
9.5
 31
0.0
  0
LINE
  8
LY_3
  6
CONTINUOUS
 62
               3
  5
408
 10
-4.0
 20
2.4265119999999998
 30
0.0
 11
4.0
 21
2.4265119999999998
 31
0.0
  0
LINE
  8
LY_3
  6
CONTINUOUS
 62
               3
  5
409
 10
-19.600000000000001
 20
3.0
 30
0.0
 11
-19.600000000000001
 21
35.0
 31
0.0
  0
LINE
  8
LY_3
  6
CONTINUOUS
 62
               3
  5
40A
 10
19.600000000000001
 20
3.0
 30
0.0
 11
19.600000000000001
 21
35.0
 31
0.0
  0
LINE
  8
LY_3
  6
CONTINUOUS
 62
               3
  5
40B
 10
-19.600000000000001
 20
35.0
 30
0.0
 11
19.600000000000001
 21
35.0
 31
0.0
  0
LINE
  8
LY_3
  6
CONTINUOUS
 62
               3
  5
40C
 10
-36.5
 20
0.0
 30
0.0
 11
36.5
 21
0.0
 31
0.0
  0
LINE
  8
LY_3
  6
CONTINUOUS
 62
               3
  5
40D
 10
41.899999999999999
 20
43.0
 30
0.0
 11
41.549999999999997
 21
2.8857140000000001
 31
0.0
  0
LINE
  8
LY_3
  6
CONTINUOUS
 62
               3
  5
40E
 10
36.5
 20
0.0
 30
0.0
 11
41.549999999999997
 21
2.8857140000000001
 31
0.0
  0
LINE
  8
LY_3
  6
CONTINUOUS
 62
               3
  5
40F
 10
-41.899999999999999
 20
43.0
 30
0.0
 11
41.899999999999999
 21
43.0
 31
0.0
  0
LINE
  8
LY_3
  6
CONTINUOUS
 62
               3
  5
410
 10
-36.5
 20
0.0
 30
0.0
 11
-41.549999999999997
 21
2.8857140000000001
 31
0.0
  0
LINE
  8
LY_3
  6
CONTINUOUS
 62
               3
  5
411
 10
-41.899999999999999
 20
43.0
 30
0.0
 11
-41.549999999999997
 21
2.8857140000000001
 31
0.0
  0
LINE
  8
LY_3
  6
CONTINUOUS
 62
               3
  5
412
 10
-6.5
 20
-7.0
 30
0.0
 11
-7.0
 21
0.0
 31
0.0
  0
LINE
  8
LY_3
  6
CONTINUOUS
 62
               3
  5
413
 10
6.5
 20
-7.0
 30
0.0
 11
7.0
 21
0.0
 31
0.0
  0
LINE
  8
LY_3
  6
CONTINUOUS
 62
               3
  5
414
 10
15.150634999999999
 20
-7.0
 30
0.0
 11
14.650634999999999
 21
0.0
 31
0.0
  0
LINE
  8
LY_3
  6
CONTINUOUS
 62
               3
  5
415
 10
28.150635000000001
 20
-7.0
 30
0.0
 11
28.650635000000001
 21
0.0
 31
0.0
  0
LINE
  8
LY_3
  6
CONTINUOUS
 62
               3
  5
416
 10
-28.150635000000001
 20
-7.0
 30
0.0
 11
-28.650635000000001
 21
0.0
 31
0.0
  0
LINE
  8
LY_3
  6
CONTINUOUS
 62
               3
  5
417
 10
-15.150634999999999
 20
-7.0
 30
0.0
 11
-14.650634999999999
 21
0.0
 31
0.0
  0
LINE
  8
LY_3
  6
CONTINUOUS
 62
               3
  5
418
 10
1.5
 20
-20.5
 30
0.0
 11
-1.5
 21
-20.5
 31
0.0
  0
LINE
  8
LY_3
  6
CONTINUOUS
 62
               3
  5
419
 10
2.0
 20
-11.199999999999999
 30
0.0
 11
2.0
 21
-20.0
 31
0.0
  0
LINE
  8
LY_3
  6
CONTINUOUS
 62
              80
  5
41A
 10
-2.0
 20
-20.0
 30
0.0
 11
2.0
 21
-20.0
 31
0.0
  0
LINE
  8
LY_3
  6
CONTINUOUS
 62
              80
  5
41B
 10
1.5
 20
-20.5
 30
0.0
 11
1.5
 21
-11.199999999999999
 31
0.0
  0
LINE
  8
LY_3
  6
CONTINUOUS
 62
               3
  5
41C
 10
1.5
 20
-20.5
 30
0.0
 11
2.0
 21
-20.0
 31
0.0
  0
LINE
  8
LY_3
  6
CONTINUOUS
 62
               3
  5
41D
 10
-2.0
 20
-11.199999999999999
 30
0.0
 11
-2.0
 21
-20.0
 31
0.0
  0
LINE
  8
LY_3
  6
CONTINUOUS
 62
              80
  5
41E
 10
-1.5
 20
-20.5
 30
0.0
 11
-1.5
 21
-11.199999999999999
 31
0.0
  0
LINE
  8
LY_3
  6
CONTINUOUS
 62
               3
  5
41F
 10
-2.0
 20
-20.0
 30
0.0
 11
-1.5
 21
-20.5
 31
0.0
  0
LINE
  8
LY_3
  6
CONTINUOUS
 62
               3
  5
420
 10
-26.600635
 20
-7.0
 30
0.0
 11
-16.700634999999998
 21
-7.0
 31
0.0
  0
LINE
  8
LY_3
  6
CONTINUOUS
 62
               3
  5
421
 10
-25.150635000000001
 20
-11.199999999999999
 30
0.0
 11
-18.150635000000001
 21
-11.199999999999999
 31
0.0
  0
LINE
  8
LY_3
  6
CONTINUOUS
 62
               3
  5
422
 10
-26.900635000000001
 20
-7.7999999999999998
 30
0.0
 11
-16.400635000000001
 21
-7.7999999999999998
 31
0.0
  0
LINE
  8
LY_3
  6
CONTINUOUS
 62
               3
  5
423
 10
-26.900635000000001
 20
-7.7999999999999998
 30
0.0
 11
-26.900635000000001
 21
-7.2999999999999998
 31
0.0
  0
LINE
  8
LY_3
  6
CONTINUOUS
 62
               3
  5
424
 10
-16.400635000000001
 20
-7.7999999999999998
 30
0.0
 11
-16.400635000000001
 21
-7.2999999999999998
 31
0.0
  0
LINE
  8
LY_3
  6
CONTINUOUS
 62
               3
  5
425
 10
-25.692087000000001
 20
-10.887392999999999
 30
0.0
 11
-25.692087000000001
 21
-8.2398760000000006
 31
0.0
  0
LINE
  8
LY_3
  6
CONTINUOUS
 62
               3
  5
426
 10
-17.609183000000002
 20
-10.887392999999999
 30
0.0
 11
-17.609183000000002
 21
-8.2398760000000006
 31
0.0
  0
LINE
  8
LY_3
  6
CONTINUOUS
 62
               3
  5
427
 10
-23.671361000000001
 20
-10.887392999999999
 30
0.0
 11
-23.671361000000001
 21
-8.0199379999999998
 31
0.0
  0
LINE
  8
LY_3
  6
CONTINUOUS
 62
               3
  5
428
 10
-19.629909000000001
 20
-10.887392999999999
 30
0.0
 11
-19.629909000000001
 21
-8.0199379999999998
 31
0.0
  0
LINE
  8
LY_3
  6
CONTINUOUS
 62
               3
  5
429
 10
-25.150635000000001
 20
-11.199999999999999
 30
0.0
 11
-25.692087000000001
 21
-10.887392999999999
 31
0.0
  0
LINE
  8
LY_3
  6
CONTINUOUS
 62
               3
  5
42A
 10
-18.150635000000001
 20
-11.199999999999999
 30
0.0
 11
-17.609183000000002
 21
-10.887392999999999
 31
0.0
  0
ARC
  8
LY_3
  6
CONTINUOUS
 62
               3
  5
42B
 10
-21.650635000000001
 20
-4.512607
 30
0.0
 40
6.6873930000000001
 50
252.41204600000003
 51
287.58795400000002
  0
ARC
  8
LY_3
  6
CONTINUOUS
 62
               3
  5
42C
 10
-24.681723999999999
 20
-9.4109239999999996
 30
0.0
 40
1.7890760000000001
 50
244.38424699999999
 51
304.38424700000002
  0
ARC
  8
LY_3
  6
CONTINUOUS
 62
               3
  5
42D
 10
-18.619546
 20
-9.4109239999999996
 30
0.0
 40
1.7890760000000001
 50
235.61575300000001
 51
295.61575299999998
  0
LINE
  8
LY_3
  6
CONTINUOUS
 62
               3
  5
42E
 10
-26.900635000000001
 20
-7.7999999999999998
 30
0.0
 11
-25.692087000000001
 21
-8.2398760000000006
 31
0.0
  0
LINE
  8
LY_3
  6
CONTINUOUS
 62
               3
  5
42F
 10
-16.400635000000001
 20
-7.7999999999999998
 30
0.0
 11
-17.609183000000002
 21
-8.2398760000000006
 31
0.0
  0
ARC
  8
LY_3
  6
CONTINUOUS
 62
               3
  5
430
 10
-25.062626999999999
 20
-4.6302810000000001
 30
0.0
 40
3.6640679999999999
 50
260.10793200000001
 51
292.31542200000001
  0
ARC
  8
LY_3
  6
CONTINUOUS
 62
               3
  5
431
 10
-18.238643
 20
-4.6302810000000001
 30
0.0
 40
3.6640679999999999
 50
247.68457799999999
 51
279.89206799999999
  0
ARC
  8
LY_3
  6
CONTINUOUS
 62
               3
  5
432
 10
-21.650635000000001
 20
-0.716967
 30
0.0
 40
7.5773820000000001
 50
254.53327900000002
 51
285.46672100000001
  0
ARC
  8
LY_3
  6
CONTINUOUS
 62
               3
  5
433
 10
-26.600635
 20
-7.2999999999999998
 30
0.0
 40
0.3
 50
90.0
 51
180.0
  0
ARC
  8
LY_3
  6
CONTINUOUS
 62
               3
  5
434
 10
-16.700634999999998
 20
-7.2999999999999998
 30
0.0
 40
0.3
 50
0.0
 51
90.0
  0
LINE
  8
LY_3
  6
CONTINUOUS
 62
               3
  5
435
 10
-4.9500000000000002
 20
-7.0
 30
0.0
 11
4.9500000000000002
 21
-7.0
 31
0.0
  0
LINE
  8
LY_3
  6
CONTINUOUS
 62
               3
  5
436
 10
-3.5
 20
-11.199999999999999
 30
0.0
 11
3.5
 21
-11.199999999999999
 31
0.0
  0
LINE
  8
LY_3
  6
CONTINUOUS
 62
               3
  5
437
 10
-5.25
 20
-7.7999999999999998
 30
0.0
 11
5.25
 21
-7.7999999999999998
 31
0.0
  0
LINE
  8
LY_3
  6
CONTINUOUS
 62
               3
  5
438
 10
-5.25
 20
-7.7999999999999998
 30
0.0
 11
-5.25
 21
-7.2999999999999998
 31
0.0
  0
LINE
  8
LY_3
  6
CONTINUOUS
 62
               3
  5
439
 10
5.25
 20
-7.7999999999999998
 30
0.0
 11
5.25
 21
-7.2999999999999998
 31
0.0
  0
LINE
  8
LY_3
  6
CONTINUOUS
 62
               3
  5
43A
 10
-4.0414519999999996
 20
-10.887392999999999
 30
0.0
 11
-4.0414519999999996
 21
-8.2398760000000006
 31
0.0
  0
LINE
  8
LY_3
  6
CONTINUOUS
 62
               3
  5
43B
 10
4.0414519999999996
 20
-10.887392999999999
 30
0.0
 11
4.0414519999999996
 21
-8.2398760000000006
 31
0.0
  0
LINE
  8
LY_3
  6
CONTINUOUS
 62
               3
  5
43C
 10
-2.0207259999999998
 20
-10.887392999999999
 30
0.0
 11
-2.0207259999999998
 21
-8.0199379999999998
 31
0.0
  0
LINE
  8
LY_3
  6
CONTINUOUS
 62
               3
  5
43D
 10
2.0207259999999998
 20
-10.887392999999999
 30
0.0
 11
2.0207259999999998
 21
-8.0199379999999998
 31
0.0
  0
LINE
  8
LY_3
  6
CONTINUOUS
 62
               3
  5
43E
 10
-3.5
 20
-11.199999999999999
 30
0.0
 11
-4.0414519999999996
 21
-10.887392999999999
 31
0.0
  0
LINE
  8
LY_3
  6
CONTINUOUS
 62
               3
  5
43F
 10
3.5
 20
-11.199999999999999
 30
0.0
 11
4.0414519999999996
 21
-10.887392999999999
 31
0.0
  0
ARC
  8
LY_3
  6
CONTINUOUS
 62
               3
  5
440
 10
0.0
 20
-4.512607
 30
0.0
 40
6.6873930000000001
 50
252.41204600000003
 51
287.58795400000002
  0
ARC
  8
LY_3
  6
CONTINUOUS
 62
               3
  5
441
 10
-3.0310890000000001
 20
-9.4109239999999996
 30
0.0
 40
1.7890760000000001
 50
244.38424699999999
 51
304.38424700000002
  0
ARC
  8
LY_3
  6
CONTINUOUS
 62
               3
  5
442
 10
3.0310890000000001
 20
-9.4109239999999996
 30
0.0
 40
1.7890760000000001
 50
235.61575300000001
 51
295.61575299999998
  0
LINE
  8
LY_3
  6
CONTINUOUS
 62
               3
  5
443
 10
-5.25
 20
-7.7999999999999998
 30
0.0
 11
-4.0414519999999996
 21
-8.2398760000000006
 31
0.0
  0
LINE
  8
LY_3
  6
CONTINUOUS
 62
               3
  5
444
 10
5.25
 20
-7.7999999999999998
 30
0.0
 11
4.0414519999999996
 21
-8.2398760000000006
 31
0.0
  0
ARC
  8
LY_3
  6
CONTINUOUS
 62
               3
  5
445
 10
-3.4119920000000001
 20
-4.6302810000000001
 30
0.0
 40
3.6640679999999999
 50
260.10793200000001
 51
292.31542200000001
  0
ARC
  8
LY_3
  6
CONTINUOUS
 62
               3
  5
446
 10
3.4119920000000001
 20
-4.6302810000000001
 30
0.0
 40
3.6640679999999999
 50
247.68457799999999
 51
279.89206799999999
  0
ARC
  8
LY_3
  6
CONTINUOUS
 62
               3
  5
447
 10
0.0
 20
-0.716967
 30
0.0
 40
7.5773820000000001
 50
254.53327900000002
 51
285.46672100000001
  0
ARC
  8
LY_3
  6
CONTINUOUS
 62
               3
  5
448
 10
-4.9500000000000002
 20
-7.2999999999999998
 30
0.0
 40
0.3
 50
90.0
 51
180.0
  0
ARC
  8
LY_3
  6
CONTINUOUS
 62
               3
  5
449
 10
4.9500000000000002
 20
-7.2999999999999998
 30
0.0
 40
0.3
 50
0.0
 51
90.0
  0
LINE
  8
LY_3
  6
CONTINUOUS
 62
               3
  5
44A
 10
16.700634999999998
 20
-7.0
 30
0.0
 11
26.600635
 21
-7.0
 31
0.0
  0
LINE
  8
LY_3
  6
CONTINUOUS
 62
               3
  5
44B
 10
18.150635000000001
 20
-11.199999999999999
 30
0.0
 11
25.150635000000001
 21
-11.199999999999999
 31
0.0
  0
LINE
  8
LY_3
  6
CONTINUOUS
 62
               3
  5
44C
 10
16.400635000000001
 20
-7.7999999999999998
 30
0.0
 11
26.900635000000001
 21
-7.7999999999999998
 31
0.0
  0
LINE
  8
LY_3
  6
CONTINUOUS
 62
               3
  5
44D
 10
16.400635000000001
 20
-7.7999999999999998
 30
0.0
 11
16.400635000000001
 21
-7.2999999999999998
 31
0.0
  0
LINE
  8
LY_3
  6
CONTINUOUS
 62
               3
  5
44E
 10
26.900635000000001
 20
-7.7999999999999998
 30
0.0
 11
26.900635000000001
 21
-7.2999999999999998
 31
0.0
  0
LINE
  8
LY_3
  6
CONTINUOUS
 62
               3
  5
44F
 10
17.609183000000002
 20
-10.887392999999999
 30
0.0
 11
17.609183000000002
 21
-8.2398760000000006
 31
0.0
  0
LINE
  8
LY_3
  6
CONTINUOUS
 62
               3
  5
450
 10
25.692087000000001
 20
-10.887392999999999
 30
0.0
 11
25.692087000000001
 21
-8.2398760000000006
 31
0.0
  0
LINE
  8
LY_3
  6
CONTINUOUS
 62
               3
  5
451
 10
19.629909000000001
 20
-10.887392999999999
 30
0.0
 11
19.629909000000001
 21
-8.0199379999999998
 31
0.0
  0
LINE
  8
LY_3
  6
CONTINUOUS
 62
               3
  5
452
 10
23.671361000000001
 20
-10.887392999999999
 30
0.0
 11
23.671361000000001
 21
-8.0199379999999998
 31
0.0
  0
LINE
  8
LY_3
  6
CONTINUOUS
 62
               3
  5
453
 10
18.150635000000001
 20
-11.199999999999999
 30
0.0
 11
17.609183000000002
 21
-10.887392999999999
 31
0.0
  0
LINE
  8
LY_3
  6
CONTINUOUS
 62
               3
  5
454
 10
25.150635000000001
 20
-11.199999999999999
 30
0.0
 11
25.692087000000001
 21
-10.887392999999999
 31
0.0
  0
ARC
  8
LY_3
  6
CONTINUOUS
 62
               3
  5
455
 10
21.650635000000001
 20
-4.512607
 30
0.0
 40
6.6873930000000001
 50
252.41204600000003
 51
287.58795400000002
  0
ARC
  8
LY_3
  6
CONTINUOUS
 62
               3
  5
456
 10
18.619546
 20
-9.4109239999999996
 30
0.0
 40
1.7890760000000001
 50
244.38424699999999
 51
304.38424700000002
  0
ARC
  8
LY_3
  6
CONTINUOUS
 62
               3
  5
457
 10
24.681723999999999
 20
-9.4109239999999996
 30
0.0
 40
1.7890760000000001
 50
235.61575300000001
 51
295.61575299999998
  0
LINE
  8
LY_3
  6
CONTINUOUS
 62
               3
  5
458
 10
16.400635000000001
 20
-7.7999999999999998
 30
0.0
 11
17.609183000000002
 21
-8.2398760000000006
 31
0.0
  0
LINE
  8
LY_3
  6
CONTINUOUS
 62
               3
  5
459
 10
26.900635000000001
 20
-7.7999999999999998
 30
0.0
 11
25.692087000000001
 21
-8.2398760000000006
 31
0.0
  0
ARC
  8
LY_3
  6
CONTINUOUS
 62
               3
  5
45A
 10
18.238643
 20
-4.6302810000000001
 30
0.0
 40
3.6640679999999999
 50
260.10793200000001
 51
292.31542200000001
  0
ARC
  8
LY_3
  6
CONTINUOUS
 62
               3
  5
45B
 10
25.062626999999999
 20
-4.6302810000000001
 30
0.0
 40
3.6640679999999999
 50
247.68457799999999
 51
279.89206799999999
  0
ARC
  8
LY_3
  6
CONTINUOUS
 62
               3
  5
45C
 10
21.650635000000001
 20
-0.716967
 30
0.0
 40
7.5773820000000001
 50
254.53327900000002
 51
285.46672100000001
  0
ARC
  8
LY_3
  6
CONTINUOUS
 62
               3
  5
45D
 10
16.700634999999998
 20
-7.2999999999999998
 30
0.0
 40
0.3
 50
90.0
 51
180.0
  0
ARC
  8
LY_3
  6
CONTINUOUS
 62
               3
  5
45E
 10
26.600635
 20
-7.2999999999999998
 30
0.0
 40
0.3
 50
0.0
 51
90.0
  0
CIRCLE
  8
LY_3
  6
CONTINUOUS
 62
               3
  5
45F
 10
0.0
 20
-80.144622999999996
 30
0.0
 40
1.8999999999999999
  0
CIRCLE
  8
LY_3
  6
CONTINUOUS
 62
               3
  5
460
 10
0.0
 20
-80.144622999999996
 30
0.0
 40
2.0
  0
CIRCLE
  8
LY_3
  6
CONTINUOUS
 62
               3
  5
461
 10
0.0
 20
-80.144622999999996
 30
0.0
 40
5.25
  0
LINE
  8
LY_3
  6
CONTINUOUS
 62
               3
  5
462
 10
0.0
 20
-84.186075000000002
 30
0.0
 11
3.5
 21
-82.165349000000006
 31
0.0
  0
LINE
  8
LY_3
  6
CONTINUOUS
 62
               3
  5
463
 10
-3.5
 20
-78.123896999999999
 30
0.0
 11
0.0
 21
-76.103171000000003
 31
0.0
  0
LINE
  8
LY_3
  6
CONTINUOUS
 62
               3
  5
464
 10
-3.5
 20
-82.165349000000006
 30
0.0
 11
0.0
 21
-84.186075000000002
 31
0.0
  0
LINE
  8
LY_3
  6
CONTINUOUS
 62
               3
  5
465
 10
0.0
 20
-76.103171000000003
 30
0.0
 11
3.5
 21
-78.123896999999999
 31
0.0
  0
CIRCLE
  8
LY_3
  6
CONTINUOUS
 62
               3
  5
466
 10
0.0
 20
-80.144622999999996
 30
0.0
 40
3.5
  0
LINE
  8
LY_3
  6
CONTINUOUS
 62
               3
  5
467
 10
-3.5
 20
-78.123896999999999
 30
0.0
 11
-3.5
 21
-82.165349000000006
 31
0.0
  0
LINE
  8
LY_3
  6
CONTINUOUS
 62
               3
  5
468
 10
3.5
 20
-78.123896999999999
 30
0.0
 11
3.5
 21
-82.165349000000006
 31
0.0
  0
CIRCLE
  8
LY_3
  6
CONTINUOUS
 62
               3
  5
469
 10
21.650635000000001
 20
-117.644623
 30
0.0
 40
1.8999999999999999
  0
CIRCLE
  8
LY_3
  6
CONTINUOUS
 62
               3
  5
46A
 10
21.650635000000001
 20
-117.644623
 30
0.0
 40
2.0
  0
CIRCLE
  8
LY_3
  6
CONTINUOUS
 62
               3
  5
46B
 10
21.650635000000001
 20
-117.644623
 30
0.0
 40
5.25
  0
LINE
  8
LY_3
  6
CONTINUOUS
 62
               3
  5
46C
 10
21.650635000000001
 20
-121.686075
 30
0.0
 11
25.150635000000001
 21
-119.66534900000001
 31
0.0
  0
LINE
  8
LY_3
  6
CONTINUOUS
 62
               3
  5
46D
 10
18.150635000000001
 20
-115.623897
 30
0.0
 11
21.650635000000001
 21
-113.603171
 31
0.0
  0
LINE
  8
LY_3
  6
CONTINUOUS
 62
               3
  5
46E
 10
18.150635000000001
 20
-119.66534900000001
 30
0.0
 11
21.650635000000001
 21
-121.686075
 31
0.0
  0
LINE
  8
LY_3
  6
CONTINUOUS
 62
               3
  5
46F
 10
21.650635000000001
 20
-113.603171
 30
0.0
 11
25.150635000000001
 21
-115.623897
 31
0.0
  0
CIRCLE
  8
LY_3
  6
CONTINUOUS
 62
               3
  5
470
 10
21.650635000000001
 20
-117.644623
 30
0.0
 40
3.5
  0
LINE
  8
LY_3
  6
CONTINUOUS
 62
               3
  5
471
 10
18.150635000000001
 20
-115.623897
 30
0.0
 11
18.150635000000001
 21
-119.66534900000001
 31
0.0
  0
LINE
  8
LY_3
  6
CONTINUOUS
 62
               3
  5
472
 10
25.150635000000001
 20
-115.623897
 30
0.0
 11
25.150635000000001
 21
-119.66534900000001
 31
0.0
  0
CIRCLE
  8
LY_3
  6
CONTINUOUS
 62
               3
  5
473
 10
-21.650635000000001
 20
-117.644623
 30
0.0
 40
1.8999999999999999
  0
CIRCLE
  8
LY_3
  6
CONTINUOUS
 62
               3
  5
474
 10
-21.650635000000001
 20
-117.644623
 30
0.0
 40
2.0
  0
CIRCLE
  8
LY_3
  6
CONTINUOUS
 62
               3
  5
475
 10
-21.650635000000001
 20
-117.644623
 30
0.0
 40
5.25
  0
LINE
  8
LY_3
  6
CONTINUOUS
 62
               3
  5
476
 10
-21.650635000000001
 20
-121.686075
 30
0.0
 11
-18.150635000000001
 21
-119.66534900000001
 31
0.0
  0
LINE
  8
LY_3
  6
CONTINUOUS
 62
               3
  5
477
 10
-25.150635000000001
 20
-115.623897
 30
0.0
 11
-21.650635000000001
 21
-113.603171
 31
0.0
  0
LINE
  8
LY_3
  6
CONTINUOUS
 62
               3
  5
478
 10
-25.150635000000001
 20
-119.66534900000001
 30
0.0
 11
-21.650635000000001
 21
-121.686075
 31
0.0
  0
LINE
  8
LY_3
  6
CONTINUOUS
 62
               3
  5
479
 10
-21.650635000000001
 20
-113.603171
 30
0.0
 11
-18.150635000000001
 21
-115.623897
 31
0.0
  0
CIRCLE
  8
LY_3
  6
CONTINUOUS
 62
               3
  5
47A
 10
-21.650635000000001
 20
-117.644623
 30
0.0
 40
3.5
  0
LINE
  8
LY_3
  6
CONTINUOUS
 62
               3
  5
47B
 10
-25.150635000000001
 20
-115.623897
 30
0.0
 11
-25.150635000000001
 21
-119.66534900000001
 31
0.0
  0
LINE
  8
LY_3
  6
CONTINUOUS
 62
               3
  5
47C
 10
-18.150635000000001
 20
-115.623897
 30
0.0
 11
-18.150635000000001
 21
-119.66534900000001
 31
0.0
  0
ARC
  8
LY_3
  6
CONTINUOUS
 62
               3
  5
47D
 10
-122.09999999999999
 20
-114.544623
 30
0.0
 40
120.0
 50
339.72465999999997
 51
4.7000000000000126
  0
ARC
  8
LY_3
  6
CONTINUOUS
 62
               3
  5
47E
 10
-117.09999999999999
 20
-115.144623
 30
0.0
 40
120.0
 50
339.49957699999999
 51
5.1013410000000237
  0
LINE
  8
LY_3
  6
CONTINUOUS
 62
               3
  5
47F
 10
-3.0
 20
-128.644623
 30
0.0
 11
-2.931254
 21
-128.644623
 31
0.0
  0
LINE
  8
LY_3
  6
CONTINUOUS
 62
               3
  5
480
 10
2.138207
 20
-128.644623
 30
0.0
 11
3.0
 21
-128.644623
 31
0.0
  0
LINE
  8
LY_3
  6
CONTINUOUS
 62
               3
  5
481
 10
2.7238289999999998
 20
-121.644623
 30
0.0
 11
3.0
 21
-121.644623
 31
0.0
  0
LINE
  8
LY_3
  6
CONTINUOUS
 62
               3
  5
482
 10
-2.3409080000000002
 20
-122.144623
 30
0.0
 11
-5.0
 21
-122.144623
 31
0.0
  0
LINE
  8
LY_3
  6
CONTINUOUS
 62
               3
  5
483
 10
-2.873157
 20
-128.144623
 30
0.0
 11
-5.0
 21
-128.144623
 31
0.0
  0
LINE
  8
LY_3
  6
CONTINUOUS
 62
               3
  5
484
 10
2.1937549999999999
 20
-128.144623
 30
0.0
 11
5.0
 21
-128.144623
 31
0.0
  0
LINE
  8
LY_3
  6
CONTINUOUS
 62
               3
  5
485
 10
2.5
 20
-124.934414
 30
0.0
 11
2.5
 21
-128.144623
 31
0.0
  0
LINE
  8
LY_3
  6
CONTINUOUS
 62
               3
  5
486
 10
2.695659
 20
-122.144623
 30
0.0
 11
5.0
 21
-122.144623
 31
0.0
  0
ARC
  8
LY_3
  6
CONTINUOUS
 62
               3
  5
487
 10
-117.09999999999999
 20
-115.144623
 30
0.0
 40
117.552356
 50
339.49957699999999
 51
5.1013410000000237
  0
POINT
  8
LY_3
  6
CONTINUOUS
 62
              80
  5
488
 10
0.0
 20
0.0
 30
0.0
  0
ENDSEC
  0
EOF
