  0
SECTION
  2
HEADER
  9
$ACADVER
  1
AC1009
  9
$DWGCODEPAGE
  3
dos932
  9
$INSBASE
 10
0.0
 20
0.0
 30
0.0
  9
$EXTMIN
 10
-36.83666
 20
104.559809
 30
0.0
  9
$EXTMAX
 10
529.163344
 20
586.005251
 30
0.0
  9
$LIMMIN
 10
-36.83666
 20
104.559809
  9
$LIMMAX
 10
529.163344
 20
586.005251
  9
$ORTHOMODE
 70
     0
  9
$REGENMODE
 70
     1
  9
$FILLMODE
 70
     1
  9
$QTEXTMODE
 70
     0
  9
$MIRRTEXT
 70
     1
  9
$DRAGMODE
 70
     2
  9
$LTSCALE
 40
1.0
  9
$OSMODE
 70
     0
  9
$ATTMODE
 70
     1
  9
$TEXTSIZE
 40
4.1656
  9
$TRACEWID
 40
0.05
  9
$TEXTSTYLE
  7
MX_NOTE_STANDARD
  9
$CLAYER
  8
LY_1
  9
$CELTYPE
  6
CONTINUOUS
  9
$CECOLOR
 62
   256
  9
$DIMSCALE
 40
1.0
  9
$DIMASZ
 40
2.5
  9
$DIMEXO
 40
0.5
  9
$DIMDLI
 40
3.75
  9
$DIMRND
 40
0.0
  9
$DIMDLE
 40
0.0
  9
$DIMEXE
 40
1.0
  9
$DIMTP
 40
0.0
  9
$DIMTM
 40
0.0
  9
$DIMTXT
 40
2.5
  9
$DIMCEN
 40
2.5
  9
$DIMTSZ
 40
0.0
  9
$DIMTOL
 70
     0
  9
$DIMLIM
 70
     0
  9
$DIMTIH
 70
     0
  9
$DIMTOH
 70
     0
  9
$DIMSE1
 70
     0
  9
$DIMSE2
 70
     0
  9
$DIMTAD
 70
     1
  9
$DIMZIN
 70
     8
  9
$DIMBLK
  1

  9
$DIMASO
 70
     1
  9
$DIMSHO
 70
     1
  9
$DIMPOST
  1

  9
$DIMAPOST
  1

  9
$DIMALT
 70
     0
  9
$DIMALTD
 70
     4
  9
$DIMALTF
 40
0.03937
  9
$DIMLFAC
 40
1.0
  9
$DIMTOFL
 70
     1
  9
$DIMTVP
 40
0.0
  9
$DIMTIX
 70
     0
  9
$DIMSOXD
 70
     0
  9
$DIMSAH
 70
     0
  9
$DIMBLK1
  1

  9
$DIMBLK2
  1

  9
$DIMSTYLE
  2
MXDIMSTYLE
  9
$DIMCLRD
 70
     0
  9
$DIMCLRE
 70
     0
  9
$DIMCLRT
 70
     0
  9
$DIMTFAC
 40
1.0
  9
$DIMGAP
 40
1.0
  9
$LUNITS
 70
     2
  9
$LUPREC
 70
     4
  9
$AXISMODE
 70
     0
  9
$AXISUNIT
 10
0.0
 20
0.0
  9
$SKETCHINC
 40
0.1
  9
$FILLETRAD
 40
0.0
  9
$AUNITS
 70
     0
  9
$AUPREC
 70
     0
  9
$MENU
  1
acad
  9
$ELEVATION
 40
0.0
  9
$PELEVATION
 40
0.0
  9
$THICKNESS
 40
0.0
  9
$LIMCHECK
 70
     0
  9
$BLIPMODE
 70
     1
  9
$CHAMFERA
 40
0.0
  9
$CHAMFERB
 40
0.0
  9
$SKPOLY
 70
     0
  9
$TDCREATE
 40
2453781.727847222
  9
$TDUPDATE
 40
2453781.727847222
  9
$TDINDWG
 40
0.0000000000
  9
$TDUSRTIMER
 40
0.0000000000
  9
$USRTIMER
 70
     1
  9
$ANGBASE
 50
0.0
  9
$ANGDIR
 70
     0
  9
$PDMODE
 70
     0
  9
$PDSIZE
 40
0.0
  9
$PLINEWID
 40
0.0
  9
$COORDS
 70
     1
  9
$SPLFRAME
 70
     0
  9
$SPLINETYPE
 70
     6
  9
$SPLINESEGS
 70
     8
  9
$ATTDIA
 70
     0
  9
$ATTREQ
 70
     1
  9
$HANDLING
 70
     1
  9
$HANDSEED
  5
870
  9
$SURFTAB1
 70
     6
  9
$SURFTAB2
 70
     6
  9
$SURFTYPE
 70
     6
  9
$SURFU
 70
     6
  9
$SURFV
 70
     6
  9
$UCSNAME
  2

  9
$UCSORG
 10
0.0
 20
0.0
 30
0.0
  9
$UCSXDIR
 10
1.0
 20
0.0
 30
0.0
  9
$UCSYDIR
 10
0.0
 20
1.0
 30
0.0
  9
$PUCSNAME
  2

  9
$PUCSORG
 10
0.0
 20
0.0
 30
0.0
  9
$PUCSXDIR
 10
1.0
 20
0.0
 30
0.0
  9
$PUCSYDIR
 10
0.0
 20
1.0
 30
0.0
  9
$USERI1
 70
     0
  9
$USERI2
 70
     0
  9
$USERI3
 70
     0
  9
$USERI4
 70
     0
  9
$USERI5
 70
     0
  9
$USERR1
 40
0.0
  9
$USERR2
 40
0.0
  9
$USERR3
 40
0.0
  9
$USERR4
 40
0.0
  9
$USERR5
 40
0.0
  9
$WORLDVIEW
 70
     1
  9
$SHADEDGE
 70
     3
  9
$SHADEDIF
 70
    70
  9
$TILEMODE
 70
     1
  9
$MAXACTVP
 70
    16
  9
$PINSBASE
 10
0.0
 20
0.0
 30
0.0
  9
$PLIMCHECK
 70
     0
  9
$PEXTMIN
 10
1.000000E+20
 20
1.000000E+20
 30
1.000000E+20
  9
$PEXTMAX
 10
-1.000000E+20
 20
-1.000000E+20
 30
-1.000000E+20
  9
$PLIMMIN
 10
0.0
 20
0.0
  9
$PLIMMAX
 10
12.0
 20
9.0
  9
$UNITMODE
 70
     0
  9
$VISRETAIN
 70
     0
  9
$PLINEGEN
 70
     1
  9
$PSLTSCALE
 70
     0
  9
$TREEDEPTH
 70
  3020
  9
$DWGCODEPAGE
  3
dos932
  0
ENDSEC
  0
SECTION
  2
TABLES
  0
TABLE
  2
VPORT
 70
     1
  0
VPORT
  2
*ACTIVE
 70
     0
 10
0.0
 20
0.0
 11
1.0
 21
1.0
 12
246.163342
 22
345.28253
 13
0.0
 23
0.0
 14
1.0
 24
1.0
 15
0.0
 25
0.0
 16
0.0
 26
0.0
 36
1.0
 17
0.0
 27
0.0
 37
0.0
 40
486.259897
 41
1.732051
 42
50.0
 43
0.0
 44
0.0
 50
0.0
 51
0.0
 71
     0
 72
   100
 73
     1
 74
     1
 75
     0
 76
     0
 77
     0
 78
     0
  0
ENDTAB
  0
TABLE
  2
LTYPE
 70
     4
  0
LTYPE
  2
CONTINUOUS
 70
    64
  3
Solid line
 72
    65
 73
     0
 40
0.0
  0
LTYPE
  2
CENTER
 70
    64
  3
Center ____ _ ____ _ ____ _ ____ _ ____ _ ____
 72
    65
 73
     4
 40
50.8
 49
31.75
 49
-6.35
 49
6.35
 49
-6.35
  0
LTYPE
  2
DASHED
 70
    64
  3
Dashed __ __ __ __ __ __ __ __ __ __ __ __ __ _
 72
    65
 73
     2
 40
19.05
 49
12.7
 49
-6.35
  0
LTYPE
  2
PHANTOM
 70
    64
  3
Phantom ______  __  __  ______  __  __  ______
 72
    65
 73
     6
 40
63.5
 49
31.75
 49
-6.35
 49
6.35
 49
-6.35
 49
6.35
 49
-6.35
  0
ENDTAB
  0
TABLE
  2
LAYER
 70
     3
  0
LAYER
  2
0
 70
     0
 62
     7
  6
CONTINUOUS
  0
LAYER
  2
LY_1
 70
     0
 62
     7
  6
CONTINUOUS
  0
LAYER
  2
DEFPOINTS
 70
     0
 62
     7
  6
CONTINUOUS
  0
ENDTAB
  0
TABLE
  2
STYLE
 70
     1
  0
STYLE
  2
MX_NOTE_STANDARD
 70
     0
 40
0.0
 41
1.0
 50
0.0
 71
     0
 42
4.1656
  3
txt.shx
  4
extfont.shx
  0
ENDTAB
  0
TABLE
  2
VIEW
 70
     0
  0
ENDTAB
  0
TABLE
  2
UCS
 70
     0
  0
ENDTAB
  0
TABLE
  2
APPID
 70
     1
  0
APPID
  2
ACAD
 70
     0
  0
ENDTAB
  0
TABLE
  2
DIMSTYLE
 70
     1
  0
DIMSTYLE
  2
MXDIMSTYLE
 70
     0
  3

  4

  5

  6

  7

 40
1.0
 41
2.5
 42
0.5
 43
3.75
 44
1.0
 45
0.0
 46
0.0
 47
0.0
 48
0.0
 71
     0
 72
     0
 73
     0
 74
     0
 75
     0
 76
     0
 77
     1
 78
     8
140
2.5
141
2.5
142
0.0
143
0.03937
144
1.0
145
0.0
146
1.0
147
1.0
170
     0
171
     4
172
     1
173
     0
174
     0
175
     0
176
     0
177
     0
178
     0
  0
ENDTAB
  0
ENDSEC
  0
SECTION
  2
BLOCKS
  0
BLOCK
  8
0
  5
22
  2
MS_1
 70
     0
 10
0.0
 20
0.0
 30
0.0
  3
MS_1
  0
LINE
  8
0
  6
CENTER
 62
    80
  5
24
 10
0.0
 20
0.0
 30
0.0
 11
-120.5
 21
0.0
 31
0.0
  0
POLYLINE
  8
0
  6
CONTINUOUS
 62
   255
  5
25
 66
     1
 10
0.0
 20
0.0
 30
0.0
  0
VERTEX
  8
0
  6
CONTINUOUS
 62
   255
  5
257
 10
-47.274554
 20
-26.857992
 30
0.0
  0
VERTEX
  8
0
  6
CONTINUOUS
 62
   255
  5
258
 10
-47.273247
 20
-26.805405
 30
0.0
  0
VERTEX
  8
0
  6
CONTINUOUS
 62
   255
  5
259
 10
-47.227028
 20
-26.730641
 30
0.0
  0
VERTEX
  8
0
  6
CONTINUOUS
 62
   255
  5
25A
 10
-47.136798
 20
-26.63516
 30
0.0
  0
VERTEX
  8
0
  6
CONTINUOUS
 62
   255
  5
25B
 10
-47.004319
 20
-26.520827
 30
0.0
  0
VERTEX
  8
0
  6
CONTINUOUS
 62
   255
  5
25C
 10
-46.832178
 20
-26.389872
 30
0.0
  0
VERTEX
  8
0
  6
CONTINUOUS
 62
   255
  5
25D
 10
-46.623736
 20
-26.244853
 30
0.0
  0
VERTEX
  8
0
  6
CONTINUOUS
 62
   255
  5
25E
 10
-46.38306
 20
-26.0886
 30
0.0
  0
VERTEX
  8
0
  6
CONTINUOUS
 62
   255
  5
25F
 10
-46.11485
 20
-25.924165
 30
0.0
  0
VERTEX
  8
0
  6
CONTINUOUS
 62
   255
  5
260
 10
-45.824342
 20
-25.754757
 30
0.0
  0
VERTEX
  8
0
  6
CONTINUOUS
 62
   255
  5
261
 10
-45.517208
 20
-25.583683
 30
0.0
  0
VERTEX
  8
0
  6
CONTINUOUS
 62
   255
  5
262
 10
-45.199442
 20
-25.414284
 30
0.0
  0
VERTEX
  8
0
  6
CONTINUOUS
 62
   255
  5
263
 10
-44.87725
 20
-25.249866
 30
0.0
  0
VERTEX
  8
0
  6
CONTINUOUS
 62
   255
  5
264
 10
-44.55692
 20
-25.093639
 30
0.0
  0
VERTEX
  8
0
  6
CONTINUOUS
 62
   255
  5
265
 10
-44.244706
 20
-24.948653
 30
0.0
  0
VERTEX
  8
0
  6
CONTINUOUS
 62
   255
  5
266
 10
-43.946704
 20
-24.817739
 30
0.0
  0
VERTEX
  8
0
  6
CONTINUOUS
 62
   255
  5
267
 10
-43.668731
 20
-24.703451
 30
0.0
  0
VERTEX
  8
0
  6
CONTINUOUS
 62
   255
  5
268
 10
-43.416213
 20
-24.608022
 30
0.0
  0
VERTEX
  8
0
  6
CONTINUOUS
 62
   255
  5
269
 10
-43.194081
 20
-24.533315
 30
0.0
  0
VERTEX
  8
0
  6
CONTINUOUS
 62
   255
  5
26A
 10
-43.006671
 20
-24.480787
 30
0.0
  0
VERTEX
  8
0
  6
CONTINUOUS
 62
   255
  5
26B
 10
-42.857642
 20
-24.451464
 30
0.0
  0
VERTEX
  8
0
  6
CONTINUOUS
 62
   255
  5
26C
 10
-42.749902
 20
-24.44592
 30
0.0
  0
VERTEX
  8
0
  6
CONTINUOUS
 62
   255
  5
26D
 10
-42.685556
 20
-24.464261
 30
0.0
  0
VERTEX
  8
0
  6
CONTINUOUS
 62
   255
  5
26E
 10
-42.670773
 20
-24.480894
 30
0.0
  0
VERTEX
  8
0
  6
CONTINUOUS
 62
   255
  5
26F
 10
-42.665771
 20
-24.502579
 30
0.0
  0
SEQEND
  8
0
  6
CONTINUOUS
 62
   255
  5
270
  0
POLYLINE
  8
0
  6
CONTINUOUS
 62
   255
  5
26
 66
     1
 10
0.0
 20
0.0
 30
0.0
  0
VERTEX
  8
0
  6
CONTINUOUS
 62
   255
  5
271
 10
-42.665728
 20
-24.502905
 30
0.0
  0
VERTEX
  8
0
  6
CONTINUOUS
 62
   255
  5
272
 10
-42.576208
 20
-24.946306
 30
0.0
  0
VERTEX
  8
0
  6
CONTINUOUS
 62
   255
  5
273
 10
-42.534085
 20
-25.401975
 30
0.0
  0
VERTEX
  8
0
  6
CONTINUOUS
 62
   255
  5
274
 10
-42.540184
 20
-25.861002
 30
0.0
  0
VERTEX
  8
0
  6
CONTINUOUS
 62
   255
  5
275
 10
-42.594385
 20
-26.314408
 30
0.0
  0
VERTEX
  8
0
  6
CONTINUOUS
 62
   255
  5
276
 10
-42.695629
 20
-26.753329
 30
0.0
  0
VERTEX
  8
0
  6
CONTINUOUS
 62
   255
  5
277
 10
-42.841935
 20
-27.169181
 30
0.0
  0
VERTEX
  8
0
  6
CONTINUOUS
 62
   255
  5
278
 10
-43.030442
 20
-27.553832
 30
0.0
  0
VERTEX
  8
0
  6
CONTINUOUS
 62
   255
  5
279
 10
-43.257465
 20
-27.89976
 30
0.0
  0
VERTEX
  8
0
  6
CONTINUOUS
 62
   255
  5
27A
 10
-43.518563
 20
-28.2002
 30
0.0
  0
VERTEX
  8
0
  6
CONTINUOUS
 62
   255
  5
27B
 10
-43.808631
 20
-28.449278
 30
0.0
  0
VERTEX
  8
0
  6
CONTINUOUS
 62
   255
  5
27C
 10
-44.121996
 20
-28.642121
 30
0.0
  0
VERTEX
  8
0
  6
CONTINUOUS
 62
   255
  5
27D
 10
-44.452531
 20
-28.77496
 30
0.0
  0
VERTEX
  8
0
  6
CONTINUOUS
 62
   255
  5
27E
 10
-44.793772
 20
-28.845197
 30
0.0
  0
VERTEX
  8
0
  6
CONTINUOUS
 62
   255
  5
27F
 10
-45.139046
 20
-28.851457
 30
0.0
  0
VERTEX
  8
0
  6
CONTINUOUS
 62
   255
  5
280
 10
-45.481601
 20
-28.79362
 30
0.0
  0
VERTEX
  8
0
  6
CONTINUOUS
 62
   255
  5
281
 10
-45.814737
 20
-28.672815
 30
0.0
  0
VERTEX
  8
0
  6
CONTINUOUS
 62
   255
  5
282
 10
-46.131942
 20
-28.491405
 30
0.0
  0
VERTEX
  8
0
  6
CONTINUOUS
 62
   255
  5
283
 10
-46.427011
 20
-28.252937
 30
0.0
  0
VERTEX
  8
0
  6
CONTINUOUS
 62
   255
  5
284
 10
-46.694175
 20
-27.962076
 30
0.0
  0
VERTEX
  8
0
  6
CONTINUOUS
 62
   255
  5
285
 10
-46.928208
 20
-27.624508
 30
0.0
  0
VERTEX
  8
0
  6
CONTINUOUS
 62
   255
  5
286
 10
-47.124535
 20
-27.246835
 30
0.0
  0
VERTEX
  8
0
  6
CONTINUOUS
 62
   255
  5
287
 10
-47.279317
 20
-26.836442
 30
0.0
  0
VERTEX
  8
0
  6
CONTINUOUS
 62
   255
  5
288
 10
-47.279317
 20
-26.836442
 30
0.0
  0
SEQEND
  8
0
  6
CONTINUOUS
 62
   255
  5
289
  0
POLYLINE
  8
0
  6
CONTINUOUS
 62
   255
  5
27
 66
     1
 10
0.0
 20
0.0
 30
0.0
  0
VERTEX
  8
0
  6
CONTINUOUS
 62
   255
  5
28A
 10
-114.827718
 20
-27.354871
 30
0.0
  0
VERTEX
  8
0
  6
CONTINUOUS
 62
   255
  5
28B
 10
-114.761231
 20
-27.265832
 30
0.0
  0
VERTEX
  8
0
  6
CONTINUOUS
 62
   255
  5
28C
 10
-114.654848
 20
-27.191134
 30
0.0
  0
VERTEX
  8
0
  6
CONTINUOUS
 62
   255
  5
28D
 10
-114.510434
 20
-27.132087
 30
0.0
  0
VERTEX
  8
0
  6
CONTINUOUS
 62
   255
  5
28E
 10
-114.330522
 20
-27.089727
 30
0.0
  0
VERTEX
  8
0
  6
CONTINUOUS
 62
   255
  5
28F
 10
-114.118267
 20
-27.064797
 30
0.0
  0
VERTEX
  8
0
  6
CONTINUOUS
 62
   255
  5
290
 10
-113.877391
 20
-27.057734
 30
0.0
  0
VERTEX
  8
0
  6
CONTINUOUS
 62
   255
  5
291
 10
-113.612119
 20
-27.068661
 30
0.0
  0
VERTEX
  8
0
  6
CONTINUOUS
 62
   255
  5
292
 10
-113.327101
 20
-27.097388
 30
0.0
  0
VERTEX
  8
0
  6
CONTINUOUS
 62
   255
  5
293
 10
-113.027337
 20
-27.14341
 30
0.0
  0
VERTEX
  8
0
  6
CONTINUOUS
 62
   255
  5
294
 10
-112.718082
 20
-27.20592
 30
0.0
  0
VERTEX
  8
0
  6
CONTINUOUS
 62
   255
  5
295
 10
-112.404761
 20
-27.283822
 30
0.0
  0
VERTEX
  8
0
  6
CONTINUOUS
 62
   255
  5
296
 10
-112.092868
 20
-27.37575
 30
0.0
  0
VERTEX
  8
0
  6
CONTINUOUS
 62
   255
  5
297
 10
-111.787872
 20
-27.480092
 30
0.0
  0
VERTEX
  8
0
  6
CONTINUOUS
 62
   255
  5
298
 10
-111.495121
 20
-27.595019
 30
0.0
  0
VERTEX
  8
0
  6
CONTINUOUS
 62
   255
  5
299
 10
-111.21975
 20
-27.718513
 30
0.0
  0
VERTEX
  8
0
  6
CONTINUOUS
 62
   255
  5
29A
 10
-110.966588
 20
-27.848411
 30
0.0
  0
VERTEX
  8
0
  6
CONTINUOUS
 62
   255
  5
29B
 10
-110.740073
 20
-27.982434
 30
0.0
  0
VERTEX
  8
0
  6
CONTINUOUS
 62
   255
  5
29C
 10
-110.544179
 20
-28.118232
 30
0.0
  0
VERTEX
  8
0
  6
CONTINUOUS
 62
   255
  5
29D
 10
-110.382341
 20
-28.253424
 30
0.0
  0
VERTEX
  8
0
  6
CONTINUOUS
 62
   255
  5
29E
 10
-110.257395
 20
-28.385638
 30
0.0
  0
VERTEX
  8
0
  6
CONTINUOUS
 62
   255
  5
29F
 10
-110.171535
 20
-28.512556
 30
0.0
  0
VERTEX
  8
0
  6
CONTINUOUS
 62
   255
  5
2A0
 10
-110.126265
 20
-28.631953
 30
0.0
  0
VERTEX
  8
0
  6
CONTINUOUS
 62
   255
  5
2A1
 10
-110.122379
 20
-28.741734
 30
0.0
  0
VERTEX
  8
0
  6
CONTINUOUS
 62
   255
  5
2A2
 10
-110.159946
 20
-28.839975
 30
0.0
  0
VERTEX
  8
0
  6
CONTINUOUS
 62
   255
  5
2A3
 10
-110.159946
 20
-28.839975
 30
0.0
  0
SEQEND
  8
0
  6
CONTINUOUS
 62
   255
  5
2A4
  0
POLYLINE
  8
0
  6
CONTINUOUS
 62
   255
  5
28
 66
     1
 10
0.0
 20
0.0
 30
0.0
  0
VERTEX
  8
0
  6
CONTINUOUS
 62
   255
  5
2A5
 10
-36.712507
 20
22.626531
 30
0.0
  0
VERTEX
  8
0
  6
CONTINUOUS
 62
   255
  5
2A6
 10
-36.544677
 20
23.536465
 30
0.0
  0
VERTEX
  8
0
  6
CONTINUOUS
 62
   255
  5
2A7
 10
-36.043514
 20
24.433785
 30
0.0
  0
VERTEX
  8
0
  6
CONTINUOUS
 62
   255
  5
2A8
 10
-35.215964
 20
25.306051
 30
0.0
  0
VERTEX
  8
0
  6
CONTINUOUS
 62
   255
  5
2A9
 10
-34.073502
 20
26.14117
 30
0.0
  0
VERTEX
  8
0
  6
CONTINUOUS
 62
   255
  5
2AA
 10
-32.631964
 20
26.927565
 30
0.0
  0
VERTEX
  8
0
  6
CONTINUOUS
 62
   255
  5
2AB
 10
-30.911335
 20
27.654335
 30
0.0
  0
VERTEX
  8
0
  6
CONTINUOUS
 62
   255
  5
2AC
 10
-28.935468
 20
28.311404
 30
0.0
  0
VERTEX
  8
0
  6
CONTINUOUS
 62
   255
  5
2AD
 10
-26.731755
 20
28.889663
 30
0.0
  0
VERTEX
  8
0
  6
CONTINUOUS
 62
   255
  5
2AE
 10
-24.330745
 20
29.381096
 30
0.0
  0
VERTEX
  8
0
  6
CONTINUOUS
 62
   255
  5
2AF
 10
-21.765725
 20
29.77889
 30
0.0
  0
VERTEX
  8
0
  6
CONTINUOUS
 62
   255
  5
2B0
 10
-19.072254
 20
30.07753
 30
0.0
  0
VERTEX
  8
0
  6
CONTINUOUS
 62
   255
  5
2B1
 10
-16.287671
 20
30.272876
 30
0.0
  0
VERTEX
  8
0
  6
CONTINUOUS
 62
   255
  5
2B2
 10
-14.399691
 20
30.344323
 30
0.0
  0
VERTEX
  8
0
  6
CONTINUOUS
 62
   255
  5
2B3
 10
-12.5
 20
30.368188
 30
0.0
  0
SEQEND
  8
0
  6
CONTINUOUS
 62
   255
  5
2B4
  0
ARC
  8
0
  6
CONTINUOUS
 62
   255
  5
29
 10
-15.6
 20
41.468188
 30
0.0
 40
0.5
 50
360.0
 51
90.0
  0
ARC
  8
0
  6
CONTINUOUS
 62
   255
  5
2A
 10
-119.4
 20
41.468188
 30
0.0
 40
0.5
 50
90.0
 51
180.0
  0
ARC
  8
0
  6
CONTINUOUS
 62
   255
  5
2B
 10
-47.383367
 20
-20.795497
 30
0.0
 40
6.0
 50
321.837927
 51
0.0
  0
ARC
  8
0
  6
CONTINUOUS
 62
   255
  5
2C
 10
-67.5
 20
125.368188
 30
0.0
 40
153.541525
 50
270.0
 51
277.567473
  0
ARC
  8
0
  6
CONTINUOUS
 62
   255
  5
2D
 10
-125.0
 20
22.626531
 30
0.0
 40
4.5
 50
360.0
 51
56.251011
  0
ARC
  8
0
  6
CONTINUOUS
 62
   255
  5
2E
 10
-68.294917
 20
335.367334
 30
0.0
 40
370.0
 50
270.31067
 51
277.70313
  0
ARC
  8
0
  6
CONTINUOUS
 62
   255
  5
2F
 10
-112.0
 20
-22.062304
 30
0.0
 40
6.0
 50
180.0
 51
253.204235
  0
ARC
  8
0
  6
CONTINUOUS
 62
   255
  5
30
 10
-67.5
 20
125.368188
 30
0.0
 40
160.0
 50
253.204235
 51
270.0
  0
LINE
  8
0
  6
CONTINUOUS
 62
   255
  5
31
 10
-14.0
 20
41.468188
 30
0.0
 11
-62.5
 21
41.468188
 31
0.0
  0
LINE
  8
0
  6
CONTINUOUS
 62
   255
  5
32
 10
-122.5
 20
30.368188
 30
0.0
 11
-122.5
 21
26.368188
 31
0.0
  0
LINE
  8
0
  6
CONTINUOUS
 62
   255
  5
33
 10
-12.5
 20
30.368188
 30
0.0
 11
-122.5
 21
30.368188
 31
0.0
  0
LINE
  8
0
  6
CONTINUOUS
 62
   255
  5
34
 10
-119.9
 20
34.004597
 30
0.0
 11
-121.0
 21
34.159192
 31
0.0
  0
LINE
  8
0
  6
CONTINUOUS
 62
   255
  5
35
 10
-121.0
 20
35.650002
 30
0.0
 11
-121.0
 21
34.159192
 31
0.0
  0
LINE
  8
0
  6
CONTINUOUS
 62
   255
  5
36
 10
-119.9
 20
35.804597
 30
0.0
 11
-121.0
 21
35.650002
 31
0.0
  0
LINE
  8
0
  6
CONTINUOUS
 62
   255
  5
37
 10
-119.9
 20
38.004597
 30
0.0
 11
-121.0
 21
38.159192
 31
0.0
  0
LINE
  8
0
  6
CONTINUOUS
 62
   255
  5
38
 10
-121.0
 20
39.650002
 30
0.0
 11
-121.0
 21
38.159192
 31
0.0
  0
LINE
  8
0
  6
CONTINUOUS
 62
   255
  5
39
 10
-119.9
 20
39.804597
 30
0.0
 11
-121.0
 21
39.650002
 31
0.0
  0
LINE
  8
0
  6
CONTINUOUS
 62
   255
  5
3A
 10
-79.394957
 20
33.381527
 30
0.0
 11
-121.0
 21
34.159192
 31
0.0
  0
LINE
  8
0
  6
CONTINUOUS
 62
   255
  5
3B
 10
-79.394957
 20
37.381527
 30
0.0
 11
-121.0
 21
38.159192
 31
0.0
  0
LINE
  8
0
  6
CONTINUOUS
 62
   255
  5
3C
 10
-121.0
 20
39.650002
 30
0.0
 11
-79.394957
 21
38.872337
 31
0.0
  0
LINE
  8
0
  6
CONTINUOUS
 62
   255
  5
3D
 10
-121.0
 20
35.650002
 30
0.0
 11
-79.394957
 21
34.872337
 31
0.0
  0
LINE
  8
0
  6
CONTINUOUS
 62
   255
  5
3E
 10
-119.9
 20
38.004597
 30
0.0
 11
-119.9
 21
35.804597
 31
0.0
  0
LINE
  8
0
  6
CONTINUOUS
 62
   255
  5
3F
 10
-119.9
 20
34.004597
 30
0.0
 11
-119.9
 21
30.368188
 31
0.0
  0
LINE
  8
0
  6
CONTINUOUS
 62
   255
  5
40
 10
-119.9
 20
39.804597
 30
0.0
 11
-72.5
 21
38.900016
 31
0.0
  0
LINE
  8
0
  6
CONTINUOUS
 62
   255
  5
41
 10
-119.9
 20
38.004597
 30
0.0
 11
-72.5
 21
37.100016
 31
0.0
  0
LINE
  8
0
  6
CONTINUOUS
 62
   255
  5
42
 10
-119.9
 20
35.804597
 30
0.0
 11
-72.5
 21
34.900016
 31
0.0
  0
LINE
  8
0
  6
CONTINUOUS
 62
   255
  5
43
 10
-119.9
 20
34.004597
 30
0.0
 11
-72.5
 21
33.100016
 31
0.0
  0
LINE
  8
0
  6
CONTINUOUS
 62
   255
  5
44
 10
-119.9
 20
41.468188
 30
0.0
 11
-119.9
 21
39.804597
 31
0.0
  0
LINE
  8
0
  6
CONTINUOUS
 62
   255
  5
45
 10
-15.6
 20
41.968188
 30
0.0
 11
-119.4
 21
41.968188
 31
0.0
  0
LINE
  8
0
  6
CONTINUOUS
 62
   255
  5
46
 10
-14.0
 20
36.159192
 30
0.0
 11
-15.1
 21
36.004597
 31
0.0
  0
LINE
  8
0
  6
CONTINUOUS
 62
   255
  5
47
 10
-14.0
 20
37.650002
 30
0.0
 11
-14.0
 21
36.159192
 31
0.0
  0
LINE
  8
0
  6
CONTINUOUS
 62
   255
  5
48
 10
-14.0
 20
37.650002
 30
0.0
 11
-15.1
 21
37.804597
 31
0.0
  0
LINE
  8
0
  6
CONTINUOUS
 62
   255
  5
49
 10
-14.0
 20
40.159192
 30
0.0
 11
-15.1
 21
40.004597
 31
0.0
  0
LINE
  8
0
  6
CONTINUOUS
 62
   255
  5
4A
 10
-14.0
 20
41.468188
 30
0.0
 11
-14.0
 21
40.159192
 31
0.0
  0
LINE
  8
0
  6
CONTINUOUS
 62
   255
  5
4B
 10
-39.027675
 20
32.626999
 30
0.0
 11
-34.152204
 21
32.368188
 31
0.0
  0
LINE
  8
0
  6
CONTINUOUS
 62
   255
  5
4C
 10
-34.152204
 20
34.168188
 30
0.0
 11
-39.027675
 21
34.117809
 31
0.0
  0
LINE
  8
0
  6
CONTINUOUS
 62
   255
  5
4D
 10
-34.152204
 20
34.168188
 30
0.0
 11
-34.152204
 21
32.368188
 31
0.0
  0
LINE
  8
0
  6
CONTINUOUS
 62
   255
  5
4E
 10
-39.027675
 20
34.117809
 30
0.0
 11
-39.027675
 21
32.626999
 31
0.0
  0
LINE
  8
0
  6
CONTINUOUS
 62
   255
  5
4F
 10
-72.5
 20
33.100016
 30
0.0
 11
-79.394957
 21
33.381527
 31
0.0
  0
LINE
  8
0
  6
CONTINUOUS
 62
   255
  5
50
 10
-79.394957
 20
34.872337
 30
0.0
 11
-72.5
 21
34.900016
 31
0.0
  0
LINE
  8
0
  6
CONTINUOUS
 62
   255
  5
51
 10
-72.5
 20
37.100016
 30
0.0
 11
-79.394957
 21
37.381527
 31
0.0
  0
LINE
  8
0
  6
CONTINUOUS
 62
   255
  5
52
 10
-79.394957
 20
38.872337
 30
0.0
 11
-72.5
 21
38.900016
 31
0.0
  0
LINE
  8
0
  6
CONTINUOUS
 62
   255
  5
53
 10
-62.5
 20
36.909177
 30
0.0
 11
-55.605043
 21
36.936856
 31
0.0
  0
LINE
  8
0
  6
CONTINUOUS
 62
   255
  5
54
 10
-55.605043
 20
38.427666
 30
0.0
 11
-62.5
 21
38.709177
 31
0.0
  0
LINE
  8
0
  6
CONTINUOUS
 62
   255
  5
55
 10
-62.5
 20
32.909177
 30
0.0
 11
-55.605043
 21
32.936856
 31
0.0
  0
LINE
  8
0
  6
CONTINUOUS
 62
   255
  5
56
 10
-55.605043
 20
34.427666
 30
0.0
 11
-62.5
 21
34.709177
 31
0.0
  0
LINE
  8
0
  6
CONTINUOUS
 62
   255
  5
57
 10
-55.605043
 20
34.427666
 30
0.0
 11
-39.027675
 21
34.117809
 31
0.0
  0
LINE
  8
0
  6
CONTINUOUS
 62
   255
  5
58
 10
-55.605043
 20
38.427666
 30
0.0
 11
-14.0
 21
37.650002
 31
0.0
  0
LINE
  8
0
  6
CONTINUOUS
 62
   255
  5
59
 10
-62.5
 20
40.909177
 30
0.0
 11
-55.605043
 21
40.936856
 31
0.0
  0
LINE
  8
0
  6
CONTINUOUS
 62
   255
  5
5A
 10
-14.0
 20
36.159192
 30
0.0
 11
-55.605043
 21
36.936856
 31
0.0
  0
LINE
  8
0
  6
CONTINUOUS
 62
   255
  5
5B
 10
-39.027675
 20
32.626999
 30
0.0
 11
-55.605043
 21
32.936856
 31
0.0
  0
LINE
  8
0
  6
CONTINUOUS
 62
   255
  5
5C
 10
-14.0
 20
40.159192
 30
0.0
 11
-55.605043
 21
40.936856
 31
0.0
  0
LINE
  8
0
  6
CONTINUOUS
 62
   255
  5
5D
 10
-55.605043
 20
38.427666
 30
0.0
 11
-55.605043
 21
36.936856
 31
0.0
  0
LINE
  8
0
  6
CONTINUOUS
 62
   255
  5
5E
 10
-55.605043
 20
34.427666
 30
0.0
 11
-55.605043
 21
32.936856
 31
0.0
  0
LINE
  8
0
  6
CONTINUOUS
 62
   255
  5
5F
 10
-55.605043
 20
41.468188
 30
0.0
 11
-55.605043
 21
40.936856
 31
0.0
  0
LINE
  8
0
  6
CONTINUOUS
 62
   255
  5
60
 10
-62.5
 20
41.468188
 30
0.0
 11
-62.5
 21
40.909177
 31
0.0
  0
LINE
  8
0
  6
CONTINUOUS
 62
   255
  5
61
 10
-79.394957
 20
34.872337
 30
0.0
 11
-79.394957
 21
33.381527
 31
0.0
  0
LINE
  8
0
  6
CONTINUOUS
 62
   255
  5
62
 10
-79.394957
 20
38.872337
 30
0.0
 11
-79.394957
 21
37.381527
 31
0.0
  0
LINE
  8
0
  6
CONTINUOUS
 62
   255
  5
63
 10
-72.5
 20
34.900016
 30
0.0
 11
-72.5
 21
33.100016
 31
0.0
  0
LINE
  8
0
  6
CONTINUOUS
 62
   255
  5
64
 10
-62.5
 20
34.709177
 30
0.0
 11
-62.5
 21
32.909177
 31
0.0
  0
LINE
  8
0
  6
CONTINUOUS
 62
   255
  5
65
 10
-62.5
 20
38.709177
 30
0.0
 11
-15.1
 21
37.804597
 31
0.0
  0
LINE
  8
0
  6
CONTINUOUS
 62
   255
  5
66
 10
-62.5
 20
36.909177
 30
0.0
 11
-15.1
 21
36.004597
 31
0.0
  0
LINE
  8
0
  6
CONTINUOUS
 62
   255
  5
67
 10
-62.5
 20
34.709177
 30
0.0
 11
-34.152204
 21
34.168188
 31
0.0
  0
LINE
  8
0
  6
CONTINUOUS
 62
   255
  5
68
 10
-62.5
 20
32.909177
 30
0.0
 11
-34.152204
 21
32.368188
 31
0.0
  0
LINE
  8
0
  6
CONTINUOUS
 62
   255
  5
69
 10
-15.1
 20
40.004597
 30
0.0
 11
-15.1
 21
37.804597
 31
0.0
  0
LINE
  8
0
  6
CONTINUOUS
 62
   255
  5
6A
 10
-62.5
 20
40.909177
 30
0.0
 11
-15.1
 21
40.004597
 31
0.0
  0
LINE
  8
0
  6
CONTINUOUS
 62
   255
  5
6B
 10
-72.5
 20
38.900016
 30
0.0
 11
-72.5
 21
37.100016
 31
0.0
  0
LINE
  8
0
  6
CONTINUOUS
 62
   255
  5
6C
 10
-62.5
 20
38.709177
 30
0.0
 11
-62.5
 21
36.909177
 31
0.0
  0
LINE
  8
0
  6
CONTINUOUS
 62
   255
  5
6D
 10
-41.383367
 20
-15.631812
 30
0.0
 11
-41.383367
 21
-20.795497
 31
0.0
  0
LINE
  8
0
  6
CONTINUOUS
 62
   255
  5
6E
 10
-39.446481
 20
-15.131812
 30
0.0
 11
-36.712507
 21
-13.631812
 31
0.0
  0
LINE
  8
0
  6
CONTINUOUS
 62
   255
  5
6F
 10
-41.383367
 20
-15.631812
 30
0.0
 11
-39.446481
 21
-15.131812
 31
0.0
  0
LINE
  8
0
  6
CONTINUOUS
 62
   255
  5
70
 10
-36.712507
 20
22.626531
 30
0.0
 11
-36.712507
 21
-13.631812
 31
0.0
  0
LINE
  8
0
  6
CONTINUOUS
 62
   255
  5
71
 10
0.0
 20
-30.15
 30
0.0
 11
-18.7
 21
-31.293741
 31
0.0
  0
LINE
  8
0
  6
CONTINUOUS
 62
   255
  5
72
 10
0.0
 20
30.15
 30
0.0
 11
-12.5
 21
30.368188
 31
0.0
  0
LINE
  8
0
  6
CONTINUOUS
 62
   255
  5
73
 10
0.0
 20
30.15
 30
0.0
 11
0.0
 21
-30.15
 31
0.0
  0
LINE
  8
0
  6
CONTINUOUS
 62
   255
  5
74
 10
-39.446481
 20
-15.131812
 30
0.0
 11
-119.0
 21
-15.131812
 31
0.0
  0
LINE
  8
0
  6
CONTINUOUS
 62
   255
  5
75
 10
-119.0
 20
-15.131812
 30
0.0
 11
-118.0
 21
-15.631812
 31
0.0
  0
LINE
  8
0
  6
CONTINUOUS
 62
   255
  5
76
 10
-118.0
 20
-15.631812
 30
0.0
 11
-118.0
 21
-22.062304
 31
0.0
  0
LINE
  8
0
  6
CONTINUOUS
 62
   255
  5
77
 10
-41.383367
 20
-15.631812
 30
0.0
 11
-118.0
 21
-15.631812
 31
0.0
  0
LINE
  8
0
  6
CONTINUOUS
 62
   255
  5
78
 10
-120.5
 20
-13.631812
 30
0.0
 11
-119.0
 21
-15.131812
 31
0.0
  0
LINE
  8
0
  6
CONTINUOUS
 62
   255
  5
79
 10
-36.712507
 20
-13.631812
 30
0.0
 11
-120.5
 21
-13.631812
 31
0.0
  0
LINE
  8
0
  6
CONTINUOUS
 62
   255
  5
7A
 10
-120.5
 20
22.626531
 30
0.0
 11
-120.5
 21
-13.631812
 31
0.0
  0
LINE
  8
0
  6
CONTINUOUS
 62
   255
  5
7B
 10
-33.696689
 20
26.368188
 30
0.0
 11
-122.5
 21
26.368188
 31
0.0
  0
LINE
  8
0
  6
CONTINUOUS
 62
   255
  5
7C
 10
-15.1
 20
36.004597
 30
0.0
 11
-15.1
 21
30.368188
 31
0.0
  0
ENDBLK
  8
0
  5
7D
  0
BLOCK
  8
0
  5
7E
  2
MS_2
 70
     0
 10
0.0
 20
0.0
 30
0.0
  3
MS_2
  0
POINT
  8
0
  6
CONTINUOUS
 62
    80
  5
7F
 10
0.0
 20
0.0
 30
0.0
  0
ARC
  8
0
  6
CONTINUOUS
 62
   255
  5
80
 10
51.9
 20
41.468188
 30
0.0
 40
0.5
 50
0.0
 51
90.0
  0
ARC
  8
0
  6
CONTINUOUS
 62
   255
  5
81
 10
-51.9
 20
41.468188
 30
0.0
 40
0.5
 50
90.0
 51
180.0
  0
CIRCLE
  8
0
  6
CONTINUOUS
 62
   255
  5
82
 10
-27.5
 20
0.0
 30
0.0
 40
1.75
  0
ARC
  8
0
  6
CONTINUOUS
 62
   255
  5
83
 10
-27.5
 20
0.0
 30
0.0
 40
4.0
 50
190.806923
 51
169.193077
  0
CIRCLE
  8
0
  6
CONTINUOUS
 62
   255
  5
84
 10
27.5
 20
0.0
 30
0.0
 40
1.75
  0
ARC
  8
0
  6
CONTINUOUS
 62
   255
  5
85
 10
27.5
 20
0.0
 30
0.0
 40
4.0
 50
10.806923
 51
349.193077
  0
ARC
  8
0
  6
CONTINUOUS
 62
   255
  5
86
 10
12.0
 20
-9.0
 30
0.0
 40
2.0
 50
270.0
 51
0.0
  0
ARC
  8
0
  6
CONTINUOUS
 62
   255
  5
87
 10
-12.0
 20
-9.0
 30
0.0
 40
2.0
 50
180.0
 51
270.0
  0
ARC
  8
0
  6
CONTINUOUS
 62
   255
  5
88
 10
-12.0
 20
9.0
 30
0.0
 40
2.0
 50
90.0
 51
180.0
  0
ARC
  8
0
  6
CONTINUOUS
 62
   255
  5
89
 10
12.0
 20
9.0
 30
0.0
 40
2.0
 50
0.0
 51
90.0
  0
ARC
  8
0
  6
CONTINUOUS
 62
   255
  5
8A
 10
57.5
 20
22.626531
 30
0.0
 40
4.5
 50
123.748989
 51
180.0
  0
ARC
  8
0
  6
CONTINUOUS
 62
   255
  5
8B
 10
-57.5
 20
22.626531
 30
0.0
 40
4.5
 50
0.0
 51
56.251011
  0
ARC
  8
0
  6
CONTINUOUS
 62
   255
  5
8C
 10
29.5
 20
-17.15
 30
0.0
 40
10.0
 50
270.0
 51
0.0
  0
ARC
  8
0
  6
CONTINUOUS
 62
   255
  5
8D
 10
-29.5
 20
-17.15
 30
0.0
 40
10.0
 50
180.0
 51
270.0
  0
ARC
  8
0
  6
CONTINUOUS
 62
   255
  5
8E
 10
-29.5
 20
-17.15
 30
0.0
 40
13.0
 50
180.0
 51
270.0
  0
ARC
  8
0
  6
CONTINUOUS
 62
   255
  5
8F
 10
29.5
 20
-17.15
 30
0.0
 40
13.0
 50
270.0
 51
0.0
  0
ARC
  8
0
  6
CONTINUOUS
 62
   255
  5
90
 10
-29.5
 20
17.15
 30
0.0
 40
10.0
 50
90.0
 51
180.0
  0
ARC
  8
0
  6
CONTINUOUS
 62
   255
  5
91
 10
29.5
 20
17.15
 30
0.0
 40
10.0
 50
0.0
 51
90.0
  0
ARC
  8
0
  6
CONTINUOUS
 62
   255
  5
92
 10
-29.5
 20
17.15
 30
0.0
 40
13.0
 50
90.0
 51
180.0
  0
ARC
  8
0
  6
CONTINUOUS
 62
   255
  5
93
 10
29.5
 20
17.15
 30
0.0
 40
13.0
 50
0.0
 51
90.0
  0
ARC
  8
0
  6
CONTINUOUS
 62
   255
  5
94
 10
-44.5
 20
-22.062304
 30
0.0
 40
6.0
 50
180.0
 51
253.204235
  0
ARC
  8
0
  6
CONTINUOUS
 62
   255
  5
95
 10
44.5
 20
-22.062304
 30
0.0
 40
6.0
 50
286.795765
 51
0.0
  0
ARC
  8
0
  6
CONTINUOUS
 62
   255
  5
96
 10
0.0
 20
125.368188
 30
0.0
 40
160.0
 50
253.204235
 51
286.795765
  0
LINE
  8
0
  6
CONTINUOUS
 62
   255
  5
97
 10
52.4
 20
38.221249
 30
0.0
 11
-52.4
 21
36.221249
 31
0.0
  0
LINE
  8
0
  6
CONTINUOUS
 62
   255
  5
98
 10
52.4
 20
38.396836
 30
0.0
 11
-52.4
 21
36.396836
 31
0.0
  0
LINE
  8
0
  6
CONTINUOUS
 62
   255
  5
99
 10
52.4
 20
32.730439
 30
0.0
 11
45.294334
 21
32.594834
 31
0.0
  0
LINE
  8
0
  6
CONTINUOUS
 62
   255
  5
9A
 10
52.4
 20
32.596836
 30
0.0
 11
40.418863
 21
32.368188
 31
0.0
  0
LINE
  8
0
  6
CONTINUOUS
 62
   255
  5
9B
 10
52.4
 20
36.730439
 30
0.0
 11
-52.4
 21
34.730439
 31
0.0
  0
LINE
  8
0
  6
CONTINUOUS
 62
   255
  5
9C
 10
52.4
 20
34.221249
 30
0.0
 11
45.294334
 21
34.085644
 31
0.0
  0
LINE
  8
0
  6
CONTINUOUS
 62
   255
  5
9D
 10
40.418863
 20
32.368188
 30
0.0
 11
45.294334
 21
32.594834
 31
0.0
  0
LINE
  8
0
  6
CONTINUOUS
 62
   255
  5
9E
 10
40.418863
 20
34.168188
 30
0.0
 11
45.294334
 21
34.085644
 31
0.0
  0
LINE
  8
0
  6
CONTINUOUS
 62
   255
  5
9F
 10
52.4
 20
40.730439
 30
0.0
 11
-52.4
 21
38.730439
 31
0.0
  0
LINE
  8
0
  6
CONTINUOUS
 62
   255
  5
A0
 10
12.939637
 20
41.468188
 30
0.0
 11
-52.4
 21
40.221249
 31
0.0
  0
LINE
  8
0
  6
CONTINUOUS
 62
   255
  5
A1
 10
52.391608
 20
41.468188
 30
0.0
 11
3.738863
 21
41.468188
 31
0.0
  0
LINE
  8
0
  6
CONTINUOUS
 62
   255
  5
A2
 10
3.738863
 20
41.468188
 30
0.0
 11
-52.4
 21
40.396836
 31
0.0
  0
LINE
  8
0
  6
CONTINUOUS
 62
   255
  5
A3
 10
52.4
 20
40.596836
 30
0.0
 11
-52.4
 21
38.596836
 31
0.0
  0
LINE
  8
0
  6
CONTINUOUS
 62
   255
  5
A4
 10
52.4
 20
34.396836
 30
0.0
 11
40.418863
 21
34.168188
 31
0.0
  0
LINE
  8
0
  6
CONTINUOUS
 62
   255
  5
A5
 10
52.4
 20
36.596836
 30
0.0
 11
-52.4
 21
34.596836
 31
0.0
  0
LINE
  8
0
  6
CONTINUOUS
 62
   255
  5
A6
 10
45.294334
 20
34.085644
 30
0.0
 11
45.294334
 21
32.594834
 31
0.0
  0
LINE
  8
0
  6
CONTINUOUS
 62
   255
  5
A7
 10
40.418863
 20
34.168188
 30
0.0
 11
40.418863
 21
32.368188
 31
0.0
  0
LINE
  8
0
  6
CONTINUOUS
 62
   255
  5
A8
 10
28.25
 20
-15.631812
 30
0.0
 11
39.5
 21
-15.631812
 31
0.0
  0
LINE
  8
0
  6
CONTINUOUS
 62
   255
  5
A9
 10
28.25
 20
-15.131812
 30
0.0
 11
39.5
 21
-15.131812
 31
0.0
  0
LINE
  8
0
  6
CONTINUOUS
 62
   255
  5
AA
 10
28.25
 20
-13.631812
 30
0.0
 11
39.5
 21
-13.631812
 31
0.0
  0
LINE
  8
0
  6
CONTINUOUS
 62
   255
  5
AB
 10
-26.75
 20
-15.631812
 30
0.0
 11
26.75
 21
-15.631812
 31
0.0
  0
LINE
  8
0
  6
CONTINUOUS
 62
   255
  5
AC
 10
-26.75
 20
-15.131812
 30
0.0
 11
26.75
 21
-15.131812
 31
0.0
  0
LINE
  8
0
  6
CONTINUOUS
 62
   255
  5
AD
 10
-26.75
 20
-13.631812
 30
0.0
 11
26.75
 21
-13.631812
 31
0.0
  0
LINE
  8
0
  6
CONTINUOUS
 62
   255
  5
AE
 10
-39.5
 20
-15.631812
 30
0.0
 11
-28.25
 21
-15.631812
 31
0.0
  0
LINE
  8
0
  6
CONTINUOUS
 62
   255
  5
AF
 10
-39.5
 20
-15.131812
 30
0.0
 11
-28.25
 21
-15.131812
 31
0.0
  0
LINE
  8
0
  6
CONTINUOUS
 62
   255
  5
B0
 10
-39.5
 20
-13.631812
 30
0.0
 11
-28.25
 21
-13.631812
 31
0.0
  0
LINE
  8
0
  6
CONTINUOUS
 62
   255
  5
B1
 10
-52.4
 20
41.468188
 30
0.0
 11
-52.4
 21
30.368188
 31
0.0
  0
LINE
  8
0
  6
CONTINUOUS
 62
   255
  5
B2
 10
-39.5
 20
8.25
 30
0.0
 11
-39.5
 21
0.75
 31
0.0
  0
LINE
  8
0
  6
CONTINUOUS
 62
   255
  5
B3
 10
-31.429058
 20
0.75
 30
0.0
 11
-39.5
 21
0.75
 31
0.0
  0
LINE
  8
0
  6
CONTINUOUS
 62
   255
  5
B4
 10
-31.429058
 20
-0.75
 30
0.0
 11
-39.5
 21
-0.75
 31
0.0
  0
LINE
  8
0
  6
CONTINUOUS
 62
   255
  5
B5
 10
-26.75
 20
-24.15
 30
0.0
 11
-28.25
 21
-24.15
 31
0.0
  0
LINE
  8
0
  6
CONTINUOUS
 62
   255
  5
B6
 10
-26.75
 20
-3.929058
 30
0.0
 11
-26.75
 21
-27.15
 31
0.0
  0
LINE
  8
0
  6
CONTINUOUS
 62
   255
  5
B7
 10
-28.25
 20
-3.929058
 30
0.0
 11
-28.25
 21
-27.15
 31
0.0
  0
LINE
  8
0
  6
CONTINUOUS
 62
   255
  5
B8
 10
-39.5
 20
-0.75
 30
0.0
 11
-39.5
 21
-8.25
 31
0.0
  0
LINE
  8
0
  6
CONTINUOUS
 62
   255
  5
B9
 10
-26.75
 20
24.15
 30
0.0
 11
-28.25
 21
24.15
 31
0.0
  0
LINE
  8
0
  6
CONTINUOUS
 62
   255
  5
BA
 10
-26.75
 20
27.15
 30
0.0
 11
-26.75
 21
3.929058
 31
0.0
  0
LINE
  8
0
  6
CONTINUOUS
 62
   255
  5
BB
 10
-28.25
 20
27.15
 30
0.0
 11
-28.25
 21
3.929058
 31
0.0
  0
LINE
  8
0
  6
CONTINUOUS
 62
   255
  5
BC
 10
-14.0
 20
0.75
 30
0.0
 11
-23.570942
 21
0.75
 31
0.0
  0
LINE
  8
0
  6
CONTINUOUS
 62
   255
  5
BD
 10
-14.0
 20
-0.75
 30
0.0
 11
-23.570942
 21
-0.75
 31
0.0
  0
LINE
  8
0
  6
CONTINUOUS
 62
   255
  5
BE
 10
26.75
 20
-24.15
 30
0.0
 11
28.25
 21
-24.15
 31
0.0
  0
LINE
  8
0
  6
CONTINUOUS
 62
   255
  5
BF
 10
26.75
 20
24.15
 30
0.0
 11
28.25
 21
24.15
 31
0.0
  0
LINE
  8
0
  6
CONTINUOUS
 62
   255
  5
C0
 10
28.25
 20
-3.929058
 30
0.0
 11
28.25
 21
-27.15
 31
0.0
  0
LINE
  8
0
  6
CONTINUOUS
 62
   255
  5
C1
 10
26.75
 20
-3.929058
 30
0.0
 11
26.75
 21
-27.15
 31
0.0
  0
LINE
  8
0
  6
CONTINUOUS
 62
   255
  5
C2
 10
14.0
 20
0.75
 30
0.0
 11
23.570942
 21
0.75
 31
0.0
  0
LINE
  8
0
  6
CONTINUOUS
 62
   255
  5
C3
 10
31.429058
 20
-0.75
 30
0.0
 11
39.5
 21
-0.75
 31
0.0
  0
LINE
  8
0
  6
CONTINUOUS
 62
   255
  5
C4
 10
39.5
 20
-0.75
 30
0.0
 11
39.5
 21
-8.25
 31
0.0
  0
LINE
  8
0
  6
CONTINUOUS
 62
   255
  5
C5
 10
31.429058
 20
0.75
 30
0.0
 11
39.5
 21
0.75
 31
0.0
  0
LINE
  8
0
  6
CONTINUOUS
 62
   255
  5
C6
 10
14.0
 20
-0.75
 30
0.0
 11
23.570942
 21
-0.75
 31
0.0
  0
LINE
  8
0
  6
CONTINUOUS
 62
   255
  5
C7
 10
28.25
 20
27.15
 30
0.0
 11
29.5
 21
27.15
 31
0.0
  0
LINE
  8
0
  6
CONTINUOUS
 62
   255
  5
C8
 10
28.25
 20
-27.15
 30
0.0
 11
29.5
 21
-27.15
 31
0.0
  0
LINE
  8
0
  6
CONTINUOUS
 62
   255
  5
C9
 10
28.25
 20
27.15
 30
0.0
 11
28.25
 21
3.929058
 31
0.0
  0
LINE
  8
0
  6
CONTINUOUS
 62
   255
  5
CA
 10
26.75
 20
27.15
 30
0.0
 11
26.75
 21
3.929058
 31
0.0
  0
LINE
  8
0
  6
CONTINUOUS
 62
   255
  5
CB
 10
-14.0
 20
9.0
 30
0.0
 11
-14.0
 21
-9.0
 31
0.0
  0
LINE
  8
0
  6
CONTINUOUS
 62
   255
  5
CC
 10
14.0
 20
9.0
 30
0.0
 11
14.0
 21
-9.0
 31
0.0
  0
LINE
  8
0
  6
CONTINUOUS
 62
   255
  5
CD
 10
-12.0
 20
-11.0
 30
0.0
 11
12.0
 21
-11.0
 31
0.0
  0
LINE
  8
0
  6
CONTINUOUS
 62
   255
  5
CE
 10
-12.0
 20
11.0
 30
0.0
 11
12.0
 21
11.0
 31
0.0
  0
LINE
  8
0
  6
CONTINUOUS
 62
   255
  5
CF
 10
8.25
 20
-27.15
 30
0.0
 11
8.25
 21
-24.15
 31
0.0
  0
LINE
  8
0
  6
CONTINUOUS
 62
   255
  5
D0
 10
9.75
 20
-27.15
 30
0.0
 11
9.75
 21
-24.15
 31
0.0
  0
LINE
  8
0
  6
CONTINUOUS
 62
   255
  5
D1
 10
9.75
 20
-24.15
 30
0.0
 11
8.25
 21
-24.15
 31
0.0
  0
LINE
  8
0
  6
CONTINUOUS
 62
   255
  5
D2
 10
-9.75
 20
-24.15
 30
0.0
 11
-8.25
 21
-24.15
 31
0.0
  0
LINE
  8
0
  6
CONTINUOUS
 62
   255
  5
D3
 10
-8.25
 20
-27.15
 30
0.0
 11
-8.25
 21
-24.15
 31
0.0
  0
LINE
  8
0
  6
CONTINUOUS
 62
   255
  5
D4
 10
-9.75
 20
-27.15
 30
0.0
 11
-9.75
 21
-24.15
 31
0.0
  0
LINE
  8
0
  6
CONTINUOUS
 62
   255
  5
D5
 10
9.75
 20
-27.15
 30
0.0
 11
26.75
 21
-27.15
 31
0.0
  0
LINE
  8
0
  6
CONTINUOUS
 62
   255
  5
D6
 10
-29.5
 20
-27.15
 30
0.0
 11
-9.75
 21
-27.15
 31
0.0
  0
LINE
  8
0
  6
CONTINUOUS
 62
   255
  5
D7
 10
-8.25
 20
-27.15
 30
0.0
 11
8.25
 21
-27.15
 31
0.0
  0
LINE
  8
0
  6
CONTINUOUS
 62
   255
  5
D8
 10
8.25
 20
27.15
 30
0.0
 11
8.25
 21
24.15
 31
0.0
  0
LINE
  8
0
  6
CONTINUOUS
 62
   255
  5
D9
 10
9.75
 20
27.15
 30
0.0
 11
9.75
 21
24.15
 31
0.0
  0
LINE
  8
0
  6
CONTINUOUS
 62
   255
  5
DA
 10
9.75
 20
24.15
 30
0.0
 11
8.25
 21
24.15
 31
0.0
  0
LINE
  8
0
  6
CONTINUOUS
 62
   255
  5
DB
 10
9.75
 20
27.15
 30
0.0
 11
26.75
 21
27.15
 31
0.0
  0
LINE
  8
0
  6
CONTINUOUS
 62
   255
  5
DC
 10
-8.25
 20
27.15
 30
0.0
 11
8.25
 21
27.15
 31
0.0
  0
LINE
  8
0
  6
CONTINUOUS
 62
   255
  5
DD
 10
-9.75
 20
24.15
 30
0.0
 11
-8.25
 21
24.15
 31
0.0
  0
LINE
  8
0
  6
CONTINUOUS
 62
   255
  5
DE
 10
-8.25
 20
27.15
 30
0.0
 11
-8.25
 21
24.15
 31
0.0
  0
LINE
  8
0
  6
CONTINUOUS
 62
   255
  5
DF
 10
-9.75
 20
27.15
 30
0.0
 11
-9.75
 21
24.15
 31
0.0
  0
LINE
  8
0
  6
CONTINUOUS
 62
   255
  5
E0
 10
39.5
 20
-9.75
 30
0.0
 11
39.5
 21
-17.15
 31
0.0
  0
LINE
  8
0
  6
CONTINUOUS
 62
   255
  5
E1
 10
39.5
 20
8.25
 30
0.0
 11
39.5
 21
0.75
 31
0.0
  0
LINE
  8
0
  6
CONTINUOUS
 62
   255
  5
E2
 10
39.5
 20
17.15
 30
0.0
 11
39.5
 21
9.75
 31
0.0
  0
LINE
  8
0
  6
CONTINUOUS
 62
   255
  5
E3
 10
36.55
 20
-9.75
 30
0.0
 11
36.55
 21
-8.25
 31
0.0
  0
LINE
  8
0
  6
CONTINUOUS
 62
   255
  5
E4
 10
36.55
 20
9.75
 30
0.0
 11
36.55
 21
8.25
 31
0.0
  0
LINE
  8
0
  6
CONTINUOUS
 62
   255
  5
E5
 10
39.5
 20
8.25
 30
0.0
 11
36.55
 21
8.25
 31
0.0
  0
LINE
  8
0
  6
CONTINUOUS
 62
   255
  5
E6
 10
39.5
 20
9.75
 30
0.0
 11
36.55
 21
9.75
 31
0.0
  0
LINE
  8
0
  6
CONTINUOUS
 62
   255
  5
E7
 10
39.5
 20
-9.75
 30
0.0
 11
36.55
 21
-9.75
 31
0.0
  0
LINE
  8
0
  6
CONTINUOUS
 62
   255
  5
E8
 10
39.5
 20
-8.25
 30
0.0
 11
36.55
 21
-8.25
 31
0.0
  0
LINE
  8
0
  6
CONTINUOUS
 62
   255
  5
E9
 10
-39.5
 20
-9.75
 30
0.0
 11
-39.5
 21
-17.15
 31
0.0
  0
LINE
  8
0
  6
CONTINUOUS
 62
   255
  5
EA
 10
-39.5
 20
-8.25
 30
0.0
 11
-36.55
 21
-8.25
 31
0.0
  0
LINE
  8
0
  6
CONTINUOUS
 62
   255
  5
EB
 10
-39.5
 20
-9.75
 30
0.0
 11
-36.55
 21
-9.75
 31
0.0
  0
LINE
  8
0
  6
CONTINUOUS
 62
   255
  5
EC
 10
-36.55
 20
-9.75
 30
0.0
 11
-36.55
 21
-8.25
 31
0.0
  0
LINE
  8
0
  6
CONTINUOUS
 62
   255
  5
ED
 10
-36.55
 20
9.75
 30
0.0
 11
-36.55
 21
8.25
 31
0.0
  0
LINE
  8
0
  6
CONTINUOUS
 62
   255
  5
EE
 10
-39.5
 20
8.25
 30
0.0
 11
-36.55
 21
8.25
 31
0.0
  0
LINE
  8
0
  6
CONTINUOUS
 62
   255
  5
EF
 10
-39.5
 20
9.75
 30
0.0
 11
-36.55
 21
9.75
 31
0.0
  0
LINE
  8
0
  6
CONTINUOUS
 62
   255
  5
F0
 10
-29.5
 20
-30.15
 30
0.0
 11
29.5
 21
-30.15
 31
0.0
  0
LINE
  8
0
  6
CONTINUOUS
 62
   255
  5
F1
 10
42.5
 20
-15.631812
 30
0.0
 11
50.5
 21
-15.631812
 31
0.0
  0
LINE
  8
0
  6
CONTINUOUS
 62
   255
  5
F2
 10
42.5
 20
-15.131812
 30
0.0
 11
51.5
 21
-15.131812
 31
0.0
  0
LINE
  8
0
  6
CONTINUOUS
 62
   255
  5
F3
 10
42.5
 20
-13.631812
 30
0.0
 11
53.0
 21
-13.631812
 31
0.0
  0
LINE
  8
0
  6
CONTINUOUS
 62
   255
  5
F4
 10
-39.5
 20
17.15
 30
0.0
 11
-39.5
 21
9.75
 31
0.0
  0
LINE
  8
0
  6
CONTINUOUS
 62
   255
  5
F5
 10
-29.5
 20
27.15
 30
0.0
 11
-9.75
 21
27.15
 31
0.0
  0
LINE
  8
0
  6
CONTINUOUS
 62
   255
  5
F6
 10
-29.5
 20
30.15
 30
0.0
 11
29.5
 21
30.15
 31
0.0
  0
LINE
  8
0
  6
CONTINUOUS
 62
   255
  5
F7
 10
38.880832
 20
26.368188
 30
0.0
 11
55.0
 21
26.368188
 31
0.0
  0
LINE
  8
0
  6
CONTINUOUS
 62
   255
  5
F8
 10
42.5
 20
17.15
 30
0.0
 11
42.5
 21
-17.15
 31
0.0
  0
LINE
  8
0
  6
CONTINUOUS
 62
   255
  5
F9
 10
-42.5
 20
17.15
 30
0.0
 11
-42.5
 21
-17.15
 31
0.0
  0
LINE
  8
0
  6
CONTINUOUS
 62
   255
  5
FA
 10
52.4
 20
41.468188
 30
0.0
 11
52.4
 21
30.368188
 31
0.0
  0
LINE
  8
0
  6
CONTINUOUS
 62
   255
  5
FB
 10
51.5
 20
-15.131812
 30
0.0
 11
50.5
 21
-15.631812
 31
0.0
  0
LINE
  8
0
  6
CONTINUOUS
 62
   255
  5
FC
 10
-51.5
 20
-15.131812
 30
0.0
 11
-50.5
 21
-15.631812
 31
0.0
  0
LINE
  8
0
  6
CONTINUOUS
 62
   255
  5
FD
 10
-50.5
 20
-15.631812
 30
0.0
 11
-50.5
 21
-22.062304
 31
0.0
  0
LINE
  8
0
  6
CONTINUOUS
 62
   255
  5
FE
 10
50.5
 20
-15.631812
 30
0.0
 11
50.5
 21
-22.062304
 31
0.0
  0
LINE
  8
0
  6
CONTINUOUS
 62
   255
  5
FF
 10
-50.5
 20
-15.631812
 30
0.0
 11
-42.5
 21
-15.631812
 31
0.0
  0
LINE
  8
0
  6
CONTINUOUS
 62
   255
  5
100
 10
53.0
 20
-13.631812
 30
0.0
 11
51.5
 21
-15.131812
 31
0.0
  0
LINE
  8
0
  6
CONTINUOUS
 62
   255
  5
101
 10
-53.0
 20
-13.631812
 30
0.0
 11
-51.5
 21
-15.131812
 31
0.0
  0
LINE
  8
0
  6
CONTINUOUS
 62
   255
  5
102
 10
-51.5
 20
-15.131812
 30
0.0
 11
-42.5
 21
-15.131812
 31
0.0
  0
LINE
  8
0
  6
CONTINUOUS
 62
   255
  5
103
 10
-53.0
 20
-13.631812
 30
0.0
 11
-42.5
 21
-13.631812
 31
0.0
  0
LINE
  8
0
  6
CONTINUOUS
 62
   255
  5
104
 10
-53.0
 20
22.626531
 30
0.0
 11
-53.0
 21
-13.631812
 31
0.0
  0
LINE
  8
0
  6
CONTINUOUS
 62
   255
  5
105
 10
53.0
 20
22.626531
 30
0.0
 11
53.0
 21
-13.631812
 31
0.0
  0
LINE
  8
0
  6
CONTINUOUS
 62
   255
  5
106
 10
-55.0
 20
26.368188
 30
0.0
 11
-38.880832
 21
26.368188
 31
0.0
  0
LINE
  8
0
  6
CONTINUOUS
 62
   255
  5
107
 10
-55.0
 20
30.368188
 30
0.0
 11
-55.0
 21
26.368188
 31
0.0
  0
LINE
  8
0
  6
CONTINUOUS
 62
   255
  5
108
 10
-55.0
 20
30.368188
 30
0.0
 11
55.0
 21
30.368188
 31
0.0
  0
LINE
  8
0
  6
CONTINUOUS
 62
   255
  5
109
 10
55.0
 20
30.368188
 30
0.0
 11
55.0
 21
26.368188
 31
0.0
  0
LINE
  8
0
  6
CONTINUOUS
 62
   255
  5
10A
 10
51.9
 20
41.968188
 30
0.0
 11
-51.9
 21
41.968188
 31
0.0
  0
ENDBLK
  8
0
  5
10B
  0
BLOCK
  8
0
  5
10C
  2
MS_3
 70
     0
 10
0.0
 20
0.0
 30
0.0
  3
MS_3
  0
ARC
  8
0
  6
DASHED
 62
   130
  5
10E
 10
-105.627441
 20
2237.986766
 30
0.0
 40
2269.701221
 50
271.872206
 51
272.010508
  0
LINE
  8
0
  6
DASHED
 62
   130
  5
10F
 10
-26.0
 20
30.44553
 30
0.0
 11
-26.0
 21
-30.317249
 31
0.0
  0
LINE
  8
0
  6
DASHED
 62
   130
  5
110
 10
-32.321636
 20
30.555874
 30
0.0
 11
-26.0
 21
30.44553
 31
0.0
  0
POLYLINE
  8
0
  6
CONTINUOUS
 62
   140
  5
111
 66
     1
 10
0.0
 20
0.0
 30
0.0
  0
VERTEX
  8
0
  6
CONTINUOUS
 62
   140
  5
2B5
 10
-32.169841
 20
30.55
 30
0.0
  0
VERTEX
  8
0
  6
CONTINUOUS
 62
   140
  5
2B6
 10
-32.167259
 20
30.396333
 30
0.0
  0
VERTEX
  8
0
  6
CONTINUOUS
 62
   140
  5
2B7
 10
-32.164648
 20
30.242666
 30
0.0
  0
VERTEX
  8
0
  6
CONTINUOUS
 62
   140
  5
2B8
 10
-32.162011
 20
30.089
 30
0.0
  0
VERTEX
  8
0
  6
CONTINUOUS
 62
   140
  5
2B9
 10
-32.15935
 20
29.935335
 30
0.0
  0
VERTEX
  8
0
  6
CONTINUOUS
 62
   140
  5
2BA
 10
-32.156666
 20
29.781669
 30
0.0
  0
VERTEX
  8
0
  6
CONTINUOUS
 62
   140
  5
2BB
 10
-32.153962
 20
29.628005
 30
0.0
  0
VERTEX
  8
0
  6
CONTINUOUS
 62
   140
  5
2BC
 10
-32.151239
 20
29.47434
 30
0.0
  0
VERTEX
  8
0
  6
CONTINUOUS
 62
   140
  5
2BD
 10
-32.1485
 20
29.320676
 30
0.0
  0
VERTEX
  8
0
  6
CONTINUOUS
 62
   140
  5
2BE
 10
-32.145747
 20
29.167012
 30
0.0
  0
VERTEX
  8
0
  6
CONTINUOUS
 62
   140
  5
2BF
 10
-32.14298
 20
29.013348
 30
0.0
  0
VERTEX
  8
0
  6
CONTINUOUS
 62
   140
  5
2C0
 10
-32.140204
 20
28.859684
 30
0.0
  0
VERTEX
  8
0
  6
CONTINUOUS
 62
   140
  5
2C1
 10
-32.137418
 20
28.70602
 30
0.0
  0
VERTEX
  8
0
  6
CONTINUOUS
 62
   140
  5
2C2
 10
-32.134626
 20
28.552357
 30
0.0
  0
VERTEX
  8
0
  6
CONTINUOUS
 62
   140
  5
2C3
 10
-32.131829
 20
28.398693
 30
0.0
  0
VERTEX
  8
0
  6
CONTINUOUS
 62
   140
  5
2C4
 10
-32.12903
 20
28.24503
 30
0.0
  0
VERTEX
  8
0
  6
CONTINUOUS
 62
   140
  5
2C5
 10
-32.12623
 20
28.091366
 30
0.0
  0
VERTEX
  8
0
  6
CONTINUOUS
 62
   140
  5
2C6
 10
-32.123429
 20
27.937696
 30
0.0
  0
VERTEX
  8
0
  6
CONTINUOUS
 62
   140
  5
2C7
 10
-32.120624
 20
27.784026
 30
0.0
  0
VERTEX
  8
0
  6
CONTINUOUS
 62
   140
  5
2C8
 10
-32.117809
 20
27.630357
 30
0.0
  0
VERTEX
  8
0
  6
CONTINUOUS
 62
   140
  5
2C9
 10
-32.114977
 20
27.476688
 30
0.0
  0
VERTEX
  8
0
  6
CONTINUOUS
 62
   140
  5
2CA
 10
-32.112122
 20
27.323019
 30
0.0
  0
VERTEX
  8
0
  6
CONTINUOUS
 62
   140
  5
2CB
 10
-32.10924
 20
27.16935
 30
0.0
  0
VERTEX
  8
0
  6
CONTINUOUS
 62
   140
  5
2CC
 10
-32.106323
 20
27.015683
 30
0.0
  0
VERTEX
  8
0
  6
CONTINUOUS
 62
   140
  5
2CD
 10
-32.103365
 20
26.862016
 30
0.0
  0
VERTEX
  8
0
  6
CONTINUOUS
 62
   140
  5
2CE
 10
-32.100362
 20
26.708351
 30
0.0
  0
VERTEX
  8
0
  6
CONTINUOUS
 62
   140
  5
2CF
 10
-32.097307
 20
26.554686
 30
0.0
  0
VERTEX
  8
0
  6
CONTINUOUS
 62
   140
  5
2D0
 10
-32.094194
 20
26.401023
 30
0.0
  0
VERTEX
  8
0
  6
CONTINUOUS
 62
   140
  5
2D1
 10
-32.091018
 20
26.247361
 30
0.0
  0
VERTEX
  8
0
  6
CONTINUOUS
 62
   140
  5
2D2
 10
-32.087771
 20
26.093701
 30
0.0
  0
VERTEX
  8
0
  6
CONTINUOUS
 62
   140
  5
2D3
 10
-32.08445
 20
25.940043
 30
0.0
  0
VERTEX
  8
0
  6
CONTINUOUS
 62
   140
  5
2D4
 10
-32.081046
 20
25.786386
 30
0.0
  0
VERTEX
  8
0
  6
CONTINUOUS
 62
   140
  5
2D5
 10
-32.077555
 20
25.632732
 30
0.0
  0
VERTEX
  8
0
  6
CONTINUOUS
 62
   140
  5
2D6
 10
-32.073973
 20
25.479056
 30
0.0
  0
VERTEX
  8
0
  6
CONTINUOUS
 62
   140
  5
2D7
 10
-32.070302
 20
25.325382
 30
0.0
  0
VERTEX
  8
0
  6
CONTINUOUS
 62
   140
  5
2D8
 10
-32.066548
 20
25.17171
 30
0.0
  0
VERTEX
  8
0
  6
CONTINUOUS
 62
   140
  5
2D9
 10
-32.062717
 20
25.01804
 30
0.0
  0
VERTEX
  8
0
  6
CONTINUOUS
 62
   140
  5
2DA
 10
-32.058814
 20
24.864372
 30
0.0
  0
VERTEX
  8
0
  6
CONTINUOUS
 62
   140
  5
2DB
 10
-32.054844
 20
24.710705
 30
0.0
  0
VERTEX
  8
0
  6
CONTINUOUS
 62
   140
  5
2DC
 10
-32.050812
 20
24.55704
 30
0.0
  0
VERTEX
  8
0
  6
CONTINUOUS
 62
   140
  5
2DD
 10
-32.046724
 20
24.403376
 30
0.0
  0
VERTEX
  8
0
  6
CONTINUOUS
 62
   140
  5
2DE
 10
-32.042585
 20
24.249713
 30
0.0
  0
VERTEX
  8
0
  6
CONTINUOUS
 62
   140
  5
2DF
 10
-32.038399
 20
24.096051
 30
0.0
  0
VERTEX
  8
0
  6
CONTINUOUS
 62
   140
  5
2E0
 10
-32.034174
 20
23.942391
 30
0.0
  0
VERTEX
  8
0
  6
CONTINUOUS
 62
   140
  5
2E1
 10
-32.029913
 20
23.788731
 30
0.0
  0
VERTEX
  8
0
  6
CONTINUOUS
 62
   140
  5
2E2
 10
-32.025622
 20
23.635072
 30
0.0
  0
VERTEX
  8
0
  6
CONTINUOUS
 62
   140
  5
2E3
 10
-32.021306
 20
23.481413
 30
0.0
  0
VERTEX
  8
0
  6
CONTINUOUS
 62
   140
  5
2E4
 10
-32.016971
 20
23.327755
 30
0.0
  0
VERTEX
  8
0
  6
CONTINUOUS
 62
   140
  5
2E5
 10
-32.012621
 20
23.174098
 30
0.0
  0
VERTEX
  8
0
  6
CONTINUOUS
 62
   140
  5
2E6
 10
-32.008263
 20
23.020436
 30
0.0
  0
VERTEX
  8
0
  6
CONTINUOUS
 62
   140
  5
2E7
 10
-32.0039
 20
22.866775
 30
0.0
  0
VERTEX
  8
0
  6
CONTINUOUS
 62
   140
  5
2E8
 10
-31.999538
 20
22.713113
 30
0.0
  0
VERTEX
  8
0
  6
CONTINUOUS
 62
   140
  5
2E9
 10
-31.995182
 20
22.559452
 30
0.0
  0
VERTEX
  8
0
  6
CONTINUOUS
 62
   140
  5
2EA
 10
-31.990837
 20
22.40579
 30
0.0
  0
VERTEX
  8
0
  6
CONTINUOUS
 62
   140
  5
2EB
 10
-31.986507
 20
22.252128
 30
0.0
  0
VERTEX
  8
0
  6
CONTINUOUS
 62
   140
  5
2EC
 10
-31.982198
 20
22.098466
 30
0.0
  0
VERTEX
  8
0
  6
CONTINUOUS
 62
   140
  5
2ED
 10
-31.977913
 20
21.944803
 30
0.0
  0
VERTEX
  8
0
  6
CONTINUOUS
 62
   140
  5
2EE
 10
-31.973659
 20
21.791139
 30
0.0
  0
VERTEX
  8
0
  6
CONTINUOUS
 62
   140
  5
2EF
 10
-31.96944
 20
21.637475
 30
0.0
  0
VERTEX
  8
0
  6
CONTINUOUS
 62
   140
  5
2F0
 10
-31.965261
 20
21.483809
 30
0.0
  0
VERTEX
  8
0
  6
CONTINUOUS
 62
   140
  5
2F1
 10
-31.961127
 20
21.330143
 30
0.0
  0
VERTEX
  8
0
  6
CONTINUOUS
 62
   140
  5
2F2
 10
-31.957043
 20
21.176475
 30
0.0
  0
VERTEX
  8
0
  6
CONTINUOUS
 62
   140
  5
2F3
 10
-31.953013
 20
21.022806
 30
0.0
  0
VERTEX
  8
0
  6
CONTINUOUS
 62
   140
  5
2F4
 10
-31.949042
 20
20.869136
 30
0.0
  0
VERTEX
  8
0
  6
CONTINUOUS
 62
   140
  5
2F5
 10
-31.945136
 20
20.715464
 30
0.0
  0
VERTEX
  8
0
  6
CONTINUOUS
 62
   140
  5
2F6
 10
-31.940053
 20
20.511387
 30
0.0
  0
VERTEX
  8
0
  6
CONTINUOUS
 62
   140
  5
2F7
 10
-31.935085
 20
20.307309
 30
0.0
  0
VERTEX
  8
0
  6
CONTINUOUS
 62
   140
  5
2F8
 10
-31.930224
 20
20.103227
 30
0.0
  0
VERTEX
  8
0
  6
CONTINUOUS
 62
   140
  5
2F9
 10
-31.925462
 20
19.899143
 30
0.0
  0
VERTEX
  8
0
  6
CONTINUOUS
 62
   140
  5
2FA
 10
-31.920792
 20
19.695057
 30
0.0
  0
VERTEX
  8
0
  6
CONTINUOUS
 62
   140
  5
2FB
 10
-31.916206
 20
19.490968
 30
0.0
  0
VERTEX
  8
0
  6
CONTINUOUS
 62
   140
  5
2FC
 10
-31.911696
 20
19.286878
 30
0.0
  0
VERTEX
  8
0
  6
CONTINUOUS
 62
   140
  5
2FD
 10
-31.907256
 20
19.082786
 30
0.0
  0
VERTEX
  8
0
  6
CONTINUOUS
 62
   140
  5
2FE
 10
-31.902877
 20
18.878692
 30
0.0
  0
VERTEX
  8
0
  6
CONTINUOUS
 62
   140
  5
2FF
 10
-31.898552
 20
18.674596
 30
0.0
  0
VERTEX
  8
0
  6
CONTINUOUS
 62
   140
  5
300
 10
-31.894273
 20
18.470499
 30
0.0
  0
VERTEX
  8
0
  6
CONTINUOUS
 62
   140
  5
301
 10
-31.890033
 20
18.266401
 30
0.0
  0
VERTEX
  8
0
  6
CONTINUOUS
 62
   140
  5
302
 10
-31.885824
 20
18.062302
 30
0.0
  0
VERTEX
  8
0
  6
CONTINUOUS
 62
   140
  5
303
 10
-31.881639
 20
17.858202
 30
0.0
  0
VERTEX
  8
0
  6
CONTINUOUS
 62
   140
  5
304
 10
-31.87747
 20
17.654101
 30
0.0
  0
VERTEX
  8
0
  6
CONTINUOUS
 62
   140
  5
305
 10
-31.873309
 20
17.45
 30
0.0
  0
VERTEX
  8
0
  6
CONTINUOUS
 62
   140
  5
306
 10
-31.862195
 20
16.904614
 30
0.0
  0
VERTEX
  8
0
  6
CONTINUOUS
 62
   140
  5
307
 10
-31.85107
 20
16.359226
 30
0.0
  0
VERTEX
  8
0
  6
CONTINUOUS
 62
   140
  5
308
 10
-31.839917
 20
15.813836
 30
0.0
  0
VERTEX
  8
0
  6
CONTINUOUS
 62
   140
  5
309
 10
-31.82872
 20
15.268445
 30
0.0
  0
VERTEX
  8
0
  6
CONTINUOUS
 62
   140
  5
30A
 10
-31.817463
 20
14.723054
 30
0.0
  0
VERTEX
  8
0
  6
CONTINUOUS
 62
   140
  5
30B
 10
-31.806127
 20
14.177663
 30
0.0
  0
VERTEX
  8
0
  6
CONTINUOUS
 62
   140
  5
30C
 10
-31.794697
 20
13.632274
 30
0.0
  0
VERTEX
  8
0
  6
CONTINUOUS
 62
   140
  5
30D
 10
-31.783157
 20
13.086886
 30
0.0
  0
VERTEX
  8
0
  6
CONTINUOUS
 62
   140
  5
30E
 10
-31.771488
 20
12.5415
 30
0.0
  0
VERTEX
  8
0
  6
CONTINUOUS
 62
   140
  5
30F
 10
-31.759675
 20
11.996118
 30
0.0
  0
VERTEX
  8
0
  6
CONTINUOUS
 62
   140
  5
310
 10
-31.7477
 20
11.45074
 30
0.0
  0
VERTEX
  8
0
  6
CONTINUOUS
 62
   140
  5
311
 10
-31.735548
 20
10.905367
 30
0.0
  0
VERTEX
  8
0
  6
CONTINUOUS
 62
   140
  5
312
 10
-31.723201
 20
10.359999
 30
0.0
  0
VERTEX
  8
0
  6
CONTINUOUS
 62
   140
  5
313
 10
-31.710643
 20
9.814637
 30
0.0
  0
VERTEX
  8
0
  6
CONTINUOUS
 62
   140
  5
314
 10
-31.697857
 20
9.269282
 30
0.0
  0
VERTEX
  8
0
  6
CONTINUOUS
 62
   140
  5
315
 10
-31.684826
 20
8.723935
 30
0.0
  0
VERTEX
  8
0
  6
CONTINUOUS
 62
   140
  5
316
 10
-31.671533
 20
8.178596
 30
0.0
  0
VERTEX
  8
0
  6
CONTINUOUS
 62
   140
  5
317
 10
-31.657963
 20
7.633266
 30
0.0
  0
VERTEX
  8
0
  6
CONTINUOUS
 62
   140
  5
318
 10
-31.644097
 20
7.087946
 30
0.0
  0
VERTEX
  8
0
  6
CONTINUOUS
 62
   140
  5
319
 10
-31.62992
 20
6.542636
 30
0.0
  0
VERTEX
  8
0
  6
CONTINUOUS
 62
   140
  5
31A
 10
-31.615415
 20
5.997338
 30
0.0
  0
VERTEX
  8
0
  6
CONTINUOUS
 62
   140
  5
31B
 10
-31.600565
 20
5.452051
 30
0.0
  0
VERTEX
  8
0
  6
CONTINUOUS
 62
   140
  5
31C
 10
-31.585353
 20
4.906778
 30
0.0
  0
VERTEX
  8
0
  6
CONTINUOUS
 62
   140
  5
31D
 10
-31.569763
 20
4.361517
 30
0.0
  0
VERTEX
  8
0
  6
CONTINUOUS
 62
   140
  5
31E
 10
-31.553778
 20
3.816271
 30
0.0
  0
VERTEX
  8
0
  6
CONTINUOUS
 62
   140
  5
31F
 10
-31.537381
 20
3.271039
 30
0.0
  0
VERTEX
  8
0
  6
CONTINUOUS
 62
   140
  5
320
 10
-31.520555
 20
2.725823
 30
0.0
  0
VERTEX
  8
0
  6
CONTINUOUS
 62
   140
  5
321
 10
-31.503285
 20
2.180623
 30
0.0
  0
VERTEX
  8
0
  6
CONTINUOUS
 62
   140
  5
322
 10
-31.485552
 20
1.63544
 30
0.0
  0
VERTEX
  8
0
  6
CONTINUOUS
 62
   140
  5
323
 10
-31.467341
 20
1.090275
 30
0.0
  0
VERTEX
  8
0
  6
CONTINUOUS
 62
   140
  5
324
 10
-31.448635
 20
0.545128
 30
0.0
  0
VERTEX
  8
0
  6
CONTINUOUS
 62
   140
  5
325
 10
-31.429416
 20
0.0
 30
0.0
  0
VERTEX
  8
0
  6
CONTINUOUS
 62
   140
  5
326
 10
-31.409663
 20
-0.545455
 30
0.0
  0
VERTEX
  8
0
  6
CONTINUOUS
 62
   140
  5
327
 10
-31.389405
 20
-1.090891
 30
0.0
  0
VERTEX
  8
0
  6
CONTINUOUS
 62
   140
  5
328
 10
-31.368664
 20
-1.636309
 30
0.0
  0
VERTEX
  8
0
  6
CONTINUOUS
 62
   140
  5
329
 10
-31.347466
 20
-2.18171
 30
0.0
  0
VERTEX
  8
0
  6
CONTINUOUS
 62
   140
  5
32A
 10
-31.325834
 20
-2.727095
 30
0.0
  0
VERTEX
  8
0
  6
CONTINUOUS
 62
   140
  5
32B
 10
-31.303791
 20
-3.272466
 30
0.0
  0
VERTEX
  8
0
  6
CONTINUOUS
 62
   140
  5
32C
 10
-31.281362
 20
-3.817822
 30
0.0
  0
VERTEX
  8
0
  6
CONTINUOUS
 62
   140
  5
32D
 10
-31.25857
 20
-4.363165
 30
0.0
  0
VERTEX
  8
0
  6
CONTINUOUS
 62
   140
  5
32E
 10
-31.235439
 20
-4.908496
 30
0.0
  0
VERTEX
  8
0
  6
CONTINUOUS
 62
   140
  5
32F
 10
-31.211994
 20
-5.453815
 30
0.0
  0
VERTEX
  8
0
  6
CONTINUOUS
 62
   140
  5
330
 10
-31.188257
 20
-5.999125
 30
0.0
  0
VERTEX
  8
0
  6
CONTINUOUS
 62
   140
  5
331
 10
-31.164253
 20
-6.544426
 30
0.0
  0
VERTEX
  8
0
  6
CONTINUOUS
 62
   140
  5
332
 10
-31.140005
 20
-7.089718
 30
0.0
  0
VERTEX
  8
0
  6
CONTINUOUS
 62
   140
  5
333
 10
-31.115537
 20
-7.635003
 30
0.0
  0
VERTEX
  8
0
  6
CONTINUOUS
 62
   140
  5
334
 10
-31.090874
 20
-8.180282
 30
0.0
  0
VERTEX
  8
0
  6
CONTINUOUS
 62
   140
  5
335
 10
-31.066038
 20
-8.725555
 30
0.0
  0
VERTEX
  8
0
  6
CONTINUOUS
 62
   140
  5
336
 10
-31.041054
 20
-9.270824
 30
0.0
  0
VERTEX
  8
0
  6
CONTINUOUS
 62
   140
  5
337
 10
-31.015946
 20
-9.81609
 30
0.0
  0
VERTEX
  8
0
  6
CONTINUOUS
 62
   140
  5
338
 10
-30.990737
 20
-10.361353
 30
0.0
  0
VERTEX
  8
0
  6
CONTINUOUS
 62
   140
  5
339
 10
-30.965451
 20
-10.906615
 30
0.0
  0
VERTEX
  8
0
  6
CONTINUOUS
 62
   140
  5
33A
 10
-30.940112
 20
-11.451876
 30
0.0
  0
VERTEX
  8
0
  6
CONTINUOUS
 62
   140
  5
33B
 10
-30.914744
 20
-11.997138
 30
0.0
  0
VERTEX
  8
0
  6
CONTINUOUS
 62
   140
  5
33C
 10
-30.88937
 20
-12.542402
 30
0.0
  0
VERTEX
  8
0
  6
CONTINUOUS
 62
   140
  5
33D
 10
-30.864015
 20
-13.087668
 30
0.0
  0
VERTEX
  8
0
  6
CONTINUOUS
 62
   140
  5
33E
 10
-30.838702
 20
-13.632937
 30
0.0
  0
VERTEX
  8
0
  6
CONTINUOUS
 62
   140
  5
33F
 10
-30.813455
 20
-14.178211
 30
0.0
  0
VERTEX
  8
0
  6
CONTINUOUS
 62
   140
  5
340
 10
-30.788298
 20
-14.72349
 30
0.0
  0
VERTEX
  8
0
  6
CONTINUOUS
 62
   140
  5
341
 10
-30.763255
 20
-15.268775
 30
0.0
  0
VERTEX
  8
0
  6
CONTINUOUS
 62
   140
  5
342
 10
-30.738349
 20
-15.814068
 30
0.0
  0
VERTEX
  8
0
  6
CONTINUOUS
 62
   140
  5
343
 10
-30.713605
 20
-16.359369
 30
0.0
  0
VERTEX
  8
0
  6
CONTINUOUS
 62
   140
  5
344
 10
-30.689045
 20
-16.904679
 30
0.0
  0
VERTEX
  8
0
  6
CONTINUOUS
 62
   140
  5
345
 10
-30.664695
 20
-17.45
 30
0.0
  0
VERTEX
  8
0
  6
CONTINUOUS
 62
   140
  5
346
 10
-30.655648
 20
-17.654035
 30
0.0
  0
VERTEX
  8
0
  6
CONTINUOUS
 62
   140
  5
347
 10
-30.646668
 20
-17.858072
 30
0.0
  0
VERTEX
  8
0
  6
CONTINUOUS
 62
   140
  5
348
 10
-30.637787
 20
-18.062113
 30
0.0
  0
VERTEX
  8
0
  6
CONTINUOUS
 62
   140
  5
349
 10
-30.62904
 20
-18.266159
 30
0.0
  0
VERTEX
  8
0
  6
CONTINUOUS
 62
   140
  5
34A
 10
-30.62046
 20
-18.470211
 30
0.0
  0
VERTEX
  8
0
  6
CONTINUOUS
 62
   140
  5
34B
 10
-30.61208
 20
-18.674269
 30
0.0
  0
VERTEX
  8
0
  6
CONTINUOUS
 62
   140
  5
34C
 10
-30.603935
 20
-18.878336
 30
0.0
  0
VERTEX
  8
0
  6
CONTINUOUS
 62
   140
  5
34D
 10
-30.596058
 20
-19.082411
 30
0.0
  0
VERTEX
  8
0
  6
CONTINUOUS
 62
   140
  5
34E
 10
-30.588483
 20
-19.286496
 30
0.0
  0
VERTEX
  8
0
  6
CONTINUOUS
 62
   140
  5
34F
 10
-30.581242
 20
-19.490593
 30
0.0
  0
VERTEX
  8
0
  6
CONTINUOUS
 62
   140
  5
350
 10
-30.574371
 20
-19.694701
 30
0.0
  0
VERTEX
  8
0
  6
CONTINUOUS
 62
   140
  5
351
 10
-30.567902
 20
-19.898823
 30
0.0
  0
VERTEX
  8
0
  6
CONTINUOUS
 62
   140
  5
352
 10
-30.56187
 20
-20.102959
 30
0.0
  0
VERTEX
  8
0
  6
CONTINUOUS
 62
   140
  5
353
 10
-30.556307
 20
-20.307111
 30
0.0
  0
VERTEX
  8
0
  6
CONTINUOUS
 62
   140
  5
354
 10
-30.551247
 20
-20.511278
 30
0.0
  0
VERTEX
  8
0
  6
CONTINUOUS
 62
   140
  5
355
 10
-30.546724
 20
-20.715464
 30
0.0
  0
VERTEX
  8
0
  6
CONTINUOUS
 62
   140
  5
356
 10
-30.543693
 20
-20.869112
 30
0.0
  0
VERTEX
  8
0
  6
CONTINUOUS
 62
   140
  5
357
 10
-30.540985
 20
-21.022769
 30
0.0
  0
VERTEX
  8
0
  6
CONTINUOUS
 62
   140
  5
358
 10
-30.538599
 20
-21.176433
 30
0.0
  0
VERTEX
  8
0
  6
CONTINUOUS
 62
   140
  5
359
 10
-30.536535
 20
-21.330104
 30
0.0
  0
VERTEX
  8
0
  6
CONTINUOUS
 62
   140
  5
35A
 10
-30.534792
 20
-21.483779
 30
0.0
  0
VERTEX
  8
0
  6
CONTINUOUS
 62
   140
  5
35B
 10
-30.53337
 20
-21.637458
 30
0.0
  0
VERTEX
  8
0
  6
CONTINUOUS
 62
   140
  5
35C
 10
-30.532268
 20
-21.791138
 30
0.0
  0
VERTEX
  8
0
  6
CONTINUOUS
 62
   140
  5
35D
 10
-30.531487
 20
-21.944819
 30
0.0
  0
VERTEX
  8
0
  6
CONTINUOUS
 62
   140
  5
35E
 10
-30.531026
 20
-22.098498
 30
0.0
  0
VERTEX
  8
0
  6
CONTINUOUS
 62
   140
  5
35F
 10
-30.530883
 20
-22.252175
 30
0.0
  0
VERTEX
  8
0
  6
CONTINUOUS
 62
   140
  5
360
 10
-30.53106
 20
-22.405847
 30
0.0
  0
VERTEX
  8
0
  6
CONTINUOUS
 62
   140
  5
361
 10
-30.531555
 20
-22.559514
 30
0.0
  0
VERTEX
  8
0
  6
CONTINUOUS
 62
   140
  5
362
 10
-30.532368
 20
-22.713174
 30
0.0
  0
VERTEX
  8
0
  6
CONTINUOUS
 62
   140
  5
363
 10
-30.533499
 20
-22.866826
 30
0.0
  0
VERTEX
  8
0
  6
CONTINUOUS
 62
   140
  5
364
 10
-30.534947
 20
-23.020467
 30
0.0
  0
VERTEX
  8
0
  6
CONTINUOUS
 62
   140
  5
365
 10
-30.536711
 20
-23.174098
 30
0.0
  0
VERTEX
  8
0
  6
CONTINUOUS
 62
   140
  5
366
 10
-30.538794
 20
-23.32778
 30
0.0
  0
VERTEX
  8
0
  6
CONTINUOUS
 62
   140
  5
367
 10
-30.541193
 20
-23.481452
 30
0.0
  0
VERTEX
  8
0
  6
CONTINUOUS
 62
   140
  5
368
 10
-30.543912
 20
-23.635114
 30
0.0
  0
VERTEX
  8
0
  6
CONTINUOUS
 62
   140
  5
369
 10
-30.54695
 20
-23.788769
 30
0.0
  0
VERTEX
  8
0
  6
CONTINUOUS
 62
   140
  5
36A
 10
-30.550308
 20
-23.942419
 30
0.0
  0
VERTEX
  8
0
  6
CONTINUOUS
 62
   140
  5
36B
 10
-30.553988
 20
-24.096065
 30
0.0
  0
VERTEX
  8
0
  6
CONTINUOUS
 62
   140
  5
36C
 10
-30.557991
 20
-24.249709
 30
0.0
  0
VERTEX
  8
0
  6
CONTINUOUS
 62
   140
  5
36D
 10
-30.562317
 20
-24.403353
 30
0.0
  0
VERTEX
  8
0
  6
CONTINUOUS
 62
   140
  5
36E
 10
-30.566968
 20
-24.556999
 30
0.0
  0
VERTEX
  8
0
  6
CONTINUOUS
 62
   140
  5
36F
 10
-30.571945
 20
-24.710649
 30
0.0
  0
VERTEX
  8
0
  6
CONTINUOUS
 62
   140
  5
370
 10
-30.577248
 20
-24.864305
 30
0.0
  0
VERTEX
  8
0
  6
CONTINUOUS
 62
   140
  5
371
 10
-30.582878
 20
-25.017968
 30
0.0
  0
VERTEX
  8
0
  6
CONTINUOUS
 62
   140
  5
372
 10
-30.588838
 20
-25.17164
 30
0.0
  0
VERTEX
  8
0
  6
CONTINUOUS
 62
   140
  5
373
 10
-30.595126
 20
-25.325324
 30
0.0
  0
VERTEX
  8
0
  6
CONTINUOUS
 62
   140
  5
374
 10
-30.601746
 20
-25.47902
 30
0.0
  0
VERTEX
  8
0
  6
CONTINUOUS
 62
   140
  5
375
 10
-30.608696
 20
-25.632732
 30
0.0
  0
VERTEX
  8
0
  6
CONTINUOUS
 62
   140
  5
376
 10
-30.616008
 20
-25.786858
 30
0.0
  0
VERTEX
  8
0
  6
CONTINUOUS
 62
   140
  5
377
 10
-30.623704
 20
-25.940987
 30
0.0
  0
VERTEX
  8
0
  6
CONTINUOUS
 62
   140
  5
378
 10
-30.631836
 20
-26.095105
 30
0.0
  0
VERTEX
  8
0
  6
CONTINUOUS
 62
   140
  5
379
 10
-30.640456
 20
-26.249199
 30
0.0
  0
VERTEX
  8
0
  6
CONTINUOUS
 62
   140
  5
37A
 10
-30.649613
 20
-26.403254
 30
0.0
  0
VERTEX
  8
0
  6
CONTINUOUS
 62
   140
  5
37B
 10
-30.659359
 20
-26.557256
 30
0.0
  0
VERTEX
  8
0
  6
CONTINUOUS
 62
   140
  5
37C
 10
-30.669745
 20
-26.711193
 30
0.0
  0
VERTEX
  8
0
  6
CONTINUOUS
 62
   140
  5
37D
 10
-30.680821
 20
-26.86505
 30
0.0
  0
VERTEX
  8
0
  6
CONTINUOUS
 62
   140
  5
37E
 10
-30.692639
 20
-27.018813
 30
0.0
  0
VERTEX
  8
0
  6
CONTINUOUS
 62
   140
  5
37F
 10
-30.705249
 20
-27.172468
 30
0.0
  0
VERTEX
  8
0
  6
CONTINUOUS
 62
   140
  5
380
 10
-30.718703
 20
-27.326002
 30
0.0
  0
VERTEX
  8
0
  6
CONTINUOUS
 62
   140
  5
381
 10
-30.73305
 20
-27.4794
 30
0.0
  0
VERTEX
  8
0
  6
CONTINUOUS
 62
   140
  5
382
 10
-30.748343
 20
-27.63265
 30
0.0
  0
VERTEX
  8
0
  6
CONTINUOUS
 62
   140
  5
383
 10
-30.764632
 20
-27.785737
 30
0.0
  0
VERTEX
  8
0
  6
CONTINUOUS
 62
   140
  5
384
 10
-30.781968
 20
-27.938646
 30
0.0
  0
VERTEX
  8
0
  6
CONTINUOUS
 62
   140
  5
385
 10
-30.800402
 20
-28.091366
 30
0.0
  0
VERTEX
  8
0
  6
CONTINUOUS
 62
   140
  5
386
 10
-30.810119
 20
-28.168248
 30
0.0
  0
VERTEX
  8
0
  6
CONTINUOUS
 62
   140
  5
387
 10
-30.820112
 20
-28.245088
 30
0.0
  0
VERTEX
  8
0
  6
CONTINUOUS
 62
   140
  5
388
 10
-30.830366
 20
-28.321892
 30
0.0
  0
VERTEX
  8
0
  6
CONTINUOUS
 62
   140
  5
389
 10
-30.840863
 20
-28.398669
 30
0.0
  0
VERTEX
  8
0
  6
CONTINUOUS
 62
   140
  5
38A
 10
-30.851588
 20
-28.475429
 30
0.0
  0
VERTEX
  8
0
  6
CONTINUOUS
 62
   140
  5
38B
 10
-30.862526
 20
-28.552179
 30
0.0
  0
VERTEX
  8
0
  6
CONTINUOUS
 62
   140
  5
38C
 10
-30.873659
 20
-28.628927
 30
0.0
  0
VERTEX
  8
0
  6
CONTINUOUS
 62
   140
  5
38D
 10
-30.884974
 20
-28.705683
 30
0.0
  0
VERTEX
  8
0
  6
CONTINUOUS
 62
   140
  5
38E
 10
-30.896453
 20
-28.782455
 30
0.0
  0
VERTEX
  8
0
  6
CONTINUOUS
 62
   140
  5
38F
 10
-30.908081
 20
-28.859251
 30
0.0
  0
VERTEX
  8
0
  6
CONTINUOUS
 62
   140
  5
390
 10
-30.919841
 20
-28.93608
 30
0.0
  0
VERTEX
  8
0
  6
CONTINUOUS
 62
   140
  5
391
 10
-30.931719
 20
-29.012949
 30
0.0
  0
VERTEX
  8
0
  6
CONTINUOUS
 62
   140
  5
392
 10
-30.943697
 20
-29.089868
 30
0.0
  0
VERTEX
  8
0
  6
CONTINUOUS
 62
   140
  5
393
 10
-30.955761
 20
-29.166845
 30
0.0
  0
VERTEX
  8
0
  6
CONTINUOUS
 62
   140
  5
394
 10
-30.967894
 20
-29.243889
 30
0.0
  0
VERTEX
  8
0
  6
CONTINUOUS
 62
   140
  5
395
 10
-30.98008
 20
-29.321008
 30
0.0
  0
VERTEX
  8
0
  6
CONTINUOUS
 62
   140
  5
396
 10
-30.986288
 20
-29.36016
 30
0.0
  0
VERTEX
  8
0
  6
CONTINUOUS
 62
   140
  5
397
 10
-30.992567
 20
-29.399312
 30
0.0
  0
VERTEX
  8
0
  6
CONTINUOUS
 62
   140
  5
398
 10
-30.998976
 20
-29.438442
 30
0.0
  0
VERTEX
  8
0
  6
CONTINUOUS
 62
   140
  5
399
 10
-31.005577
 20
-29.477529
 30
0.0
  0
VERTEX
  8
0
  6
CONTINUOUS
 62
   140
  5
39A
 10
-31.012429
 20
-29.516551
 30
0.0
  0
VERTEX
  8
0
  6
CONTINUOUS
 62
   140
  5
39B
 10
-31.019594
 20
-29.555487
 30
0.0
  0
VERTEX
  8
0
  6
CONTINUOUS
 62
   140
  5
39C
 10
-31.027131
 20
-29.594315
 30
0.0
  0
VERTEX
  8
0
  6
CONTINUOUS
 62
   140
  5
39D
 10
-31.035103
 20
-29.633013
 30
0.0
  0
VERTEX
  8
0
  6
CONTINUOUS
 62
   140
  5
39E
 10
-31.043568
 20
-29.67156
 30
0.0
  0
VERTEX
  8
0
  6
CONTINUOUS
 62
   140
  5
39F
 10
-31.052587
 20
-29.709935
 30
0.0
  0
VERTEX
  8
0
  6
CONTINUOUS
 62
   140
  5
3A0
 10
-31.062222
 20
-29.748115
 30
0.0
  0
VERTEX
  8
0
  6
CONTINUOUS
 62
   140
  5
3A1
 10
-31.072533
 20
-29.786079
 30
0.0
  0
VERTEX
  8
0
  6
CONTINUOUS
 62
   140
  5
3A2
 10
-31.083579
 20
-29.823806
 30
0.0
  0
VERTEX
  8
0
  6
CONTINUOUS
 62
   140
  5
3A3
 10
-31.095423
 20
-29.861274
 30
0.0
  0
VERTEX
  8
0
  6
CONTINUOUS
 62
   140
  5
3A4
 10
-31.108123
 20
-29.898461
 30
0.0
  0
VERTEX
  8
0
  6
CONTINUOUS
 62
   140
  5
3A5
 10
-31.121742
 20
-29.935346
 30
0.0
  0
VERTEX
  8
0
  6
CONTINUOUS
 62
   140
  5
3A6
 10
-31.138745
 20
-29.97773
 30
0.0
  0
VERTEX
  8
0
  6
CONTINUOUS
 62
   140
  5
3A7
 10
-31.157016
 20
-30.019662
 30
0.0
  0
VERTEX
  8
0
  6
CONTINUOUS
 62
   140
  5
3A8
 10
-31.176504
 20
-30.061125
 30
0.0
  0
VERTEX
  8
0
  6
CONTINUOUS
 62
   140
  5
3A9
 10
-31.19716
 20
-30.102103
 30
0.0
  0
VERTEX
  8
0
  6
CONTINUOUS
 62
   140
  5
3AA
 10
-31.218934
 20
-30.142579
 30
0.0
  0
VERTEX
  8
0
  6
CONTINUOUS
 62
   140
  5
3AB
 10
-31.241777
 20
-30.182537
 30
0.0
  0
VERTEX
  8
0
  6
CONTINUOUS
 62
   140
  5
3AC
 10
-31.265639
 20
-30.221961
 30
0.0
  0
VERTEX
  8
0
  6
CONTINUOUS
 62
   140
  5
3AD
 10
-31.29047
 20
-30.260834
 30
0.0
  0
VERTEX
  8
0
  6
CONTINUOUS
 62
   140
  5
3AE
 10
-31.316221
 20
-30.299139
 30
0.0
  0
VERTEX
  8
0
  6
CONTINUOUS
 62
   140
  5
3AF
 10
-31.342843
 20
-30.33686
 30
0.0
  0
VERTEX
  8
0
  6
CONTINUOUS
 62
   140
  5
3B0
 10
-31.370285
 20
-30.373981
 30
0.0
  0
VERTEX
  8
0
  6
CONTINUOUS
 62
   140
  5
3B1
 10
-31.398499
 20
-30.410485
 30
0.0
  0
VERTEX
  8
0
  6
CONTINUOUS
 62
   140
  5
3B2
 10
-31.427434
 20
-30.446355
 30
0.0
  0
VERTEX
  8
0
  6
CONTINUOUS
 62
   140
  5
3B3
 10
-31.457042
 20
-30.481575
 30
0.0
  0
VERTEX
  8
0
  6
CONTINUOUS
 62
   140
  5
3B4
 10
-31.487272
 20
-30.516129
 30
0.0
  0
VERTEX
  8
0
  6
CONTINUOUS
 62
   140
  5
3B5
 10
-31.518074
 20
-30.55
 30
0.0
  0
SEQEND
  8
0
  6
CONTINUOUS
 62
   140
  5
3B6
  0
ARC
  8
0
  6
CONTINUOUS
 62
   140
  5
112
 10
311.940895
 20
-3.991703
 30
0.0
 40
346.0
 50
174.029861
 51
174.279737
  0
ARC
  8
0
  6
CONTINUOUS
 62
   140
  5
113
 10
-30.19333
 20
31.787785
 30
0.0
 40
2.0
 50
92.8625
 51
174.029861
  0
ARC
  8
0
  6
CONTINUOUS
 62
   140
  5
114
 10
311.940895
 20
-3.991703
 30
0.0
 40
346.0
 50
184.402244
 51
193.284871
  0
ARC
  8
0
  6
CONTINUOUS
 62
   130
  5
115
 10
311.940895
 20
-3.991703
 30
0.0
 40
346.0
 50
173.74605
 51
174.029861
  0
ARC
  8
0
  6
CONTINUOUS
 62
   140
  5
116
 10
-23.134592
 20
-81.840387
 30
0.0
 40
2.0
 50
193.079588
 51
256.617914
  0
LINE
  8
0
  6
CONTINUOUS
 62
   140
  5
117
 10
-31.518074
 20
-30.55
 30
0.0
 11
-33.038317
 21
-30.55
 31
0.0
  0
LINE
  8
0
  6
CONTINUOUS
 62
   140
  5
118
 10
0.0
 20
35.3
 30
0.0
 11
0.0
 21
-89.4
 31
0.0
  0
LINE
  8
0
  6
CONTINUOUS
 62
   140
  5
119
 10
0.0
 20
35.3
 30
0.0
 11
-30.293209
 21
33.785289
 31
0.0
  0
LINE
  8
0
  6
CONTINUOUS
 62
   140
  5
11A
 10
-24.8
 20
-83.5
 30
0.0
 11
-31.942144
 21
32.758172
 31
0.0
  0
LINE
  8
0
  6
CONTINUOUS
 62
   130
  5
11B
 10
-31.942144
 20
32.758172
 30
0.0
 11
-32.0
 21
33.699947
 31
0.0
  0
LINE
  8
0
  6
CONTINUOUS
 62
   140
  5
11C
 10
-24.8
 20
-83.5
 30
0.0
 11
0.0
 21
-89.4
 31
0.0
  0
LINE
  8
0
  6
CONTINUOUS
 62
   130
  5
11D
 10
-30.293209
 20
33.785289
 30
0.0
 11
-32.0
 21
33.699947
 31
0.0
  0
LINE
  8
0
  6
CENTER
 62
    50
  5
11E
 10
0.0
 20
0.0
 30
0.0
 11
-31.429416
 21
0.0
 31
0.0
  0
ENDBLK
  8
0
  5
11F
  0
ENDSEC
  0
SECTION
  2
ENTITIES
  0
LINE
  8
LY_1
  6
PHANTOM
 62
    80
  5
121
 10
-31.83666
 20
221.296185
 30
0.0
 11
-31.83666
 21
212.301386
 31
0.0
  0
LINE
  8
LY_1
  6
PHANTOM
 62
    80
  5
122
 10
74.16337
 20
221.296185
 30
0.0
 11
74.16337
 21
212.301386
 31
0.0
  0
ARC
  8
LY_1
  6
PHANTOM
 62
   130
  5
123
 10
-36.33666
 20
212.301386
 30
0.0
 40
4.5
 50
304.685946
 51
0.0
  0
ARC
  8
LY_1
  6
PHANTOM
 62
   130
  5
124
 10
78.66337
 20
212.301386
 30
0.0
 40
4.5
 50
179.999995
 51
235.314294
  0
ARC
  8
LY_1
  6
PHANTOM
 62
   130
  5
125
 10
-40.83666
 20
183.66186
 30
0.0
 40
10.0
 50
2.470585
 51
43.61348
  0
ARC
  8
LY_1
  6
PHANTOM
 62
   130
  5
126
 10
266.163355
 20
202.559809
 30
0.0
 40
300.0
 50
178.846119
 51
182.292439
  0
ARC
  8
LY_1
  6
PHANTOM
 62
   130
  5
127
 10
-223.83663
 20
202.559809
 30
0.0
 40
300.0
 50
357.707557
 51
1.153879
  0
ARC
  8
LY_1
  6
PHANTOM
 62
   130
  5
128
 10
83.16337
 20
183.66186
 30
0.0
 40
10.0
 50
136.386515
 51
177.529416
  0
ARC
  8
LY_1
  6
PHANTOM
 62
   130
  5
129
 10
-566.232473
 20
211.681147
 30
0.0
 40
640.0
 50
351.174185
 51
357.529416
  0
ARC
  8
LY_1
  6
PHANTOM
 62
   130
  5
12A
 10
608.559214
 20
211.681147
 30
0.0
 40
640.0
 50
182.470584
 51
188.825815
  0
ARC
  8
LY_1
  6
PHANTOM
 62
   130
  5
12B
 10
-23.566412
 20
113.531275
 30
0.0
 40
0.3
 50
188.825815
 51
248.057134
  0
ARC
  8
LY_1
  6
PHANTOM
 62
   130
  5
12C
 10
21.16334
 20
224.559809
 30
0.0
 40
120.0
 50
248.057134
 51
291.942868
  0
LINE
  8
LY_1
  6
PHANTOM
 62
   130
  5
12D
 10
168.163355
 20
212.301386
 30
0.0
 11
168.163355
 21
221.296185
 31
0.0
  0
ARC
  8
LY_1
  6
PHANTOM
 62
   130
  5
12E
 10
-23.836614
 20
202.559809
 30
0.0
 40
300.0
 50
357.707561
 51
0.262446
  0
ARC
  8
LY_1
  6
PHANTOM
 62
   130
  5
12F
 10
163.663355
 20
212.301386
 30
0.0
 40
4.5
 50
304.686185
 51
0.000005
  0
ARC
  8
LY_1
  6
DASHED
 62
   130
  5
130
 10
283.163386
 20
183.66186
 30
0.0
 40
10.0
 50
136.386515
 51
177.529416
  0
ARC
  8
LY_1
  6
PHANTOM
 62
   130
  5
131
 10
265.893061
 20
113.531275
 30
0.0
 40
0.3
 50
291.942868
 51
351.174185
  0
ARC
  8
LY_1
  6
PHANTOM
 62
   130
  5
132
 10
-366.232427
 20
211.681147
 30
0.0
 40
640.0
 50
351.174185
 51
357.529416
  0
ARC
  8
LY_1
  6
PHANTOM
 62
   130
  5
133
 10
159.163355
 20
183.66186
 30
0.0
 40
10.0
 50
2.470584
 51
43.613487
  0
ARC
  8
LY_1
  6
PHANTOM
 62
   130
  5
134
 10
466.163386
 20
202.559809
 30
0.0
 40
300.0
 50
178.846117
 51
182.292439
  0
ARC
  8
LY_1
  6
PHANTOM
 62
   130
  5
135
 10
176.433634
 20
113.531275
 30
0.0
 40
0.3
 50
188.825815
 51
248.057134
  0
ARC
  8
LY_1
  6
PHANTOM
 62
   130
  5
136
 10
808.55926
 20
211.681147
 30
0.0
 40
640.0
 50
182.470584
 51
188.825815
  0
ARC
  8
LY_1
  6
PHANTOM
 62
   130
  5
137
 10
221.163386
 20
224.559809
 30
0.0
 40
120.0
 50
248.057134
 51
291.942868
  0
LINE
  8
LY_1
  6
CENTER
 62
    50
  5
138
 10
278.184562
 20
234.927997
 30
0.0
 11
323.663386
 21
234.927997
 31
0.0
  0
LINE
  8
LY_1
  6
CONTINUOUS
 62
     3
  5
139
 10
318.663386
 20
476.005251
 30
0.0
 11
318.663386
 21
580.005251
 31
0.0
  0
LINE
  8
LY_1
  6
CONTINUOUS
 62
     3
  5
13A
 10
317.663386
 20
476.005251
 30
0.0
 11
318.663386
 21
476.005251
 31
0.0
  0
LINE
  8
LY_1
  6
CONTINUOUS
 62
     3
  5
13B
 10
317.663386
 20
580.005251
 30
0.0
 11
318.663386
 21
580.005251
 31
0.0
  0
LINE
  8
LY_1
  6
CONTINUOUS
 62
     3
  5
13C
 10
317.663386
 20
583.356886
 30
0.0
 11
314.663386
 21
582.957761
 31
0.0
  0
LINE
  8
LY_1
  6
CONTINUOUS
 62
     3
  5
13D
 10
314.663386
 20
497.005251
 30
0.0
 11
317.663386
 21
497.005251
 31
0.0
  0
LINE
  8
LY_1
  6
CONTINUOUS
 62
     3
  5
13E
 10
314.663386
 20
559.005251
 30
0.0
 11
317.663386
 21
559.005251
 31
0.0
  0
LINE
  8
LY_1
  6
CONTINUOUS
 62
     3
  5
13F
 10
317.663386
 20
472.653616
 30
0.0
 11
314.663386
 21
473.052741
 31
0.0
  0
LINE
  8
LY_1
  6
CONTINUOUS
 62
     3
  5
140
 10
317.663386
 20
583.356886
 30
0.0
 11
317.663386
 21
472.653616
 31
0.0
  0
CIRCLE
  8
LY_1
  6
CONTINUOUS
 62
     3
  5
141
 10
221.163386
 20
528.005251
 30
0.0
 40
52.009295
  0
CIRCLE
  8
LY_1
  6
CONTINUOUS
 62
     3
  5
142
 10
221.163386
 20
528.005251
 30
0.0
 40
44.939547
  0
CIRCLE
  8
LY_1
  6
CONTINUOUS
 62
     3
  5
143
 10
221.163386
 20
528.005251
 30
0.0
 40
55.0
  0
LINE
  8
LY_1
  6
CONTINUOUS
 62
     3
  5
144
 10
282.663386
 20
570.609981
 30
0.0
 11
255.353901
 21
571.08667
 31
0.0
  0
LINE
  8
LY_1
  6
CONTINUOUS
 62
     3
  5
145
 10
282.663386
 20
485.400521
 30
0.0
 11
255.353901
 21
484.923832
 31
0.0
  0
LINE
  8
LY_1
  6
CONTINUOUS
 62
     3
  5
146
 10
282.663386
 20
579.996378
 30
0.0
 11
282.663386
 21
476.014124
 31
0.0
  0
LINE
  8
LY_1
  6
CONTINUOUS
 62
     3
  5
147
 10
314.663386
 20
586.005251
 30
0.0
 11
314.663386
 21
470.005251
 31
0.0
  0
LINE
  8
LY_1
  6
CONTINUOUS
 62
     3
  5
148
 10
314.663386
 20
470.005251
 30
0.0
 11
284.399626
 21
474.031592
 31
0.0
  0
LINE
  8
LY_1
  6
CONTINUOUS
 62
     3
  5
149
 10
314.663386
 20
586.005251
 30
0.0
 11
284.399626
 21
581.97891
 31
0.0
  0
ARC
  8
LY_1
  6
CONTINUOUS
 62
     3
  5
14A
 10
284.663386
 20
579.996378
 30
0.0
 40
2.0
 50
97.578224
 51
180.0
  0
ARC
  8
LY_1
  6
CONTINUOUS
 62
     3
  5
14B
 10
284.663386
 20
476.014124
 30
0.0
 40
2.0
 50
180.0
 51
262.421776
  0
LINE
  8
LY_1
  6
CONTINUOUS
 62
     3
  5
14C
 10
416.403452
 20
279.296185
 30
0.0
 11
525.923258
 21
279.296185
 31
0.0
  0
ARC
  8
LY_1
  6
CONTINUOUS
 62
     3
  5
14D
 10
471.16334
 20
245.296185
 30
0.0
 40
120.0
 50
68.057132
 51
111.942866
  0
ARC
  8
LY_1
  6
CONTINUOUS
 62
     3
  5
14E
 10
409.16334
 20
286.194135
 30
0.0
 40
10.0
 50
316.38652
 51
357.529415
  0
ARC
  8
LY_1
  6
CONTINUOUS
 62
     3
  5
14F
 10
1058.559229
 20
258.174848
 30
0.0
 40
640.0
 50
171.174185
 51
177.529416
  0
ARC
  8
LY_1
  6
CONTINUOUS
 62
     3
  5
150
 10
426.433634
 20
356.324719
 30
0.0
 40
0.3
 50
111.942866
 51
171.174185
  0
ARC
  8
LY_1
  6
CONTINUOUS
 62
     3
  5
151
 10
533.16337
 20
286.194135
 30
0.0
 40
10.0
 50
182.470584
 51
223.613485
  0
ARC
  8
LY_1
  6
CONTINUOUS
 62
     3
  5
152
 10
-116.232458
 20
258.174848
 30
0.0
 40
640.0
 50
2.470585
 51
8.825817
  0
ARC
  8
LY_1
  6
CONTINUOUS
 62
     3
  5
153
 10
515.893076
 20
356.324719
 30
0.0
 40
0.3
 50
8.825817
 51
68.057132
  0
ARC
  8
LY_1
  6
CONTINUOUS
 62
     3
  5
154
 10
226.16337
 20
267.296185
 30
0.0
 40
300.0
 50
0.517385
 51
2.292443
  0
ARC
  8
LY_1
  6
CONTINUOUS
 62
     3
  5
155
 10
716.163355
 20
267.296185
 30
0.0
 40
300.0
 50
177.707561
 51
179.482615
  0
POLYLINE
  8
LY_1
  6
CONTINUOUS
 62
    80
  5
156
 66
     1
 10
0.0
 20
0.0
 30
0.0
 70
     1
  0
VERTEX
  8
LY_1
  6
CONTINUOUS
 62
    80
  5
3B7
 10
56.78336
 20
158.781781
 30
0.0
  0
VERTEX
  8
LY_1
  6
CONTINUOUS
 62
    80
  5
3B8
 10
56.783142
 20
158.807563
 30
0.0
  0
VERTEX
  8
LY_1
  6
CONTINUOUS
 62
    80
  5
3B9
 10
56.782492
 20
158.833359
 30
0.0
  0
VERTEX
  8
LY_1
  6
CONTINUOUS
 62
    80
  5
3BA
 10
56.781413
 20
158.85916
 30
0.0
  0
VERTEX
  8
LY_1
  6
CONTINUOUS
 62
    80
  5
3BB
 10
56.779908
 20
158.884956
 30
0.0
  0
VERTEX
  8
LY_1
  6
CONTINUOUS
 62
    80
  5
3BC
 10
56.77798
 20
158.910738
 30
0.0
  0
VERTEX
  8
LY_1
  6
CONTINUOUS
 62
    80
  5
3BD
 10
56.775632
 20
158.936495
 30
0.0
  0
VERTEX
  8
LY_1
  6
CONTINUOUS
 62
    80
  5
3BE
 10
56.772869
 20
158.962219
 30
0.0
  0
VERTEX
  8
LY_1
  6
CONTINUOUS
 62
    80
  5
3BF
 10
56.769693
 20
158.987899
 30
0.0
  0
VERTEX
  8
LY_1
  6
CONTINUOUS
 62
    80
  5
3C0
 10
56.766107
 20
159.013527
 30
0.0
  0
VERTEX
  8
LY_1
  6
CONTINUOUS
 62
    80
  5
3C1
 10
56.762115
 20
159.039092
 30
0.0
  0
VERTEX
  8
LY_1
  6
CONTINUOUS
 62
    80
  5
3C2
 10
56.757721
 20
159.064585
 30
0.0
  0
VERTEX
  8
LY_1
  6
CONTINUOUS
 62
    80
  5
3C3
 10
56.752926
 20
159.089996
 30
0.0
  0
VERTEX
  8
LY_1
  6
CONTINUOUS
 62
    80
  5
3C4
 10
56.747736
 20
159.115316
 30
0.0
  0
VERTEX
  8
LY_1
  6
CONTINUOUS
 62
    80
  5
3C5
 10
56.742153
 20
159.140535
 30
0.0
  0
VERTEX
  8
LY_1
  6
CONTINUOUS
 62
    80
  5
3C6
 10
56.73618
 20
159.165643
 30
0.0
  0
VERTEX
  8
LY_1
  6
CONTINUOUS
 62
    80
  5
3C7
 10
56.72982
 20
159.190631
 30
0.0
  0
VERTEX
  8
LY_1
  6
CONTINUOUS
 62
    80
  5
3C8
 10
56.722409
 20
159.217889
 30
0.0
  0
VERTEX
  8
LY_1
  6
CONTINUOUS
 62
    80
  5
3C9
 10
56.714539
 20
159.245038
 30
0.0
  0
VERTEX
  8
LY_1
  6
CONTINUOUS
 62
    80
  5
3CA
 10
56.706219
 20
159.272071
 30
0.0
  0
VERTEX
  8
LY_1
  6
CONTINUOUS
 62
    80
  5
3CB
 10
56.697457
 20
159.298981
 30
0.0
  0
VERTEX
  8
LY_1
  6
CONTINUOUS
 62
    80
  5
3CC
 10
56.688261
 20
159.32576
 30
0.0
  0
VERTEX
  8
LY_1
  6
CONTINUOUS
 62
    80
  5
3CD
 10
56.678641
 20
159.352403
 30
0.0
  0
VERTEX
  8
LY_1
  6
CONTINUOUS
 62
    80
  5
3CE
 10
56.668605
 20
159.3789
 30
0.0
  0
VERTEX
  8
LY_1
  6
CONTINUOUS
 62
    80
  5
3CF
 10
56.658161
 20
159.405246
 30
0.0
  0
VERTEX
  8
LY_1
  6
CONTINUOUS
 62
    80
  5
3D0
 10
56.647319
 20
159.431434
 30
0.0
  0
VERTEX
  8
LY_1
  6
CONTINUOUS
 62
    80
  5
3D1
 10
56.636087
 20
159.457455
 30
0.0
  0
VERTEX
  8
LY_1
  6
CONTINUOUS
 62
    80
  5
3D2
 10
56.624473
 20
159.483303
 30
0.0
  0
VERTEX
  8
LY_1
  6
CONTINUOUS
 62
    80
  5
3D3
 10
56.612487
 20
159.508972
 30
0.0
  0
VERTEX
  8
LY_1
  6
CONTINUOUS
 62
    80
  5
3D4
 10
56.600136
 20
159.534453
 30
0.0
  0
VERTEX
  8
LY_1
  6
CONTINUOUS
 62
    80
  5
3D5
 10
56.587429
 20
159.559739
 30
0.0
  0
VERTEX
  8
LY_1
  6
CONTINUOUS
 62
    80
  5
3D6
 10
56.574376
 20
159.584824
 30
0.0
  0
VERTEX
  8
LY_1
  6
CONTINUOUS
 62
    80
  5
3D7
 10
56.560984
 20
159.609701
 30
0.0
  0
VERTEX
  8
LY_1
  6
CONTINUOUS
 62
    80
  5
3D8
 10
56.545187
 20
159.638032
 30
0.0
  0
VERTEX
  8
LY_1
  6
CONTINUOUS
 62
    80
  5
3D9
 10
56.528944
 20
159.666129
 30
0.0
  0
VERTEX
  8
LY_1
  6
CONTINUOUS
 62
    80
  5
3DA
 10
56.512266
 20
159.69399
 30
0.0
  0
VERTEX
  8
LY_1
  6
CONTINUOUS
 62
    80
  5
3DB
 10
56.495163
 20
159.72161
 30
0.0
  0
VERTEX
  8
LY_1
  6
CONTINUOUS
 62
    80
  5
3DC
 10
56.477648
 20
159.748987
 30
0.0
  0
VERTEX
  8
LY_1
  6
CONTINUOUS
 62
    80
  5
3DD
 10
56.45973
 20
159.776116
 30
0.0
  0
VERTEX
  8
LY_1
  6
CONTINUOUS
 62
    80
  5
3DE
 10
56.441422
 20
159.802993
 30
0.0
  0
VERTEX
  8
LY_1
  6
CONTINUOUS
 62
    80
  5
3DF
 10
56.422735
 20
159.829615
 30
0.0
  0
VERTEX
  8
LY_1
  6
CONTINUOUS
 62
    80
  5
3E0
 10
56.403679
 20
159.855979
 30
0.0
  0
VERTEX
  8
LY_1
  6
CONTINUOUS
 62
    80
  5
3E1
 10
56.384266
 20
159.882081
 30
0.0
  0
VERTEX
  8
LY_1
  6
CONTINUOUS
 62
    80
  5
3E2
 10
56.364507
 20
159.907917
 30
0.0
  0
VERTEX
  8
LY_1
  6
CONTINUOUS
 62
    80
  5
3E3
 10
56.344413
 20
159.933483
 30
0.0
  0
VERTEX
  8
LY_1
  6
CONTINUOUS
 62
    80
  5
3E4
 10
56.323996
 20
159.958777
 30
0.0
  0
VERTEX
  8
LY_1
  6
CONTINUOUS
 62
    80
  5
3E5
 10
56.303265
 20
159.983793
 30
0.0
  0
VERTEX
  8
LY_1
  6
CONTINUOUS
 62
    80
  5
3E6
 10
56.282234
 20
160.008529
 30
0.0
  0
VERTEX
  8
LY_1
  6
CONTINUOUS
 62
    80
  5
3E7
 10
56.260912
 20
160.032981
 30
0.0
  0
VERTEX
  8
LY_1
  6
CONTINUOUS
 62
    80
  5
3E8
 10
56.236006
 20
160.060793
 30
0.0
  0
VERTEX
  8
LY_1
  6
CONTINUOUS
 62
    80
  5
3E9
 10
56.210706
 20
160.088269
 30
0.0
  0
VERTEX
  8
LY_1
  6
CONTINUOUS
 62
    80
  5
3EA
 10
56.185023
 20
160.115408
 30
0.0
  0
VERTEX
  8
LY_1
  6
CONTINUOUS
 62
    80
  5
3EB
 10
56.158968
 20
160.14221
 30
0.0
  0
VERTEX
  8
LY_1
  6
CONTINUOUS
 62
    80
  5
3EC
 10
56.132552
 20
160.168674
 30
0.0
  0
VERTEX
  8
LY_1
  6
CONTINUOUS
 62
    80
  5
3ED
 10
56.105786
 20
160.194799
 30
0.0
  0
VERTEX
  8
LY_1
  6
CONTINUOUS
 62
    80
  5
3EE
 10
56.078682
 20
160.220585
 30
0.0
  0
VERTEX
  8
LY_1
  6
CONTINUOUS
 62
    80
  5
3EF
 10
56.05125
 20
160.246031
 30
0.0
  0
VERTEX
  8
LY_1
  6
CONTINUOUS
 62
    80
  5
3F0
 10
56.023502
 20
160.271135
 30
0.0
  0
VERTEX
  8
LY_1
  6
CONTINUOUS
 62
    80
  5
3F1
 10
55.99545
 20
160.295898
 30
0.0
  0
VERTEX
  8
LY_1
  6
CONTINUOUS
 62
    80
  5
3F2
 10
55.967103
 20
160.320318
 30
0.0
  0
VERTEX
  8
LY_1
  6
CONTINUOUS
 62
    80
  5
3F3
 10
55.938474
 20
160.344395
 30
0.0
  0
VERTEX
  8
LY_1
  6
CONTINUOUS
 62
    80
  5
3F4
 10
55.909573
 20
160.368128
 30
0.0
  0
VERTEX
  8
LY_1
  6
CONTINUOUS
 62
    80
  5
3F5
 10
55.880412
 20
160.391517
 30
0.0
  0
VERTEX
  8
LY_1
  6
CONTINUOUS
 62
    80
  5
3F6
 10
55.851002
 20
160.41456
 30
0.0
  0
VERTEX
  8
LY_1
  6
CONTINUOUS
 62
    80
  5
3F7
 10
55.821354
 20
160.437256
 30
0.0
  0
VERTEX
  8
LY_1
  6
CONTINUOUS
 62
    80
  5
3F8
 10
55.787658
 20
160.462429
 30
0.0
  0
VERTEX
  8
LY_1
  6
CONTINUOUS
 62
    80
  5
3F9
 10
55.753642
 20
160.487196
 30
0.0
  0
VERTEX
  8
LY_1
  6
CONTINUOUS
 62
    80
  5
3FA
 10
55.719318
 20
160.511557
 30
0.0
  0
VERTEX
  8
LY_1
  6
CONTINUOUS
 62
    80
  5
3FB
 10
55.684694
 20
160.535513
 30
0.0
  0
VERTEX
  8
LY_1
  6
CONTINUOUS
 62
    80
  5
3FC
 10
55.64978
 20
160.559066
 30
0.0
  0
VERTEX
  8
LY_1
  6
CONTINUOUS
 62
    80
  5
3FD
 10
55.614588
 20
160.582216
 30
0.0
  0
VERTEX
  8
LY_1
  6
CONTINUOUS
 62
    80
  5
3FE
 10
55.579125
 20
160.604964
 30
0.0
  0
VERTEX
  8
LY_1
  6
CONTINUOUS
 62
    80
  5
3FF
 10
55.543404
 20
160.627311
 30
0.0
  0
VERTEX
  8
LY_1
  6
CONTINUOUS
 62
    80
  5
400
 10
55.507432
 20
160.649258
 30
0.0
  0
VERTEX
  8
LY_1
  6
CONTINUOUS
 62
    80
  5
401
 10
55.471221
 20
160.670806
 30
0.0
  0
VERTEX
  8
LY_1
  6
CONTINUOUS
 62
    80
  5
402
 10
55.43478
 20
160.691956
 30
0.0
  0
VERTEX
  8
LY_1
  6
CONTINUOUS
 62
    80
  5
403
 10
55.398119
 20
160.712709
 30
0.0
  0
VERTEX
  8
LY_1
  6
CONTINUOUS
 62
    80
  5
404
 10
55.361248
 20
160.733065
 30
0.0
  0
VERTEX
  8
LY_1
  6
CONTINUOUS
 62
    80
  5
405
 10
55.324177
 20
160.753025
 30
0.0
  0
VERTEX
  8
LY_1
  6
CONTINUOUS
 62
    80
  5
406
 10
55.286916
 20
160.772592
 30
0.0
  0
VERTEX
  8
LY_1
  6
CONTINUOUS
 62
    80
  5
407
 10
55.249474
 20
160.791764
 30
0.0
  0
VERTEX
  8
LY_1
  6
CONTINUOUS
 62
    80
  5
408
 10
55.208294
 20
160.812301
 30
0.0
  0
VERTEX
  8
LY_1
  6
CONTINUOUS
 62
    80
  5
409
 10
55.166878
 20
160.832391
 30
0.0
  0
VERTEX
  8
LY_1
  6
CONTINUOUS
 62
    80
  5
40A
 10
55.125233
 20
160.852034
 30
0.0
  0
VERTEX
  8
LY_1
  6
CONTINUOUS
 62
    80
  5
40B
 10
55.083368
 20
160.871234
 30
0.0
  0
VERTEX
  8
LY_1
  6
CONTINUOUS
 62
    80
  5
40C
 10
55.041292
 20
160.88999
 30
0.0
  0
VERTEX
  8
LY_1
  6
CONTINUOUS
 62
    80
  5
40D
 10
54.999012
 20
160.908304
 30
0.0
  0
VERTEX
  8
LY_1
  6
CONTINUOUS
 62
    80
  5
40E
 10
54.956538
 20
160.926179
 30
0.0
  0
VERTEX
  8
LY_1
  6
CONTINUOUS
 62
    80
  5
40F
 10
54.913878
 20
160.943614
 30
0.0
  0
VERTEX
  8
LY_1
  6
CONTINUOUS
 62
    80
  5
410
 10
54.87104
 20
160.960612
 30
0.0
  0
VERTEX
  8
LY_1
  6
CONTINUOUS
 62
    80
  5
411
 10
54.828033
 20
160.977173
 30
0.0
  0
VERTEX
  8
LY_1
  6
CONTINUOUS
 62
    80
  5
412
 10
54.784865
 20
160.993301
 30
0.0
  0
VERTEX
  8
LY_1
  6
CONTINUOUS
 62
    80
  5
413
 10
54.741544
 20
161.008994
 30
0.0
  0
VERTEX
  8
LY_1
  6
CONTINUOUS
 62
    80
  5
414
 10
54.698079
 20
161.024257
 30
0.0
  0
VERTEX
  8
LY_1
  6
CONTINUOUS
 62
    80
  5
415
 10
54.654479
 20
161.039088
 30
0.0
  0
VERTEX
  8
LY_1
  6
CONTINUOUS
 62
    80
  5
416
 10
54.610751
 20
161.053491
 30
0.0
  0
VERTEX
  8
LY_1
  6
CONTINUOUS
 62
    80
  5
417
 10
54.566905
 20
161.067466
 30
0.0
  0
VERTEX
  8
LY_1
  6
CONTINUOUS
 62
    80
  5
418
 10
54.520239
 20
161.081835
 30
0.0
  0
VERTEX
  8
LY_1
  6
CONTINUOUS
 62
    80
  5
419
 10
54.473416
 20
161.095738
 30
0.0
  0
VERTEX
  8
LY_1
  6
CONTINUOUS
 62
    80
  5
41A
 10
54.426444
 20
161.109175
 30
0.0
  0
VERTEX
  8
LY_1
  6
CONTINUOUS
 62
    80
  5
41B
 10
54.37933
 20
161.122148
 30
0.0
  0
VERTEX
  8
LY_1
  6
CONTINUOUS
 62
    80
  5
41C
 10
54.332081
 20
161.134659
 30
0.0
  0
VERTEX
  8
LY_1
  6
CONTINUOUS
 62
    80
  5
41D
 10
54.284705
 20
161.146708
 30
0.0
  0
VERTEX
  8
LY_1
  6
CONTINUOUS
 62
    80
  5
41E
 10
54.237209
 20
161.158295
 30
0.0
  0
VERTEX
  8
LY_1
  6
CONTINUOUS
 62
    80
  5
41F
 10
54.1896
 20
161.169424
 30
0.0
  0
VERTEX
  8
LY_1
  6
CONTINUOUS
 62
    80
  5
420
 10
54.141885
 20
161.180094
 30
0.0
  0
VERTEX
  8
LY_1
  6
CONTINUOUS
 62
    80
  5
421
 10
54.094072
 20
161.190306
 30
0.0
  0
VERTEX
  8
LY_1
  6
CONTINUOUS
 62
    80
  5
422
 10
54.046167
 20
161.200062
 30
0.0
  0
VERTEX
  8
LY_1
  6
CONTINUOUS
 62
    80
  5
423
 10
53.998179
 20
161.209363
 30
0.0
  0
VERTEX
  8
LY_1
  6
CONTINUOUS
 62
    80
  5
424
 10
53.950114
 20
161.21821
 30
0.0
  0
VERTEX
  8
LY_1
  6
CONTINUOUS
 62
    80
  5
425
 10
53.901979
 20
161.226605
 30
0.0
  0
VERTEX
  8
LY_1
  6
CONTINUOUS
 62
    80
  5
426
 10
53.853782
 20
161.234547
 30
0.0
  0
VERTEX
  8
LY_1
  6
CONTINUOUS
 62
    80
  5
427
 10
53.80553
 20
161.242039
 30
0.0
  0
VERTEX
  8
LY_1
  6
CONTINUOUS
 62
    80
  5
428
 10
53.755773
 20
161.249287
 30
0.0
  0
VERTEX
  8
LY_1
  6
CONTINUOUS
 62
    80
  5
429
 10
53.705933
 20
161.256064
 30
0.0
  0
VERTEX
  8
LY_1
  6
CONTINUOUS
 62
    80
  5
42A
 10
53.65602
 20
161.262372
 30
0.0
  0
VERTEX
  8
LY_1
  6
CONTINUOUS
 62
    80
  5
42B
 10
53.606038
 20
161.268209
 30
0.0
  0
VERTEX
  8
LY_1
  6
CONTINUOUS
 62
    80
  5
42C
 10
53.555994
 20
161.273577
 30
0.0
  0
VERTEX
  8
LY_1
  6
CONTINUOUS
 62
    80
  5
42D
 10
53.505896
 20
161.278476
 30
0.0
  0
VERTEX
  8
LY_1
  6
CONTINUOUS
 62
    80
  5
42E
 10
53.455749
 20
161.282906
 30
0.0
  0
VERTEX
  8
LY_1
  6
CONTINUOUS
 62
    80
  5
42F
 10
53.405561
 20
161.286869
 30
0.0
  0
VERTEX
  8
LY_1
  6
CONTINUOUS
 62
    80
  5
430
 10
53.355338
 20
161.290363
 30
0.0
  0
VERTEX
  8
LY_1
  6
CONTINUOUS
 62
    80
  5
431
 10
53.305086
 20
161.29339
 30
0.0
  0
VERTEX
  8
LY_1
  6
CONTINUOUS
 62
    80
  5
432
 10
53.254813
 20
161.295951
 30
0.0
  0
VERTEX
  8
LY_1
  6
CONTINUOUS
 62
    80
  5
433
 10
53.204524
 20
161.298045
 30
0.0
  0
VERTEX
  8
LY_1
  6
CONTINUOUS
 62
    80
  5
434
 10
53.154227
 20
161.299673
 30
0.0
  0
VERTEX
  8
LY_1
  6
CONTINUOUS
 62
    80
  5
435
 10
53.103929
 20
161.300835
 30
0.0
  0
VERTEX
  8
LY_1
  6
CONTINUOUS
 62
    80
  5
436
 10
53.053634
 20
161.301532
 30
0.0
  0
VERTEX
  8
LY_1
  6
CONTINUOUS
 62
    80
  5
437
 10
53.003352
 20
161.301764
 30
0.0
  0
VERTEX
  8
LY_1
  6
CONTINUOUS
 62
    80
  5
438
 10
52.953069
 20
161.301532
 30
0.0
  0
VERTEX
  8
LY_1
  6
CONTINUOUS
 62
    80
  5
439
 10
52.902775
 20
161.300835
 30
0.0
  0
VERTEX
  8
LY_1
  6
CONTINUOUS
 62
    80
  5
43A
 10
52.852476
 20
161.299673
 30
0.0
  0
VERTEX
  8
LY_1
  6
CONTINUOUS
 62
    80
  5
43B
 10
52.802179
 20
161.298045
 30
0.0
  0
VERTEX
  8
LY_1
  6
CONTINUOUS
 62
    80
  5
43C
 10
52.75189
 20
161.295951
 30
0.0
  0
VERTEX
  8
LY_1
  6
CONTINUOUS
 62
    80
  5
43D
 10
52.701617
 20
161.29339
 30
0.0
  0
VERTEX
  8
LY_1
  6
CONTINUOUS
 62
    80
  5
43E
 10
52.651365
 20
161.290363
 30
0.0
  0
VERTEX
  8
LY_1
  6
CONTINUOUS
 62
    80
  5
43F
 10
52.601142
 20
161.286869
 30
0.0
  0
VERTEX
  8
LY_1
  6
CONTINUOUS
 62
    80
  5
440
 10
52.550954
 20
161.282906
 30
0.0
  0
VERTEX
  8
LY_1
  6
CONTINUOUS
 62
    80
  5
441
 10
52.500807
 20
161.278476
 30
0.0
  0
VERTEX
  8
LY_1
  6
CONTINUOUS
 62
    80
  5
442
 10
52.450709
 20
161.273577
 30
0.0
  0
VERTEX
  8
LY_1
  6
CONTINUOUS
 62
    80
  5
443
 10
52.400665
 20
161.268209
 30
0.0
  0
VERTEX
  8
LY_1
  6
CONTINUOUS
 62
    80
  5
444
 10
52.350683
 20
161.262372
 30
0.0
  0
VERTEX
  8
LY_1
  6
CONTINUOUS
 62
    80
  5
445
 10
52.30077
 20
161.256064
 30
0.0
  0
VERTEX
  8
LY_1
  6
CONTINUOUS
 62
    80
  5
446
 10
52.250931
 20
161.249287
 30
0.0
  0
VERTEX
  8
LY_1
  6
CONTINUOUS
 62
    80
  5
447
 10
52.201173
 20
161.242039
 30
0.0
  0
VERTEX
  8
LY_1
  6
CONTINUOUS
 62
    80
  5
448
 10
52.152921
 20
161.234547
 30
0.0
  0
VERTEX
  8
LY_1
  6
CONTINUOUS
 62
    80
  5
449
 10
52.104724
 20
161.226605
 30
0.0
  0
VERTEX
  8
LY_1
  6
CONTINUOUS
 62
    80
  5
44A
 10
52.056589
 20
161.21821
 30
0.0
  0
VERTEX
  8
LY_1
  6
CONTINUOUS
 62
    80
  5
44B
 10
52.008524
 20
161.209363
 30
0.0
  0
VERTEX
  8
LY_1
  6
CONTINUOUS
 62
    80
  5
44C
 10
51.960536
 20
161.200062
 30
0.0
  0
VERTEX
  8
LY_1
  6
CONTINUOUS
 62
    80
  5
44D
 10
51.912631
 20
161.190306
 30
0.0
  0
VERTEX
  8
LY_1
  6
CONTINUOUS
 62
    80
  5
44E
 10
51.864818
 20
161.180094
 30
0.0
  0
VERTEX
  8
LY_1
  6
CONTINUOUS
 62
    80
  5
44F
 10
51.817103
 20
161.169424
 30
0.0
  0
VERTEX
  8
LY_1
  6
CONTINUOUS
 62
    80
  5
450
 10
51.769494
 20
161.158295
 30
0.0
  0
VERTEX
  8
LY_1
  6
CONTINUOUS
 62
    80
  5
451
 10
51.721998
 20
161.146708
 30
0.0
  0
VERTEX
  8
LY_1
  6
CONTINUOUS
 62
    80
  5
452
 10
51.674622
 20
161.134659
 30
0.0
  0
VERTEX
  8
LY_1
  6
CONTINUOUS
 62
    80
  5
453
 10
51.627373
 20
161.122148
 30
0.0
  0
VERTEX
  8
LY_1
  6
CONTINUOUS
 62
    80
  5
454
 10
51.580259
 20
161.109175
 30
0.0
  0
VERTEX
  8
LY_1
  6
CONTINUOUS
 62
    80
  5
455
 10
51.533287
 20
161.095738
 30
0.0
  0
VERTEX
  8
LY_1
  6
CONTINUOUS
 62
    80
  5
456
 10
51.486464
 20
161.081835
 30
0.0
  0
VERTEX
  8
LY_1
  6
CONTINUOUS
 62
    80
  5
457
 10
51.439798
 20
161.067466
 30
0.0
  0
VERTEX
  8
LY_1
  6
CONTINUOUS
 62
    80
  5
458
 10
51.395952
 20
161.053491
 30
0.0
  0
VERTEX
  8
LY_1
  6
CONTINUOUS
 62
    80
  5
459
 10
51.352224
 20
161.039088
 30
0.0
  0
VERTEX
  8
LY_1
  6
CONTINUOUS
 62
    80
  5
45A
 10
51.308624
 20
161.024257
 30
0.0
  0
VERTEX
  8
LY_1
  6
CONTINUOUS
 62
    80
  5
45B
 10
51.265159
 20
161.008994
 30
0.0
  0
VERTEX
  8
LY_1
  6
CONTINUOUS
 62
    80
  5
45C
 10
51.221838
 20
160.993301
 30
0.0
  0
VERTEX
  8
LY_1
  6
CONTINUOUS
 62
    80
  5
45D
 10
51.17867
 20
160.977173
 30
0.0
  0
VERTEX
  8
LY_1
  6
CONTINUOUS
 62
    80
  5
45E
 10
51.135663
 20
160.960612
 30
0.0
  0
VERTEX
  8
LY_1
  6
CONTINUOUS
 62
    80
  5
45F
 10
51.092825
 20
160.943614
 30
0.0
  0
VERTEX
  8
LY_1
  6
CONTINUOUS
 62
    80
  5
460
 10
51.050165
 20
160.926179
 30
0.0
  0
VERTEX
  8
LY_1
  6
CONTINUOUS
 62
    80
  5
461
 10
51.007691
 20
160.908304
 30
0.0
  0
VERTEX
  8
LY_1
  6
CONTINUOUS
 62
    80
  5
462
 10
50.965412
 20
160.88999
 30
0.0
  0
VERTEX
  8
LY_1
  6
CONTINUOUS
 62
    80
  5
463
 10
50.923335
 20
160.871234
 30
0.0
  0
VERTEX
  8
LY_1
  6
CONTINUOUS
 62
    80
  5
464
 10
50.88147
 20
160.852034
 30
0.0
  0
VERTEX
  8
LY_1
  6
CONTINUOUS
 62
    80
  5
465
 10
50.839825
 20
160.832391
 30
0.0
  0
VERTEX
  8
LY_1
  6
CONTINUOUS
 62
    80
  5
466
 10
50.798409
 20
160.812301
 30
0.0
  0
VERTEX
  8
LY_1
  6
CONTINUOUS
 62
    80
  5
467
 10
50.757229
 20
160.791764
 30
0.0
  0
VERTEX
  8
LY_1
  6
CONTINUOUS
 62
    80
  5
468
 10
50.719788
 20
160.772592
 30
0.0
  0
VERTEX
  8
LY_1
  6
CONTINUOUS
 62
    80
  5
469
 10
50.682526
 20
160.753025
 30
0.0
  0
VERTEX
  8
LY_1
  6
CONTINUOUS
 62
    80
  5
46A
 10
50.645455
 20
160.733065
 30
0.0
  0
VERTEX
  8
LY_1
  6
CONTINUOUS
 62
    80
  5
46B
 10
50.608584
 20
160.712709
 30
0.0
  0
VERTEX
  8
LY_1
  6
CONTINUOUS
 62
    80
  5
46C
 10
50.571923
 20
160.691956
 30
0.0
  0
VERTEX
  8
LY_1
  6
CONTINUOUS
 62
    80
  5
46D
 10
50.535482
 20
160.670806
 30
0.0
  0
VERTEX
  8
LY_1
  6
CONTINUOUS
 62
    80
  5
46E
 10
50.499271
 20
160.649258
 30
0.0
  0
VERTEX
  8
LY_1
  6
CONTINUOUS
 62
    80
  5
46F
 10
50.4633
 20
160.627311
 30
0.0
  0
VERTEX
  8
LY_1
  6
CONTINUOUS
 62
    80
  5
470
 10
50.427578
 20
160.604964
 30
0.0
  0
VERTEX
  8
LY_1
  6
CONTINUOUS
 62
    80
  5
471
 10
50.392115
 20
160.582216
 30
0.0
  0
VERTEX
  8
LY_1
  6
CONTINUOUS
 62
    80
  5
472
 10
50.356923
 20
160.559066
 30
0.0
  0
VERTEX
  8
LY_1
  6
CONTINUOUS
 62
    80
  5
473
 10
50.322009
 20
160.535513
 30
0.0
  0
VERTEX
  8
LY_1
  6
CONTINUOUS
 62
    80
  5
474
 10
50.287385
 20
160.511557
 30
0.0
  0
VERTEX
  8
LY_1
  6
CONTINUOUS
 62
    80
  5
475
 10
50.253061
 20
160.487196
 30
0.0
  0
VERTEX
  8
LY_1
  6
CONTINUOUS
 62
    80
  5
476
 10
50.219046
 20
160.462429
 30
0.0
  0
VERTEX
  8
LY_1
  6
CONTINUOUS
 62
    80
  5
477
 10
50.185349
 20
160.437256
 30
0.0
  0
VERTEX
  8
LY_1
  6
CONTINUOUS
 62
    80
  5
478
 10
50.155701
 20
160.41456
 30
0.0
  0
VERTEX
  8
LY_1
  6
CONTINUOUS
 62
    80
  5
479
 10
50.126291
 20
160.391517
 30
0.0
  0
VERTEX
  8
LY_1
  6
CONTINUOUS
 62
    80
  5
47A
 10
50.09713
 20
160.368128
 30
0.0
  0
VERTEX
  8
LY_1
  6
CONTINUOUS
 62
    80
  5
47B
 10
50.068229
 20
160.344395
 30
0.0
  0
VERTEX
  8
LY_1
  6
CONTINUOUS
 62
    80
  5
47C
 10
50.0396
 20
160.320318
 30
0.0
  0
VERTEX
  8
LY_1
  6
CONTINUOUS
 62
    80
  5
47D
 10
50.011254
 20
160.295898
 30
0.0
  0
VERTEX
  8
LY_1
  6
CONTINUOUS
 62
    80
  5
47E
 10
49.983201
 20
160.271135
 30
0.0
  0
VERTEX
  8
LY_1
  6
CONTINUOUS
 62
    80
  5
47F
 10
49.955453
 20
160.246031
 30
0.0
  0
VERTEX
  8
LY_1
  6
CONTINUOUS
 62
    80
  5
480
 10
49.928021
 20
160.220585
 30
0.0
  0
VERTEX
  8
LY_1
  6
CONTINUOUS
 62
    80
  5
481
 10
49.900917
 20
160.194799
 30
0.0
  0
VERTEX
  8
LY_1
  6
CONTINUOUS
 62
    80
  5
482
 10
49.874151
 20
160.168674
 30
0.0
  0
VERTEX
  8
LY_1
  6
CONTINUOUS
 62
    80
  5
483
 10
49.847735
 20
160.14221
 30
0.0
  0
VERTEX
  8
LY_1
  6
CONTINUOUS
 62
    80
  5
484
 10
49.82168
 20
160.115408
 30
0.0
  0
VERTEX
  8
LY_1
  6
CONTINUOUS
 62
    80
  5
485
 10
49.795997
 20
160.088269
 30
0.0
  0
VERTEX
  8
LY_1
  6
CONTINUOUS
 62
    80
  5
486
 10
49.770697
 20
160.060793
 30
0.0
  0
VERTEX
  8
LY_1
  6
CONTINUOUS
 62
    80
  5
487
 10
49.745792
 20
160.032981
 30
0.0
  0
VERTEX
  8
LY_1
  6
CONTINUOUS
 62
    80
  5
488
 10
49.724469
 20
160.008529
 30
0.0
  0
VERTEX
  8
LY_1
  6
CONTINUOUS
 62
    80
  5
489
 10
49.703438
 20
159.983793
 30
0.0
  0
VERTEX
  8
LY_1
  6
CONTINUOUS
 62
    80
  5
48A
 10
49.682707
 20
159.958777
 30
0.0
  0
VERTEX
  8
LY_1
  6
CONTINUOUS
 62
    80
  5
48B
 10
49.66229
 20
159.933483
 30
0.0
  0
VERTEX
  8
LY_1
  6
CONTINUOUS
 62
    80
  5
48C
 10
49.642196
 20
159.907917
 30
0.0
  0
VERTEX
  8
LY_1
  6
CONTINUOUS
 62
    80
  5
48D
 10
49.622437
 20
159.882081
 30
0.0
  0
VERTEX
  8
LY_1
  6
CONTINUOUS
 62
    80
  5
48E
 10
49.603024
 20
159.855979
 30
0.0
  0
VERTEX
  8
LY_1
  6
CONTINUOUS
 62
    80
  5
48F
 10
49.583968
 20
159.829615
 30
0.0
  0
VERTEX
  8
LY_1
  6
CONTINUOUS
 62
    80
  5
490
 10
49.565281
 20
159.802993
 30
0.0
  0
VERTEX
  8
LY_1
  6
CONTINUOUS
 62
    80
  5
491
 10
49.546973
 20
159.776116
 30
0.0
  0
VERTEX
  8
LY_1
  6
CONTINUOUS
 62
    80
  5
492
 10
49.529056
 20
159.748987
 30
0.0
  0
VERTEX
  8
LY_1
  6
CONTINUOUS
 62
    80
  5
493
 10
49.51154
 20
159.72161
 30
0.0
  0
VERTEX
  8
LY_1
  6
CONTINUOUS
 62
    80
  5
494
 10
49.494437
 20
159.69399
 30
0.0
  0
VERTEX
  8
LY_1
  6
CONTINUOUS
 62
    80
  5
495
 10
49.477759
 20
159.666129
 30
0.0
  0
VERTEX
  8
LY_1
  6
CONTINUOUS
 62
    80
  5
496
 10
49.461516
 20
159.638032
 30
0.0
  0
VERTEX
  8
LY_1
  6
CONTINUOUS
 62
    80
  5
497
 10
49.445719
 20
159.609701
 30
0.0
  0
VERTEX
  8
LY_1
  6
CONTINUOUS
 62
    80
  5
498
 10
49.432327
 20
159.584824
 30
0.0
  0
VERTEX
  8
LY_1
  6
CONTINUOUS
 62
    80
  5
499
 10
49.419274
 20
159.559739
 30
0.0
  0
VERTEX
  8
LY_1
  6
CONTINUOUS
 62
    80
  5
49A
 10
49.406567
 20
159.534453
 30
0.0
  0
VERTEX
  8
LY_1
  6
CONTINUOUS
 62
    80
  5
49B
 10
49.394216
 20
159.508972
 30
0.0
  0
VERTEX
  8
LY_1
  6
CONTINUOUS
 62
    80
  5
49C
 10
49.38223
 20
159.483303
 30
0.0
  0
VERTEX
  8
LY_1
  6
CONTINUOUS
 62
    80
  5
49D
 10
49.370616
 20
159.457455
 30
0.0
  0
VERTEX
  8
LY_1
  6
CONTINUOUS
 62
    80
  5
49E
 10
49.359384
 20
159.431434
 30
0.0
  0
VERTEX
  8
LY_1
  6
CONTINUOUS
 62
    80
  5
49F
 10
49.348542
 20
159.405246
 30
0.0
  0
VERTEX
  8
LY_1
  6
CONTINUOUS
 62
    80
  5
4A0
 10
49.338098
 20
159.3789
 30
0.0
  0
VERTEX
  8
LY_1
  6
CONTINUOUS
 62
    80
  5
4A1
 10
49.328062
 20
159.352403
 30
0.0
  0
VERTEX
  8
LY_1
  6
CONTINUOUS
 62
    80
  5
4A2
 10
49.318442
 20
159.32576
 30
0.0
  0
VERTEX
  8
LY_1
  6
CONTINUOUS
 62
    80
  5
4A3
 10
49.309246
 20
159.298981
 30
0.0
  0
VERTEX
  8
LY_1
  6
CONTINUOUS
 62
    80
  5
4A4
 10
49.300484
 20
159.272071
 30
0.0
  0
VERTEX
  8
LY_1
  6
CONTINUOUS
 62
    80
  5
4A5
 10
49.292164
 20
159.245038
 30
0.0
  0
VERTEX
  8
LY_1
  6
CONTINUOUS
 62
    80
  5
4A6
 10
49.284294
 20
159.217889
 30
0.0
  0
VERTEX
  8
LY_1
  6
CONTINUOUS
 62
    80
  5
4A7
 10
49.276883
 20
159.190631
 30
0.0
  0
VERTEX
  8
LY_1
  6
CONTINUOUS
 62
    80
  5
4A8
 10
49.270524
 20
159.165643
 30
0.0
  0
VERTEX
  8
LY_1
  6
CONTINUOUS
 62
    80
  5
4A9
 10
49.26455
 20
159.140535
 30
0.0
  0
VERTEX
  8
LY_1
  6
CONTINUOUS
 62
    80
  5
4AA
 10
49.258967
 20
159.115316
 30
0.0
  0
VERTEX
  8
LY_1
  6
CONTINUOUS
 62
    80
  5
4AB
 10
49.253777
 20
159.089996
 30
0.0
  0
VERTEX
  8
LY_1
  6
CONTINUOUS
 62
    80
  5
4AC
 10
49.248982
 20
159.064585
 30
0.0
  0
VERTEX
  8
LY_1
  6
CONTINUOUS
 62
    80
  5
4AD
 10
49.244588
 20
159.039092
 30
0.0
  0
VERTEX
  8
LY_1
  6
CONTINUOUS
 62
    80
  5
4AE
 10
49.240596
 20
159.013527
 30
0.0
  0
VERTEX
  8
LY_1
  6
CONTINUOUS
 62
    80
  5
4AF
 10
49.23701
 20
158.987899
 30
0.0
  0
VERTEX
  8
LY_1
  6
CONTINUOUS
 62
    80
  5
4B0
 10
49.233834
 20
158.962219
 30
0.0
  0
VERTEX
  8
LY_1
  6
CONTINUOUS
 62
    80
  5
4B1
 10
49.231071
 20
158.936495
 30
0.0
  0
VERTEX
  8
LY_1
  6
CONTINUOUS
 62
    80
  5
4B2
 10
49.228723
 20
158.910738
 30
0.0
  0
VERTEX
  8
LY_1
  6
CONTINUOUS
 62
    80
  5
4B3
 10
49.226796
 20
158.884956
 30
0.0
  0
VERTEX
  8
LY_1
  6
CONTINUOUS
 62
    80
  5
4B4
 10
49.22529
 20
158.85916
 30
0.0
  0
VERTEX
  8
LY_1
  6
CONTINUOUS
 62
    80
  5
4B5
 10
49.224211
 20
158.833359
 30
0.0
  0
VERTEX
  8
LY_1
  6
CONTINUOUS
 62
    80
  5
4B6
 10
49.223561
 20
158.807563
 30
0.0
  0
VERTEX
  8
LY_1
  6
CONTINUOUS
 62
    80
  5
4B7
 10
49.223344
 20
158.781781
 30
0.0
  0
VERTEX
  8
LY_1
  6
CONTINUOUS
 62
    80
  5
4B8
 10
49.223561
 20
158.755999
 30
0.0
  0
VERTEX
  8
LY_1
  6
CONTINUOUS
 62
    80
  5
4B9
 10
49.224211
 20
158.730203
 30
0.0
  0
VERTEX
  8
LY_1
  6
CONTINUOUS
 62
    80
  5
4BA
 10
49.22529
 20
158.704403
 30
0.0
  0
VERTEX
  8
LY_1
  6
CONTINUOUS
 62
    80
  5
4BB
 10
49.226796
 20
158.678606
 30
0.0
  0
VERTEX
  8
LY_1
  6
CONTINUOUS
 62
    80
  5
4BC
 10
49.228723
 20
158.652825
 30
0.0
  0
VERTEX
  8
LY_1
  6
CONTINUOUS
 62
    80
  5
4BD
 10
49.231071
 20
158.627067
 30
0.0
  0
VERTEX
  8
LY_1
  6
CONTINUOUS
 62
    80
  5
4BE
 10
49.233834
 20
158.601343
 30
0.0
  0
VERTEX
  8
LY_1
  6
CONTINUOUS
 62
    80
  5
4BF
 10
49.23701
 20
158.575663
 30
0.0
  0
VERTEX
  8
LY_1
  6
CONTINUOUS
 62
    80
  5
4C0
 10
49.240596
 20
158.550035
 30
0.0
  0
VERTEX
  8
LY_1
  6
CONTINUOUS
 62
    80
  5
4C1
 10
49.244588
 20
158.52447
 30
0.0
  0
VERTEX
  8
LY_1
  6
CONTINUOUS
 62
    80
  5
4C2
 10
49.248982
 20
158.498977
 30
0.0
  0
VERTEX
  8
LY_1
  6
CONTINUOUS
 62
    80
  5
4C3
 10
49.253777
 20
158.473566
 30
0.0
  0
VERTEX
  8
LY_1
  6
CONTINUOUS
 62
    80
  5
4C4
 10
49.258967
 20
158.448246
 30
0.0
  0
VERTEX
  8
LY_1
  6
CONTINUOUS
 62
    80
  5
4C5
 10
49.26455
 20
158.423027
 30
0.0
  0
VERTEX
  8
LY_1
  6
CONTINUOUS
 62
    80
  5
4C6
 10
49.270524
 20
158.397919
 30
0.0
  0
VERTEX
  8
LY_1
  6
CONTINUOUS
 62
    80
  5
4C7
 10
49.276883
 20
158.372931
 30
0.0
  0
VERTEX
  8
LY_1
  6
CONTINUOUS
 62
    80
  5
4C8
 10
49.284294
 20
158.345673
 30
0.0
  0
VERTEX
  8
LY_1
  6
CONTINUOUS
 62
    80
  5
4C9
 10
49.292164
 20
158.318524
 30
0.0
  0
VERTEX
  8
LY_1
  6
CONTINUOUS
 62
    80
  5
4CA
 10
49.300484
 20
158.291491
 30
0.0
  0
VERTEX
  8
LY_1
  6
CONTINUOUS
 62
    80
  5
4CB
 10
49.309246
 20
158.264582
 30
0.0
  0
VERTEX
  8
LY_1
  6
CONTINUOUS
 62
    80
  5
4CC
 10
49.318442
 20
158.237802
 30
0.0
  0
VERTEX
  8
LY_1
  6
CONTINUOUS
 62
    80
  5
4CD
 10
49.328062
 20
158.21116
 30
0.0
  0
VERTEX
  8
LY_1
  6
CONTINUOUS
 62
    80
  5
4CE
 10
49.338098
 20
158.184662
 30
0.0
  0
VERTEX
  8
LY_1
  6
CONTINUOUS
 62
    80
  5
4CF
 10
49.348542
 20
158.158316
 30
0.0
  0
VERTEX
  8
LY_1
  6
CONTINUOUS
 62
    80
  5
4D0
 10
49.359384
 20
158.132129
 30
0.0
  0
VERTEX
  8
LY_1
  6
CONTINUOUS
 62
    80
  5
4D1
 10
49.370616
 20
158.106107
 30
0.0
  0
VERTEX
  8
LY_1
  6
CONTINUOUS
 62
    80
  5
4D2
 10
49.38223
 20
158.080259
 30
0.0
  0
VERTEX
  8
LY_1
  6
CONTINUOUS
 62
    80
  5
4D3
 10
49.394216
 20
158.054591
 30
0.0
  0
VERTEX
  8
LY_1
  6
CONTINUOUS
 62
    80
  5
4D4
 10
49.406567
 20
158.02911
 30
0.0
  0
VERTEX
  8
LY_1
  6
CONTINUOUS
 62
    80
  5
4D5
 10
49.419274
 20
158.003823
 30
0.0
  0
VERTEX
  8
LY_1
  6
CONTINUOUS
 62
    80
  5
4D6
 10
49.432327
 20
157.978738
 30
0.0
  0
VERTEX
  8
LY_1
  6
CONTINUOUS
 62
    80
  5
4D7
 10
49.445719
 20
157.953861
 30
0.0
  0
VERTEX
  8
LY_1
  6
CONTINUOUS
 62
    80
  5
4D8
 10
49.461516
 20
157.925531
 30
0.0
  0
VERTEX
  8
LY_1
  6
CONTINUOUS
 62
    80
  5
4D9
 10
49.477759
 20
157.897433
 30
0.0
  0
VERTEX
  8
LY_1
  6
CONTINUOUS
 62
    80
  5
4DA
 10
49.494437
 20
157.869572
 30
0.0
  0
VERTEX
  8
LY_1
  6
CONTINUOUS
 62
    80
  5
4DB
 10
49.51154
 20
157.841952
 30
0.0
  0
VERTEX
  8
LY_1
  6
CONTINUOUS
 62
    80
  5
4DC
 10
49.529056
 20
157.814576
 30
0.0
  0
VERTEX
  8
LY_1
  6
CONTINUOUS
 62
    80
  5
4DD
 10
49.546973
 20
157.787447
 30
0.0
  0
VERTEX
  8
LY_1
  6
CONTINUOUS
 62
    80
  5
4DE
 10
49.565281
 20
157.760569
 30
0.0
  0
VERTEX
  8
LY_1
  6
CONTINUOUS
 62
    80
  5
4DF
 10
49.583968
 20
157.733947
 30
0.0
  0
VERTEX
  8
LY_1
  6
CONTINUOUS
 62
    80
  5
4E0
 10
49.603024
 20
157.707583
 30
0.0
  0
VERTEX
  8
LY_1
  6
CONTINUOUS
 62
    80
  5
4E1
 10
49.622437
 20
157.681481
 30
0.0
  0
VERTEX
  8
LY_1
  6
CONTINUOUS
 62
    80
  5
4E2
 10
49.642196
 20
157.655645
 30
0.0
  0
VERTEX
  8
LY_1
  6
CONTINUOUS
 62
    80
  5
4E3
 10
49.66229
 20
157.630079
 30
0.0
  0
VERTEX
  8
LY_1
  6
CONTINUOUS
 62
    80
  5
4E4
 10
49.682707
 20
157.604786
 30
0.0
  0
VERTEX
  8
LY_1
  6
CONTINUOUS
 62
    80
  5
4E5
 10
49.703438
 20
157.579769
 30
0.0
  0
VERTEX
  8
LY_1
  6
CONTINUOUS
 62
    80
  5
4E6
 10
49.724469
 20
157.555033
 30
0.0
  0
VERTEX
  8
LY_1
  6
CONTINUOUS
 62
    80
  5
4E7
 10
49.745792
 20
157.530581
 30
0.0
  0
VERTEX
  8
LY_1
  6
CONTINUOUS
 62
    80
  5
4E8
 10
49.770697
 20
157.502769
 30
0.0
  0
VERTEX
  8
LY_1
  6
CONTINUOUS
 62
    80
  5
4E9
 10
49.795997
 20
157.475294
 30
0.0
  0
VERTEX
  8
LY_1
  6
CONTINUOUS
 62
    80
  5
4EA
 10
49.82168
 20
157.448154
 30
0.0
  0
VERTEX
  8
LY_1
  6
CONTINUOUS
 62
    80
  5
4EB
 10
49.847735
 20
157.421352
 30
0.0
  0
VERTEX
  8
LY_1
  6
CONTINUOUS
 62
    80
  5
4EC
 10
49.874151
 20
157.394888
 30
0.0
  0
VERTEX
  8
LY_1
  6
CONTINUOUS
 62
    80
  5
4ED
 10
49.900917
 20
157.368763
 30
0.0
  0
VERTEX
  8
LY_1
  6
CONTINUOUS
 62
    80
  5
4EE
 10
49.928021
 20
157.342977
 30
0.0
  0
VERTEX
  8
LY_1
  6
CONTINUOUS
 62
    80
  5
4EF
 10
49.955453
 20
157.317532
 30
0.0
  0
VERTEX
  8
LY_1
  6
CONTINUOUS
 62
    80
  5
4F0
 10
49.983201
 20
157.292427
 30
0.0
  0
VERTEX
  8
LY_1
  6
CONTINUOUS
 62
    80
  5
4F1
 10
50.011254
 20
157.267665
 30
0.0
  0
VERTEX
  8
LY_1
  6
CONTINUOUS
 62
    80
  5
4F2
 10
50.0396
 20
157.243244
 30
0.0
  0
VERTEX
  8
LY_1
  6
CONTINUOUS
 62
    80
  5
4F3
 10
50.068229
 20
157.219167
 30
0.0
  0
VERTEX
  8
LY_1
  6
CONTINUOUS
 62
    80
  5
4F4
 10
50.09713
 20
157.195434
 30
0.0
  0
VERTEX
  8
LY_1
  6
CONTINUOUS
 62
    80
  5
4F5
 10
50.126291
 20
157.172046
 30
0.0
  0
VERTEX
  8
LY_1
  6
CONTINUOUS
 62
    80
  5
4F6
 10
50.155701
 20
157.149003
 30
0.0
  0
VERTEX
  8
LY_1
  6
CONTINUOUS
 62
    80
  5
4F7
 10
50.185349
 20
157.126306
 30
0.0
  0
VERTEX
  8
LY_1
  6
CONTINUOUS
 62
    80
  5
4F8
 10
50.219046
 20
157.101133
 30
0.0
  0
VERTEX
  8
LY_1
  6
CONTINUOUS
 62
    80
  5
4F9
 10
50.253061
 20
157.076367
 30
0.0
  0
VERTEX
  8
LY_1
  6
CONTINUOUS
 62
    80
  5
4FA
 10
50.287385
 20
157.052006
 30
0.0
  0
VERTEX
  8
LY_1
  6
CONTINUOUS
 62
    80
  5
4FB
 10
50.322009
 20
157.028049
 30
0.0
  0
VERTEX
  8
LY_1
  6
CONTINUOUS
 62
    80
  5
4FC
 10
50.356923
 20
157.004497
 30
0.0
  0
VERTEX
  8
LY_1
  6
CONTINUOUS
 62
    80
  5
4FD
 10
50.392115
 20
156.981347
 30
0.0
  0
VERTEX
  8
LY_1
  6
CONTINUOUS
 62
    80
  5
4FE
 10
50.427578
 20
156.958598
 30
0.0
  0
VERTEX
  8
LY_1
  6
CONTINUOUS
 62
    80
  5
4FF
 10
50.4633
 20
156.936251
 30
0.0
  0
VERTEX
  8
LY_1
  6
CONTINUOUS
 62
    80
  5
500
 10
50.499271
 20
156.914304
 30
0.0
  0
VERTEX
  8
LY_1
  6
CONTINUOUS
 62
    80
  5
501
 10
50.535482
 20
156.892756
 30
0.0
  0
VERTEX
  8
LY_1
  6
CONTINUOUS
 62
    80
  5
502
 10
50.571923
 20
156.871606
 30
0.0
  0
VERTEX
  8
LY_1
  6
CONTINUOUS
 62
    80
  5
503
 10
50.608584
 20
156.850854
 30
0.0
  0
VERTEX
  8
LY_1
  6
CONTINUOUS
 62
    80
  5
504
 10
50.645455
 20
156.830498
 30
0.0
  0
VERTEX
  8
LY_1
  6
CONTINUOUS
 62
    80
  5
505
 10
50.682526
 20
156.810537
 30
0.0
  0
VERTEX
  8
LY_1
  6
CONTINUOUS
 62
    80
  5
506
 10
50.719788
 20
156.790971
 30
0.0
  0
VERTEX
  8
LY_1
  6
CONTINUOUS
 62
    80
  5
507
 10
50.757229
 20
156.771798
 30
0.0
  0
VERTEX
  8
LY_1
  6
CONTINUOUS
 62
    80
  5
508
 10
50.798409
 20
156.751261
 30
0.0
  0
VERTEX
  8
LY_1
  6
CONTINUOUS
 62
    80
  5
509
 10
50.839825
 20
156.731172
 30
0.0
  0
VERTEX
  8
LY_1
  6
CONTINUOUS
 62
    80
  5
50A
 10
50.88147
 20
156.711528
 30
0.0
  0
VERTEX
  8
LY_1
  6
CONTINUOUS
 62
    80
  5
50B
 10
50.923335
 20
156.692329
 30
0.0
  0
VERTEX
  8
LY_1
  6
CONTINUOUS
 62
    80
  5
50C
 10
50.965412
 20
156.673572
 30
0.0
  0
VERTEX
  8
LY_1
  6
CONTINUOUS
 62
    80
  5
50D
 10
51.007691
 20
156.655258
 30
0.0
  0
VERTEX
  8
LY_1
  6
CONTINUOUS
 62
    80
  5
50E
 10
51.050165
 20
156.637384
 30
0.0
  0
VERTEX
  8
LY_1
  6
CONTINUOUS
 62
    80
  5
50F
 10
51.092825
 20
156.619949
 30
0.0
  0
VERTEX
  8
LY_1
  6
CONTINUOUS
 62
    80
  5
510
 10
51.135663
 20
156.602951
 30
0.0
  0
VERTEX
  8
LY_1
  6
CONTINUOUS
 62
    80
  5
511
 10
51.17867
 20
156.586389
 30
0.0
  0
VERTEX
  8
LY_1
  6
CONTINUOUS
 62
    80
  5
512
 10
51.221838
 20
156.570262
 30
0.0
  0
VERTEX
  8
LY_1
  6
CONTINUOUS
 62
    80
  5
513
 10
51.265159
 20
156.554568
 30
0.0
  0
VERTEX
  8
LY_1
  6
CONTINUOUS
 62
    80
  5
514
 10
51.308624
 20
156.539306
 30
0.0
  0
VERTEX
  8
LY_1
  6
CONTINUOUS
 62
    80
  5
515
 10
51.352224
 20
156.524474
 30
0.0
  0
VERTEX
  8
LY_1
  6
CONTINUOUS
 62
    80
  5
516
 10
51.395952
 20
156.510072
 30
0.0
  0
VERTEX
  8
LY_1
  6
CONTINUOUS
 62
    80
  5
517
 10
51.439798
 20
156.496097
 30
0.0
  0
VERTEX
  8
LY_1
  6
CONTINUOUS
 62
    80
  5
518
 10
51.486464
 20
156.481728
 30
0.0
  0
VERTEX
  8
LY_1
  6
CONTINUOUS
 62
    80
  5
519
 10
51.533287
 20
156.467825
 30
0.0
  0
VERTEX
  8
LY_1
  6
CONTINUOUS
 62
    80
  5
51A
 10
51.580259
 20
156.454387
 30
0.0
  0
VERTEX
  8
LY_1
  6
CONTINUOUS
 62
    80
  5
51B
 10
51.627373
 20
156.441414
 30
0.0
  0
VERTEX
  8
LY_1
  6
CONTINUOUS
 62
    80
  5
51C
 10
51.674622
 20
156.428903
 30
0.0
  0
VERTEX
  8
LY_1
  6
CONTINUOUS
 62
    80
  5
51D
 10
51.721998
 20
156.416855
 30
0.0
  0
VERTEX
  8
LY_1
  6
CONTINUOUS
 62
    80
  5
51E
 10
51.769494
 20
156.405267
 30
0.0
  0
VERTEX
  8
LY_1
  6
CONTINUOUS
 62
    80
  5
51F
 10
51.817103
 20
156.394139
 30
0.0
  0
VERTEX
  8
LY_1
  6
CONTINUOUS
 62
    80
  5
520
 10
51.864818
 20
156.383469
 30
0.0
  0
VERTEX
  8
LY_1
  6
CONTINUOUS
 62
    80
  5
521
 10
51.912631
 20
156.373256
 30
0.0
  0
VERTEX
  8
LY_1
  6
CONTINUOUS
 62
    80
  5
522
 10
51.960536
 20
156.3635
 30
0.0
  0
VERTEX
  8
LY_1
  6
CONTINUOUS
 62
    80
  5
523
 10
52.008524
 20
156.354199
 30
0.0
  0
VERTEX
  8
LY_1
  6
CONTINUOUS
 62
    80
  5
524
 10
52.056589
 20
156.345352
 30
0.0
  0
VERTEX
  8
LY_1
  6
CONTINUOUS
 62
    80
  5
525
 10
52.104724
 20
156.336958
 30
0.0
  0
VERTEX
  8
LY_1
  6
CONTINUOUS
 62
    80
  5
526
 10
52.152921
 20
156.329015
 30
0.0
  0
VERTEX
  8
LY_1
  6
CONTINUOUS
 62
    80
  5
527
 10
52.201173
 20
156.321523
 30
0.0
  0
VERTEX
  8
LY_1
  6
CONTINUOUS
 62
    80
  5
528
 10
52.250931
 20
156.314275
 30
0.0
  0
VERTEX
  8
LY_1
  6
CONTINUOUS
 62
    80
  5
529
 10
52.30077
 20
156.307498
 30
0.0
  0
VERTEX
  8
LY_1
  6
CONTINUOUS
 62
    80
  5
52A
 10
52.350683
 20
156.301191
 30
0.0
  0
VERTEX
  8
LY_1
  6
CONTINUOUS
 62
    80
  5
52B
 10
52.400665
 20
156.295353
 30
0.0
  0
VERTEX
  8
LY_1
  6
CONTINUOUS
 62
    80
  5
52C
 10
52.450709
 20
156.289986
 30
0.0
  0
VERTEX
  8
LY_1
  6
CONTINUOUS
 62
    80
  5
52D
 10
52.500807
 20
156.285087
 30
0.0
  0
VERTEX
  8
LY_1
  6
CONTINUOUS
 62
    80
  5
52E
 10
52.550954
 20
156.280656
 30
0.0
  0
VERTEX
  8
LY_1
  6
CONTINUOUS
 62
    80
  5
52F
 10
52.601142
 20
156.276694
 30
0.0
  0
VERTEX
  8
LY_1
  6
CONTINUOUS
 62
    80
  5
530
 10
52.651365
 20
156.273199
 30
0.0
  0
VERTEX
  8
LY_1
  6
CONTINUOUS
 62
    80
  5
531
 10
52.701617
 20
156.270172
 30
0.0
  0
VERTEX
  8
LY_1
  6
CONTINUOUS
 62
    80
  5
532
 10
52.75189
 20
156.267612
 30
0.0
  0
VERTEX
  8
LY_1
  6
CONTINUOUS
 62
    80
  5
533
 10
52.802179
 20
156.265518
 30
0.0
  0
VERTEX
  8
LY_1
  6
CONTINUOUS
 62
    80
  5
534
 10
52.852476
 20
156.26389
 30
0.0
  0
VERTEX
  8
LY_1
  6
CONTINUOUS
 62
    80
  5
535
 10
52.902775
 20
156.262728
 30
0.0
  0
VERTEX
  8
LY_1
  6
CONTINUOUS
 62
    80
  5
536
 10
52.953069
 20
156.262031
 30
0.0
  0
VERTEX
  8
LY_1
  6
CONTINUOUS
 62
    80
  5
537
 10
53.003352
 20
156.261798
 30
0.0
  0
VERTEX
  8
LY_1
  6
CONTINUOUS
 62
    80
  5
538
 10
53.053634
 20
156.262031
 30
0.0
  0
VERTEX
  8
LY_1
  6
CONTINUOUS
 62
    80
  5
539
 10
53.103929
 20
156.262728
 30
0.0
  0
VERTEX
  8
LY_1
  6
CONTINUOUS
 62
    80
  5
53A
 10
53.154227
 20
156.26389
 30
0.0
  0
VERTEX
  8
LY_1
  6
CONTINUOUS
 62
    80
  5
53B
 10
53.204524
 20
156.265518
 30
0.0
  0
VERTEX
  8
LY_1
  6
CONTINUOUS
 62
    80
  5
53C
 10
53.254813
 20
156.267612
 30
0.0
  0
VERTEX
  8
LY_1
  6
CONTINUOUS
 62
    80
  5
53D
 10
53.305086
 20
156.270172
 30
0.0
  0
VERTEX
  8
LY_1
  6
CONTINUOUS
 62
    80
  5
53E
 10
53.355338
 20
156.273199
 30
0.0
  0
VERTEX
  8
LY_1
  6
CONTINUOUS
 62
    80
  5
53F
 10
53.405561
 20
156.276694
 30
0.0
  0
VERTEX
  8
LY_1
  6
CONTINUOUS
 62
    80
  5
540
 10
53.455749
 20
156.280656
 30
0.0
  0
VERTEX
  8
LY_1
  6
CONTINUOUS
 62
    80
  5
541
 10
53.505896
 20
156.285087
 30
0.0
  0
VERTEX
  8
LY_1
  6
CONTINUOUS
 62
    80
  5
542
 10
53.555994
 20
156.289986
 30
0.0
  0
VERTEX
  8
LY_1
  6
CONTINUOUS
 62
    80
  5
543
 10
53.606038
 20
156.295353
 30
0.0
  0
VERTEX
  8
LY_1
  6
CONTINUOUS
 62
    80
  5
544
 10
53.65602
 20
156.301191
 30
0.0
  0
VERTEX
  8
LY_1
  6
CONTINUOUS
 62
    80
  5
545
 10
53.705933
 20
156.307498
 30
0.0
  0
VERTEX
  8
LY_1
  6
CONTINUOUS
 62
    80
  5
546
 10
53.755773
 20
156.314275
 30
0.0
  0
VERTEX
  8
LY_1
  6
CONTINUOUS
 62
    80
  5
547
 10
53.80553
 20
156.321523
 30
0.0
  0
VERTEX
  8
LY_1
  6
CONTINUOUS
 62
    80
  5
548
 10
53.853782
 20
156.329015
 30
0.0
  0
VERTEX
  8
LY_1
  6
CONTINUOUS
 62
    80
  5
549
 10
53.901979
 20
156.336958
 30
0.0
  0
VERTEX
  8
LY_1
  6
CONTINUOUS
 62
    80
  5
54A
 10
53.950114
 20
156.345352
 30
0.0
  0
VERTEX
  8
LY_1
  6
CONTINUOUS
 62
    80
  5
54B
 10
53.998179
 20
156.354199
 30
0.0
  0
VERTEX
  8
LY_1
  6
CONTINUOUS
 62
    80
  5
54C
 10
54.046167
 20
156.3635
 30
0.0
  0
VERTEX
  8
LY_1
  6
CONTINUOUS
 62
    80
  5
54D
 10
54.094072
 20
156.373256
 30
0.0
  0
VERTEX
  8
LY_1
  6
CONTINUOUS
 62
    80
  5
54E
 10
54.141885
 20
156.383469
 30
0.0
  0
VERTEX
  8
LY_1
  6
CONTINUOUS
 62
    80
  5
54F
 10
54.1896
 20
156.394139
 30
0.0
  0
VERTEX
  8
LY_1
  6
CONTINUOUS
 62
    80
  5
550
 10
54.237209
 20
156.405267
 30
0.0
  0
VERTEX
  8
LY_1
  6
CONTINUOUS
 62
    80
  5
551
 10
54.284705
 20
156.416855
 30
0.0
  0
VERTEX
  8
LY_1
  6
CONTINUOUS
 62
    80
  5
552
 10
54.332081
 20
156.428903
 30
0.0
  0
VERTEX
  8
LY_1
  6
CONTINUOUS
 62
    80
  5
553
 10
54.37933
 20
156.441414
 30
0.0
  0
VERTEX
  8
LY_1
  6
CONTINUOUS
 62
    80
  5
554
 10
54.426444
 20
156.454387
 30
0.0
  0
VERTEX
  8
LY_1
  6
CONTINUOUS
 62
    80
  5
555
 10
54.473416
 20
156.467825
 30
0.0
  0
VERTEX
  8
LY_1
  6
CONTINUOUS
 62
    80
  5
556
 10
54.520239
 20
156.481728
 30
0.0
  0
VERTEX
  8
LY_1
  6
CONTINUOUS
 62
    80
  5
557
 10
54.566905
 20
156.496097
 30
0.0
  0
VERTEX
  8
LY_1
  6
CONTINUOUS
 62
    80
  5
558
 10
54.610751
 20
156.510072
 30
0.0
  0
VERTEX
  8
LY_1
  6
CONTINUOUS
 62
    80
  5
559
 10
54.654479
 20
156.524474
 30
0.0
  0
VERTEX
  8
LY_1
  6
CONTINUOUS
 62
    80
  5
55A
 10
54.698079
 20
156.539306
 30
0.0
  0
VERTEX
  8
LY_1
  6
CONTINUOUS
 62
    80
  5
55B
 10
54.741544
 20
156.554568
 30
0.0
  0
VERTEX
  8
LY_1
  6
CONTINUOUS
 62
    80
  5
55C
 10
54.784865
 20
156.570262
 30
0.0
  0
VERTEX
  8
LY_1
  6
CONTINUOUS
 62
    80
  5
55D
 10
54.828033
 20
156.586389
 30
0.0
  0
VERTEX
  8
LY_1
  6
CONTINUOUS
 62
    80
  5
55E
 10
54.87104
 20
156.602951
 30
0.0
  0
VERTEX
  8
LY_1
  6
CONTINUOUS
 62
    80
  5
55F
 10
54.913878
 20
156.619949
 30
0.0
  0
VERTEX
  8
LY_1
  6
CONTINUOUS
 62
    80
  5
560
 10
54.956538
 20
156.637384
 30
0.0
  0
VERTEX
  8
LY_1
  6
CONTINUOUS
 62
    80
  5
561
 10
54.999012
 20
156.655258
 30
0.0
  0
VERTEX
  8
LY_1
  6
CONTINUOUS
 62
    80
  5
562
 10
55.041292
 20
156.673572
 30
0.0
  0
VERTEX
  8
LY_1
  6
CONTINUOUS
 62
    80
  5
563
 10
55.083368
 20
156.692329
 30
0.0
  0
VERTEX
  8
LY_1
  6
CONTINUOUS
 62
    80
  5
564
 10
55.125233
 20
156.711528
 30
0.0
  0
VERTEX
  8
LY_1
  6
CONTINUOUS
 62
    80
  5
565
 10
55.166878
 20
156.731172
 30
0.0
  0
VERTEX
  8
LY_1
  6
CONTINUOUS
 62
    80
  5
566
 10
55.208294
 20
156.751261
 30
0.0
  0
VERTEX
  8
LY_1
  6
CONTINUOUS
 62
    80
  5
567
 10
55.249474
 20
156.771798
 30
0.0
  0
VERTEX
  8
LY_1
  6
CONTINUOUS
 62
    80
  5
568
 10
55.286916
 20
156.790971
 30
0.0
  0
VERTEX
  8
LY_1
  6
CONTINUOUS
 62
    80
  5
569
 10
55.324177
 20
156.810537
 30
0.0
  0
VERTEX
  8
LY_1
  6
CONTINUOUS
 62
    80
  5
56A
 10
55.361248
 20
156.830498
 30
0.0
  0
VERTEX
  8
LY_1
  6
CONTINUOUS
 62
    80
  5
56B
 10
55.398119
 20
156.850854
 30
0.0
  0
VERTEX
  8
LY_1
  6
CONTINUOUS
 62
    80
  5
56C
 10
55.43478
 20
156.871606
 30
0.0
  0
VERTEX
  8
LY_1
  6
CONTINUOUS
 62
    80
  5
56D
 10
55.471221
 20
156.892756
 30
0.0
  0
VERTEX
  8
LY_1
  6
CONTINUOUS
 62
    80
  5
56E
 10
55.507432
 20
156.914304
 30
0.0
  0
VERTEX
  8
LY_1
  6
CONTINUOUS
 62
    80
  5
56F
 10
55.543404
 20
156.936251
 30
0.0
  0
VERTEX
  8
LY_1
  6
CONTINUOUS
 62
    80
  5
570
 10
55.579125
 20
156.958598
 30
0.0
  0
VERTEX
  8
LY_1
  6
CONTINUOUS
 62
    80
  5
571
 10
55.614588
 20
156.981347
 30
0.0
  0
VERTEX
  8
LY_1
  6
CONTINUOUS
 62
    80
  5
572
 10
55.64978
 20
157.004497
 30
0.0
  0
VERTEX
  8
LY_1
  6
CONTINUOUS
 62
    80
  5
573
 10
55.684694
 20
157.028049
 30
0.0
  0
VERTEX
  8
LY_1
  6
CONTINUOUS
 62
    80
  5
574
 10
55.719318
 20
157.052006
 30
0.0
  0
VERTEX
  8
LY_1
  6
CONTINUOUS
 62
    80
  5
575
 10
55.753642
 20
157.076367
 30
0.0
  0
VERTEX
  8
LY_1
  6
CONTINUOUS
 62
    80
  5
576
 10
55.787658
 20
157.101133
 30
0.0
  0
VERTEX
  8
LY_1
  6
CONTINUOUS
 62
    80
  5
577
 10
55.821354
 20
157.126306
 30
0.0
  0
VERTEX
  8
LY_1
  6
CONTINUOUS
 62
    80
  5
578
 10
55.851002
 20
157.149003
 30
0.0
  0
VERTEX
  8
LY_1
  6
CONTINUOUS
 62
    80
  5
579
 10
55.880412
 20
157.172046
 30
0.0
  0
VERTEX
  8
LY_1
  6
CONTINUOUS
 62
    80
  5
57A
 10
55.909573
 20
157.195434
 30
0.0
  0
VERTEX
  8
LY_1
  6
CONTINUOUS
 62
    80
  5
57B
 10
55.938474
 20
157.219167
 30
0.0
  0
VERTEX
  8
LY_1
  6
CONTINUOUS
 62
    80
  5
57C
 10
55.967103
 20
157.243244
 30
0.0
  0
VERTEX
  8
LY_1
  6
CONTINUOUS
 62
    80
  5
57D
 10
55.99545
 20
157.267665
 30
0.0
  0
VERTEX
  8
LY_1
  6
CONTINUOUS
 62
    80
  5
57E
 10
56.023502
 20
157.292427
 30
0.0
  0
VERTEX
  8
LY_1
  6
CONTINUOUS
 62
    80
  5
57F
 10
56.05125
 20
157.317532
 30
0.0
  0
VERTEX
  8
LY_1
  6
CONTINUOUS
 62
    80
  5
580
 10
56.078682
 20
157.342977
 30
0.0
  0
VERTEX
  8
LY_1
  6
CONTINUOUS
 62
    80
  5
581
 10
56.105786
 20
157.368763
 30
0.0
  0
VERTEX
  8
LY_1
  6
CONTINUOUS
 62
    80
  5
582
 10
56.132552
 20
157.394888
 30
0.0
  0
VERTEX
  8
LY_1
  6
CONTINUOUS
 62
    80
  5
583
 10
56.158968
 20
157.421352
 30
0.0
  0
VERTEX
  8
LY_1
  6
CONTINUOUS
 62
    80
  5
584
 10
56.185023
 20
157.448154
 30
0.0
  0
VERTEX
  8
LY_1
  6
CONTINUOUS
 62
    80
  5
585
 10
56.210706
 20
157.475294
 30
0.0
  0
VERTEX
  8
LY_1
  6
CONTINUOUS
 62
    80
  5
586
 10
56.236006
 20
157.502769
 30
0.0
  0
VERTEX
  8
LY_1
  6
CONTINUOUS
 62
    80
  5
587
 10
56.260912
 20
157.530581
 30
0.0
  0
VERTEX
  8
LY_1
  6
CONTINUOUS
 62
    80
  5
588
 10
56.282234
 20
157.555033
 30
0.0
  0
VERTEX
  8
LY_1
  6
CONTINUOUS
 62
    80
  5
589
 10
56.303265
 20
157.579769
 30
0.0
  0
VERTEX
  8
LY_1
  6
CONTINUOUS
 62
    80
  5
58A
 10
56.323996
 20
157.604786
 30
0.0
  0
VERTEX
  8
LY_1
  6
CONTINUOUS
 62
    80
  5
58B
 10
56.344413
 20
157.630079
 30
0.0
  0
VERTEX
  8
LY_1
  6
CONTINUOUS
 62
    80
  5
58C
 10
56.364507
 20
157.655645
 30
0.0
  0
VERTEX
  8
LY_1
  6
CONTINUOUS
 62
    80
  5
58D
 10
56.384266
 20
157.681481
 30
0.0
  0
VERTEX
  8
LY_1
  6
CONTINUOUS
 62
    80
  5
58E
 10
56.403679
 20
157.707583
 30
0.0
  0
VERTEX
  8
LY_1
  6
CONTINUOUS
 62
    80
  5
58F
 10
56.422735
 20
157.733947
 30
0.0
  0
VERTEX
  8
LY_1
  6
CONTINUOUS
 62
    80
  5
590
 10
56.441422
 20
157.760569
 30
0.0
  0
VERTEX
  8
LY_1
  6
CONTINUOUS
 62
    80
  5
591
 10
56.45973
 20
157.787447
 30
0.0
  0
VERTEX
  8
LY_1
  6
CONTINUOUS
 62
    80
  5
592
 10
56.477648
 20
157.814576
 30
0.0
  0
VERTEX
  8
LY_1
  6
CONTINUOUS
 62
    80
  5
593
 10
56.495163
 20
157.841952
 30
0.0
  0
VERTEX
  8
LY_1
  6
CONTINUOUS
 62
    80
  5
594
 10
56.512266
 20
157.869572
 30
0.0
  0
VERTEX
  8
LY_1
  6
CONTINUOUS
 62
    80
  5
595
 10
56.528944
 20
157.897433
 30
0.0
  0
VERTEX
  8
LY_1
  6
CONTINUOUS
 62
    80
  5
596
 10
56.545187
 20
157.925531
 30
0.0
  0
VERTEX
  8
LY_1
  6
CONTINUOUS
 62
    80
  5
597
 10
56.560984
 20
157.953861
 30
0.0
  0
VERTEX
  8
LY_1
  6
CONTINUOUS
 62
    80
  5
598
 10
56.574376
 20
157.978738
 30
0.0
  0
VERTEX
  8
LY_1
  6
CONTINUOUS
 62
    80
  5
599
 10
56.587429
 20
158.003823
 30
0.0
  0
VERTEX
  8
LY_1
  6
CONTINUOUS
 62
    80
  5
59A
 10
56.600136
 20
158.02911
 30
0.0
  0
VERTEX
  8
LY_1
  6
CONTINUOUS
 62
    80
  5
59B
 10
56.612487
 20
158.054591
 30
0.0
  0
VERTEX
  8
LY_1
  6
CONTINUOUS
 62
    80
  5
59C
 10
56.624473
 20
158.080259
 30
0.0
  0
VERTEX
  8
LY_1
  6
CONTINUOUS
 62
    80
  5
59D
 10
56.636087
 20
158.106107
 30
0.0
  0
VERTEX
  8
LY_1
  6
CONTINUOUS
 62
    80
  5
59E
 10
56.647319
 20
158.132129
 30
0.0
  0
VERTEX
  8
LY_1
  6
CONTINUOUS
 62
    80
  5
59F
 10
56.658161
 20
158.158316
 30
0.0
  0
VERTEX
  8
LY_1
  6
CONTINUOUS
 62
    80
  5
5A0
 10
56.668605
 20
158.184662
 30
0.0
  0
VERTEX
  8
LY_1
  6
CONTINUOUS
 62
    80
  5
5A1
 10
56.678641
 20
158.21116
 30
0.0
  0
VERTEX
  8
LY_1
  6
CONTINUOUS
 62
    80
  5
5A2
 10
56.688261
 20
158.237802
 30
0.0
  0
VERTEX
  8
LY_1
  6
CONTINUOUS
 62
    80
  5
5A3
 10
56.697457
 20
158.264582
 30
0.0
  0
VERTEX
  8
LY_1
  6
CONTINUOUS
 62
    80
  5
5A4
 10
56.706219
 20
158.291491
 30
0.0
  0
VERTEX
  8
LY_1
  6
CONTINUOUS
 62
    80
  5
5A5
 10
56.714539
 20
158.318524
 30
0.0
  0
VERTEX
  8
LY_1
  6
CONTINUOUS
 62
    80
  5
5A6
 10
56.722409
 20
158.345673
 30
0.0
  0
VERTEX
  8
LY_1
  6
CONTINUOUS
 62
    80
  5
5A7
 10
56.72982
 20
158.372931
 30
0.0
  0
VERTEX
  8
LY_1
  6
CONTINUOUS
 62
    80
  5
5A8
 10
56.73618
 20
158.397919
 30
0.0
  0
VERTEX
  8
LY_1
  6
CONTINUOUS
 62
    80
  5
5A9
 10
56.742153
 20
158.423027
 30
0.0
  0
VERTEX
  8
LY_1
  6
CONTINUOUS
 62
    80
  5
5AA
 10
56.747736
 20
158.448246
 30
0.0
  0
VERTEX
  8
LY_1
  6
CONTINUOUS
 62
    80
  5
5AB
 10
56.752926
 20
158.473566
 30
0.0
  0
VERTEX
  8
LY_1
  6
CONTINUOUS
 62
    80
  5
5AC
 10
56.757721
 20
158.498977
 30
0.0
  0
VERTEX
  8
LY_1
  6
CONTINUOUS
 62
    80
  5
5AD
 10
56.762115
 20
158.52447
 30
0.0
  0
VERTEX
  8
LY_1
  6
CONTINUOUS
 62
    80
  5
5AE
 10
56.766107
 20
158.550035
 30
0.0
  0
VERTEX
  8
LY_1
  6
CONTINUOUS
 62
    80
  5
5AF
 10
56.769693
 20
158.575663
 30
0.0
  0
VERTEX
  8
LY_1
  6
CONTINUOUS
 62
    80
  5
5B0
 10
56.772869
 20
158.601343
 30
0.0
  0
VERTEX
  8
LY_1
  6
CONTINUOUS
 62
    80
  5
5B1
 10
56.775632
 20
158.627067
 30
0.0
  0
VERTEX
  8
LY_1
  6
CONTINUOUS
 62
    80
  5
5B2
 10
56.77798
 20
158.652825
 30
0.0
  0
VERTEX
  8
LY_1
  6
CONTINUOUS
 62
    80
  5
5B3
 10
56.779908
 20
158.678606
 30
0.0
  0
VERTEX
  8
LY_1
  6
CONTINUOUS
 62
    80
  5
5B4
 10
56.781413
 20
158.704403
 30
0.0
  0
VERTEX
  8
LY_1
  6
CONTINUOUS
 62
    80
  5
5B5
 10
56.782492
 20
158.730203
 30
0.0
  0
VERTEX
  8
LY_1
  6
CONTINUOUS
 62
    80
  5
5B6
 10
56.783142
 20
158.755999
 30
0.0
  0
VERTEX
  8
LY_1
  6
CONTINUOUS
 62
    80
  5
5B7
 10
56.78336
 20
158.781781
 30
0.0
  0
SEQEND
  8
LY_1
  6
CONTINUOUS
 62
    80
  5
5B8
  0
POLYLINE
  8
LY_1
  6
CONTINUOUS
 62
     3
  5
157
 66
     1
 10
0.0
 20
0.0
 30
0.0
  0
VERTEX
  8
LY_1
  6
CONTINUOUS
 62
     3
  5
5B9
 10
283.343134
 20
204.490277
 30
0.0
  0
VERTEX
  8
LY_1
  6
CONTINUOUS
 62
     3
  5
5BA
 10
283.325787
 20
204.483737
 30
0.0
  0
VERTEX
  8
LY_1
  6
CONTINUOUS
 62
     3
  5
5BB
 10
283.308438
 20
204.477198
 30
0.0
  0
VERTEX
  8
LY_1
  6
CONTINUOUS
 62
     3
  5
5BC
 10
283.291089
 20
204.47066
 30
0.0
  0
VERTEX
  8
LY_1
  6
CONTINUOUS
 62
     3
  5
5BD
 10
283.27374
 20
204.464121
 30
0.0
  0
VERTEX
  8
LY_1
  6
CONTINUOUS
 62
     3
  5
5BE
 10
283.25639
 20
204.457583
 30
0.0
  0
VERTEX
  8
LY_1
  6
CONTINUOUS
 62
     3
  5
5BF
 10
283.239041
 20
204.451045
 30
0.0
  0
VERTEX
  8
LY_1
  6
CONTINUOUS
 62
     3
  5
5C0
 10
283.22169
 20
204.444508
 30
0.0
  0
VERTEX
  8
LY_1
  6
CONTINUOUS
 62
     3
  5
5C1
 10
283.20434
 20
204.43797
 30
0.0
  0
VERTEX
  8
LY_1
  6
CONTINUOUS
 62
     3
  5
5C2
 10
283.18699
 20
204.431433
 30
0.0
  0
VERTEX
  8
LY_1
  6
CONTINUOUS
 62
     3
  5
5C3
 10
283.16964
 20
204.424895
 30
0.0
  0
VERTEX
  8
LY_1
  6
CONTINUOUS
 62
     3
  5
5C4
 10
283.15229
 20
204.418357
 30
0.0
  0
VERTEX
  8
LY_1
  6
CONTINUOUS
 62
     3
  5
5C5
 10
283.134941
 20
204.411819
 30
0.0
  0
VERTEX
  8
LY_1
  6
CONTINUOUS
 62
     3
  5
5C6
 10
283.117591
 20
204.405281
 30
0.0
  0
VERTEX
  8
LY_1
  6
CONTINUOUS
 62
     3
  5
5C7
 10
283.100242
 20
204.398742
 30
0.0
  0
VERTEX
  8
LY_1
  6
CONTINUOUS
 62
     3
  5
5C8
 10
283.082894
 20
204.392203
 30
0.0
  0
VERTEX
  8
LY_1
  6
CONTINUOUS
 62
     3
  5
5C9
 10
283.065546
 20
204.385663
 30
0.0
  0
SEQEND
  8
LY_1
  6
CONTINUOUS
 62
     3
  5
5CA
  0
POLYLINE
  8
LY_1
  6
CONTINUOUS
 62
     3
  5
158
 66
     1
 10
0.0
 20
0.0
 30
0.0
  0
VERTEX
  8
LY_1
  6
CONTINUOUS
 62
     3
  5
5CB
 10
256.074156
 20
256.726348
 30
0.0
  0
VERTEX
  8
LY_1
  6
CONTINUOUS
 62
     3
  5
5CC
 10
256.117399
 20
256.882036
 30
0.0
  0
VERTEX
  8
LY_1
  6
CONTINUOUS
 62
     3
  5
5CD
 10
256.163906
 20
257.036242
 30
0.0
  0
VERTEX
  8
LY_1
  6
CONTINUOUS
 62
     3
  5
5CE
 10
256.213712
 20
257.18886
 30
0.0
  0
VERTEX
  8
LY_1
  6
CONTINUOUS
 62
     3
  5
5CF
 10
256.266855
 20
257.339782
 30
0.0
  0
VERTEX
  8
LY_1
  6
CONTINUOUS
 62
     3
  5
5D0
 10
256.32337
 20
257.488904
 30
0.0
  0
VERTEX
  8
LY_1
  6
CONTINUOUS
 62
     3
  5
5D1
 10
256.383294
 20
257.636119
 30
0.0
  0
VERTEX
  8
LY_1
  6
CONTINUOUS
 62
     3
  5
5D2
 10
256.446663
 20
257.781321
 30
0.0
  0
VERTEX
  8
LY_1
  6
CONTINUOUS
 62
     3
  5
5D3
 10
256.513514
 20
257.924403
 30
0.0
  0
VERTEX
  8
LY_1
  6
CONTINUOUS
 62
     3
  5
5D4
 10
256.583883
 20
258.065259
 30
0.0
  0
VERTEX
  8
LY_1
  6
CONTINUOUS
 62
     3
  5
5D5
 10
256.657807
 20
258.203784
 30
0.0
  0
VERTEX
  8
LY_1
  6
CONTINUOUS
 62
     3
  5
5D6
 10
256.735321
 20
258.339872
 30
0.0
  0
VERTEX
  8
LY_1
  6
CONTINUOUS
 62
     3
  5
5D7
 10
256.816463
 20
258.473415
 30
0.0
  0
VERTEX
  8
LY_1
  6
CONTINUOUS
 62
     3
  5
5D8
 10
256.901269
 20
258.604308
 30
0.0
  0
VERTEX
  8
LY_1
  6
CONTINUOUS
 62
     3
  5
5D9
 10
256.989775
 20
258.732444
 30
0.0
  0
VERTEX
  8
LY_1
  6
CONTINUOUS
 62
     3
  5
5DA
 10
257.082018
 20
258.857718
 30
0.0
  0
VERTEX
  8
LY_1
  6
CONTINUOUS
 62
     3
  5
5DB
 10
257.178034
 20
258.980023
 30
0.0
  0
VERTEX
  8
LY_1
  6
CONTINUOUS
 62
     3
  5
5DC
 10
257.260579
 20
259.07921
 30
0.0
  0
VERTEX
  8
LY_1
  6
CONTINUOUS
 62
     3
  5
5DD
 10
257.345618
 20
259.176346
 30
0.0
  0
VERTEX
  8
LY_1
  6
CONTINUOUS
 62
     3
  5
5DE
 10
257.433022
 20
259.271498
 30
0.0
  0
VERTEX
  8
LY_1
  6
CONTINUOUS
 62
     3
  5
5DF
 10
257.522661
 20
259.364734
 30
0.0
  0
VERTEX
  8
LY_1
  6
CONTINUOUS
 62
     3
  5
5E0
 10
257.614407
 20
259.45612
 30
0.0
  0
VERTEX
  8
LY_1
  6
CONTINUOUS
 62
     3
  5
5E1
 10
257.708129
 20
259.545723
 30
0.0
  0
VERTEX
  8
LY_1
  6
CONTINUOUS
 62
     3
  5
5E2
 10
257.803699
 20
259.633611
 30
0.0
  0
VERTEX
  8
LY_1
  6
CONTINUOUS
 62
     3
  5
5E3
 10
257.900988
 20
259.71985
 30
0.0
  0
VERTEX
  8
LY_1
  6
CONTINUOUS
 62
     3
  5
5E4
 10
257.999865
 20
259.804507
 30
0.0
  0
VERTEX
  8
LY_1
  6
CONTINUOUS
 62
     3
  5
5E5
 10
258.100203
 20
259.887649
 30
0.0
  0
VERTEX
  8
LY_1
  6
CONTINUOUS
 62
     3
  5
5E6
 10
258.201871
 20
259.969343
 30
0.0
  0
VERTEX
  8
LY_1
  6
CONTINUOUS
 62
     3
  5
5E7
 10
258.30474
 20
260.049657
 30
0.0
  0
VERTEX
  8
LY_1
  6
CONTINUOUS
 62
     3
  5
5E8
 10
258.408681
 20
260.128656
 30
0.0
  0
VERTEX
  8
LY_1
  6
CONTINUOUS
 62
     3
  5
5E9
 10
258.513564
 20
260.206409
 30
0.0
  0
VERTEX
  8
LY_1
  6
CONTINUOUS
 62
     3
  5
5EA
 10
258.619261
 20
260.282982
 30
0.0
  0
VERTEX
  8
LY_1
  6
CONTINUOUS
 62
     3
  5
5EB
 10
258.725642
 20
260.358441
 30
0.0
  0
VERTEX
  8
LY_1
  6
CONTINUOUS
 62
     3
  5
5EC
 10
258.820344
 20
260.424385
 30
0.0
  0
VERTEX
  8
LY_1
  6
CONTINUOUS
 62
     3
  5
5ED
 10
258.915497
 20
260.489479
 30
0.0
  0
VERTEX
  8
LY_1
  6
CONTINUOUS
 62
     3
  5
5EE
 10
259.011117
 20
260.553697
 30
0.0
  0
VERTEX
  8
LY_1
  6
CONTINUOUS
 62
     3
  5
5EF
 10
259.107217
 20
260.61701
 30
0.0
  0
VERTEX
  8
LY_1
  6
CONTINUOUS
 62
     3
  5
5F0
 10
259.203815
 20
260.679392
 30
0.0
  0
VERTEX
  8
LY_1
  6
CONTINUOUS
 62
     3
  5
5F1
 10
259.300924
 20
260.740814
 30
0.0
  0
VERTEX
  8
LY_1
  6
CONTINUOUS
 62
     3
  5
5F2
 10
259.39856
 20
260.801249
 30
0.0
  0
VERTEX
  8
LY_1
  6
CONTINUOUS
 62
     3
  5
5F3
 10
259.496739
 20
260.86067
 30
0.0
  0
VERTEX
  8
LY_1
  6
CONTINUOUS
 62
     3
  5
5F4
 10
259.595475
 20
260.919048
 30
0.0
  0
VERTEX
  8
LY_1
  6
CONTINUOUS
 62
     3
  5
5F5
 10
259.694785
 20
260.976356
 30
0.0
  0
VERTEX
  8
LY_1
  6
CONTINUOUS
 62
     3
  5
5F6
 10
259.794682
 20
261.032566
 30
0.0
  0
VERTEX
  8
LY_1
  6
CONTINUOUS
 62
     3
  5
5F7
 10
259.895182
 20
261.087651
 30
0.0
  0
VERTEX
  8
LY_1
  6
CONTINUOUS
 62
     3
  5
5F8
 10
259.996301
 20
261.141583
 30
0.0
  0
VERTEX
  8
LY_1
  6
CONTINUOUS
 62
     3
  5
5F9
 10
260.098054
 20
261.194335
 30
0.0
  0
VERTEX
  8
LY_1
  6
CONTINUOUS
 62
     3
  5
5FA
 10
260.200456
 20
261.245878
 30
0.0
  0
VERTEX
  8
LY_1
  6
CONTINUOUS
 62
     3
  5
5FB
 10
260.303522
 20
261.296185
 30
0.0
  0
SEQEND
  8
LY_1
  6
CONTINUOUS
 62
     3
  5
5FC
  0
POLYLINE
  8
LY_1
  6
CONTINUOUS
 62
     3
  5
159
 66
     1
 10
0.0
 20
0.0
 30
0.0
  0
VERTEX
  8
LY_1
  6
CONTINUOUS
 62
     3
  5
5FD
 10
276.163386
 20
265.296185
 30
0.0
  0
VERTEX
  8
LY_1
  6
CONTINUOUS
 62
     3
  5
5FE
 10
275.626924
 20
265.294581
 30
0.0
  0
VERTEX
  8
LY_1
  6
CONTINUOUS
 62
     3
  5
5FF
 10
275.090555
 20
265.289962
 30
0.0
  0
VERTEX
  8
LY_1
  6
CONTINUOUS
 62
     3
  5
600
 10
274.554262
 20
265.282585
 30
0.0
  0
VERTEX
  8
LY_1
  6
CONTINUOUS
 62
     3
  5
601
 10
274.018032
 20
265.272705
 30
0.0
  0
VERTEX
  8
LY_1
  6
CONTINUOUS
 62
     3
  5
602
 10
273.481848
 20
265.260577
 30
0.0
  0
VERTEX
  8
LY_1
  6
CONTINUOUS
 62
     3
  5
603
 10
272.945696
 20
265.246456
 30
0.0
  0
VERTEX
  8
LY_1
  6
CONTINUOUS
 62
     3
  5
604
 10
272.409561
 20
265.230597
 30
0.0
  0
VERTEX
  8
LY_1
  6
CONTINUOUS
 62
     3
  5
605
 10
271.873428
 20
265.213256
 30
0.0
  0
VERTEX
  8
LY_1
  6
CONTINUOUS
 62
     3
  5
606
 10
271.337282
 20
265.194689
 30
0.0
  0
VERTEX
  8
LY_1
  6
CONTINUOUS
 62
     3
  5
607
 10
270.801107
 20
265.175149
 30
0.0
  0
VERTEX
  8
LY_1
  6
CONTINUOUS
 62
     3
  5
608
 10
270.26489
 20
265.154893
 30
0.0
  0
VERTEX
  8
LY_1
  6
CONTINUOUS
 62
     3
  5
609
 10
269.728615
 20
265.134176
 30
0.0
  0
VERTEX
  8
LY_1
  6
CONTINUOUS
 62
     3
  5
60A
 10
269.192267
 20
265.113253
 30
0.0
  0
VERTEX
  8
LY_1
  6
CONTINUOUS
 62
     3
  5
60B
 10
268.655832
 20
265.092379
 30
0.0
  0
VERTEX
  8
LY_1
  6
CONTINUOUS
 62
     3
  5
60C
 10
268.119293
 20
265.07181
 30
0.0
  0
VERTEX
  8
LY_1
  6
CONTINUOUS
 62
     3
  5
60D
 10
267.582636
 20
265.051801
 30
0.0
  0
VERTEX
  8
LY_1
  6
CONTINUOUS
 62
     3
  5
60E
 10
267.541874
 20
265.050308
 30
0.0
  0
VERTEX
  8
LY_1
  6
CONTINUOUS
 62
     3
  5
60F
 10
267.501112
 20
265.048799
 30
0.0
  0
VERTEX
  8
LY_1
  6
CONTINUOUS
 62
     3
  5
610
 10
267.460355
 20
265.047251
 30
0.0
  0
VERTEX
  8
LY_1
  6
CONTINUOUS
 62
     3
  5
611
 10
267.419603
 20
265.045642
 30
0.0
  0
VERTEX
  8
LY_1
  6
CONTINUOUS
 62
     3
  5
612
 10
267.37886
 20
265.043949
 30
0.0
  0
VERTEX
  8
LY_1
  6
CONTINUOUS
 62
     3
  5
613
 10
267.338126
 20
265.04215
 30
0.0
  0
VERTEX
  8
LY_1
  6
CONTINUOUS
 62
     3
  5
614
 10
267.297405
 20
265.040222
 30
0.0
  0
VERTEX
  8
LY_1
  6
CONTINUOUS
 62
     3
  5
615
 10
267.256698
 20
265.038142
 30
0.0
  0
VERTEX
  8
LY_1
  6
CONTINUOUS
 62
     3
  5
616
 10
267.216008
 20
265.035888
 30
0.0
  0
VERTEX
  8
LY_1
  6
CONTINUOUS
 62
     3
  5
617
 10
267.175336
 20
265.033438
 30
0.0
  0
VERTEX
  8
LY_1
  6
CONTINUOUS
 62
     3
  5
618
 10
267.134685
 20
265.030769
 30
0.0
  0
VERTEX
  8
LY_1
  6
CONTINUOUS
 62
     3
  5
619
 10
267.094057
 20
265.027858
 30
0.0
  0
VERTEX
  8
LY_1
  6
CONTINUOUS
 62
     3
  5
61A
 10
267.053455
 20
265.024683
 30
0.0
  0
VERTEX
  8
LY_1
  6
CONTINUOUS
 62
     3
  5
61B
 10
267.012879
 20
265.021221
 30
0.0
  0
VERTEX
  8
LY_1
  6
CONTINUOUS
 62
     3
  5
61C
 10
266.972333
 20
265.017451
 30
0.0
  0
VERTEX
  8
LY_1
  6
CONTINUOUS
 62
     3
  5
61D
 10
266.931818
 20
265.013349
 30
0.0
  0
VERTEX
  8
LY_1
  6
CONTINUOUS
 62
     3
  5
61E
 10
266.888834
 20
265.008611
 30
0.0
  0
VERTEX
  8
LY_1
  6
CONTINUOUS
 62
     3
  5
61F
 10
266.845889
 20
265.003484
 30
0.0
  0
VERTEX
  8
LY_1
  6
CONTINUOUS
 62
     3
  5
620
 10
266.802983
 20
264.99798
 30
0.0
  0
VERTEX
  8
LY_1
  6
CONTINUOUS
 62
     3
  5
621
 10
266.760118
 20
264.992109
 30
0.0
  0
VERTEX
  8
LY_1
  6
CONTINUOUS
 62
     3
  5
622
 10
266.717296
 20
264.985882
 30
0.0
  0
VERTEX
  8
LY_1
  6
CONTINUOUS
 62
     3
  5
623
 10
266.674517
 20
264.97931
 30
0.0
  0
VERTEX
  8
LY_1
  6
CONTINUOUS
 62
     3
  5
624
 10
266.631783
 20
264.972404
 30
0.0
  0
VERTEX
  8
LY_1
  6
CONTINUOUS
 62
     3
  5
625
 10
266.589094
 20
264.965175
 30
0.0
  0
VERTEX
  8
LY_1
  6
CONTINUOUS
 62
     3
  5
626
 10
266.546453
 20
264.957634
 30
0.0
  0
VERTEX
  8
LY_1
  6
CONTINUOUS
 62
     3
  5
627
 10
266.50386
 20
264.949791
 30
0.0
  0
VERTEX
  8
LY_1
  6
CONTINUOUS
 62
     3
  5
628
 10
266.461317
 20
264.941658
 30
0.0
  0
VERTEX
  8
LY_1
  6
CONTINUOUS
 62
     3
  5
629
 10
266.418824
 20
264.933245
 30
0.0
  0
VERTEX
  8
LY_1
  6
CONTINUOUS
 62
     3
  5
62A
 10
266.376383
 20
264.924563
 30
0.0
  0
VERTEX
  8
LY_1
  6
CONTINUOUS
 62
     3
  5
62B
 10
266.333995
 20
264.915624
 30
0.0
  0
VERTEX
  8
LY_1
  6
CONTINUOUS
 62
     3
  5
62C
 10
266.291662
 20
264.906438
 30
0.0
  0
VERTEX
  8
LY_1
  6
CONTINUOUS
 62
     3
  5
62D
 10
266.249384
 20
264.897016
 30
0.0
  0
VERTEX
  8
LY_1
  6
CONTINUOUS
 62
     3
  5
62E
 10
266.204145
 20
264.886667
 30
0.0
  0
VERTEX
  8
LY_1
  6
CONTINUOUS
 62
     3
  5
62F
 10
266.158973
 20
264.876061
 30
0.0
  0
VERTEX
  8
LY_1
  6
CONTINUOUS
 62
     3
  5
630
 10
266.113867
 20
264.865198
 30
0.0
  0
VERTEX
  8
LY_1
  6
CONTINUOUS
 62
     3
  5
631
 10
266.06883
 20
264.854079
 30
0.0
  0
VERTEX
  8
LY_1
  6
CONTINUOUS
 62
     3
  5
632
 10
266.023861
 20
264.842704
 30
0.0
  0
VERTEX
  8
LY_1
  6
CONTINUOUS
 62
     3
  5
633
 10
265.978961
 20
264.831075
 30
0.0
  0
VERTEX
  8
LY_1
  6
CONTINUOUS
 62
     3
  5
634
 10
265.934132
 20
264.819192
 30
0.0
  0
VERTEX
  8
LY_1
  6
CONTINUOUS
 62
     3
  5
635
 10
265.889374
 20
264.807056
 30
0.0
  0
VERTEX
  8
LY_1
  6
CONTINUOUS
 62
     3
  5
636
 10
265.844687
 20
264.794668
 30
0.0
  0
VERTEX
  8
LY_1
  6
CONTINUOUS
 62
     3
  5
637
 10
265.800074
 20
264.782029
 30
0.0
  0
VERTEX
  8
LY_1
  6
CONTINUOUS
 62
     3
  5
638
 10
265.755533
 20
264.76914
 30
0.0
  0
VERTEX
  8
LY_1
  6
CONTINUOUS
 62
     3
  5
639
 10
265.711067
 20
264.756002
 30
0.0
  0
VERTEX
  8
LY_1
  6
CONTINUOUS
 62
     3
  5
63A
 10
265.666676
 20
264.742615
 30
0.0
  0
VERTEX
  8
LY_1
  6
CONTINUOUS
 62
     3
  5
63B
 10
265.622361
 20
264.72898
 30
0.0
  0
VERTEX
  8
LY_1
  6
CONTINUOUS
 62
     3
  5
63C
 10
265.578122
 20
264.715098
 30
0.0
  0
VERTEX
  8
LY_1
  6
CONTINUOUS
 62
     3
  5
63D
 10
265.533961
 20
264.700971
 30
0.0
  0
VERTEX
  8
LY_1
  6
CONTINUOUS
 62
     3
  5
63E
 10
265.486388
 20
264.68545
 30
0.0
  0
VERTEX
  8
LY_1
  6
CONTINUOUS
 62
     3
  5
63F
 10
265.438905
 20
264.66965
 30
0.0
  0
VERTEX
  8
LY_1
  6
CONTINUOUS
 62
     3
  5
640
 10
265.391514
 20
264.653574
 30
0.0
  0
VERTEX
  8
LY_1
  6
CONTINUOUS
 62
     3
  5
641
 10
265.344213
 20
264.637226
 30
0.0
  0
VERTEX
  8
LY_1
  6
CONTINUOUS
 62
     3
  5
642
 10
265.297005
 20
264.62061
 30
0.0
  0
VERTEX
  8
LY_1
  6
CONTINUOUS
 62
     3
  5
643
 10
265.249889
 20
264.603729
 30
0.0
  0
VERTEX
  8
LY_1
  6
CONTINUOUS
 62
     3
  5
644
 10
265.202865
 20
264.586587
 30
0.0
  0
VERTEX
  8
LY_1
  6
CONTINUOUS
 62
     3
  5
645
 10
265.155934
 20
264.569188
 30
0.0
  0
VERTEX
  8
LY_1
  6
CONTINUOUS
 62
     3
  5
646
 10
265.109096
 20
264.551535
 30
0.0
  0
VERTEX
  8
LY_1
  6
CONTINUOUS
 62
     3
  5
647
 10
265.062352
 20
264.533633
 30
0.0
  0
VERTEX
  8
LY_1
  6
CONTINUOUS
 62
     3
  5
648
 10
265.015701
 20
264.515485
 30
0.0
  0
VERTEX
  8
LY_1
  6
CONTINUOUS
 62
     3
  5
649
 10
264.969145
 20
264.497094
 30
0.0
  0
VERTEX
  8
LY_1
  6
CONTINUOUS
 62
     3
  5
64A
 10
264.922683
 20
264.478466
 30
0.0
  0
VERTEX
  8
LY_1
  6
CONTINUOUS
 62
     3
  5
64B
 10
264.876317
 20
264.459602
 30
0.0
  0
VERTEX
  8
LY_1
  6
CONTINUOUS
 62
     3
  5
64C
 10
264.830045
 20
264.440507
 30
0.0
  0
VERTEX
  8
LY_1
  6
CONTINUOUS
 62
     3
  5
64D
 10
264.783869
 20
264.421185
 30
0.0
  0
VERTEX
  8
LY_1
  6
CONTINUOUS
 62
     3
  5
64E
 10
264.73386
 20
264.39996
 30
0.0
  0
VERTEX
  8
LY_1
  6
CONTINUOUS
 62
     3
  5
64F
 10
264.683965
 20
264.378473
 30
0.0
  0
VERTEX
  8
LY_1
  6
CONTINUOUS
 62
     3
  5
650
 10
264.634183
 20
264.356727
 30
0.0
  0
VERTEX
  8
LY_1
  6
CONTINUOUS
 62
     3
  5
651
 10
264.584515
 20
264.334726
 30
0.0
  0
VERTEX
  8
LY_1
  6
CONTINUOUS
 62
     3
  5
652
 10
264.534961
 20
264.312471
 30
0.0
  0
VERTEX
  8
LY_1
  6
CONTINUOUS
 62
     3
  5
653
 10
264.485521
 20
264.289966
 30
0.0
  0
VERTEX
  8
LY_1
  6
CONTINUOUS
 62
     3
  5
654
 10
264.436195
 20
264.267214
 30
0.0
  0
VERTEX
  8
LY_1
  6
CONTINUOUS
 62
     3
  5
655
 10
264.386982
 20
264.244218
 30
0.0
  0
VERTEX
  8
LY_1
  6
CONTINUOUS
 62
     3
  5
656
 10
264.337883
 20
264.22098
 30
0.0
  0
VERTEX
  8
LY_1
  6
CONTINUOUS
 62
     3
  5
657
 10
264.288897
 20
264.197504
 30
0.0
  0
VERTEX
  8
LY_1
  6
CONTINUOUS
 62
     3
  5
658
 10
264.240026
 20
264.173792
 30
0.0
  0
VERTEX
  8
LY_1
  6
CONTINUOUS
 62
     3
  5
659
 10
264.191267
 20
264.149848
 30
0.0
  0
VERTEX
  8
LY_1
  6
CONTINUOUS
 62
     3
  5
65A
 10
264.142623
 20
264.125674
 30
0.0
  0
VERTEX
  8
LY_1
  6
CONTINUOUS
 62
     3
  5
65B
 10
264.094092
 20
264.101272
 30
0.0
  0
VERTEX
  8
LY_1
  6
CONTINUOUS
 62
     3
  5
65C
 10
264.045674
 20
264.076647
 30
0.0
  0
VERTEX
  8
LY_1
  6
CONTINUOUS
 62
     3
  5
65D
 10
263.99737
 20
264.051801
 30
0.0
  0
VERTEX
  8
LY_1
  6
CONTINUOUS
 62
     3
  5
65E
 10
263.944785
 20
264.024436
 30
0.0
  0
VERTEX
  8
LY_1
  6
CONTINUOUS
 62
     3
  5
65F
 10
263.892335
 20
263.996812
 30
0.0
  0
VERTEX
  8
LY_1
  6
CONTINUOUS
 62
     3
  5
660
 10
263.840021
 20
263.968932
 30
0.0
  0
VERTEX
  8
LY_1
  6
CONTINUOUS
 62
     3
  5
661
 10
263.787843
 20
263.940799
 30
0.0
  0
VERTEX
  8
LY_1
  6
CONTINUOUS
 62
     3
  5
662
 10
263.7358
 20
263.912415
 30
0.0
  0
VERTEX
  8
LY_1
  6
CONTINUOUS
 62
     3
  5
663
 10
263.683893
 20
263.883783
 30
0.0
  0
VERTEX
  8
LY_1
  6
CONTINUOUS
 62
     3
  5
664
 10
263.632122
 20
263.854906
 30
0.0
  0
VERTEX
  8
LY_1
  6
CONTINUOUS
 62
     3
  5
665
 10
263.580486
 20
263.825785
 30
0.0
  0
VERTEX
  8
LY_1
  6
CONTINUOUS
 62
     3
  5
666
 10
263.528987
 20
263.796425
 30
0.0
  0
VERTEX
  8
LY_1
  6
CONTINUOUS
 62
     3
  5
667
 10
263.477623
 20
263.766826
 30
0.0
  0
VERTEX
  8
LY_1
  6
CONTINUOUS
 62
     3
  5
668
 10
263.426395
 20
263.736993
 30
0.0
  0
VERTEX
  8
LY_1
  6
CONTINUOUS
 62
     3
  5
669
 10
263.375304
 20
263.706927
 30
0.0
  0
VERTEX
  8
LY_1
  6
CONTINUOUS
 62
     3
  5
66A
 10
263.324348
 20
263.676632
 30
0.0
  0
VERTEX
  8
LY_1
  6
CONTINUOUS
 62
     3
  5
66B
 10
263.273528
 20
263.646109
 30
0.0
  0
VERTEX
  8
LY_1
  6
CONTINUOUS
 62
     3
  5
66C
 10
263.222844
 20
263.615362
 30
0.0
  0
VERTEX
  8
LY_1
  6
CONTINUOUS
 62
     3
  5
66D
 10
263.172297
 20
263.584393
 30
0.0
  0
VERTEX
  8
LY_1
  6
CONTINUOUS
 62
     3
  5
66E
 10
263.116954
 20
263.550139
 30
0.0
  0
VERTEX
  8
LY_1
  6
CONTINUOUS
 62
     3
  5
66F
 10
263.061774
 20
263.515622
 30
0.0
  0
VERTEX
  8
LY_1
  6
CONTINUOUS
 62
     3
  5
670
 10
263.006757
 20
263.480847
 30
0.0
  0
VERTEX
  8
LY_1
  6
CONTINUOUS
 62
     3
  5
671
 10
262.951903
 20
263.445814
 30
0.0
  0
VERTEX
  8
LY_1
  6
CONTINUOUS
 62
     3
  5
672
 10
262.897212
 20
263.410528
 30
0.0
  0
VERTEX
  8
LY_1
  6
CONTINUOUS
 62
     3
  5
673
 10
262.842684
 20
263.374989
 30
0.0
  0
VERTEX
  8
LY_1
  6
CONTINUOUS
 62
     3
  5
674
 10
262.78832
 20
263.339201
 30
0.0
  0
VERTEX
  8
LY_1
  6
CONTINUOUS
 62
     3
  5
675
 10
262.734118
 20
263.303166
 30
0.0
  0
VERTEX
  8
LY_1
  6
CONTINUOUS
 62
     3
  5
676
 10
262.68008
 20
263.266885
 30
0.0
  0
VERTEX
  8
LY_1
  6
CONTINUOUS
 62
     3
  5
677
 10
262.626206
 20
263.230363
 30
0.0
  0
VERTEX
  8
LY_1
  6
CONTINUOUS
 62
     3
  5
678
 10
262.572495
 20
263.1936
 30
0.0
  0
VERTEX
  8
LY_1
  6
CONTINUOUS
 62
     3
  5
679
 10
262.518947
 20
263.1566
 30
0.0
  0
VERTEX
  8
LY_1
  6
CONTINUOUS
 62
     3
  5
67A
 10
262.465563
 20
263.119364
 30
0.0
  0
VERTEX
  8
LY_1
  6
CONTINUOUS
 62
     3
  5
67B
 10
262.412342
 20
263.081895
 30
0.0
  0
VERTEX
  8
LY_1
  6
CONTINUOUS
 62
     3
  5
67C
 10
262.359285
 20
263.044196
 30
0.0
  0
VERTEX
  8
LY_1
  6
CONTINUOUS
 62
     3
  5
67D
 10
262.306391
 20
263.006268
 30
0.0
  0
VERTEX
  8
LY_1
  6
CONTINUOUS
 62
     3
  5
67E
 10
262.24805
 20
262.964034
 30
0.0
  0
VERTEX
  8
LY_1
  6
CONTINUOUS
 62
     3
  5
67F
 10
262.189909
 20
262.921525
 30
0.0
  0
VERTEX
  8
LY_1
  6
CONTINUOUS
 62
     3
  5
680
 10
262.131969
 20
262.878743
 30
0.0
  0
VERTEX
  8
LY_1
  6
CONTINUOUS
 62
     3
  5
681
 10
262.074231
 20
262.835691
 30
0.0
  0
VERTEX
  8
LY_1
  6
CONTINUOUS
 62
     3
  5
682
 10
262.016693
 20
262.79237
 30
0.0
  0
VERTEX
  8
LY_1
  6
CONTINUOUS
 62
     3
  5
683
 10
261.959356
 20
262.748783
 30
0.0
  0
VERTEX
  8
LY_1
  6
CONTINUOUS
 62
     3
  5
684
 10
261.90222
 20
262.704932
 30
0.0
  0
VERTEX
  8
LY_1
  6
CONTINUOUS
 62
     3
  5
685
 10
261.845286
 20
262.660819
 30
0.0
  0
VERTEX
  8
LY_1
  6
CONTINUOUS
 62
     3
  5
686
 10
261.788553
 20
262.616446
 30
0.0
  0
VERTEX
  8
LY_1
  6
CONTINUOUS
 62
     3
  5
687
 10
261.732021
 20
262.571816
 30
0.0
  0
VERTEX
  8
LY_1
  6
CONTINUOUS
 62
     3
  5
688
 10
261.67569
 20
262.526931
 30
0.0
  0
VERTEX
  8
LY_1
  6
CONTINUOUS
 62
     3
  5
689
 10
261.619561
 20
262.481792
 30
0.0
  0
VERTEX
  8
LY_1
  6
CONTINUOUS
 62
     3
  5
68A
 10
261.563633
 20
262.436402
 30
0.0
  0
VERTEX
  8
LY_1
  6
CONTINUOUS
 62
     3
  5
68B
 10
261.507907
 20
262.390764
 30
0.0
  0
VERTEX
  8
LY_1
  6
CONTINUOUS
 62
     3
  5
68C
 10
261.452382
 20
262.344879
 30
0.0
  0
VERTEX
  8
LY_1
  6
CONTINUOUS
 62
     3
  5
68D
 10
261.397059
 20
262.298749
 30
0.0
  0
VERTEX
  8
LY_1
  6
CONTINUOUS
 62
     3
  5
68E
 10
261.335363
 20
262.246818
 30
0.0
  0
VERTEX
  8
LY_1
  6
CONTINUOUS
 62
     3
  5
68F
 10
261.273921
 20
262.194585
 30
0.0
  0
VERTEX
  8
LY_1
  6
CONTINUOUS
 62
     3
  5
690
 10
261.212735
 20
262.142052
 30
0.0
  0
VERTEX
  8
LY_1
  6
CONTINUOUS
 62
     3
  5
691
 10
261.151806
 20
262.08922
 30
0.0
  0
VERTEX
  8
LY_1
  6
CONTINUOUS
 62
     3
  5
692
 10
261.091136
 20
262.036092
 30
0.0
  0
VERTEX
  8
LY_1
  6
CONTINUOUS
 62
     3
  5
693
 10
261.030725
 20
261.982669
 30
0.0
  0
VERTEX
  8
LY_1
  6
CONTINUOUS
 62
     3
  5
694
 10
260.970575
 20
261.928954
 30
0.0
  0
VERTEX
  8
LY_1
  6
CONTINUOUS
 62
     3
  5
695
 10
260.910688
 20
261.874948
 30
0.0
  0
VERTEX
  8
LY_1
  6
CONTINUOUS
 62
     3
  5
696
 10
260.851065
 20
261.820653
 30
0.0
  0
VERTEX
  8
LY_1
  6
CONTINUOUS
 62
     3
  5
697
 10
260.791708
 20
261.766071
 30
0.0
  0
VERTEX
  8
LY_1
  6
CONTINUOUS
 62
     3
  5
698
 10
260.732617
 20
261.711204
 30
0.0
  0
VERTEX
  8
LY_1
  6
CONTINUOUS
 62
     3
  5
699
 10
260.673795
 20
261.656054
 30
0.0
  0
VERTEX
  8
LY_1
  6
CONTINUOUS
 62
     3
  5
69A
 10
260.615242
 20
261.600622
 30
0.0
  0
VERTEX
  8
LY_1
  6
CONTINUOUS
 62
     3
  5
69B
 10
260.556961
 20
261.544912
 30
0.0
  0
VERTEX
  8
LY_1
  6
CONTINUOUS
 62
     3
  5
69C
 10
260.498952
 20
261.488924
 30
0.0
  0
VERTEX
  8
LY_1
  6
CONTINUOUS
 62
     3
  5
69D
 10
260.441218
 20
261.43266
 30
0.0
  0
VERTEX
  8
LY_1
  6
CONTINUOUS
 62
     3
  5
69E
 10
260.432564
 20
261.424179
 30
0.0
  0
VERTEX
  8
LY_1
  6
CONTINUOUS
 62
     3
  5
69F
 10
260.423917
 20
261.415691
 30
0.0
  0
VERTEX
  8
LY_1
  6
CONTINUOUS
 62
     3
  5
6A0
 10
260.415277
 20
261.407197
 30
0.0
  0
VERTEX
  8
LY_1
  6
CONTINUOUS
 62
     3
  5
6A1
 10
260.406643
 20
261.398695
 30
0.0
  0
VERTEX
  8
LY_1
  6
CONTINUOUS
 62
     3
  5
6A2
 10
260.398015
 20
261.390186
 30
0.0
  0
VERTEX
  8
LY_1
  6
CONTINUOUS
 62
     3
  5
6A3
 10
260.389395
 20
261.381671
 30
0.0
  0
VERTEX
  8
LY_1
  6
CONTINUOUS
 62
     3
  5
6A4
 10
260.38078
 20
261.37315
 30
0.0
  0
VERTEX
  8
LY_1
  6
CONTINUOUS
 62
     3
  5
6A5
 10
260.372171
 20
261.364622
 30
0.0
  0
VERTEX
  8
LY_1
  6
CONTINUOUS
 62
     3
  5
6A6
 10
260.363569
 20
261.356088
 30
0.0
  0
VERTEX
  8
LY_1
  6
CONTINUOUS
 62
     3
  5
6A7
 10
260.354973
 20
261.347548
 30
0.0
  0
VERTEX
  8
LY_1
  6
CONTINUOUS
 62
     3
  5
6A8
 10
260.346383
 20
261.339001
 30
0.0
  0
VERTEX
  8
LY_1
  6
CONTINUOUS
 62
     3
  5
6A9
 10
260.337799
 20
261.330449
 30
0.0
  0
VERTEX
  8
LY_1
  6
CONTINUOUS
 62
     3
  5
6AA
 10
260.329221
 20
261.321892
 30
0.0
  0
VERTEX
  8
LY_1
  6
CONTINUOUS
 62
     3
  5
6AB
 10
260.320649
 20
261.313328
 30
0.0
  0
VERTEX
  8
LY_1
  6
CONTINUOUS
 62
     3
  5
6AC
 10
260.312083
 20
261.30476
 30
0.0
  0
VERTEX
  8
LY_1
  6
CONTINUOUS
 62
     3
  5
6AD
 10
260.303522
 20
261.296185
 30
0.0
  0
SEQEND
  8
LY_1
  6
CONTINUOUS
 62
     3
  5
6AE
  0
POLYLINE
  8
LY_1
  6
CONTINUOUS
 62
     3
  5
15A
 66
     1
 10
0.0
 20
0.0
 30
0.0
  0
VERTEX
  8
LY_1
  6
CONTINUOUS
 62
     3
  5
6AF
 10
284.107111
 20
217.527387
 30
0.0
  0
VERTEX
  8
LY_1
  6
CONTINUOUS
 62
     3
  5
6B0
 10
284.056409
 20
218.355488
 30
0.0
  0
VERTEX
  8
LY_1
  6
CONTINUOUS
 62
     3
  5
6B1
 10
284.006406
 20
219.183632
 30
0.0
  0
VERTEX
  8
LY_1
  6
CONTINUOUS
 62
     3
  5
6B2
 10
283.9571
 20
220.011819
 30
0.0
  0
VERTEX
  8
LY_1
  6
CONTINUOUS
 62
     3
  5
6B3
 10
283.908485
 20
220.840047
 30
0.0
  0
VERTEX
  8
LY_1
  6
CONTINUOUS
 62
     3
  5
6B4
 10
283.86056
 20
221.668315
 30
0.0
  0
VERTEX
  8
LY_1
  6
CONTINUOUS
 62
     3
  5
6B5
 10
283.81332
 20
222.496625
 30
0.0
  0
VERTEX
  8
LY_1
  6
CONTINUOUS
 62
     3
  5
6B6
 10
283.766761
 20
223.324973
 30
0.0
  0
VERTEX
  8
LY_1
  6
CONTINUOUS
 62
     3
  5
6B7
 10
283.72088
 20
224.153361
 30
0.0
  0
VERTEX
  8
LY_1
  6
CONTINUOUS
 62
     3
  5
6B8
 10
283.675674
 20
224.981787
 30
0.0
  0
VERTEX
  8
LY_1
  6
CONTINUOUS
 62
     3
  5
6B9
 10
283.631138
 20
225.81025
 30
0.0
  0
VERTEX
  8
LY_1
  6
CONTINUOUS
 62
     3
  5
6BA
 10
283.587269
 20
226.63875
 30
0.0
  0
VERTEX
  8
LY_1
  6
CONTINUOUS
 62
     3
  5
6BB
 10
283.544063
 20
227.467287
 30
0.0
  0
VERTEX
  8
LY_1
  6
CONTINUOUS
 62
     3
  5
6BC
 10
283.501517
 20
228.295859
 30
0.0
  0
VERTEX
  8
LY_1
  6
CONTINUOUS
 62
     3
  5
6BD
 10
283.459628
 20
229.124466
 30
0.0
  0
VERTEX
  8
LY_1
  6
CONTINUOUS
 62
     3
  5
6BE
 10
283.418391
 20
229.953107
 30
0.0
  0
VERTEX
  8
LY_1
  6
CONTINUOUS
 62
     3
  5
6BF
 10
283.377802
 20
230.781781
 30
0.0
  0
VERTEX
  8
LY_1
  6
CONTINUOUS
 62
     3
  5
6C0
 10
283.345384
 20
231.453364
 30
0.0
  0
VERTEX
  8
LY_1
  6
CONTINUOUS
 62
     3
  5
6C1
 10
283.313392
 20
232.124969
 30
0.0
  0
VERTEX
  8
LY_1
  6
CONTINUOUS
 62
     3
  5
6C2
 10
283.281831
 20
232.796596
 30
0.0
  0
VERTEX
  8
LY_1
  6
CONTINUOUS
 62
     3
  5
6C3
 10
283.250703
 20
233.468243
 30
0.0
  0
VERTEX
  8
LY_1
  6
CONTINUOUS
 62
     3
  5
6C4
 10
283.220012
 20
234.139912
 30
0.0
  0
VERTEX
  8
LY_1
  6
CONTINUOUS
 62
     3
  5
6C5
 10
283.18976
 20
234.811601
 30
0.0
  0
VERTEX
  8
LY_1
  6
CONTINUOUS
 62
     3
  5
6C6
 10
283.159951
 20
235.48331
 30
0.0
  0
VERTEX
  8
LY_1
  6
CONTINUOUS
 62
     3
  5
6C7
 10
283.130587
 20
236.155039
 30
0.0
  0
VERTEX
  8
LY_1
  6
CONTINUOUS
 62
     3
  5
6C8
 10
283.101673
 20
236.826788
 30
0.0
  0
VERTEX
  8
LY_1
  6
CONTINUOUS
 62
     3
  5
6C9
 10
283.073211
 20
237.498556
 30
0.0
  0
VERTEX
  8
LY_1
  6
CONTINUOUS
 62
     3
  5
6CA
 10
283.045204
 20
238.170343
 30
0.0
  0
VERTEX
  8
LY_1
  6
CONTINUOUS
 62
     3
  5
6CB
 10
283.017656
 20
238.84215
 30
0.0
  0
VERTEX
  8
LY_1
  6
CONTINUOUS
 62
     3
  5
6CC
 10
282.990569
 20
239.513974
 30
0.0
  0
VERTEX
  8
LY_1
  6
CONTINUOUS
 62
     3
  5
6CD
 10
282.963947
 20
240.185817
 30
0.0
  0
VERTEX
  8
LY_1
  6
CONTINUOUS
 62
     3
  5
6CE
 10
282.937793
 20
240.857678
 30
0.0
  0
VERTEX
  8
LY_1
  6
CONTINUOUS
 62
     3
  5
6CF
 10
282.91211
 20
241.529557
 30
0.0
  0
VERTEX
  8
LY_1
  6
CONTINUOUS
 62
     3
  5
6D0
 10
282.886901
 20
242.201453
 30
0.0
  0
VERTEX
  8
LY_1
  6
CONTINUOUS
 62
     3
  5
6D1
 10
282.862169
 20
242.873366
 30
0.0
  0
VERTEX
  8
LY_1
  6
CONTINUOUS
 62
     3
  5
6D2
 10
282.837918
 20
243.545295
 30
0.0
  0
VERTEX
  8
LY_1
  6
CONTINUOUS
 62
     3
  5
6D3
 10
282.81415
 20
244.217242
 30
0.0
  0
VERTEX
  8
LY_1
  6
CONTINUOUS
 62
     3
  5
6D4
 10
282.79087
 20
244.889204
 30
0.0
  0
VERTEX
  8
LY_1
  6
CONTINUOUS
 62
     3
  5
6D5
 10
282.768079
 20
245.561183
 30
0.0
  0
VERTEX
  8
LY_1
  6
CONTINUOUS
 62
     3
  5
6D6
 10
282.745781
 20
246.233177
 30
0.0
  0
VERTEX
  8
LY_1
  6
CONTINUOUS
 62
     3
  5
6D7
 10
282.723979
 20
246.905187
 30
0.0
  0
VERTEX
  8
LY_1
  6
CONTINUOUS
 62
     3
  5
6D8
 10
282.702677
 20
247.577211
 30
0.0
  0
VERTEX
  8
LY_1
  6
CONTINUOUS
 62
     3
  5
6D9
 10
282.681877
 20
248.249251
 30
0.0
  0
VERTEX
  8
LY_1
  6
CONTINUOUS
 62
     3
  5
6DA
 10
282.661582
 20
248.921304
 30
0.0
  0
VERTEX
  8
LY_1
  6
CONTINUOUS
 62
     3
  5
6DB
 10
282.641797
 20
249.593373
 30
0.0
  0
VERTEX
  8
LY_1
  6
CONTINUOUS
 62
     3
  5
6DC
 10
282.622523
 20
250.265455
 30
0.0
  0
VERTEX
  8
LY_1
  6
CONTINUOUS
 62
     3
  5
6DD
 10
282.603764
 20
250.93755
 30
0.0
  0
VERTEX
  8
LY_1
  6
CONTINUOUS
 62
     3
  5
6DE
 10
282.585524
 20
251.609659
 30
0.0
  0
VERTEX
  8
LY_1
  6
CONTINUOUS
 62
     3
  5
6DF
 10
282.567805
 20
252.281781
 30
0.0
  0
VERTEX
  8
LY_1
  6
CONTINUOUS
 62
     3
  5
6E0
 10
282.547241
 20
253.087993
 30
0.0
  0
VERTEX
  8
LY_1
  6
CONTINUOUS
 62
     3
  5
6E1
 10
282.527429
 20
253.894225
 30
0.0
  0
VERTEX
  8
LY_1
  6
CONTINUOUS
 62
     3
  5
6E2
 10
282.508364
 20
254.700476
 30
0.0
  0
VERTEX
  8
LY_1
  6
CONTINUOUS
 62
     3
  5
6E3
 10
282.490042
 20
255.506746
 30
0.0
  0
VERTEX
  8
LY_1
  6
CONTINUOUS
 62
     3
  5
6E4
 10
282.472461
 20
256.313034
 30
0.0
  0
VERTEX
  8
LY_1
  6
CONTINUOUS
 62
     3
  5
6E5
 10
282.455617
 20
257.119337
 30
0.0
  0
VERTEX
  8
LY_1
  6
CONTINUOUS
 62
     3
  5
6E6
 10
282.439507
 20
257.925656
 30
0.0
  0
VERTEX
  8
LY_1
  6
CONTINUOUS
 62
     3
  5
6E7
 10
282.424126
 20
258.731989
 30
0.0
  0
VERTEX
  8
LY_1
  6
CONTINUOUS
 62
     3
  5
6E8
 10
282.409473
 20
259.538335
 30
0.0
  0
VERTEX
  8
LY_1
  6
CONTINUOUS
 62
     3
  5
6E9
 10
282.395543
 20
260.344692
 30
0.0
  0
VERTEX
  8
LY_1
  6
CONTINUOUS
 62
     3
  5
6EA
 10
282.382332
 20
261.151061
 30
0.0
  0
VERTEX
  8
LY_1
  6
CONTINUOUS
 62
     3
  5
6EB
 10
282.369839
 20
261.957439
 30
0.0
  0
VERTEX
  8
LY_1
  6
CONTINUOUS
 62
     3
  5
6EC
 10
282.358058
 20
262.763826
 30
0.0
  0
VERTEX
  8
LY_1
  6
CONTINUOUS
 62
     3
  5
6ED
 10
282.346987
 20
263.57022
 30
0.0
  0
VERTEX
  8
LY_1
  6
CONTINUOUS
 62
     3
  5
6EE
 10
282.336622
 20
264.376621
 30
0.0
  0
VERTEX
  8
LY_1
  6
CONTINUOUS
 62
     3
  5
6EF
 10
282.32696
 20
265.183026
 30
0.0
  0
SEQEND
  8
LY_1
  6
CONTINUOUS
 62
     3
  5
6F0
  0
POLYLINE
  8
LY_1
  6
CONTINUOUS
 62
     3
  5
15B
 66
     1
 10
0.0
 20
0.0
 30
0.0
  0
VERTEX
  8
LY_1
  6
CONTINUOUS
 62
     3
  5
6F1
 10
55.163344
 20
145.781781
 30
0.0
  0
VERTEX
  8
LY_1
  6
CONTINUOUS
 62
     3
  5
6F2
 10
55.126409
 20
145.859998
 30
0.0
  0
VERTEX
  8
LY_1
  6
CONTINUOUS
 62
     3
  5
6F3
 10
55.016513
 20
145.93629
 30
0.0
  0
VERTEX
  8
LY_1
  6
CONTINUOUS
 62
     3
  5
6F4
 10
54.836363
 20
146.008776
 30
0.0
  0
VERTEX
  8
LY_1
  6
CONTINUOUS
 62
     3
  5
6F5
 10
54.590395
 20
146.075674
 30
0.0
  0
VERTEX
  8
LY_1
  6
CONTINUOUS
 62
     3
  5
6F6
 10
54.284664
 20
146.135335
 30
0.0
  0
VERTEX
  8
LY_1
  6
CONTINUOUS
 62
     3
  5
6F7
 10
53.926699
 20
146.18629
 30
0.0
  0
VERTEX
  8
LY_1
  6
CONTINUOUS
 62
     3
  5
6F8
 10
53.525315
 20
146.227284
 30
0.0
  0
VERTEX
  8
LY_1
  6
CONTINUOUS
 62
     3
  5
6F9
 10
53.090395
 20
146.257309
 30
0.0
  0
VERTEX
  8
LY_1
  6
CONTINUOUS
 62
     3
  5
6FA
 10
52.632647
 20
146.275625
 30
0.0
  0
VERTEX
  8
LY_1
  6
CONTINUOUS
 62
     3
  5
6FB
 10
52.163344
 20
146.281781
 30
0.0
  0
SEQEND
  8
LY_1
  6
CONTINUOUS
 62
     3
  5
6FC
  0
POLYLINE
  8
LY_1
  6
CONTINUOUS
 62
     3
  5
15C
 66
     1
 10
0.0
 20
0.0
 30
0.0
  0
VERTEX
  8
LY_1
  6
CONTINUOUS
 62
     3
  5
6FD
 10
40.163344
 20
146.281781
 30
0.0
  0
VERTEX
  8
LY_1
  6
CONTINUOUS
 62
     3
  5
6FE
 10
39.69404
 20
146.275625
 30
0.0
  0
VERTEX
  8
LY_1
  6
CONTINUOUS
 62
     3
  5
6FF
 10
39.236293
 20
146.257309
 30
0.0
  0
VERTEX
  8
LY_1
  6
CONTINUOUS
 62
     3
  5
700
 10
38.801372
 20
146.227284
 30
0.0
  0
VERTEX
  8
LY_1
  6
CONTINUOUS
 62
     3
  5
701
 10
38.399988
 20
146.18629
 30
0.0
  0
VERTEX
  8
LY_1
  6
CONTINUOUS
 62
     3
  5
702
 10
38.042023
 20
146.135335
 30
0.0
  0
VERTEX
  8
LY_1
  6
CONTINUOUS
 62
     3
  5
703
 10
37.736293
 20
146.075674
 30
0.0
  0
VERTEX
  8
LY_1
  6
CONTINUOUS
 62
     3
  5
704
 10
37.490324
 20
146.008776
 30
0.0
  0
VERTEX
  8
LY_1
  6
CONTINUOUS
 62
     3
  5
705
 10
37.310174
 20
145.93629
 30
0.0
  0
VERTEX
  8
LY_1
  6
CONTINUOUS
 62
     3
  5
706
 10
37.200279
 20
145.859998
 30
0.0
  0
VERTEX
  8
LY_1
  6
CONTINUOUS
 62
     3
  5
707
 10
37.163344
 20
145.781781
 30
0.0
  0
SEQEND
  8
LY_1
  6
CONTINUOUS
 62
     3
  5
708
  0
POLYLINE
  8
LY_1
  6
CONTINUOUS
 62
     3
  5
15D
 66
     1
 10
0.0
 20
0.0
 30
0.0
 70
     1
  0
VERTEX
  8
LY_1
  6
CONTINUOUS
 62
     3
  5
709
 10
6.461628
 20
149.865115
 30
0.0
  0
VERTEX
  8
LY_1
  6
CONTINUOUS
 62
     3
  5
70A
 10
6.452115
 20
149.901429
 30
0.0
  0
VERTEX
  8
LY_1
  6
CONTINUOUS
 62
     3
  5
70B
 10
6.423647
 20
149.937468
 30
0.0
  0
VERTEX
  8
LY_1
  6
CONTINUOUS
 62
     3
  5
70C
 10
6.376442
 20
149.972956
 30
0.0
  0
VERTEX
  8
LY_1
  6
CONTINUOUS
 62
     3
  5
70D
 10
6.310859
 20
150.007623
 30
0.0
  0
VERTEX
  8
LY_1
  6
CONTINUOUS
 62
     3
  5
70E
 10
6.227397
 20
150.041205
 30
0.0
  0
VERTEX
  8
LY_1
  6
CONTINUOUS
 62
     3
  5
70F
 10
6.126691
 20
150.073448
 30
0.0
  0
VERTEX
  8
LY_1
  6
CONTINUOUS
 62
     3
  5
710
 10
6.009508
 20
150.104105
 30
0.0
  0
VERTEX
  8
LY_1
  6
CONTINUOUS
 62
     3
  5
711
 10
5.876739
 20
150.132943
 30
0.0
  0
VERTEX
  8
LY_1
  6
CONTINUOUS
 62
     3
  5
712
 10
5.729395
 20
150.159742
 30
0.0
  0
VERTEX
  8
LY_1
  6
CONTINUOUS
 62
     3
  5
713
 10
5.568597
 20
150.1843
 30
0.0
  0
VERTEX
  8
LY_1
  6
CONTINUOUS
 62
     3
  5
714
 10
5.395569
 20
150.206428
 30
0.0
  0
VERTEX
  8
LY_1
  6
CONTINUOUS
 62
     3
  5
715
 10
5.211628
 20
150.225958
 30
0.0
  0
VERTEX
  8
LY_1
  6
CONTINUOUS
 62
     3
  5
716
 10
5.018173
 20
150.242743
 30
0.0
  0
VERTEX
  8
LY_1
  6
CONTINUOUS
 62
     3
  5
717
 10
4.816678
 20
150.256653
 30
0.0
  0
VERTEX
  8
LY_1
  6
CONTINUOUS
 62
     3
  5
718
 10
4.608675
 20
150.267584
 30
0.0
  0
VERTEX
  8
LY_1
  6
CONTINUOUS
 62
     3
  5
719
 10
4.395748
 20
150.275451
 30
0.0
  0
VERTEX
  8
LY_1
  6
CONTINUOUS
 62
     3
  5
71A
 10
4.179517
 20
150.280196
 30
0.0
  0
VERTEX
  8
LY_1
  6
CONTINUOUS
 62
     3
  5
71B
 10
3.961628
 20
150.281781
 30
0.0
  0
VERTEX
  8
LY_1
  6
CONTINUOUS
 62
     3
  5
71C
 10
3.743738
 20
150.280196
 30
0.0
  0
VERTEX
  8
LY_1
  6
CONTINUOUS
 62
     3
  5
71D
 10
3.527507
 20
150.275451
 30
0.0
  0
VERTEX
  8
LY_1
  6
CONTINUOUS
 62
     3
  5
71E
 10
3.31458
 20
150.267584
 30
0.0
  0
VERTEX
  8
LY_1
  6
CONTINUOUS
 62
     3
  5
71F
 10
3.106577
 20
150.256653
 30
0.0
  0
VERTEX
  8
LY_1
  6
CONTINUOUS
 62
     3
  5
720
 10
2.905082
 20
150.242743
 30
0.0
  0
VERTEX
  8
LY_1
  6
CONTINUOUS
 62
     3
  5
721
 10
2.711628
 20
150.225958
 30
0.0
  0
VERTEX
  8
LY_1
  6
CONTINUOUS
 62
     3
  5
722
 10
2.527687
 20
150.206428
 30
0.0
  0
VERTEX
  8
LY_1
  6
CONTINUOUS
 62
     3
  5
723
 10
2.354659
 20
150.1843
 30
0.0
  0
VERTEX
  8
LY_1
  6
CONTINUOUS
 62
     3
  5
724
 10
2.193861
 20
150.159742
 30
0.0
  0
VERTEX
  8
LY_1
  6
CONTINUOUS
 62
     3
  5
725
 10
2.046517
 20
150.132943
 30
0.0
  0
VERTEX
  8
LY_1
  6
CONTINUOUS
 62
     3
  5
726
 10
1.913748
 20
150.104105
 30
0.0
  0
VERTEX
  8
LY_1
  6
CONTINUOUS
 62
     3
  5
727
 10
1.796564
 20
150.073448
 30
0.0
  0
VERTEX
  8
LY_1
  6
CONTINUOUS
 62
     3
  5
728
 10
1.695858
 20
150.041205
 30
0.0
  0
VERTEX
  8
LY_1
  6
CONTINUOUS
 62
     3
  5
729
 10
1.612396
 20
150.007623
 30
0.0
  0
VERTEX
  8
LY_1
  6
CONTINUOUS
 62
     3
  5
72A
 10
1.546813
 20
149.972956
 30
0.0
  0
VERTEX
  8
LY_1
  6
CONTINUOUS
 62
     3
  5
72B
 10
1.499608
 20
149.937468
 30
0.0
  0
VERTEX
  8
LY_1
  6
CONTINUOUS
 62
     3
  5
72C
 10
1.471141
 20
149.901429
 30
0.0
  0
VERTEX
  8
LY_1
  6
CONTINUOUS
 62
     3
  5
72D
 10
1.461628
 20
149.865115
 30
0.0
  0
VERTEX
  8
LY_1
  6
CONTINUOUS
 62
     3
  5
72E
 10
1.471141
 20
149.8288
 30
0.0
  0
VERTEX
  8
LY_1
  6
CONTINUOUS
 62
     3
  5
72F
 10
1.499608
 20
149.792761
 30
0.0
  0
VERTEX
  8
LY_1
  6
CONTINUOUS
 62
     3
  5
730
 10
1.546813
 20
149.757273
 30
0.0
  0
VERTEX
  8
LY_1
  6
CONTINUOUS
 62
     3
  5
731
 10
1.612396
 20
149.722606
 30
0.0
  0
VERTEX
  8
LY_1
  6
CONTINUOUS
 62
     3
  5
732
 10
1.695858
 20
149.689024
 30
0.0
  0
VERTEX
  8
LY_1
  6
CONTINUOUS
 62
     3
  5
733
 10
1.796564
 20
149.656781
 30
0.0
  0
VERTEX
  8
LY_1
  6
CONTINUOUS
 62
     3
  5
734
 10
1.913748
 20
149.626124
 30
0.0
  0
VERTEX
  8
LY_1
  6
CONTINUOUS
 62
     3
  5
735
 10
2.046517
 20
149.597286
 30
0.0
  0
VERTEX
  8
LY_1
  6
CONTINUOUS
 62
     3
  5
736
 10
2.193861
 20
149.570487
 30
0.0
  0
VERTEX
  8
LY_1
  6
CONTINUOUS
 62
     3
  5
737
 10
2.354659
 20
149.545929
 30
0.0
  0
VERTEX
  8
LY_1
  6
CONTINUOUS
 62
     3
  5
738
 10
2.527687
 20
149.523801
 30
0.0
  0
VERTEX
  8
LY_1
  6
CONTINUOUS
 62
     3
  5
739
 10
2.711628
 20
149.504271
 30
0.0
  0
VERTEX
  8
LY_1
  6
CONTINUOUS
 62
     3
  5
73A
 10
2.905082
 20
149.487486
 30
0.0
  0
VERTEX
  8
LY_1
  6
CONTINUOUS
 62
     3
  5
73B
 10
3.106577
 20
149.473576
 30
0.0
  0
VERTEX
  8
LY_1
  6
CONTINUOUS
 62
     3
  5
73C
 10
3.31458
 20
149.462645
 30
0.0
  0
VERTEX
  8
LY_1
  6
CONTINUOUS
 62
     3
  5
73D
 10
3.527507
 20
149.454778
 30
0.0
  0
VERTEX
  8
LY_1
  6
CONTINUOUS
 62
     3
  5
73E
 10
3.743738
 20
149.450033
 30
0.0
  0
VERTEX
  8
LY_1
  6
CONTINUOUS
 62
     3
  5
73F
 10
3.961628
 20
149.448448
 30
0.0
  0
VERTEX
  8
LY_1
  6
CONTINUOUS
 62
     3
  5
740
 10
4.179517
 20
149.450033
 30
0.0
  0
VERTEX
  8
LY_1
  6
CONTINUOUS
 62
     3
  5
741
 10
4.395748
 20
149.454778
 30
0.0
  0
VERTEX
  8
LY_1
  6
CONTINUOUS
 62
     3
  5
742
 10
4.608675
 20
149.462645
 30
0.0
  0
VERTEX
  8
LY_1
  6
CONTINUOUS
 62
     3
  5
743
 10
4.816678
 20
149.473576
 30
0.0
  0
VERTEX
  8
LY_1
  6
CONTINUOUS
 62
     3
  5
744
 10
5.018173
 20
149.487486
 30
0.0
  0
VERTEX
  8
LY_1
  6
CONTINUOUS
 62
     3
  5
745
 10
5.211628
 20
149.504271
 30
0.0
  0
VERTEX
  8
LY_1
  6
CONTINUOUS
 62
     3
  5
746
 10
5.395569
 20
149.523801
 30
0.0
  0
VERTEX
  8
LY_1
  6
CONTINUOUS
 62
     3
  5
747
 10
5.568597
 20
149.545929
 30
0.0
  0
VERTEX
  8
LY_1
  6
CONTINUOUS
 62
     3
  5
748
 10
5.729395
 20
149.570487
 30
0.0
  0
VERTEX
  8
LY_1
  6
CONTINUOUS
 62
     3
  5
749
 10
5.876739
 20
149.597286
 30
0.0
  0
VERTEX
  8
LY_1
  6
CONTINUOUS
 62
     3
  5
74A
 10
6.009508
 20
149.626124
 30
0.0
  0
VERTEX
  8
LY_1
  6
CONTINUOUS
 62
     3
  5
74B
 10
6.126691
 20
149.656781
 30
0.0
  0
VERTEX
  8
LY_1
  6
CONTINUOUS
 62
     3
  5
74C
 10
6.227397
 20
149.689024
 30
0.0
  0
VERTEX
  8
LY_1
  6
CONTINUOUS
 62
     3
  5
74D
 10
6.310859
 20
149.722606
 30
0.0
  0
VERTEX
  8
LY_1
  6
CONTINUOUS
 62
     3
  5
74E
 10
6.376442
 20
149.757273
 30
0.0
  0
VERTEX
  8
LY_1
  6
CONTINUOUS
 62
     3
  5
74F
 10
6.423647
 20
149.792761
 30
0.0
  0
VERTEX
  8
LY_1
  6
CONTINUOUS
 62
     3
  5
750
 10
6.452115
 20
149.8288
 30
0.0
  0
VERTEX
  8
LY_1
  6
CONTINUOUS
 62
     3
  5
751
 10
6.461628
 20
149.865115
 30
0.0
  0
SEQEND
  8
LY_1
  6
CONTINUOUS
 62
     3
  5
752
  0
POLYLINE
  8
LY_1
  6
CONTINUOUS
 62
     3
  5
15E
 66
     1
 10
0.0
 20
0.0
 30
0.0
 70
     1
  0
VERTEX
  8
LY_1
  6
CONTINUOUS
 62
     3
  5
753
 10
23.473368
 20
206.812909
 30
0.0
  0
VERTEX
  8
LY_1
  6
CONTINUOUS
 62
     3
  5
754
 10
23.464578
 20
206.882638
 30
0.0
  0
VERTEX
  8
LY_1
  6
CONTINUOUS
 62
     3
  5
755
 10
23.438274
 20
206.951836
 30
0.0
  0
VERTEX
  8
LY_1
  6
CONTINUOUS
 62
     3
  5
756
 10
23.394657
 20
207.019977
 30
0.0
  0
VERTEX
  8
LY_1
  6
CONTINUOUS
 62
     3
  5
757
 10
23.334058
 20
207.086542
 30
0.0
  0
VERTEX
  8
LY_1
  6
CONTINUOUS
 62
     3
  5
758
 10
23.256939
 20
207.151024
 30
0.0
  0
VERTEX
  8
LY_1
  6
CONTINUOUS
 62
     3
  5
759
 10
23.163887
 20
207.212934
 30
0.0
  0
VERTEX
  8
LY_1
  6
CONTINUOUS
 62
     3
  5
75A
 10
23.05561
 20
207.271798
 30
0.0
  0
VERTEX
  8
LY_1
  6
CONTINUOUS
 62
     3
  5
75B
 10
22.932931
 20
207.327171
 30
0.0
  0
VERTEX
  8
LY_1
  6
CONTINUOUS
 62
     3
  5
75C
 10
22.796785
 20
207.378629
 30
0.0
  0
VERTEX
  8
LY_1
  6
CONTINUOUS
 62
     3
  5
75D
 10
22.648208
 20
207.425782
 30
0.0
  0
VERTEX
  8
LY_1
  6
CONTINUOUS
 62
     3
  5
75E
 10
22.488331
 20
207.468271
 30
0.0
  0
VERTEX
  8
LY_1
  6
CONTINUOUS
 62
     3
  5
75F
 10
22.318369
 20
207.505772
 30
0.0
  0
VERTEX
  8
LY_1
  6
CONTINUOUS
 62
     3
  5
760
 10
22.139618
 20
207.538
 30
0.0
  0
VERTEX
  8
LY_1
  6
CONTINUOUS
 62
     3
  5
761
 10
21.953436
 20
207.564709
 30
0.0
  0
VERTEX
  8
LY_1
  6
CONTINUOUS
 62
     3
  5
762
 10
21.761242
 20
207.585697
 30
0.0
  0
VERTEX
  8
LY_1
  6
CONTINUOUS
 62
     3
  5
763
 10
21.564497
 20
207.600803
 30
0.0
  0
VERTEX
  8
LY_1
  6
CONTINUOUS
 62
     3
  5
764
 10
21.3647
 20
207.609914
 30
0.0
  0
VERTEX
  8
LY_1
  6
CONTINUOUS
 62
     3
  5
765
 10
21.16337
 20
207.612958
 30
0.0
  0
VERTEX
  8
LY_1
  6
CONTINUOUS
 62
     3
  5
766
 10
20.962041
 20
207.609914
 30
0.0
  0
VERTEX
  8
LY_1
  6
CONTINUOUS
 62
     3
  5
767
 10
20.762244
 20
207.600803
 30
0.0
  0
VERTEX
  8
LY_1
  6
CONTINUOUS
 62
     3
  5
768
 10
20.565499
 20
207.585697
 30
0.0
  0
VERTEX
  8
LY_1
  6
CONTINUOUS
 62
     3
  5
769
 10
20.373305
 20
207.564709
 30
0.0
  0
VERTEX
  8
LY_1
  6
CONTINUOUS
 62
     3
  5
76A
 10
20.187123
 20
207.538
 30
0.0
  0
VERTEX
  8
LY_1
  6
CONTINUOUS
 62
     3
  5
76B
 10
20.008372
 20
207.505772
 30
0.0
  0
VERTEX
  8
LY_1
  6
CONTINUOUS
 62
     3
  5
76C
 10
19.83841
 20
207.468271
 30
0.0
  0
VERTEX
  8
LY_1
  6
CONTINUOUS
 62
     3
  5
76D
 10
19.678533
 20
207.425782
 30
0.0
  0
VERTEX
  8
LY_1
  6
CONTINUOUS
 62
     3
  5
76E
 10
19.529956
 20
207.378629
 30
0.0
  0
VERTEX
  8
LY_1
  6
CONTINUOUS
 62
     3
  5
76F
 10
19.39381
 20
207.327171
 30
0.0
  0
VERTEX
  8
LY_1
  6
CONTINUOUS
 62
     3
  5
770
 10
19.271131
 20
207.271798
 30
0.0
  0
VERTEX
  8
LY_1
  6
CONTINUOUS
 62
     3
  5
771
 10
19.162854
 20
207.212934
 30
0.0
  0
VERTEX
  8
LY_1
  6
CONTINUOUS
 62
     3
  5
772
 10
19.069802
 20
207.151024
 30
0.0
  0
VERTEX
  8
LY_1
  6
CONTINUOUS
 62
     3
  5
773
 10
18.992683
 20
207.086542
 30
0.0
  0
VERTEX
  8
LY_1
  6
CONTINUOUS
 62
     3
  5
774
 10
18.932084
 20
207.019977
 30
0.0
  0
VERTEX
  8
LY_1
  6
CONTINUOUS
 62
     3
  5
775
 10
18.888467
 20
206.951836
 30
0.0
  0
VERTEX
  8
LY_1
  6
CONTINUOUS
 62
     3
  5
776
 10
18.862163
 20
206.882638
 30
0.0
  0
VERTEX
  8
LY_1
  6
CONTINUOUS
 62
     3
  5
777
 10
18.853373
 20
206.812909
 30
0.0
  0
VERTEX
  8
LY_1
  6
CONTINUOUS
 62
     3
  5
778
 10
18.862163
 20
206.74318
 30
0.0
  0
VERTEX
  8
LY_1
  6
CONTINUOUS
 62
     3
  5
779
 10
18.888467
 20
206.673982
 30
0.0
  0
VERTEX
  8
LY_1
  6
CONTINUOUS
 62
     3
  5
77A
 10
18.932084
 20
206.605841
 30
0.0
  0
VERTEX
  8
LY_1
  6
CONTINUOUS
 62
     3
  5
77B
 10
18.992683
 20
206.539276
 30
0.0
  0
VERTEX
  8
LY_1
  6
CONTINUOUS
 62
     3
  5
77C
 10
19.069802
 20
206.474794
 30
0.0
  0
VERTEX
  8
LY_1
  6
CONTINUOUS
 62
     3
  5
77D
 10
19.162854
 20
206.412885
 30
0.0
  0
VERTEX
  8
LY_1
  6
CONTINUOUS
 62
     3
  5
77E
 10
19.271131
 20
206.35402
 30
0.0
  0
VERTEX
  8
LY_1
  6
CONTINUOUS
 62
     3
  5
77F
 10
19.39381
 20
206.298648
 30
0.0
  0
VERTEX
  8
LY_1
  6
CONTINUOUS
 62
     3
  5
780
 10
19.529956
 20
206.247189
 30
0.0
  0
VERTEX
  8
LY_1
  6
CONTINUOUS
 62
     3
  5
781
 10
19.678533
 20
206.200036
 30
0.0
  0
VERTEX
  8
LY_1
  6
CONTINUOUS
 62
     3
  5
782
 10
19.83841
 20
206.157547
 30
0.0
  0
VERTEX
  8
LY_1
  6
CONTINUOUS
 62
     3
  5
783
 10
20.008372
 20
206.120047
 30
0.0
  0
VERTEX
  8
LY_1
  6
CONTINUOUS
 62
     3
  5
784
 10
20.187123
 20
206.087819
 30
0.0
  0
VERTEX
  8
LY_1
  6
CONTINUOUS
 62
     3
  5
785
 10
20.373305
 20
206.061109
 30
0.0
  0
VERTEX
  8
LY_1
  6
CONTINUOUS
 62
     3
  5
786
 10
20.565499
 20
206.040121
 30
0.0
  0
VERTEX
  8
LY_1
  6
CONTINUOUS
 62
     3
  5
787
 10
20.762244
 20
206.025015
 30
0.0
  0
VERTEX
  8
LY_1
  6
CONTINUOUS
 62
     3
  5
788
 10
20.962041
 20
206.015905
 30
0.0
  0
VERTEX
  8
LY_1
  6
CONTINUOUS
 62
     3
  5
789
 10
21.16337
 20
206.01286
 30
0.0
  0
VERTEX
  8
LY_1
  6
CONTINUOUS
 62
     3
  5
78A
 10
21.3647
 20
206.015905
 30
0.0
  0
VERTEX
  8
LY_1
  6
CONTINUOUS
 62
     3
  5
78B
 10
21.564497
 20
206.025015
 30
0.0
  0
VERTEX
  8
LY_1
  6
CONTINUOUS
 62
     3
  5
78C
 10
21.761242
 20
206.040121
 30
0.0
  0
VERTEX
  8
LY_1
  6
CONTINUOUS
 62
     3
  5
78D
 10
21.953436
 20
206.061109
 30
0.0
  0
VERTEX
  8
LY_1
  6
CONTINUOUS
 62
     3
  5
78E
 10
22.139618
 20
206.087819
 30
0.0
  0
VERTEX
  8
LY_1
  6
CONTINUOUS
 62
     3
  5
78F
 10
22.318369
 20
206.120047
 30
0.0
  0
VERTEX
  8
LY_1
  6
CONTINUOUS
 62
     3
  5
790
 10
22.488331
 20
206.157547
 30
0.0
  0
VERTEX
  8
LY_1
  6
CONTINUOUS
 62
     3
  5
791
 10
22.648208
 20
206.200036
 30
0.0
  0
VERTEX
  8
LY_1
  6
CONTINUOUS
 62
     3
  5
792
 10
22.796785
 20
206.247189
 30
0.0
  0
VERTEX
  8
LY_1
  6
CONTINUOUS
 62
     3
  5
793
 10
22.932931
 20
206.298648
 30
0.0
  0
VERTEX
  8
LY_1
  6
CONTINUOUS
 62
     3
  5
794
 10
23.05561
 20
206.35402
 30
0.0
  0
VERTEX
  8
LY_1
  6
CONTINUOUS
 62
     3
  5
795
 10
23.163887
 20
206.412885
 30
0.0
  0
VERTEX
  8
LY_1
  6
CONTINUOUS
 62
     3
  5
796
 10
23.256939
 20
206.474794
 30
0.0
  0
VERTEX
  8
LY_1
  6
CONTINUOUS
 62
     3
  5
797
 10
23.334058
 20
206.539276
 30
0.0
  0
VERTEX
  8
LY_1
  6
CONTINUOUS
 62
     3
  5
798
 10
23.394657
 20
206.605841
 30
0.0
  0
VERTEX
  8
LY_1
  6
CONTINUOUS
 62
     3
  5
799
 10
23.438274
 20
206.673982
 30
0.0
  0
VERTEX
  8
LY_1
  6
CONTINUOUS
 62
     3
  5
79A
 10
23.464578
 20
206.74318
 30
0.0
  0
VERTEX
  8
LY_1
  6
CONTINUOUS
 62
     3
  5
79B
 10
23.473368
 20
206.812909
 30
0.0
  0
SEQEND
  8
LY_1
  6
CONTINUOUS
 62
     3
  5
79C
  0
POLYLINE
  8
LY_1
  6
CONTINUOUS
 62
     3
  5
15F
 66
     1
 10
0.0
 20
0.0
 30
0.0
  0
VERTEX
  8
LY_1
  6
CONTINUOUS
 62
     3
  5
79D
 10
178.379786
 20
206.122357
 30
0.0
  0
VERTEX
  8
LY_1
  6
CONTINUOUS
 62
     3
  5
79E
 10
178.392143
 20
206.227912
 30
0.0
  0
VERTEX
  8
LY_1
  6
CONTINUOUS
 62
     3
  5
79F
 10
178.366571
 20
206.343477
 30
0.0
  0
VERTEX
  8
LY_1
  6
CONTINUOUS
 62
     3
  5
7A0
 10
178.303508
 20
206.467074
 30
0.0
  0
VERTEX
  8
LY_1
  6
CONTINUOUS
 62
     3
  5
7A1
 10
178.204032
 20
206.596588
 30
0.0
  0
VERTEX
  8
LY_1
  6
CONTINUOUS
 62
     3
  5
7A2
 10
178.069846
 20
206.729803
 30
0.0
  0
VERTEX
  8
LY_1
  6
CONTINUOUS
 62
     3
  5
7A3
 10
177.903245
 20
206.864441
 30
0.0
  0
VERTEX
  8
LY_1
  6
CONTINUOUS
 62
     3
  5
7A4
 10
177.707081
 20
206.998196
 30
0.0
  0
VERTEX
  8
LY_1
  6
CONTINUOUS
 62
     3
  5
7A5
 10
177.484709
 20
207.128782
 30
0.0
  0
VERTEX
  8
LY_1
  6
CONTINUOUS
 62
     3
  5
7A6
 10
177.239935
 20
207.253962
 30
0.0
  0
VERTEX
  8
LY_1
  6
CONTINUOUS
 62
     3
  5
7A7
 10
176.976946
 20
207.371596
 30
0.0
  0
VERTEX
  8
LY_1
  6
CONTINUOUS
 62
     3
  5
7A8
 10
176.700243
 20
207.479671
 30
0.0
  0
VERTEX
  8
LY_1
  6
CONTINUOUS
 62
     3
  5
7A9
 10
176.414559
 20
207.576337
 30
0.0
  0
VERTEX
  8
LY_1
  6
CONTINUOUS
 62
     3
  5
7AA
 10
176.124784
 20
207.659941
 30
0.0
  0
VERTEX
  8
LY_1
  6
CONTINUOUS
 62
     3
  5
7AB
 10
175.835875
 20
207.729052
 30
0.0
  0
VERTEX
  8
LY_1
  6
CONTINUOUS
 62
     3
  5
7AC
 10
175.552776
 20
207.782487
 30
0.0
  0
VERTEX
  8
LY_1
  6
CONTINUOUS
 62
     3
  5
7AD
 10
175.28033
 20
207.819333
 30
0.0
  0
VERTEX
  8
LY_1
  6
CONTINUOUS
 62
     3
  5
7AE
 10
175.023199
 20
207.838958
 30
0.0
  0
VERTEX
  8
LY_1
  6
CONTINUOUS
 62
     3
  5
7AF
 10
174.785782
 20
207.841027
 30
0.0
  0
VERTEX
  8
LY_1
  6
CONTINUOUS
 62
     3
  5
7B0
 10
174.572143
 20
207.825505
 30
0.0
  0
VERTEX
  8
LY_1
  6
CONTINUOUS
 62
     3
  5
7B1
 10
174.385936
 20
207.792657
 30
0.0
  0
VERTEX
  8
LY_1
  6
CONTINUOUS
 62
     3
  5
7B2
 10
174.230348
 20
207.743045
 30
0.0
  0
VERTEX
  8
LY_1
  6
CONTINUOUS
 62
     3
  5
7B3
 10
174.10804
 20
207.677518
 30
0.0
  0
VERTEX
  8
LY_1
  6
CONTINUOUS
 62
     3
  5
7B4
 10
174.021106
 20
207.597198
 30
0.0
  0
VERTEX
  8
LY_1
  6
CONTINUOUS
 62
     3
  5
7B5
 10
173.971032
 20
207.503458
 30
0.0
  0
SEQEND
  8
LY_1
  6
CONTINUOUS
 62
     3
  5
7B6
  0
POLYLINE
  8
LY_1
  6
CONTINUOUS
 62
     3
  5
160
 66
     1
 10
0.0
 20
0.0
 30
0.0
 70
     1
  0
VERTEX
  8
LY_1
  6
CONTINUOUS
 62
     3
  5
7B7
 10
242.320856
 20
205.671674
 30
0.0
  0
VERTEX
  8
LY_1
  6
CONTINUOUS
 62
     3
  5
7B8
 10
242.344652
 20
205.60555
 30
0.0
  0
VERTEX
  8
LY_1
  6
CONTINUOUS
 62
     3
  5
7B9
 10
242.385423
 20
205.543766
 30
0.0
  0
VERTEX
  8
LY_1
  6
CONTINUOUS
 62
     3
  5
7BA
 10
242.442859
 20
205.486792
 30
0.0
  0
VERTEX
  8
LY_1
  6
CONTINUOUS
 62
     3
  5
7BB
 10
242.516523
 20
205.435063
 30
0.0
  0
VERTEX
  8
LY_1
  6
CONTINUOUS
 62
     3
  5
7BC
 10
242.605855
 20
205.388971
 30
0.0
  0
VERTEX
  8
LY_1
  6
CONTINUOUS
 62
     3
  5
7BD
 10
242.710175
 20
205.348867
 30
0.0
  0
VERTEX
  8
LY_1
  6
CONTINUOUS
 62
     3
  5
7BE
 10
242.828688
 20
205.315057
 30
0.0
  0
VERTEX
  8
LY_1
  6
CONTINUOUS
 62
     3
  5
7BF
 10
242.960494
 20
205.287798
 30
0.0
  0
VERTEX
  8
LY_1
  6
CONTINUOUS
 62
     3
  5
7C0
 10
243.104587
 20
205.267298
 30
0.0
  0
VERTEX
  8
LY_1
  6
CONTINUOUS
 62
     3
  5
7C1
 10
243.259874
 20
205.253712
 30
0.0
  0
VERTEX
  8
LY_1
  6
CONTINUOUS
 62
     3
  5
7C2
 10
243.42517
 20
205.247143
 30
0.0
  0
VERTEX
  8
LY_1
  6
CONTINUOUS
 62
     3
  5
7C3
 10
243.599218
 20
205.247643
 30
0.0
  0
VERTEX
  8
LY_1
  6
CONTINUOUS
 62
     3
  5
7C4
 10
243.780694
 20
205.255206
 30
0.0
  0
VERTEX
  8
LY_1
  6
CONTINUOUS
 62
     3
  5
7C5
 10
243.968217
 20
205.269776
 30
0.0
  0
VERTEX
  8
LY_1
  6
CONTINUOUS
 62
     3
  5
7C6
 10
244.160359
 20
205.291242
 30
0.0
  0
VERTEX
  8
LY_1
  6
CONTINUOUS
 62
     3
  5
7C7
 10
244.355658
 20
205.31944
 30
0.0
  0
VERTEX
  8
LY_1
  6
CONTINUOUS
 62
     3
  5
7C8
 10
244.552627
 20
205.354155
 30
0.0
  0
VERTEX
  8
LY_1
  6
CONTINUOUS
 62
     3
  5
7C9
 10
244.749769
 20
205.395124
 30
0.0
  0
VERTEX
  8
LY_1
  6
CONTINUOUS
 62
     3
  5
7CA
 10
244.945581
 20
205.442035
 30
0.0
  0
VERTEX
  8
LY_1
  6
CONTINUOUS
 62
     3
  5
7CB
 10
245.138574
 20
205.494529
 30
0.0
  0
VERTEX
  8
LY_1
  6
CONTINUOUS
 62
     3
  5
7CC
 10
245.32728
 20
205.55221
 30
0.0
  0
VERTEX
  8
LY_1
  6
CONTINUOUS
 62
     3
  5
7CD
 10
245.510262
 20
205.614636
 30
0.0
  0
VERTEX
  8
LY_1
  6
CONTINUOUS
 62
     3
  5
7CE
 10
245.686127
 20
205.681333
 30
0.0
  0
VERTEX
  8
LY_1
  6
CONTINUOUS
 62
     3
  5
7CF
 10
245.853537
 20
205.751793
 30
0.0
  0
VERTEX
  8
LY_1
  6
CONTINUOUS
 62
     3
  5
7D0
 10
246.011217
 20
205.825481
 30
0.0
  0
VERTEX
  8
LY_1
  6
CONTINUOUS
 62
     3
  5
7D1
 10
246.157969
 20
205.901835
 30
0.0
  0
VERTEX
  8
LY_1
  6
CONTINUOUS
 62
     3
  5
7D2
 10
246.292675
 20
205.980274
 30
0.0
  0
VERTEX
  8
LY_1
  6
CONTINUOUS
 62
     3
  5
7D3
 10
246.414309
 20
206.060201
 30
0.0
  0
VERTEX
  8
LY_1
  6
CONTINUOUS
 62
     3
  5
7D4
 10
246.521947
 20
206.141009
 30
0.0
  0
VERTEX
  8
LY_1
  6
CONTINUOUS
 62
     3
  5
7D5
 10
246.614768
 20
206.222081
 30
0.0
  0
VERTEX
  8
LY_1
  6
CONTINUOUS
 62
     3
  5
7D6
 10
246.692067
 20
206.302801
 30
0.0
  0
VERTEX
  8
LY_1
  6
CONTINUOUS
 62
     3
  5
7D7
 10
246.753256
 20
206.382555
 30
0.0
  0
VERTEX
  8
LY_1
  6
CONTINUOUS
 62
     3
  5
7D8
 10
246.797867
 20
206.460736
 30
0.0
  0
VERTEX
  8
LY_1
  6
CONTINUOUS
 62
     3
  5
7D9
 10
246.825563
 20
206.536748
 30
0.0
  0
VERTEX
  8
LY_1
  6
CONTINUOUS
 62
     3
  5
7DA
 10
246.836131
 20
206.610014
 30
0.0
  0
VERTEX
  8
LY_1
  6
CONTINUOUS
 62
     3
  5
7DB
 10
246.829493
 20
206.679975
 30
0.0
  0
VERTEX
  8
LY_1
  6
CONTINUOUS
 62
     3
  5
7DC
 10
246.805698
 20
206.746099
 30
0.0
  0
VERTEX
  8
LY_1
  6
CONTINUOUS
 62
     3
  5
7DD
 10
246.764927
 20
206.807883
 30
0.0
  0
VERTEX
  8
LY_1
  6
CONTINUOUS
 62
     3
  5
7DE
 10
246.707491
 20
206.864856
 30
0.0
  0
VERTEX
  8
LY_1
  6
CONTINUOUS
 62
     3
  5
7DF
 10
246.633826
 20
206.916586
 30
0.0
  0
VERTEX
  8
LY_1
  6
CONTINUOUS
 62
     3
  5
7E0
 10
246.544494
 20
206.962678
 30
0.0
  0
VERTEX
  8
LY_1
  6
CONTINUOUS
 62
     3
  5
7E1
 10
246.440175
 20
207.002781
 30
0.0
  0
VERTEX
  8
LY_1
  6
CONTINUOUS
 62
     3
  5
7E2
 10
246.321661
 20
207.036591
 30
0.0
  0
VERTEX
  8
LY_1
  6
CONTINUOUS
 62
     3
  5
7E3
 10
246.189856
 20
207.06385
 30
0.0
  0
VERTEX
  8
LY_1
  6
CONTINUOUS
 62
     3
  5
7E4
 10
246.045762
 20
207.084351
 30
0.0
  0
VERTEX
  8
LY_1
  6
CONTINUOUS
 62
     3
  5
7E5
 10
245.890476
 20
207.097937
 30
0.0
  0
VERTEX
  8
LY_1
  6
CONTINUOUS
 62
     3
  5
7E6
 10
245.72518
 20
207.104505
 30
0.0
  0
VERTEX
  8
LY_1
  6
CONTINUOUS
 62
     3
  5
7E7
 10
245.551131
 20
207.104005
 30
0.0
  0
VERTEX
  8
LY_1
  6
CONTINUOUS
 62
     3
  5
7E8
 10
245.369655
 20
207.096442
 30
0.0
  0
VERTEX
  8
LY_1
  6
CONTINUOUS
 62
     3
  5
7E9
 10
245.182132
 20
207.081872
 30
0.0
  0
VERTEX
  8
LY_1
  6
CONTINUOUS
 62
     3
  5
7EA
 10
244.98999
 20
207.060406
 30
0.0
  0
VERTEX
  8
LY_1
  6
CONTINUOUS
 62
     3
  5
7EB
 10
244.794691
 20
207.032208
 30
0.0
  0
VERTEX
  8
LY_1
  6
CONTINUOUS
 62
     3
  5
7EC
 10
244.597722
 20
206.997493
 30
0.0
  0
VERTEX
  8
LY_1
  6
CONTINUOUS
 62
     3
  5
7ED
 10
244.400581
 20
206.956524
 30
0.0
  0
VERTEX
  8
LY_1
  6
CONTINUOUS
 62
     3
  5
7EE
 10
244.204768
 20
206.909614
 30
0.0
  0
VERTEX
  8
LY_1
  6
CONTINUOUS
 62
     3
  5
7EF
 10
244.011775
 20
206.857119
 30
0.0
  0
VERTEX
  8
LY_1
  6
CONTINUOUS
 62
     3
  5
7F0
 10
243.823069
 20
206.799439
 30
0.0
  0
VERTEX
  8
LY_1
  6
CONTINUOUS
 62
     3
  5
7F1
 10
243.640088
 20
206.737013
 30
0.0
  0
VERTEX
  8
LY_1
  6
CONTINUOUS
 62
     3
  5
7F2
 10
243.464223
 20
206.670316
 30
0.0
  0
VERTEX
  8
LY_1
  6
CONTINUOUS
 62
     3
  5
7F3
 10
243.296813
 20
206.599855
 30
0.0
  0
VERTEX
  8
LY_1
  6
CONTINUOUS
 62
     3
  5
7F4
 10
243.139132
 20
206.526167
 30
0.0
  0
VERTEX
  8
LY_1
  6
CONTINUOUS
 62
     3
  5
7F5
 10
242.99238
 20
206.449813
 30
0.0
  0
VERTEX
  8
LY_1
  6
CONTINUOUS
 62
     3
  5
7F6
 10
242.857674
 20
206.371374
 30
0.0
  0
VERTEX
  8
LY_1
  6
CONTINUOUS
 62
     3
  5
7F7
 10
242.73604
 20
206.291447
 30
0.0
  0
VERTEX
  8
LY_1
  6
CONTINUOUS
 62
     3
  5
7F8
 10
242.628402
 20
206.210639
 30
0.0
  0
VERTEX
  8
LY_1
  6
CONTINUOUS
 62
     3
  5
7F9
 10
242.535581
 20
206.129567
 30
0.0
  0
VERTEX
  8
LY_1
  6
CONTINUOUS
 62
     3
  5
7FA
 10
242.458282
 20
206.048847
 30
0.0
  0
VERTEX
  8
LY_1
  6
CONTINUOUS
 62
     3
  5
7FB
 10
242.397094
 20
205.969093
 30
0.0
  0
VERTEX
  8
LY_1
  6
CONTINUOUS
 62
     3
  5
7FC
 10
242.352482
 20
205.890912
 30
0.0
  0
VERTEX
  8
LY_1
  6
CONTINUOUS
 62
     3
  5
7FD
 10
242.324787
 20
205.8149
 30
0.0
  0
VERTEX
  8
LY_1
  6
CONTINUOUS
 62
     3
  5
7FE
 10
242.314218
 20
205.741635
 30
0.0
  0
VERTEX
  8
LY_1
  6
CONTINUOUS
 62
     3
  5
7FF
 10
242.320856
 20
205.671674
 30
0.0
  0
SEQEND
  8
LY_1
  6
CONTINUOUS
 62
     3
  5
800
  0
POLYLINE
  8
LY_1
  6
CONTINUOUS
 62
    80
  5
161
 66
     1
 10
0.0
 20
0.0
 30
0.0
 70
     1
  0
VERTEX
  8
LY_1
  6
CONTINUOUS
 62
    80
  5
801
 10
58.183359
 20
158.781781
 30
0.0
  0
VERTEX
  8
LY_1
  6
CONTINUOUS
 62
    80
  5
802
 10
58.163648
 20
159.12343
 30
0.0
  0
VERTEX
  8
LY_1
  6
CONTINUOUS
 62
    80
  5
803
 10
58.104664
 20
159.462479
 30
0.0
  0
VERTEX
  8
LY_1
  6
CONTINUOUS
 62
    80
  5
804
 10
58.006855
 20
159.796347
 30
0.0
  0
VERTEX
  8
LY_1
  6
CONTINUOUS
 62
    80
  5
805
 10
57.870967
 20
160.122494
 30
0.0
  0
VERTEX
  8
LY_1
  6
CONTINUOUS
 62
    80
  5
806
 10
57.698033
 20
160.438438
 30
0.0
  0
VERTEX
  8
LY_1
  6
CONTINUOUS
 62
    80
  5
807
 10
57.48937
 20
160.741773
 30
0.0
  0
VERTEX
  8
LY_1
  6
CONTINUOUS
 62
    80
  5
808
 10
57.246566
 20
161.030191
 30
0.0
  0
VERTEX
  8
LY_1
  6
CONTINUOUS
 62
    80
  5
809
 10
56.971468
 20
161.301498
 30
0.0
  0
VERTEX
  8
LY_1
  6
CONTINUOUS
 62
    80
  5
80A
 10
56.66617
 20
161.553628
 30
0.0
  0
VERTEX
  8
LY_1
  6
CONTINUOUS
 62
    80
  5
80B
 10
56.332996
 20
161.784662
 30
0.0
  0
VERTEX
  8
LY_1
  6
CONTINUOUS
 62
    80
  5
80C
 10
55.974482
 20
161.992843
 30
0.0
  0
VERTEX
  8
LY_1
  6
CONTINUOUS
 62
    80
  5
80D
 10
55.593356
 20
162.176586
 30
0.0
  0
VERTEX
  8
LY_1
  6
CONTINUOUS
 62
    80
  5
80E
 10
55.192517
 20
162.334492
 30
0.0
  0
VERTEX
  8
LY_1
  6
CONTINUOUS
 62
    80
  5
80F
 10
54.775019
 20
162.46536
 30
0.0
  0
VERTEX
  8
LY_1
  6
CONTINUOUS
 62
    80
  5
810
 10
54.344036
 20
162.568194
 30
0.0
  0
VERTEX
  8
LY_1
  6
CONTINUOUS
 62
    80
  5
811
 10
53.90285
 20
162.642211
 30
0.0
  0
VERTEX
  8
LY_1
  6
CONTINUOUS
 62
    80
  5
812
 10
53.454819
 20
162.686847
 30
0.0
  0
VERTEX
  8
LY_1
  6
CONTINUOUS
 62
    80
  5
813
 10
53.003352
 20
162.701764
 30
0.0
  0
VERTEX
  8
LY_1
  6
CONTINUOUS
 62
    80
  5
814
 10
52.551884
 20
162.686847
 30
0.0
  0
VERTEX
  8
LY_1
  6
CONTINUOUS
 62
    80
  5
815
 10
52.103853
 20
162.642211
 30
0.0
  0
VERTEX
  8
LY_1
  6
CONTINUOUS
 62
    80
  5
816
 10
51.662667
 20
162.568194
 30
0.0
  0
VERTEX
  8
LY_1
  6
CONTINUOUS
 62
    80
  5
817
 10
51.231684
 20
162.46536
 30
0.0
  0
VERTEX
  8
LY_1
  6
CONTINUOUS
 62
    80
  5
818
 10
50.814186
 20
162.334492
 30
0.0
  0
VERTEX
  8
LY_1
  6
CONTINUOUS
 62
    80
  5
819
 10
50.413348
 20
162.176586
 30
0.0
  0
VERTEX
  8
LY_1
  6
CONTINUOUS
 62
    80
  5
81A
 10
50.032221
 20
161.992843
 30
0.0
  0
VERTEX
  8
LY_1
  6
CONTINUOUS
 62
    80
  5
81B
 10
49.673707
 20
161.784662
 30
0.0
  0
VERTEX
  8
LY_1
  6
CONTINUOUS
 62
    80
  5
81C
 10
49.340533
 20
161.553628
 30
0.0
  0
VERTEX
  8
LY_1
  6
CONTINUOUS
 62
    80
  5
81D
 10
49.035235
 20
161.301498
 30
0.0
  0
VERTEX
  8
LY_1
  6
CONTINUOUS
 62
    80
  5
81E
 10
48.760137
 20
161.030191
 30
0.0
  0
VERTEX
  8
LY_1
  6
CONTINUOUS
 62
    80
  5
81F
 10
48.517333
 20
160.741773
 30
0.0
  0
VERTEX
  8
LY_1
  6
CONTINUOUS
 62
    80
  5
820
 10
48.30867
 20
160.438438
 30
0.0
  0
VERTEX
  8
LY_1
  6
CONTINUOUS
 62
    80
  5
821
 10
48.135736
 20
160.122494
 30
0.0
  0
VERTEX
  8
LY_1
  6
CONTINUOUS
 62
    80
  5
822
 10
47.999848
 20
159.796347
 30
0.0
  0
VERTEX
  8
LY_1
  6
CONTINUOUS
 62
    80
  5
823
 10
47.90204
 20
159.462479
 30
0.0
  0
VERTEX
  8
LY_1
  6
CONTINUOUS
 62
    80
  5
824
 10
47.843055
 20
159.12343
 30
0.0
  0
VERTEX
  8
LY_1
  6
CONTINUOUS
 62
    80
  5
825
 10
47.823344
 20
158.781781
 30
0.0
  0
VERTEX
  8
LY_1
  6
CONTINUOUS
 62
    80
  5
826
 10
47.843055
 20
158.440132
 30
0.0
  0
VERTEX
  8
LY_1
  6
CONTINUOUS
 62
    80
  5
827
 10
47.90204
 20
158.101083
 30
0.0
  0
VERTEX
  8
LY_1
  6
CONTINUOUS
 62
    80
  5
828
 10
47.999848
 20
157.767215
 30
0.0
  0
VERTEX
  8
LY_1
  6
CONTINUOUS
 62
    80
  5
829
 10
48.135736
 20
157.441068
 30
0.0
  0
VERTEX
  8
LY_1
  6
CONTINUOUS
 62
    80
  5
82A
 10
48.30867
 20
157.125125
 30
0.0
  0
VERTEX
  8
LY_1
  6
CONTINUOUS
 62
    80
  5
82B
 10
48.517333
 20
156.82179
 30
0.0
  0
VERTEX
  8
LY_1
  6
CONTINUOUS
 62
    80
  5
82C
 10
48.760137
 20
156.533371
 30
0.0
  0
VERTEX
  8
LY_1
  6
CONTINUOUS
 62
    80
  5
82D
 10
49.035235
 20
156.262065
 30
0.0
  0
VERTEX
  8
LY_1
  6
CONTINUOUS
 62
    80
  5
82E
 10
49.340533
 20
156.009935
 30
0.0
  0
VERTEX
  8
LY_1
  6
CONTINUOUS
 62
    80
  5
82F
 10
49.673707
 20
155.7789
 30
0.0
  0
VERTEX
  8
LY_1
  6
CONTINUOUS
 62
    80
  5
830
 10
50.032221
 20
155.570719
 30
0.0
  0
VERTEX
  8
LY_1
  6
CONTINUOUS
 62
    80
  5
831
 10
50.413348
 20
155.386976
 30
0.0
  0
VERTEX
  8
LY_1
  6
CONTINUOUS
 62
    80
  5
832
 10
50.814186
 20
155.22907
 30
0.0
  0
VERTEX
  8
LY_1
  6
CONTINUOUS
 62
    80
  5
833
 10
51.231684
 20
155.098202
 30
0.0
  0
VERTEX
  8
LY_1
  6
CONTINUOUS
 62
    80
  5
834
 10
51.662667
 20
154.995368
 30
0.0
  0
VERTEX
  8
LY_1
  6
CONTINUOUS
 62
    80
  5
835
 10
52.103853
 20
154.921352
 30
0.0
  0
VERTEX
  8
LY_1
  6
CONTINUOUS
 62
    80
  5
836
 10
52.551884
 20
154.876715
 30
0.0
  0
VERTEX
  8
LY_1
  6
CONTINUOUS
 62
    80
  5
837
 10
53.003352
 20
154.861798
 30
0.0
  0
VERTEX
  8
LY_1
  6
CONTINUOUS
 62
    80
  5
838
 10
53.454819
 20
154.876715
 30
0.0
  0
VERTEX
  8
LY_1
  6
CONTINUOUS
 62
    80
  5
839
 10
53.90285
 20
154.921352
 30
0.0
  0
VERTEX
  8
LY_1
  6
CONTINUOUS
 62
    80
  5
83A
 10
54.344036
 20
154.995368
 30
0.0
  0
VERTEX
  8
LY_1
  6
CONTINUOUS
 62
    80
  5
83B
 10
54.775019
 20
155.098202
 30
0.0
  0
VERTEX
  8
LY_1
  6
CONTINUOUS
 62
    80
  5
83C
 10
55.192517
 20
155.22907
 30
0.0
  0
VERTEX
  8
LY_1
  6
CONTINUOUS
 62
    80
  5
83D
 10
55.593356
 20
155.386976
 30
0.0
  0
VERTEX
  8
LY_1
  6
CONTINUOUS
 62
    80
  5
83E
 10
55.974482
 20
155.570719
 30
0.0
  0
VERTEX
  8
LY_1
  6
CONTINUOUS
 62
    80
  5
83F
 10
56.332996
 20
155.7789
 30
0.0
  0
VERTEX
  8
LY_1
  6
CONTINUOUS
 62
    80
  5
840
 10
56.66617
 20
156.009935
 30
0.0
  0
VERTEX
  8
LY_1
  6
CONTINUOUS
 62
    80
  5
841
 10
56.971468
 20
156.262065
 30
0.0
  0
VERTEX
  8
LY_1
  6
CONTINUOUS
 62
    80
  5
842
 10
57.246566
 20
156.533371
 30
0.0
  0
VERTEX
  8
LY_1
  6
CONTINUOUS
 62
    80
  5
843
 10
57.48937
 20
156.82179
 30
0.0
  0
VERTEX
  8
LY_1
  6
CONTINUOUS
 62
    80
  5
844
 10
57.698033
 20
157.125125
 30
0.0
  0
VERTEX
  8
LY_1
  6
CONTINUOUS
 62
    80
  5
845
 10
57.870967
 20
157.441068
 30
0.0
  0
VERTEX
  8
LY_1
  6
CONTINUOUS
 62
    80
  5
846
 10
58.006855
 20
157.767215
 30
0.0
  0
VERTEX
  8
LY_1
  6
CONTINUOUS
 62
    80
  5
847
 10
58.104664
 20
158.101083
 30
0.0
  0
VERTEX
  8
LY_1
  6
CONTINUOUS
 62
    80
  5
848
 10
58.163648
 20
158.440132
 30
0.0
  0
VERTEX
  8
LY_1
  6
CONTINUOUS
 62
    80
  5
849
 10
58.183359
 20
158.781781
 30
0.0
  0
SEQEND
  8
LY_1
  6
CONTINUOUS
 62
    80
  5
84A
  0
POLYLINE
  8
LY_1
  6
CONTINUOUS
 62
     3
  5
162
 66
     1
 10
0.0
 20
0.0
 30
0.0
  0
VERTEX
  8
LY_1
  6
CONTINUOUS
 62
     3
  5
84B
 10
283.342777
 20
204.490042
 30
0.0
  0
VERTEX
  8
LY_1
  6
CONTINUOUS
 62
     3
  5
84C
 10
283.577002
 20
204.794465
 30
0.0
  0
VERTEX
  8
LY_1
  6
CONTINUOUS
 62
     3
  5
84D
 10
283.784801
 20
205.388367
 30
0.0
  0
VERTEX
  8
LY_1
  6
CONTINUOUS
 62
     3
  5
84E
 10
283.961409
 20
206.258138
 30
0.0
  0
VERTEX
  8
LY_1
  6
CONTINUOUS
 62
     3
  5
84F
 10
284.102779
 20
207.383841
 30
0.0
  0
VERTEX
  8
LY_1
  6
CONTINUOUS
 62
     3
  5
850
 10
284.20567
 20
208.739675
 30
0.0
  0
VERTEX
  8
LY_1
  6
CONTINUOUS
 62
     3
  5
851
 10
284.267726
 20
210.294565
 30
0.0
  0
VERTEX
  8
LY_1
  6
CONTINUOUS
 62
     3
  5
852
 10
284.287523
 20
212.012873
 30
0.0
  0
VERTEX
  8
LY_1
  6
CONTINUOUS
 62
     3
  5
853
 10
284.264607
 20
213.855215
 30
0.0
  0
VERTEX
  8
LY_1
  6
CONTINUOUS
 62
     3
  5
854
 10
284.199504
 20
215.779365
 30
0.0
  0
VERTEX
  8
LY_1
  6
CONTINUOUS
 62
     3
  5
855
 10
284.093705
 20
217.74122
 30
0.0
  0
SEQEND
  8
LY_1
  6
CONTINUOUS
 62
     3
  5
856
  0
ARC
  8
LY_1
  6
CONTINUOUS
 62
     3
  5
163
 10
-28.695821
 20
147.281781
 30
0.0
 40
2.0
 50
209.897645
 51
269.999997
  0
ARC
  8
LY_1
  6
CONTINUOUS
 62
     3
  5
164
 10
11.306223
 20
170.281781
 30
0.0
 40
48.142857
 50
179.999991
 51
209.897642
  0
ARC
  8
LY_1
  6
CONTINUOUS
 62
     3
  5
165
 10
71.022532
 20
147.281781
 30
0.0
 40
2.0
 50
269.999997
 51
330.10236
  0
ARC
  8
LY_1
  6
CONTINUOUS
 62
     3
  5
166
 10
31.020487
 20
170.281781
 30
0.0
 40
48.142857
 50
330.10236
 51
0.0
  0
ARC
  8
LY_1
  6
CONTINUOUS
 62
     3
  5
167
 10
77.16334
 20
268.00517
 30
0.0
 40
2.0
 50
0.0
 51
90.000003
  0
ARC
  8
LY_1
  6
CONTINUOUS
 62
     3
  5
168
 10
-34.83666
 20
268.00517
 30
0.0
 40
2.0
 50
90.000003
 51
180.000005
  0
ARC
  8
LY_1
  6
CONTINUOUS
 62
     3
  5
169
 10
-34.83666
 20
268.00517
 30
0.0
 40
2.0
 50
90.000003
 51
180.000005
  0
CIRCLE
  8
LY_1
  6
CONTINUOUS
 62
     3
  5
16A
 10
-18.83666
 20
184.281781
 30
0.0
 40
0.6
  0
ARC
  8
LY_1
  6
CONTINUOUS
 62
     3
  5
16B
 10
197.939722
 20
360.296155
 30
0.0
 40
160.0
 50
278.34584
 51
286.795767
  0
ARC
  8
LY_1
  6
CONTINUOUS
 62
     3
  5
16C
 10
242.439753
 20
212.865766
 30
0.0
 40
6.0
 50
286.795767
 51
0.0
  0
ARC
  8
LY_1
  6
CONTINUOUS
 62
     3
  5
16D
 10
221.163386
 20
570.296155
 30
0.0
 40
370.0
 50
269.999997
 51
277.578932
  0
ARC
  8
LY_1
  6
CONTINUOUS
 62
     3
  5
16E
 10
167.163355
 20
266.296185
 30
0.0
 40
1.0
 50
179.999991
 51
270.000001
  0
ARC
  8
LY_1
  6
CONTINUOUS
 62
     3
  5
16F
 10
167.163355
 20
266.296185
 30
0.0
 40
1.0
 50
90.000003
 51
180.000005
  0
ARC
  8
LY_1
  6
CONTINUOUS
 62
     3
  5
170
 10
275.163386
 20
266.296185
 30
0.0
 40
1.0
 50
269.999997
 51
90.000003
  0
ARC
  8
LY_1
  6
CONTINUOUS
 62
     3
  5
171
 10
466.163386
 20
267.296185
 30
0.0
 40
300.0
 50
177.707561
 51
180.000005
  0
ARC
  8
LY_1
  6
CONTINUOUS
 62
     3
  5
172
 10
-23.836637
 20
267.296185
 30
0.0
 40
300.0
 50
359.999995
 51
2.292439
  0
ARC
  8
LY_1
  6
CONTINUOUS
 62
     3
  5
173
 10
176.663355
 20
212.865766
 30
0.0
 40
6.0
 50
179.999991
 51
253.20421
  0
ARC
  8
LY_1
  6
CONTINUOUS
 62
     3
  5
174
 10
221.163386
 20
360.296155
 30
0.0
 40
160.0
 50
253.204234
 51
269.999997
  0
ARC
  8
LY_1
  6
CONTINUOUS
 62
     3
  5
175
 10
163.663355
 20
257.554608
 30
0.0
 40
4.5
 50
359.999995
 51
56.251017
  0
ARC
  8
LY_1
  6
CONTINUOUS
 62
     3
  5
176
 10
75.16337
 20
266.296185
 30
0.0
 40
1.0
 50
269.999997
 51
0.0
  0
ARC
  8
LY_1
  6
CONTINUOUS
 62
     3
  5
177
 10
75.16337
 20
266.296185
 30
0.0
 40
1.0
 50
0.0
 51
90.000003
  0
ARC
  8
LY_1
  6
CONTINUOUS
 62
     3
  5
178
 10
-32.83666
 20
266.296185
 30
0.0
 40
1.0
 50
90.000003
 51
270.000001
  0
ARC
  8
LY_1
  6
CONTINUOUS
 62
     3
  5
179
 10
59.668345
 20
182.786786
 30
0.0
 40
0.92
 50
0.0
 51
90.000003
  0
ARC
  8
LY_1
  6
CONTINUOUS
 62
     3
  5
17A
 10
62.658335
 20
182.786786
 30
0.0
 40
0.92
 50
90.000003
 51
180.000005
  0
ARC
  8
LY_1
  6
CONTINUOUS
 62
     3
  5
17B
 10
62.658335
 20
185.776776
 30
0.0
 40
0.92
 50
179.999991
 51
270.000001
  0
CIRCLE
  8
LY_1
  6
CONTINUOUS
 62
     3
  5
17C
 10
61.16334
 20
184.281781
 30
0.0
 40
4.15
  0
ARC
  8
LY_1
  6
CONTINUOUS
 62
     3
  5
17D
 10
59.668345
 20
185.776776
 30
0.0
 40
0.92
 50
269.999997
 51
0.0
  0
ARC
  8
LY_1
  6
CONTINUOUS
 62
     3
  5
17E
 10
-20.331655
 20
182.786786
 30
0.0
 40
0.92
 50
0.0
 51
90.000003
  0
ARC
  8
LY_1
  6
CONTINUOUS
 62
     3
  5
17F
 10
-17.341665
 20
182.786786
 30
0.0
 40
0.92
 50
90.000003
 51
180.000005
  0
ARC
  8
LY_1
  6
CONTINUOUS
 62
     3
  5
180
 10
-17.341665
 20
185.776776
 30
0.0
 40
0.92
 50
179.999991
 51
270.000001
  0
CIRCLE
  8
LY_1
  6
CONTINUOUS
 62
     3
  5
181
 10
-18.83666
 20
184.281781
 30
0.0
 40
4.15
  0
ARC
  8
LY_1
  6
CONTINUOUS
 62
     3
  5
182
 10
-20.331655
 20
185.776776
 30
0.0
 40
0.92
 50
269.999997
 51
0.0
  0
ARC
  8
LY_1
  6
CONTINUOUS
 62
     3
  5
183
 10
-223.83663
 20
267.296185
 30
0.0
 40
300.0
 50
0.0
 51
2.292443
  0
ARC
  8
LY_1
  6
CONTINUOUS
 62
     3
  5
184
 10
65.893076
 20
356.324719
 30
0.0
 40
0.3
 50
8.825817
 51
68.057132
  0
ARC
  8
LY_1
  6
CONTINUOUS
 62
     3
  5
185
 10
-566.232458
 20
258.174848
 30
0.0
 40
640.0
 50
2.470585
 51
8.825817
  0
ARC
  8
LY_1
  6
CONTINUOUS
 62
     3
  5
186
 10
83.16337
 20
286.194135
 30
0.0
 40
10.0
 50
182.470584
 51
223.613485
  0
ARC
  8
LY_1
  6
CONTINUOUS
 62
     3
  5
187
 10
-23.566366
 20
356.324719
 30
0.0
 40
0.3
 50
111.942866
 51
171.174185
  0
ARC
  8
LY_1
  6
CONTINUOUS
 62
     3
  5
188
 10
608.559229
 20
258.174848
 30
0.0
 40
640.0
 50
171.174185
 51
177.529416
  0
ARC
  8
LY_1
  6
CONTINUOUS
 62
     3
  5
189
 10
-40.83666
 20
286.194135
 30
0.0
 40
10.0
 50
316.38652
 51
357.529415
  0
ARC
  8
LY_1
  6
CONTINUOUS
 62
     3
  5
18A
 10
21.16334
 20
245.296185
 30
0.0
 40
120.0
 50
68.057132
 51
111.942866
  0
ARC
  8
LY_1
  6
CONTINUOUS
 62
     3
  5
18B
 10
266.163355
 20
267.296185
 30
0.0
 40
300.0
 50
177.707561
 51
180.000005
  0
ARC
  8
LY_1
  6
CONTINUOUS
 62
     3
  5
18C
 10
65.66337
 20
212.865766
 30
0.0
 40
6.0
 50
286.795767
 51
0.0
  0
ARC
  8
LY_1
  6
CONTINUOUS
 62
     3
  5
18D
 10
-23.33666
 20
212.865766
 30
0.0
 40
6.0
 50
179.999991
 51
253.204238
  0
ARC
  8
LY_1
  6
CONTINUOUS
 62
     3
  5
18E
 10
21.16334
 20
360.296155
 30
0.0
 40
160.0
 50
253.204234
 51
286.795767
  0
ARC
  8
LY_1
  6
CONTINUOUS
 62
     3
  5
18F
 10
78.66337
 20
257.554608
 30
0.0
 40
4.5
 50
123.748985
 51
180.000005
  0
ARC
  8
LY_1
  6
CONTINUOUS
 62
     3
  5
190
 10
-36.33666
 20
257.554608
 30
0.0
 40
4.5
 50
0.0
 51
56.25101
  0
ARC
  8
LY_1
  6
CONTINUOUS
 62
    80
  5
191
 10
45.023356
 20
159.901776
 30
0.0
 40
2.38
 50
286.927344
 51
90.000003
  0
ARC
  8
LY_1
  6
CONTINUOUS
 62
    80
  5
192
 10
45.023356
 20
159.901776
 30
0.0
 40
0.7
 50
269.999997
 51
90.000003
  0
ARC
  8
LY_1
  6
CONTINUOUS
 62
    80
  5
193
 10
37.743357
 20
159.901776
 30
0.0
 40
2.38
 50
286.927344
 51
90.000003
  0
ARC
  8
LY_1
  6
CONTINUOUS
 62
    80
  5
194
 10
37.743357
 20
159.901776
 30
0.0
 40
0.7
 50
269.999997
 51
90.000003
  0
ARC
  8
LY_1
  6
CONTINUOUS
 62
     3
  5
195
 10
-27.255697
 20
153.281781
 30
0.0
 40
2.0
 50
203.790268
 51
269.999997
  0
ARC
  8
LY_1
  6
CONTINUOUS
 62
     3
  5
196
 10
69.582407
 20
153.281781
 30
0.0
 40
2.0
 50
269.999997
 51
336.209734
  0
CIRCLE
  8
LY_1
  6
CONTINUOUS
 62
     3
  5
197
 10
-18.83666
 20
184.281781
 30
0.0
 40
5.75
  0
CIRCLE
  8
LY_1
  6
CONTINUOUS
 62
     3
  5
198
 10
61.16334
 20
184.281781
 30
0.0
 40
5.75
  0
ARC
  8
LY_1
  6
CONTINUOUS
 62
     3
  5
199
 10
11.306223
 20
170.281781
 30
0.0
 40
44.142857
 50
179.999991
 51
203.790264
  0
ARC
  8
LY_1
  6
CONTINUOUS
 62
     3
  5
19A
 10
31.020487
 20
170.281781
 30
0.0
 40
44.142857
 50
336.209734
 51
0.0
  0
ARC
  8
LY_1
  6
CONTINUOUS
 62
     3
  5
19B
 10
626.621027
 20
230.866498
 30
0.0
 40
346.0
 50
174.055486
 51
174.308012
  0
ARC
  8
LY_1
  6
CONTINUOUS
 62
     3
  5
19C
 10
291.577753
 20
152.879193
 30
0.0
 40
2.0
 50
193.103303
 51
256.504268
  0
ARC
  8
LY_1
  6
CONTINUOUS
 62
     3
  5
19D
 10
626.621027
 20
230.866498
 30
0.0
 40
346.0
 50
184.394949
 51
193.103303
  0
ARC
  8
LY_1
  6
CONTINUOUS
 62
     3
  5
19E
 10
284.47082
 20
266.492963
 30
0.0
 40
2.0
 50
92.862501
 51
174.055486
  0
ARC
  8
LY_1
  6
CONTINUOUS
 62
     3
  5
19F
 10
176.433634
 20
356.324719
 30
0.0
 40
0.3
 50
111.942866
 51
171.174185
  0
ARC
  8
LY_1
  6
CONTINUOUS
 62
     3
  5
1A0
 10
808.55926
 20
258.174848
 30
0.0
 40
640.0
 50
171.174185
 51
177.529416
  0
ARC
  8
LY_1
  6
CONTINUOUS
 62
     3
  5
1A1
 10
159.163355
 20
286.194135
 30
0.0
 40
10.0
 50
316.386513
 51
357.529416
  0
ARC
  8
LY_1
  6
CONTINUOUS
 62
     3
  5
1A2
 10
265.893061
 20
356.324719
 30
0.0
 40
0.3
 50
8.825815
 51
68.057132
  0
ARC
  8
LY_1
  6
CONTINUOUS
 62
     3
  5
1A3
 10
-366.232427
 20
258.174848
 30
0.0
 40
640.0
 50
2.470584
 51
8.825815
  0
ARC
  8
LY_1
  6
CONTINUOUS
 62
     3
  5
1A4
 10
283.163386
 20
286.194135
 30
0.0
 40
10.0
 50
182.470584
 51
223.613485
  0
ARC
  8
LY_1
  6
CONTINUOUS
 62
     3
  5
1A5
 10
221.163386
 20
245.296185
 30
0.0
 40
120.0
 50
68.057132
 51
111.942866
  0
LINE
  8
LY_1
  6
CONTINUOUS
 62
     3
  5
1A6
 10
317.663386
 20
151.281781
 30
0.0
 11
318.663386
 21
151.281781
 31
0.0
  0
LINE
  8
LY_1
  6
CONTINUOUS
 62
     3
  5
1A7
 10
317.663386
 20
264.00517
 30
0.0
 11
318.663386
 21
264.00517
 31
0.0
  0
LINE
  8
LY_1
  6
CONTINUOUS
 62
     3
  5
1A8
 10
318.663386
 20
151.281781
 30
0.0
 11
318.663386
 21
264.00517
 31
0.0
  0
LINE
  8
LY_1
  6
CONTINUOUS
 62
     3
  5
1A9
 10
55.163344
 20
145.781781
 30
0.0
 11
55.163344
 21
145.281781
 31
0.0
  0
LINE
  8
LY_1
  6
CONTINUOUS
 62
     3
  5
1AA
 10
55.163344
 20
145.281781
 30
0.0
 11
71.022532
 21
145.281781
 31
0.0
  0
LINE
  8
LY_1
  6
CONTINUOUS
 62
     3
  5
1AB
 10
40.163344
 20
146.281781
 30
0.0
 11
52.163344
 21
146.281781
 31
0.0
  0
LINE
  8
LY_1
  6
CONTINUOUS
 62
     3
  5
1AC
 10
37.163344
 20
145.781781
 30
0.0
 11
37.163344
 21
145.281781
 31
0.0
  0
LINE
  8
LY_1
  6
CONTINUOUS
 62
     3
  5
1AD
 10
-28.695821
 20
145.281781
 30
0.0
 11
37.163344
 21
145.281781
 31
0.0
  0
LINE
  8
LY_1
  6
CONTINUOUS
 62
     3
  5
1AE
 10
79.16334
 20
268.00517
 30
0.0
 11
79.16334
 21
170.281781
 31
0.0
  0
LINE
  8
LY_1
  6
CONTINUOUS
 62
     3
  5
1AF
 10
-36.83666
 20
268.00517
 30
0.0
 11
-36.83666
 21
170.281781
 31
0.0
  0
LINE
  8
LY_1
  6
CONTINUOUS
 62
     3
  5
1B0
 10
317.663386
 20
147.647107
 30
0.0
 11
317.663386
 21
267.151508
 31
0.0
  0
LINE
  8
LY_1
  6
CONTINUOUS
 62
     3
  5
1B1
 10
317.663386
 20
267.151508
 30
0.0
 11
314.663386
 21
267.001503
 31
0.0
  0
LINE
  8
LY_1
  6
CONTINUOUS
 62
     3
  5
1B2
 10
317.663386
 20
147.647107
 30
0.0
 11
314.663386
 21
148.367107
 31
0.0
  0
LINE
  8
LY_1
  6
CONTINUOUS
 62
     3
  5
1B3
 10
248.439753
 20
219.296185
 30
0.0
 11
248.439753
 21
212.865766
 31
0.0
  0
LINE
  8
LY_1
  6
CONTINUOUS
 62
     3
  5
1B4
 10
250.249465
 20
219.796209
 30
0.0
 11
248.439734
 21
219.296205
 31
0.0
  0
LINE
  8
LY_1
  6
CONTINUOUS
 62
     3
  5
1B5
 10
256.07397
 20
221.296201
 30
0.0
 11
250.249431
 21
219.796197
 31
0.0
  0
LINE
  8
LY_1
  6
CONTINUOUS
 62
     3
  5
1B6
 10
283.065542
 20
204.385702
 30
0.0
 11
269.96336
 21
203.528582
 31
0.0
  0
LINE
  8
LY_1
  6
CONTINUOUS
 62
     3
  5
1B7
 10
256.073969
 20
256.725751
 30
0.0
 11
256.073969
 21
221.296185
 31
0.0
  0
LINE
  8
LY_1
  6
CONTINUOUS
 62
     3
  5
1B8
 10
276.163386
 20
265.296185
 30
0.0
 11
166.163355
 21
265.296185
 31
0.0
  0
LINE
  8
LY_1
  6
CONTINUOUS
 62
     3
  5
1B9
 10
276.163386
 20
267.296185
 30
0.0
 11
166.163355
 21
267.296185
 31
0.0
  0
LINE
  8
LY_1
  6
CONTINUOUS
 62
     3
  5
1BA
 10
282.327536
 20
265.188604
 30
0.0
 11
276.163375
 21
265.2962
 31
0.0
  0
LINE
  8
LY_1
  6
CONTINUOUS
 62
     3
  5
1BB
 10
169.663312
 20
219.796204
 30
0.0
 11
170.66332
 21
219.2962
 31
0.0
  0
LINE
  8
LY_1
  6
CONTINUOUS
 62
     3
  5
1BC
 10
170.663355
 20
219.296185
 30
0.0
 11
170.663355
 21
212.865766
 31
0.0
  0
LINE
  8
LY_1
  6
CONTINUOUS
 62
     3
  5
1BD
 10
168.163384
 20
221.296184
 30
0.0
 11
169.66331
 21
219.796258
 31
0.0
  0
LINE
  8
LY_1
  6
CONTINUOUS
 62
     3
  5
1BE
 10
168.163355
 20
257.554608
 30
0.0
 11
168.163355
 21
221.296185
 31
0.0
  0
LINE
  8
LY_1
  6
CONTINUOUS
 62
     3
  5
1BF
 10
248.439753
 20
219.296185
 30
0.0
 11
170.663355
 21
219.296185
 31
0.0
  0
LINE
  8
LY_1
  6
CONTINUOUS
 62
     3
  5
1C0
 10
250.249445
 20
219.796185
 30
0.0
 11
169.663355
 21
219.796185
 31
0.0
  0
LINE
  8
LY_1
  6
CONTINUOUS
 62
     3
  5
1C1
 10
256.073969
 20
221.296185
 30
0.0
 11
168.163355
 21
221.296185
 31
0.0
  0
LINE
  8
LY_1
  6
CONTINUOUS
 62
     3
  5
1C2
 10
260.303522
 20
261.296185
 30
0.0
 11
166.163355
 21
261.296185
 31
0.0
  0
LINE
  8
LY_1
  6
CONTINUOUS
 62
     3
  5
1C3
 10
166.163355
 20
265.296185
 30
0.0
 11
166.163355
 21
261.296185
 31
0.0
  0
LINE
  8
LY_1
  6
CONTINUOUS
 62
     3
  5
1C4
 10
-33.83666
 20
265.296185
 30
0.0
 11
76.16337
 21
265.296185
 31
0.0
  0
LINE
  8
LY_1
  6
CONTINUOUS
 62
     3
  5
1C5
 10
-34.83666
 20
270.00517
 30
0.0
 11
77.16334
 21
270.00517
 31
0.0
  0
LINE
  8
LY_1
  6
CONTINUOUS
 62
     3
  5
1C6
 10
-33.83666
 20
267.296185
 30
0.0
 11
76.16337
 21
267.296185
 31
0.0
  0
LINE
  8
LY_1
  6
CONTINUOUS
 62
     3
  5
1C7
 10
60.588328
 20
182.786786
 30
0.0
 11
60.588328
 21
181.981854
 31
0.0
  0
LINE
  8
LY_1
  6
CONTINUOUS
 62
     3
  5
1C8
 10
58.863352
 20
183.70683
 30
0.0
 11
59.668345
 21
183.70683
 31
0.0
  0
LINE
  8
LY_1
  6
CONTINUOUS
 62
     3
  5
1C9
 10
62.658335
 20
183.70683
 30
0.0
 11
63.463328
 21
183.70683
 31
0.0
  0
LINE
  8
LY_1
  6
CONTINUOUS
 62
     3
  5
1CA
 10
61.738352
 20
182.786786
 30
0.0
 11
61.738352
 21
181.981854
 31
0.0
  0
LINE
  8
LY_1
  6
CONTINUOUS
 62
     3
  5
1CB
 10
60.588328
 20
181.981854
 30
0.0
 11
61.738352
 21
181.981854
 31
0.0
  0
LINE
  8
LY_1
  6
CONTINUOUS
 62
     3
  5
1CC
 10
62.658335
 20
184.856854
 30
0.0
 11
63.463328
 21
184.856854
 31
0.0
  0
LINE
  8
LY_1
  6
CONTINUOUS
 62
     3
  5
1CD
 10
61.738352
 20
186.58183
 30
0.0
 11
61.738352
 21
185.776776
 31
0.0
  0
LINE
  8
LY_1
  6
CONTINUOUS
 62
     3
  5
1CE
 10
63.463328
 20
184.856854
 30
0.0
 11
63.463328
 21
183.70683
 31
0.0
  0
LINE
  8
LY_1
  6
CONTINUOUS
 62
     3
  5
1CF
 10
58.863352
 20
184.856854
 30
0.0
 11
59.668345
 21
184.856854
 31
0.0
  0
LINE
  8
LY_1
  6
CONTINUOUS
 62
     3
  5
1D0
 10
60.588328
 20
186.58183
 30
0.0
 11
60.588328
 21
185.776776
 31
0.0
  0
LINE
  8
LY_1
  6
CONTINUOUS
 62
     3
  5
1D1
 10
60.588328
 20
186.58183
 30
0.0
 11
61.738352
 21
186.58183
 31
0.0
  0
LINE
  8
LY_1
  6
CONTINUOUS
 62
     3
  5
1D2
 10
58.863352
 20
184.856854
 30
0.0
 11
58.863352
 21
183.70683
 31
0.0
  0
LINE
  8
LY_1
  6
CONTINUOUS
 62
     3
  5
1D3
 10
-19.411672
 20
182.786786
 30
0.0
 11
-19.411672
 21
181.981854
 31
0.0
  0
LINE
  8
LY_1
  6
CONTINUOUS
 62
     3
  5
1D4
 10
-21.136648
 20
183.70683
 30
0.0
 11
-20.331655
 21
183.70683
 31
0.0
  0
LINE
  8
LY_1
  6
CONTINUOUS
 62
     3
  5
1D5
 10
-17.341665
 20
183.70683
 30
0.0
 11
-16.536672
 21
183.70683
 31
0.0
  0
LINE
  8
LY_1
  6
CONTINUOUS
 62
     3
  5
1D6
 10
-18.261648
 20
182.786786
 30
0.0
 11
-18.261648
 21
181.981854
 31
0.0
  0
LINE
  8
LY_1
  6
CONTINUOUS
 62
     3
  5
1D7
 10
-19.411672
 20
181.981854
 30
0.0
 11
-18.261648
 21
181.981854
 31
0.0
  0
LINE
  8
LY_1
  6
CONTINUOUS
 62
     3
  5
1D8
 10
-17.341665
 20
184.856854
 30
0.0
 11
-16.536672
 21
184.856854
 31
0.0
  0
LINE
  8
LY_1
  6
CONTINUOUS
 62
     3
  5
1D9
 10
-18.261648
 20
186.58183
 30
0.0
 11
-18.261648
 21
185.776776
 31
0.0
  0
LINE
  8
LY_1
  6
CONTINUOUS
 62
     3
  5
1DA
 10
-16.536672
 20
184.856854
 30
0.0
 11
-16.536672
 21
183.70683
 31
0.0
  0
LINE
  8
LY_1
  6
CONTINUOUS
 62
     3
  5
1DB
 10
-21.136648
 20
184.856854
 30
0.0
 11
-20.331655
 21
184.856854
 31
0.0
  0
LINE
  8
LY_1
  6
CONTINUOUS
 62
     3
  5
1DC
 10
-19.411672
 20
186.58183
 30
0.0
 11
-19.411672
 21
185.776776
 31
0.0
  0
LINE
  8
LY_1
  6
CONTINUOUS
 62
     3
  5
1DD
 10
-19.411672
 20
186.58183
 30
0.0
 11
-18.261648
 21
186.58183
 31
0.0
  0
LINE
  8
LY_1
  6
CONTINUOUS
 62
     3
  5
1DE
 10
-21.136648
 20
184.856854
 30
0.0
 11
-21.136648
 21
183.70683
 31
0.0
  0
LINE
  8
LY_1
  6
CONTINUOUS
 62
     3
  5
1DF
 10
-33.596548
 20
279.296185
 30
0.0
 11
75.923258
 21
279.296185
 31
0.0
  0
LINE
  8
LY_1
  6
CONTINUOUS
 62
     3
  5
1E0
 10
72.66337
 20
219.79627
 30
0.0
 11
71.663362
 21
219.296267
 31
0.0
  0
LINE
  8
LY_1
  6
CONTINUOUS
 62
     3
  5
1E1
 10
-30.336644
 20
219.79627
 30
0.0
 11
-29.336637
 21
219.296267
 31
0.0
  0
LINE
  8
LY_1
  6
CONTINUOUS
 62
     3
  5
1E2
 10
71.66337
 20
219.296185
 30
0.0
 11
71.66337
 21
212.865766
 31
0.0
  0
LINE
  8
LY_1
  6
CONTINUOUS
 62
     3
  5
1E3
 10
-29.33666
 20
219.296185
 30
0.0
 11
-29.33666
 21
212.865766
 31
0.0
  0
LINE
  8
LY_1
  6
CONTINUOUS
 62
     3
  5
1E4
 10
74.163382
 20
221.296184
 30
0.0
 11
72.663413
 21
219.796215
 31
0.0
  0
LINE
  8
LY_1
  6
CONTINUOUS
 62
     3
  5
1E5
 10
-31.836656
 20
221.296238
 30
0.0
 11
-30.336644
 21
219.796226
 31
0.0
  0
LINE
  8
LY_1
  6
CONTINUOUS
 62
     3
  5
1E6
 10
-31.83666
 20
257.554608
 30
0.0
 11
-31.83666
 21
221.296185
 31
0.0
  0
LINE
  8
LY_1
  6
CONTINUOUS
 62
     3
  5
1E7
 10
74.16337
 20
257.554608
 30
0.0
 11
74.16337
 21
221.296185
 31
0.0
  0
LINE
  8
LY_1
  6
CONTINUOUS
 62
     3
  5
1E8
 10
-29.33666
 20
219.296185
 30
0.0
 11
71.66337
 21
219.296185
 31
0.0
  0
LINE
  8
LY_1
  6
CONTINUOUS
 62
     3
  5
1E9
 10
-30.33666
 20
219.796185
 30
0.0
 11
72.66337
 21
219.796185
 31
0.0
  0
LINE
  8
LY_1
  6
CONTINUOUS
 62
     3
  5
1EA
 10
-31.83666
 20
221.296185
 30
0.0
 11
74.16337
 21
221.296185
 31
0.0
  0
LINE
  8
LY_1
  6
CONTINUOUS
 62
     3
  5
1EB
 10
-33.83666
 20
261.296185
 30
0.0
 11
76.16337
 21
261.296185
 31
0.0
  0
LINE
  8
LY_1
  6
CONTINUOUS
 62
     3
  5
1EC
 10
-33.83666
 20
265.296185
 30
0.0
 11
-33.83666
 21
261.296185
 31
0.0
  0
LINE
  8
LY_1
  6
CONTINUOUS
 62
     3
  5
1ED
 10
76.16337
 20
265.296185
 30
0.0
 11
76.16337
 21
261.296185
 31
0.0
  0
LINE
  8
LY_1
  6
CONTINUOUS
 62
    80
  5
1EE
 10
40.683359
 20
159.201825
 30
0.0
 11
40.683359
 21
155.281781
 31
0.0
  0
LINE
  8
LY_1
  6
CONTINUOUS
 62
    80
  5
1EF
 10
33.403361
 20
159.201825
 30
0.0
 11
33.403361
 21
155.281781
 31
0.0
  0
LINE
  8
LY_1
  6
CONTINUOUS
 62
    80
  5
1F0
 10
33.403361
 20
162.281781
 30
0.0
 11
37.743357
 21
162.281781
 31
0.0
  0
LINE
  8
LY_1
  6
CONTINUOUS
 62
    80
  5
1F1
 10
68.094126
 20
162.281781
 30
0.0
 11
69.943339
 21
162.281781
 31
0.0
  0
LINE
  8
LY_1
  6
CONTINUOUS
 62
    80
  5
1F2
 10
63.223338
 20
162.281781
 30
0.0
 11
64.343363
 21
162.281781
 31
0.0
  0
LINE
  8
LY_1
  6
CONTINUOUS
 62
    80
  5
1F3
 10
57.623362
 20
162.281781
 30
0.0
 11
59.472575
 21
162.281781
 31
0.0
  0
LINE
  8
LY_1
  6
CONTINUOUS
 62
    80
  5
1F4
 10
60.843363
 20
155.281781
 30
0.0
 11
61.852579
 21
155.281781
 31
0.0
  0
LINE
  8
LY_1
  6
CONTINUOUS
 62
    80
  5
1F5
 10
65.714121
 20
155.281781
 30
0.0
 11
66.723338
 21
155.281781
 31
0.0
  0
LINE
  8
LY_1
  6
CONTINUOUS
 62
    80
  5
1F6
 10
45.333201
 20
155.281781
 30
0.0
 11
47.403361
 21
155.281781
 31
0.0
  0
LINE
  8
LY_1
  6
CONTINUOUS
 62
    80
  5
1F7
 10
30.934061
 20
155.281781
 30
0.0
 11
32.843363
 21
155.281781
 31
0.0
  0
LINE
  8
LY_1
  6
CONTINUOUS
 62
    80
  5
1F8
 10
38.053202
 20
155.281781
 30
0.0
 11
40.13624
 21
155.281781
 31
0.0
  0
LINE
  8
LY_1
  6
CONTINUOUS
 62
    80
  5
1F9
 10
33.403361
 20
155.281781
 30
0.0
 11
35.083353
 21
155.281781
 31
0.0
  0
LINE
  8
LY_1
  6
CONTINUOUS
 62
    80
  5
1FA
 10
40.683359
 20
155.281781
 30
0.0
 11
42.363352
 21
155.281781
 31
0.0
  0
LINE
  8
LY_1
  6
CONTINUOUS
 62
    80
  5
1FB
 10
40.683359
 20
162.281781
 30
0.0
 11
45.023356
 21
162.281781
 31
0.0
  0
LINE
  8
LY_1
  6
CONTINUOUS
 62
    80
  5
1FC
 10
43.720393
 20
157.521821
 30
0.0
 11
45.333151
 21
155.281879
 31
0.0
  0
LINE
  8
LY_1
  6
CONTINUOUS
 62
    80
  5
1FD
 10
38.053205
 20
155.281823
 30
0.0
 11
36.440375
 21
157.521864
 31
0.0
  0
LINE
  8
LY_1
  6
CONTINUOUS
 62
    80
  5
1FE
 10
45.716286
 20
157.624947
 30
0.0
 11
47.403366
 21
155.28178
 31
0.0
  0
LINE
  8
LY_1
  6
CONTINUOUS
 62
    80
  5
1FF
 10
40.123348
 20
155.281823
 30
0.0
 11
38.436268
 21
157.62499
 31
0.0
  0
LINE
  8
LY_1
  6
CONTINUOUS
 62
    80
  5
200
 10
42.363352
 20
157.521771
 30
0.0
 11
43.720408
 21
157.521771
 31
0.0
  0
LINE
  8
LY_1
  6
CONTINUOUS
 62
    80
  5
201
 10
35.083353
 20
157.521771
 30
0.0
 11
36.440409
 21
157.521771
 31
0.0
  0
LINE
  8
LY_1
  6
CONTINUOUS
 62
    80
  5
202
 10
40.683359
 20
159.201825
 30
0.0
 11
45.023356
 21
159.201825
 31
0.0
  0
LINE
  8
LY_1
  6
CONTINUOUS
 62
    80
  5
203
 10
33.403361
 20
159.201825
 30
0.0
 11
37.743357
 21
159.201825
 31
0.0
  0
LINE
  8
LY_1
  6
CONTINUOUS
 62
    80
  5
204
 10
40.683359
 20
160.60185
 30
0.0
 11
45.023356
 21
160.60185
 31
0.0
  0
LINE
  8
LY_1
  6
CONTINUOUS
 62
    80
  5
205
 10
33.403361
 20
160.60185
 30
0.0
 11
37.743357
 21
160.60185
 31
0.0
  0
LINE
  8
LY_1
  6
CONTINUOUS
 62
    80
  5
206
 10
42.363352
 20
157.521771
 30
0.0
 11
42.363352
 21
155.281781
 31
0.0
  0
LINE
  8
LY_1
  6
CONTINUOUS
 62
    80
  5
207
 10
35.083353
 20
157.521771
 30
0.0
 11
35.083353
 21
155.281781
 31
0.0
  0
LINE
  8
LY_1
  6
CONTINUOUS
 62
    80
  5
208
 10
64.343379
 20
162.281765
 30
0.0
 11
66.21875
 21
158.204869
 31
0.0
  0
LINE
  8
LY_1
  6
CONTINUOUS
 62
    80
  5
209
 10
63.783375
 20
159.479135
 30
0.0
 11
65.714148
 21
155.281803
 31
0.0
  0
LINE
  8
LY_1
  6
CONTINUOUS
 62
    80
  5
20A
 10
63.783323
 20
159.479157
 30
0.0
 11
61.85255
 21
155.281824
 31
0.0
  0
LINE
  8
LY_1
  6
CONTINUOUS
 62
    80
  5
20B
 10
63.223319
 20
162.281787
 30
0.0
 11
61.347947
 21
158.204891
 31
0.0
  0
LINE
  8
LY_1
  6
CONTINUOUS
 62
    80
  5
20C
 10
66.218718
 20
158.204891
 30
0.0
 11
68.09409
 21
162.281787
 31
0.0
  0
LINE
  8
LY_1
  6
CONTINUOUS
 62
    80
  5
20D
 10
59.472608
 20
162.281765
 30
0.0
 11
61.347979
 21
158.20487
 31
0.0
  0
LINE
  8
LY_1
  6
CONTINUOUS
 62
    80
  5
20E
 10
28.503367
 20
159.783164
 30
0.0
 11
30.934039
 21
155.28192
 31
0.0
  0
LINE
  8
LY_1
  6
CONTINUOUS
 62
    80
  5
20F
 10
28.5034
 20
159.783203
 30
0.0
 11
26.07267
 21
155.281851
 31
0.0
  0
LINE
  8
LY_1
  6
CONTINUOUS
 62
    80
  5
210
 10
66.723321
 20
155.281824
 30
0.0
 11
69.943316
 21
162.281814
 31
0.0
  0
LINE
  8
LY_1
  6
CONTINUOUS
 62
    80
  5
211
 10
57.623354
 20
162.28178
 30
0.0
 11
60.843349
 21
155.28179
 31
0.0
  0
LINE
  8
LY_1
  6
CONTINUOUS
 62
    80
  5
212
 10
29.063321
 20
162.281931
 30
0.0
 11
32.843341
 21
155.281893
 31
0.0
  0
LINE
  8
LY_1
  6
CONTINUOUS
 62
    80
  5
213
 10
27.943388
 20
162.281862
 30
0.0
 11
24.163367
 21
155.281824
 31
0.0
  0
LINE
  8
LY_1
  6
CONTINUOUS
 62
    80
  5
214
 10
27.943339
 20
162.281781
 30
0.0
 11
29.063364
 21
162.281781
 31
0.0
  0
LINE
  8
LY_1
  6
CONTINUOUS
 62
    80
  5
215
 10
40.683359
 20
162.281781
 30
0.0
 11
40.683359
 21
160.60185
 31
0.0
  0
LINE
  8
LY_1
  6
CONTINUOUS
 62
    80
  5
216
 10
33.403361
 20
162.281781
 30
0.0
 11
33.403361
 21
160.60185
 31
0.0
  0
LINE
  8
LY_1
  6
CONTINUOUS
 62
    80
  5
217
 10
24.16334
 20
155.281781
 30
0.0
 11
26.072642
 21
155.281781
 31
0.0
  0
LINE
  8
LY_1
  6
CONTINUOUS
 62
     3
  5
218
 10
-27.255697
 20
151.281781
 30
0.0
 11
69.582407
 21
151.281781
 31
0.0
  0
LINE
  8
LY_1
  6
CONTINUOUS
 62
     3
  5
219
 10
75.16334
 20
260.382977
 30
0.0
 11
75.16334
 21
170.281781
 31
0.0
  0
LINE
  8
LY_1
  6
CONTINUOUS
 62
     3
  5
21A
 10
-32.83666
 20
260.382977
 30
0.0
 11
-32.83666
 21
170.281781
 31
0.0
  0
LINE
  8
LY_1
  6
CONTINUOUS
 62
     3
  5
21B
 10
314.663386
 20
145.281916
 30
0.0
 11
291.111052
 21
150.934477
 31
0.0
  0
LINE
  8
LY_1
  6
CONTINUOUS
 62
     3
  5
21C
 10
289.663382
 20
152.281872
 30
0.0
 11
282.763669
 21
266.741459
 31
0.0
  0
LINE
  8
LY_1
  6
CONTINUOUS
 62
     3
  5
21D
 10
314.663386
 20
270.005251
 30
0.0
 11
284.370935
 21
268.490578
 31
0.0
  0
LINE
  8
LY_1
  6
CONTINUOUS
 62
     3
  5
21E
 10
314.663386
 20
145.281916
 30
0.0
 11
314.663386
 21
270.005251
 31
0.0
  0
LINE
  8
LY_1
  6
CONTINUOUS
 62
     3
  5
21F
 10
275.923273
 20
279.296185
 30
0.0
 11
166.403437
 21
279.296185
 31
0.0
  0
ARC
  8
LY_1
  6
CONTINUOUS
 62
     3
  5
220
 10
471.16337
 20
172.429413
 30
0.0
 40
2.05
 50
0.0
 51
180.0
  0
ARC
  8
LY_1
  6
CONTINUOUS
 62
     3
  5
221
 10
421.304179
 20
147.281781
 30
0.0
 40
2.0
 50
209.897645
 51
269.999997
  0
ARC
  8
LY_1
  6
CONTINUOUS
 62
     3
  5
222
 10
461.306223
 20
170.281781
 30
0.0
 40
48.142857
 50
179.999991
 51
209.897642
  0
ARC
  8
LY_1
  6
CONTINUOUS
 62
     3
  5
223
 10
461.306223
 20
170.281781
 30
0.0
 40
45.142857
 50
179.999991
 51
209.166014
  0
ARC
  8
LY_1
  6
CONTINUOUS
 62
     3
  5
224
 10
461.306223
 20
170.281781
 30
0.0
 40
42.142857
 50
179.999991
 51
206.798069
  0
POLYLINE
  8
LY_1
  6
CONTINUOUS
 62
     3
  5
225
 66
     1
 10
0.0
 20
0.0
 30
0.0
  0
VERTEX
  8
LY_1
  6
CONTINUOUS
 62
     3
  5
857
 10
441.16337
 20
146.281781
 30
0.0
  0
VERTEX
  8
LY_1
  6
CONTINUOUS
 62
     3
  5
858
 10
440.694067
 20
146.275625
 30
0.0
  0
VERTEX
  8
LY_1
  6
CONTINUOUS
 62
     3
  5
859
 10
440.236319
 20
146.257309
 30
0.0
  0
VERTEX
  8
LY_1
  6
CONTINUOUS
 62
     3
  5
85A
 10
439.801399
 20
146.227284
 30
0.0
  0
VERTEX
  8
LY_1
  6
CONTINUOUS
 62
     3
  5
85B
 10
439.400015
 20
146.18629
 30
0.0
  0
VERTEX
  8
LY_1
  6
CONTINUOUS
 62
     3
  5
85C
 10
439.04205
 20
146.135335
 30
0.0
  0
VERTEX
  8
LY_1
  6
CONTINUOUS
 62
     3
  5
85D
 10
438.736319
 20
146.075674
 30
0.0
  0
VERTEX
  8
LY_1
  6
CONTINUOUS
 62
     3
  5
85E
 10
438.490351
 20
146.008776
 30
0.0
  0
VERTEX
  8
LY_1
  6
CONTINUOUS
 62
     3
  5
85F
 10
438.310201
 20
145.93629
 30
0.0
  0
VERTEX
  8
LY_1
  6
CONTINUOUS
 62
     3
  5
860
 10
438.200305
 20
145.859998
 30
0.0
  0
VERTEX
  8
LY_1
  6
CONTINUOUS
 62
     3
  5
861
 10
438.16337
 20
145.781781
 30
0.0
  0
SEQEND
  8
LY_1
  6
CONTINUOUS
 62
     3
  5
862
  0
POLYLINE
  8
LY_1
  6
CONTINUOUS
 62
     3
  5
226
 66
     1
 10
0.0
 20
0.0
 30
0.0
  0
VERTEX
  8
LY_1
  6
CONTINUOUS
 62
     3
  5
863
 10
456.16337
 20
145.781781
 30
0.0
  0
VERTEX
  8
LY_1
  6
CONTINUOUS
 62
     3
  5
864
 10
456.126435
 20
145.859998
 30
0.0
  0
VERTEX
  8
LY_1
  6
CONTINUOUS
 62
     3
  5
865
 10
456.01654
 20
145.93629
 30
0.0
  0
VERTEX
  8
LY_1
  6
CONTINUOUS
 62
     3
  5
866
 10
455.83639
 20
146.008776
 30
0.0
  0
VERTEX
  8
LY_1
  6
CONTINUOUS
 62
     3
  5
867
 10
455.590421
 20
146.075674
 30
0.0
  0
VERTEX
  8
LY_1
  6
CONTINUOUS
 62
     3
  5
868
 10
455.284691
 20
146.135335
 30
0.0
  0
VERTEX
  8
LY_1
  6
CONTINUOUS
 62
     3
  5
869
 10
454.926726
 20
146.18629
 30
0.0
  0
VERTEX
  8
LY_1
  6
CONTINUOUS
 62
     3
  5
86A
 10
454.525342
 20
146.227284
 30
0.0
  0
VERTEX
  8
LY_1
  6
CONTINUOUS
 62
     3
  5
86B
 10
454.090421
 20
146.257309
 30
0.0
  0
VERTEX
  8
LY_1
  6
CONTINUOUS
 62
     3
  5
86C
 10
453.632674
 20
146.275625
 30
0.0
  0
VERTEX
  8
LY_1
  6
CONTINUOUS
 62
     3
  5
86D
 10
453.16337
 20
146.281781
 30
0.0
  0
SEQEND
  8
LY_1
  6
CONTINUOUS
 62
     3
  5
86E
  0
ARC
  8
LY_1
  6
CONTINUOUS
 62
     3
  5
227
 10
471.16337
 20
161.429413
 30
0.0
 40
2.05
 50
180.0
 51
0.0
  0
CIRCLE
  8
LY_1
  6
CONTINUOUS
 62
     3
  5
228
 10
511.16337
 20
162.229413
 30
0.0
 40
2.05
  0
CIRCLE
  8
LY_1
  6
CONTINUOUS
 62
     3
  5
229
 10
431.16337
 20
162.229413
 30
0.0
 40
2.05
  0
ARC
  8
LY_1
  6
CONTINUOUS
 62
     3
  5
22A
 10
481.020487
 20
170.281781
 30
0.0
 40
42.142857
 50
333.201931
 51
0.0
  0
ARC
  8
LY_1
  6
CONTINUOUS
 62
     3
  5
22B
 10
481.020487
 20
170.281781
 30
0.0
 40
45.142857
 50
330.833986
 51
0.0
  0
ARC
  8
LY_1
  6
CONTINUOUS
 62
     3
  5
22C
 10
521.022532
 20
147.281781
 30
0.0
 40
2.0
 50
269.999997
 51
330.10236
  0
ARC
  8
LY_1
  6
CONTINUOUS
 62
     3
  5
22D
 10
481.020487
 20
170.281781
 30
0.0
 40
48.142857
 50
330.10236
 51
0.0
  0
LINE
  8
LY_1
  6
CONTINUOUS
 62
     3
  5
22E
 10
440.16337
 20
151.281781
 30
0.0
 11
440.16337
 21
148.281781
 31
0.0
  0
LINE
  8
LY_1
  6
CONTINUOUS
 62
     3
  5
22F
 10
454.16337
 20
151.281781
 30
0.0
 11
454.16337
 21
148.281781
 31
0.0
  0
LINE
  8
LY_1
  6
CONTINUOUS
 62
     3
  5
230
 10
438.16337
 20
148.281781
 30
0.0
 11
438.16337
 21
145.281781
 31
0.0
  0
LINE
  8
LY_1
  6
CONTINUOUS
 62
     3
  5
231
 10
453.16337
 20
146.281781
 30
0.0
 11
441.16337
 21
146.281781
 31
0.0
  0
LINE
  8
LY_1
  6
CONTINUOUS
 62
     3
  5
232
 10
456.16337
 20
148.281781
 30
0.0
 11
456.16337
 21
145.281781
 31
0.0
  0
LINE
  8
LY_1
  6
CONTINUOUS
 62
     3
  5
233
 10
521.022562
 20
145.281781
 30
0.0
 11
456.16337
 21
145.281781
 31
0.0
  0
LINE
  8
LY_1
  6
CONTINUOUS
 62
     3
  5
234
 10
438.16337
 20
145.281781
 30
0.0
 11
421.304209
 21
145.281781
 31
0.0
  0
LINE
  8
LY_1
  6
CONTINUOUS
 62
     3
  5
235
 10
421.88697
 20
148.281781
 30
0.0
 11
520.43974
 21
148.281781
 31
0.0
  0
LINE
  8
LY_1
  6
CONTINUOUS
 62
     3
  5
236
 10
423.689467
 20
151.281781
 30
0.0
 11
518.637244
 21
151.281781
 31
0.0
  0
LINE
  8
LY_1
  6
CONTINUOUS
 62
     3
  5
237
 10
473.21337
 20
161.429413
 30
0.0
 11
473.21337
 21
172.429413
 31
0.0
  0
LINE
  8
LY_1
  6
CONTINUOUS
 62
     3
  5
238
 10
469.11337
 20
161.429413
 30
0.0
 11
469.11337
 21
172.429413
 31
0.0
  0
ARC
  8
LY_1
  6
CONTINUOUS
 62
     3
  5
239
 10
513.21337
 20
213.229413
 30
0.0
 40
2.05
 50
270.0
 51
90.0
  0
CIRCLE
  8
LY_1
  6
CONTINUOUS
 62
     3
  5
23A
 10
471.16337
 20
213.229413
 30
0.0
 40
6.0
  0
ARC
  8
LY_1
  6
CONTINUOUS
 62
     3
  5
23B
 10
471.16337
 20
236.729413
 30
0.0
 40
2.05
 50
180.0
 51
0.0
  0
ARC
  8
LY_1
  6
CONTINUOUS
 62
     3
  5
23C
 10
471.16337
 20
247.729413
 30
0.0
 40
2.05
 50
0.0
 51
180.0
  0
ARC
  8
LY_1
  6
CONTINUOUS
 62
     3
  5
23D
 10
504.31337
 20
213.229413
 30
0.0
 40
2.05
 50
90.0
 51
270.0
  0
ARC
  8
LY_1
  6
CONTINUOUS
 62
     3
  5
23E
 10
429.11337
 20
213.229413
 30
0.0
 40
2.05
 50
90.0
 51
270.0
  0
ARC
  8
LY_1
  6
CONTINUOUS
 62
     3
  5
23F
 10
438.01337
 20
213.229413
 30
0.0
 40
2.05
 50
270.0
 51
90.0
  0
CIRCLE
  8
LY_1
  6
CONTINUOUS
 62
     3
  5
240
 10
511.16337
 20
242.229413
 30
0.0
 40
2.05
  0
CIRCLE
  8
LY_1
  6
CONTINUOUS
 62
     3
  5
241
 10
431.16337
 20
242.229413
 30
0.0
 40
2.05
  0
ARC
  8
LY_1
  6
CONTINUOUS
 62
     3
  5
242
 10
415.16334
 20
268.00517
 30
0.0
 40
2.0
 50
90.000003
 51
180.000005
  0
ARC
  8
LY_1
  6
CONTINUOUS
 62
     3
  5
243
 10
527.16334
 20
268.00517
 30
0.0
 40
2.0
 50
0.0
 51
90.000003
  0
LINE
  8
LY_1
  6
CONTINUOUS
 62
     3
  5
244
 10
502.16337
 20
267.00517
 30
0.0
 11
526.16334
 21
267.00517
 31
0.0
  0
LINE
  8
LY_1
  6
CONTINUOUS
 62
     3
  5
245
 10
440.16337
 20
267.00517
 30
0.0
 11
440.16337
 21
264.00517
 31
0.0
  0
LINE
  8
LY_1
  6
CONTINUOUS
 62
     3
  5
246
 10
502.16337
 20
267.00517
 30
0.0
 11
502.16337
 21
264.00517
 31
0.0
  0
LINE
  8
LY_1
  6
CONTINUOUS
 62
     3
  5
247
 10
513.21337
 20
215.279413
 30
0.0
 11
504.31337
 21
215.279413
 31
0.0
  0
LINE
  8
LY_1
  6
CONTINUOUS
 62
     3
  5
248
 10
513.21337
 20
211.179413
 30
0.0
 11
504.31337
 21
211.179413
 31
0.0
  0
LINE
  8
LY_1
  6
CONTINUOUS
 62
     3
  5
249
 10
469.11337
 20
236.779413
 30
0.0
 11
469.11337
 21
247.679413
 31
0.0
  0
LINE
  8
LY_1
  6
CONTINUOUS
 62
     3
  5
24A
 10
473.21337
 20
236.779413
 30
0.0
 11
473.21337
 21
247.679413
 31
0.0
  0
LINE
  8
LY_1
  6
CONTINUOUS
 62
     3
  5
24B
 10
429.11337
 20
211.179413
 30
0.0
 11
438.01337
 21
211.179413
 31
0.0
  0
LINE
  8
LY_1
  6
CONTINUOUS
 62
     3
  5
24C
 10
429.11337
 20
215.279413
 30
0.0
 11
438.01337
 21
215.279413
 31
0.0
  0
LINE
  8
LY_1
  6
CONTINUOUS
 62
     3
  5
24D
 10
419.16334
 20
264.00517
 30
0.0
 11
523.16334
 21
264.00517
 31
0.0
  0
LINE
  8
LY_1
  6
CONTINUOUS
 62
     3
  5
24E
 10
416.16334
 20
267.00517
 30
0.0
 11
440.16337
 21
267.00517
 31
0.0
  0
LINE
  8
LY_1
  6
CONTINUOUS
 62
     3
  5
24F
 10
415.16334
 20
270.00517
 30
0.0
 11
527.16334
 21
270.00517
 31
0.0
  0
LINE
  8
LY_1
  6
CONTINUOUS
 62
     3
  5
250
 10
413.16334
 20
268.00517
 30
0.0
 11
413.16334
 21
170.281781
 31
0.0
  0
LINE
  8
LY_1
  6
CONTINUOUS
 62
     3
  5
251
 10
529.16334
 20
268.00517
 30
0.0
 11
529.16334
 21
170.281781
 31
0.0
  0
LINE
  8
LY_1
  6
CONTINUOUS
 62
     3
  5
252
 10
416.16334
 20
267.00517
 30
0.0
 11
416.16334
 21
170.281781
 31
0.0
  0
LINE
  8
LY_1
  6
CONTINUOUS
 62
     3
  5
253
 10
526.16334
 20
267.00517
 30
0.0
 11
526.16334
 21
170.281781
 31
0.0
  0
LINE
  8
LY_1
  6
CONTINUOUS
 62
     3
  5
254
 10
419.16334
 20
264.00517
 30
0.0
 11
419.16334
 21
170.281781
 31
0.0
  0
LINE
  8
LY_1
  6
CONTINUOUS
 62
     3
  5
255
 10
523.16334
 20
264.00517
 30
0.0
 11
523.16334
 21
170.281781
 31
0.0
  0
ENDSEC
  0
EOF
