  0
SECTION
  2
HEADER
  9
$ACADVER
  1
AC1009
  9
$DWGCODEPAGE
  3
dos932
  9
$INSBASE
 10
0.0
 20
0.0
 30
0.0
  9
$EXTMIN
 10
-56.230686
 20
-56.230686
 30
0.0
  9
$EXTMAX
 10
108.198654
 20
262.666667
 30
0.0
  9
$LIMMIN
 10
-56.230686
 20
-56.230686
  9
$LIMMAX
 10
108.198654
 20
262.666667
  9
$ORTHOMODE
 70
     0
  9
$REGENMODE
 70
     1
  9
$FILLMODE
 70
     1
  9
$QTEXTMODE
 70
     0
  9
$MIRRTEXT
 70
     1
  9
$DRAGMODE
 70
     2
  9
$LTSCALE
 40
1.0
  9
$OSMODE
 70
     0
  9
$ATTMODE
 70
     1
  9
$TEXTSIZE
 40
4.1656
  9
$TRACEWID
 40
0.05
  9
$TEXTSTYLE
  7
MX_NOTE_STANDARD
  9
$CLAYER
  8
LY_1
  9
$CELTYPE
  6
CONTINUOUS
  9
$CECOLOR
 62
   256
  9
$DIMSCALE
 40
1.0
  9
$DIMASZ
 40
2.5
  9
$DIMEXO
 40
0.5
  9
$DIMDLI
 40
3.75
  9
$DIMRND
 40
0.0
  9
$DIMDLE
 40
0.0
  9
$DIMEXE
 40
1.0
  9
$DIMTP
 40
0.0
  9
$DIMTM
 40
0.0
  9
$DIMTXT
 40
2.5
  9
$DIMCEN
 40
2.5
  9
$DIMTSZ
 40
0.0
  9
$DIMTOL
 70
     0
  9
$DIMLIM
 70
     0
  9
$DIMTIH
 70
     0
  9
$DIMTOH
 70
     0
  9
$DIMSE1
 70
     0
  9
$DIMSE2
 70
     0
  9
$DIMTAD
 70
     1
  9
$DIMZIN
 70
     8
  9
$DIMBLK
  1

  9
$DIMASO
 70
     1
  9
$DIMSHO
 70
     1
  9
$DIMPOST
  1

  9
$DIMAPOST
  1

  9
$DIMALT
 70
     0
  9
$DIMALTD
 70
     4
  9
$DIMALTF
 40
0.03937
  9
$DIMLFAC
 40
1.0
  9
$DIMTOFL
 70
     1
  9
$DIMTVP
 40
0.0
  9
$DIMTIX
 70
     0
  9
$DIMSOXD
 70
     0
  9
$DIMSAH
 70
     0
  9
$DIMBLK1
  1

  9
$DIMBLK2
  1

  9
$DIMSTYLE
  2
MXDIMSTYLE
  9
$DIMCLRD
 70
     0
  9
$DIMCLRE
 70
     0
  9
$DIMCLRT
 70
     0
  9
$DIMTFAC
 40
1.0
  9
$DIMGAP
 40
1.0
  9
$LUNITS
 70
     2
  9
$LUPREC
 70
     4
  9
$AXISMODE
 70
     0
  9
$AXISUNIT
 10
0.0
 20
0.0
  9
$SKETCHINC
 40
0.1
  9
$FILLETRAD
 40
0.0
  9
$AUNITS
 70
     0
  9
$AUPREC
 70
     0
  9
$MENU
  1
acad
  9
$ELEVATION
 40
0.0
  9
$PELEVATION
 40
0.0
  9
$THICKNESS
 40
0.0
  9
$LIMCHECK
 70
     0
  9
$BLIPMODE
 70
     1
  9
$CHAMFERA
 40
0.0
  9
$CHAMFERB
 40
0.0
  9
$SKPOLY
 70
     0
  9
$TDCREATE
 40
2454133.462395833
  9
$TDUPDATE
 40
2454133.462395833
  9
$TDINDWG
 40
0.0000000000
  9
$TDUSRTIMER
 40
0.0000000000
  9
$USRTIMER
 70
     1
  9
$ANGBASE
 50
0.0
  9
$ANGDIR
 70
     0
  9
$PDMODE
 70
     0
  9
$PDSIZE
 40
0.0
  9
$PLINEWID
 40
0.0
  9
$COORDS
 70
     1
  9
$SPLFRAME
 70
     0
  9
$SPLINETYPE
 70
     6
  9
$SPLINESEGS
 70
     8
  9
$ATTDIA
 70
     0
  9
$ATTREQ
 70
     1
  9
$HANDLING
 70
     1
  9
$HANDSEED
  5
2D8
  9
$SURFTAB1
 70
     6
  9
$SURFTAB2
 70
     6
  9
$SURFTYPE
 70
     6
  9
$SURFU
 70
     6
  9
$SURFV
 70
     6
  9
$UCSNAME
  2

  9
$UCSORG
 10
0.0
 20
0.0
 30
0.0
  9
$UCSXDIR
 10
1.0
 20
0.0
 30
0.0
  9
$UCSYDIR
 10
0.0
 20
1.0
 30
0.0
  9
$PUCSNAME
  2

  9
$PUCSORG
 10
0.0
 20
0.0
 30
0.0
  9
$PUCSXDIR
 10
1.0
 20
0.0
 30
0.0
  9
$PUCSYDIR
 10
0.0
 20
1.0
 30
0.0
  9
$USERI1
 70
     0
  9
$USERI2
 70
     0
  9
$USERI3
 70
     0
  9
$USERI4
 70
     0
  9
$USERI5
 70
     0
  9
$USERR1
 40
0.0
  9
$USERR2
 40
0.0
  9
$USERR3
 40
0.0
  9
$USERR4
 40
0.0
  9
$USERR5
 40
0.0
  9
$WORLDVIEW
 70
     1
  9
$SHADEDGE
 70
     3
  9
$SHADEDIF
 70
    70
  9
$TILEMODE
 70
     1
  9
$MAXACTVP
 70
    16
  9
$PINSBASE
 10
0.0
 20
0.0
 30
0.0
  9
$PLIMCHECK
 70
     0
  9
$PEXTMIN
 10
1.000000E+20
 20
1.000000E+20
 30
1.000000E+20
  9
$PEXTMAX
 10
-1.000000E+20
 20
-1.000000E+20
 30
-1.000000E+20
  9
$PLIMMIN
 10
0.0
 20
0.0
  9
$PLIMMAX
 10
12.0
 20
9.0
  9
$UNITMODE
 70
     0
  9
$VISRETAIN
 70
     0
  9
$PLINEGEN
 70
     1
  9
$PSLTSCALE
 70
     0
  9
$TREEDEPTH
 70
  3020
  9
$DWGCODEPAGE
  3
dos932
  0
ENDSEC
  0
SECTION
  2
TABLES
  0
TABLE
  2
VPORT
 70
     1
  0
VPORT
  2
*ACTIVE
 70
     0
 10
0.0
 20
0.0
 11
1.0
 21
1.0
 12
25.983984
 22
103.217991
 13
0.0
 23
0.0
 14
1.0
 24
1.0
 15
0.0
 25
0.0
 16
0.0
 26
0.0
 36
1.0
 17
0.0
 27
0.0
 37
0.0
 40
322.086326
 41
1.732051
 42
50.0
 43
0.0
 44
0.0
 50
0.0
 51
0.0
 71
     0
 72
   100
 73
     1
 74
     1
 75
     0
 76
     0
 77
     0
 78
     0
  0
ENDTAB
  0
TABLE
  2
LTYPE
 70
     1
  0
LTYPE
  2
CONTINUOUS
 70
    64
  3
Solid line
 72
    65
 73
     0
 40
0.0
  0
ENDTAB
  0
TABLE
  2
LAYER
 70
     3
  0
LAYER
  2
0
 70
     0
 62
     7
  6
CONTINUOUS
  0
LAYER
  2
LY_1
 70
     0
 62
     7
  6
CONTINUOUS
  0
LAYER
  2
DEFPOINTS
 70
     0
 62
     7
  6
CONTINUOUS
  0
ENDTAB
  0
TABLE
  2
STYLE
 70
     1
  0
STYLE
  2
MX_NOTE_STANDARD
 70
     0
 40
0.0
 41
1.0
 50
0.0
 71
     0
 42
4.1656
  3
txt.shx
  4
extfont.shx
  0
ENDTAB
  0
TABLE
  2
VIEW
 70
     0
  0
ENDTAB
  0
TABLE
  2
UCS
 70
     0
  0
ENDTAB
  0
TABLE
  2
APPID
 70
     1
  0
APPID
  2
ACAD
 70
     0
  0
ENDTAB
  0
TABLE
  2
DIMSTYLE
 70
     1
  0
DIMSTYLE
  2
MXDIMSTYLE
 70
     0
  3

  4

  5

  6

  7

 40
1.0
 41
2.5
 42
0.5
 43
3.75
 44
1.0
 45
0.0
 46
0.0
 47
0.0
 48
0.0
 71
     0
 72
     0
 73
     0
 74
     0
 75
     0
 76
     0
 77
     1
 78
     8
140
2.5
141
2.5
142
0.0
143
0.03937
144
1.0
145
0.0
146
1.0
147
1.0
170
     0
171
     4
172
     1
173
     0
174
     0
175
     0
176
     0
177
     0
178
     0
  0
ENDTAB
  0
ENDSEC
  0
SECTION
  2
BLOCKS
  0
ENDSEC
  0
SECTION
  2
ENTITIES
  0
LINE
  8
LY_1
  6
CONTINUOUS
 62
     3
  5
1F
 10
62.698654
 20
20.025
 30
0.0
 11
103.698654
 21
20.025
 31
0.0
  0
LINE
  8
LY_1
  6
CONTINUOUS
 62
     3
  5
20
 10
58.698654
 20
14.775
 30
0.0
 11
61.698654
 21
15.275
 31
0.0
  0
ARC
  8
LY_1
  6
CONTINUOUS
 62
     3
  5
21
 10
62.698654
 20
19.525
 30
0.0
 40
0.5
 50
90.0
 51
180.0
  0
ARC
  8
LY_1
  6
CONTINUOUS
 62
     3
  5
22
 10
61.698654
 20
15.775
 30
0.0
 40
0.5
 50
270.0
 51
0.0
  0
LINE
  8
LY_1
  6
CONTINUOUS
 62
     3
  5
23
 10
62.198654
 20
15.775
 30
0.0
 11
62.198654
 21
19.525
 31
0.0
  0
LINE
  8
LY_1
  6
CONTINUOUS
 62
     3
  5
24
 10
62.698654
 20
7.975
 30
0.0
 11
103.698654
 21
7.975
 31
0.0
  0
LINE
  8
LY_1
  6
CONTINUOUS
 62
     3
  5
25
 10
58.698654
 20
10.175
 30
0.0
 11
61.698654
 21
9.675
 31
0.0
  0
ARC
  8
LY_1
  6
CONTINUOUS
 62
     3
  5
26
 10
62.698654
 20
8.475
 30
0.0
 40
0.5
 50
180.0
 51
270.0
  0
ARC
  8
LY_1
  6
CONTINUOUS
 62
     3
  5
27
 10
61.698654
 20
9.175
 30
0.0
 40
0.5
 50
0.0
 51
90.0
  0
LINE
  8
LY_1
  6
CONTINUOUS
 62
     3
  5
28
 10
62.198654
 20
8.475
 30
0.0
 11
62.198654
 21
9.175
 31
0.0
  0
ARC
  8
LY_1
  6
CONTINUOUS
 62
     3
  5
29
 10
58.698654
 20
10.675
 30
0.0
 40
0.5
 50
180.0
 51
270.0
  0
ARC
  8
LY_1
  6
CONTINUOUS
 62
     3
  5
2A
 10
58.698654
 20
14.275
 30
0.0
 40
0.5
 50
90.0
 51
180.0
  0
LINE
  8
LY_1
  6
CONTINUOUS
 62
     3
  5
2B
 10
58.198654
 20
10.675
 30
0.0
 11
58.198654
 21
14.275
 31
0.0
  0
ARC
  8
LY_1
  6
CONTINUOUS
 62
     3
  5
2C
 10
103.698654
 20
8.475
 30
0.0
 40
0.5
 50
270.0
 51
0.0
  0
ARC
  8
LY_1
  6
CONTINUOUS
 62
     3
  5
2D
 10
103.698654
 20
19.525
 30
0.0
 40
0.5
 50
0.0
 51
90.0
  0
ARC
  8
LY_1
  6
CONTINUOUS
 62
     3
  5
2E
 10
107.698654
 20
13.725
 30
0.0
 40
0.5
 50
270.0
 51
0.0
  0
ARC
  8
LY_1
  6
CONTINUOUS
 62
     3
  5
2F
 10
107.698654
 20
17.325
 30
0.0
 40
0.5
 50
0.0
 51
90.0
  0
LINE
  8
LY_1
  6
CONTINUOUS
 62
     3
  5
30
 10
108.198654
 20
13.725
 30
0.0
 11
108.198654
 21
17.325
 31
0.0
  0
ARC
  8
LY_1
  6
CONTINUOUS
 62
     3
  5
31
 10
104.698654
 20
12.225
 30
0.0
 40
0.5
 50
90.0
 51
180.0
  0
ARC
  8
LY_1
  6
CONTINUOUS
 62
     3
  5
32
 10
104.698654
 20
18.825
 30
0.0
 40
0.5
 50
180.0
 51
270.0
  0
LINE
  8
LY_1
  6
CONTINUOUS
 62
     3
  5
33
 10
104.198654
 20
18.825
 30
0.0
 11
104.198654
 21
19.525
 31
0.0
  0
LINE
  8
LY_1
  6
CONTINUOUS
 62
     3
  5
34
 10
104.698654
 20
12.725
 30
0.0
 11
107.698654
 21
13.225
 31
0.0
  0
LINE
  8
LY_1
  6
CONTINUOUS
 62
     3
  5
35
 10
104.698654
 20
18.325
 30
0.0
 11
107.698654
 21
17.825
 31
0.0
  0
LINE
  8
LY_1
  6
CONTINUOUS
 62
     3
  5
36
 10
104.198654
 20
8.475
 30
0.0
 11
104.198654
 21
12.225
 31
0.0
  0
LINE
  8
LY_1
  6
CONTINUOUS
 62
     3
  5
37
 10
-13.973934
 20
-31.0
 30
0.0
 11
-13.973934
 21
-39.0
 31
0.0
  0
LINE
  8
LY_1
  6
CONTINUOUS
 62
     3
  5
38
 10
-13.917209
 20
-31.069815
 30
0.0
 11
-13.917209
 21
-38.930185
 31
0.0
  0
ARC
  8
LY_1
  6
CONTINUOUS
 62
     3
  5
39
 10
-6.0
 20
-35.0
 30
0.0
 40
3.930185
 50
270.0
 51
90.0
  0
ARC
  8
LY_1
  6
CONTINUOUS
 62
     3
  5
3A
 10
-6.0
 20
-35.0
 30
0.0
 40
4.0
 50
270.0
 51
90.0
  0
LINE
  8
LY_1
  6
CONTINUOUS
 62
     3
  5
3B
 10
-13.917209
 20
-38.930185
 30
0.0
 11
-6.0
 21
-38.930185
 31
0.0
  0
LINE
  8
LY_1
  6
CONTINUOUS
 62
     3
  5
3C
 10
-13.973934
 20
-39.0
 30
0.0
 11
-6.0
 21
-39.0
 31
0.0
  0
LINE
  8
LY_1
  6
CONTINUOUS
 62
     3
  5
3D
 10
-13.917209
 20
-31.069815
 30
0.0
 11
-6.0
 21
-31.069815
 31
0.0
  0
LINE
  8
LY_1
  6
CONTINUOUS
 62
     3
  5
3E
 10
-13.973934
 20
-31.0
 30
0.0
 11
-6.0
 21
-31.0
 31
0.0
  0
LINE
  8
LY_1
  6
CONTINUOUS
 62
     3
  5
3F
 10
-13.917209
 20
-38.930185
 30
0.0
 11
-13.973934
 21
-39.0
 31
0.0
  0
LINE
  8
LY_1
  6
CONTINUOUS
 62
     3
  5
40
 10
-13.917209
 20
-31.069815
 30
0.0
 11
-13.973934
 21
-31.0
 31
0.0
  0
CIRCLE
  8
LY_1
  6
CONTINUOUS
 62
     3
  5
41
 10
-6.0
 20
-19.0
 30
0.0
 40
3.0
  0
ARC
  8
LY_1
  6
CONTINUOUS
 62
     3
  5
42
 10
0.0
 20
212.666667
 30
0.0
 40
50.0
 50
5.252538
 51
174.750048
  0
ARC
  8
LY_1
  6
CONTINUOUS
 62
     3
  5
43
 10
-62.0
 20
183.564566
 30
0.0
 40
10.0
 50
316.600911
 51
357.803722
  0
ARC
  8
LY_1
  6
CONTINUOUS
 62
     3
  5
44
 10
587.522515
 20
158.654687
 30
0.0
 40
640.0
 50
174.747462
 51
177.803722
  0
ARC
  8
LY_1
  6
CONTINUOUS
 62
     3
  5
45
 10
-587.522515
 20
158.654687
 30
0.0
 40
640.0
 50
2.196278
 51
5.252538
  0
ARC
  8
LY_1
  6
CONTINUOUS
 62
     3
  5
46
 10
62.0
 20
183.564566
 30
0.0
 40
10.0
 50
182.196278
 51
223.399089
  0
ARC
  8
LY_1
  6
CONTINUOUS
 62
     3
  5
47
 10
245.0
 20
164.666667
 30
0.0
 40
300.0
 50
177.71474
 51
180.0
  0
LINE
  8
LY_1
  6
CONTINUOUS
 62
     3
  5
48
 10
-55.0
 20
164.666667
 30
0.0
 11
55.0
 21
164.666667
 31
0.0
  0
LINE
  8
LY_1
  6
CONTINUOUS
 62
     3
  5
49
 10
-54.752436
 20
176.666667
 30
0.0
 11
54.759904
 21
176.666667
 31
0.0
  0
ARC
  8
LY_1
  6
CONTINUOUS
 62
     3
  5
4A
 10
54.661486
 20
176.625098
 30
0.0
 40
0.1
 50
2.28526
 51
43.399089
  0
ARC
  8
LY_1
  6
CONTINUOUS
 62
     3
  5
4B
 10
-54.661486
 20
176.625098
 30
0.0
 40
0.1
 50
136.600911
 51
177.71474
  0
ARC
  8
LY_1
  6
CONTINUOUS
 62
     3
  5
4C
 10
-245.0
 20
164.666667
 30
0.0
 40
300.0
 50
0.0
 51
2.28526
  0
ARC
  8
LY_1
  6
CONTINUOUS
 62
     3
  5
4D
 10
-54.0
 20
163.666667
 30
0.0
 40
1.0
 50
90.0
 51
270.0
  0
ARC
  8
LY_1
  6
CONTINUOUS
 62
     3
  5
4E
 10
54.0
 20
163.666667
 30
0.0
 40
1.0
 50
270.0
 51
90.0
  0
LINE
  8
LY_1
  6
CONTINUOUS
 62
     3
  5
4F
 10
24.310889
 20
100.766667
 30
0.0
 11
24.310889
 21
101.266667
 31
0.0
  0
LINE
  8
LY_1
  6
CONTINUOUS
 62
     3
  5
50
 10
36.310889
 20
100.766667
 30
0.0
 11
36.310889
 21
101.266667
 31
0.0
  0
LINE
  8
LY_1
  6
CONTINUOUS
 62
     3
  5
51
 10
24.710889
 20
101.666667
 30
0.0
 11
35.910889
 21
101.666667
 31
0.0
  0
LINE
  8
LY_1
  6
CONTINUOUS
 62
     3
  5
52
 10
24.310889
 20
100.766667
 30
0.0
 11
36.310889
 21
100.766667
 31
0.0
  0
LINE
  8
LY_1
  6
CONTINUOUS
 62
     3
  5
53
 10
26.310889
 20
96.666667
 30
0.0
 11
34.310889
 21
96.666667
 31
0.0
  0
LINE
  8
LY_1
  6
CONTINUOUS
 62
     3
  5
54
 10
28.001488
 20
97.023932
 30
0.0
 11
28.001488
 21
100.395299
 31
0.0
  0
LINE
  8
LY_1
  6
CONTINUOUS
 62
     3
  5
55
 10
32.62029
 20
97.023932
 30
0.0
 11
32.62029
 21
100.395299
 31
0.0
  0
LINE
  8
LY_1
  6
CONTINUOUS
 62
     3
  5
56
 10
34.929691
 20
97.023932
 30
0.0
 11
34.929691
 21
100.107624
 31
0.0
  0
LINE
  8
LY_1
  6
CONTINUOUS
 62
     3
  5
57
 10
25.692087
 20
97.023932
 30
0.0
 11
25.692087
 21
100.107624
 31
0.0
  0
LINE
  8
LY_1
  6
CONTINUOUS
 62
     3
  5
58
 10
26.310889
 20
96.666667
 30
0.0
 11
25.692087
 21
97.023932
 31
0.0
  0
LINE
  8
LY_1
  6
CONTINUOUS
 62
     3
  5
59
 10
34.310889
 20
96.666667
 30
0.0
 11
34.929691
 21
97.023932
 31
0.0
  0
ARC
  8
LY_1
  6
CONTINUOUS
 62
     3
  5
5A
 10
26.846788
 20
98.711325
 30
0.0
 40
2.044658
 50
244.384247
 51
304.384247
  0
ARC
  8
LY_1
  6
CONTINUOUS
 62
     3
  5
5B
 10
30.310889
 20
104.309401
 30
0.0
 40
7.642734
 50
252.412046
 51
287.587954
  0
ARC
  8
LY_1
  6
CONTINUOUS
 62
     3
  5
5C
 10
33.774991
 20
98.711325
 30
0.0
 40
2.044658
 50
235.615753
 51
295.615753
  0
ARC
  8
LY_1
  6
CONTINUOUS
 62
     3
  5
5D
 10
26.446435
 20
103.465411
 30
0.0
 40
3.441479
 50
257.338367
 51
296.862837
  0
ARC
  8
LY_1
  6
CONTINUOUS
 62
     3
  5
5E
 10
30.310889
 20
107.390289
 30
0.0
 40
7.366357
 50
251.729322
 51
288.270678
  0
ARC
  8
LY_1
  6
CONTINUOUS
 62
     3
  5
5F
 10
34.175344
 20
103.465411
 30
0.0
 40
3.441479
 50
243.137163
 51
282.661633
  0
ARC
  8
LY_1
  6
CONTINUOUS
 62
     3
  5
60
 10
24.710889
 20
101.266667
 30
0.0
 40
0.4
 50
90.0
 51
180.0
  0
ARC
  8
LY_1
  6
CONTINUOUS
 62
     3
  5
61
 10
35.910889
 20
101.266667
 30
0.0
 40
0.4
 50
0.0
 51
90.0
  0
LINE
  8
LY_1
  6
CONTINUOUS
 62
     3
  5
62
 10
25.692087
 20
100.107624
 30
0.0
 11
24.310889
 21
100.766667
 31
0.0
  0
LINE
  8
LY_1
  6
CONTINUOUS
 62
     3
  5
63
 10
34.929691
 20
100.107624
 30
0.0
 11
36.310889
 21
100.766667
 31
0.0
  0
LINE
  8
LY_1
  6
CONTINUOUS
 62
     3
  5
64
 10
-6.0
 20
100.766667
 30
0.0
 11
-6.0
 21
101.266667
 31
0.0
  0
LINE
  8
LY_1
  6
CONTINUOUS
 62
     3
  5
65
 10
6.0
 20
100.766667
 30
0.0
 11
6.0
 21
101.266667
 31
0.0
  0
LINE
  8
LY_1
  6
CONTINUOUS
 62
     3
  5
66
 10
-5.6
 20
101.666667
 30
0.0
 11
5.6
 21
101.666667
 31
0.0
  0
LINE
  8
LY_1
  6
CONTINUOUS
 62
     3
  5
67
 10
-6.0
 20
100.766667
 30
0.0
 11
6.0
 21
100.766667
 31
0.0
  0
LINE
  8
LY_1
  6
CONTINUOUS
 62
     3
  5
68
 10
-4.0
 20
96.666667
 30
0.0
 11
4.0
 21
96.666667
 31
0.0
  0
LINE
  8
LY_1
  6
CONTINUOUS
 62
     3
  5
69
 10
-2.309401
 20
97.023932
 30
0.0
 11
-2.309401
 21
100.395299
 31
0.0
  0
LINE
  8
LY_1
  6
CONTINUOUS
 62
     3
  5
6A
 10
2.309401
 20
97.023932
 30
0.0
 11
2.309401
 21
100.395299
 31
0.0
  0
LINE
  8
LY_1
  6
CONTINUOUS
 62
     3
  5
6B
 10
4.618802
 20
97.023932
 30
0.0
 11
4.618802
 21
100.107624
 31
0.0
  0
LINE
  8
LY_1
  6
CONTINUOUS
 62
     3
  5
6C
 10
-4.618802
 20
97.023932
 30
0.0
 11
-4.618802
 21
100.107624
 31
0.0
  0
LINE
  8
LY_1
  6
CONTINUOUS
 62
     3
  5
6D
 10
-4.0
 20
96.666667
 30
0.0
 11
-4.618802
 21
97.023932
 31
0.0
  0
LINE
  8
LY_1
  6
CONTINUOUS
 62
     3
  5
6E
 10
4.0
 20
96.666667
 30
0.0
 11
4.618802
 21
97.023932
 31
0.0
  0
ARC
  8
LY_1
  6
CONTINUOUS
 62
     3
  5
6F
 10
-3.464102
 20
98.711325
 30
0.0
 40
2.044658
 50
244.384247
 51
304.384247
  0
ARC
  8
LY_1
  6
CONTINUOUS
 62
     3
  5
70
 10
0.0
 20
104.309401
 30
0.0
 40
7.642734
 50
252.412046
 51
287.587954
  0
ARC
  8
LY_1
  6
CONTINUOUS
 62
     3
  5
71
 10
3.464102
 20
98.711325
 30
0.0
 40
2.044658
 50
235.615753
 51
295.615753
  0
ARC
  8
LY_1
  6
CONTINUOUS
 62
     3
  5
72
 10
-3.864454
 20
103.465411
 30
0.0
 40
3.441479
 50
257.338367
 51
296.862837
  0
ARC
  8
LY_1
  6
CONTINUOUS
 62
     3
  5
73
 10
0.0
 20
107.390289
 30
0.0
 40
7.366357
 50
251.729322
 51
288.270678
  0
ARC
  8
LY_1
  6
CONTINUOUS
 62
     3
  5
74
 10
3.864454
 20
103.465411
 30
0.0
 40
3.441479
 50
243.137163
 51
282.661633
  0
ARC
  8
LY_1
  6
CONTINUOUS
 62
     3
  5
75
 10
-5.6
 20
101.266667
 30
0.0
 40
0.4
 50
90.0
 51
180.0
  0
ARC
  8
LY_1
  6
CONTINUOUS
 62
     3
  5
76
 10
5.6
 20
101.266667
 30
0.0
 40
0.4
 50
0.0
 51
90.0
  0
LINE
  8
LY_1
  6
CONTINUOUS
 62
     3
  5
77
 10
-4.618802
 20
100.107624
 30
0.0
 11
-6.0
 21
100.766667
 31
0.0
  0
LINE
  8
LY_1
  6
CONTINUOUS
 62
     3
  5
78
 10
4.618802
 20
100.107624
 30
0.0
 11
6.0
 21
100.766667
 31
0.0
  0
LINE
  8
LY_1
  6
CONTINUOUS
 62
     3
  5
79
 10
-36.310889
 20
100.766667
 30
0.0
 11
-36.310889
 21
101.266667
 31
0.0
  0
LINE
  8
LY_1
  6
CONTINUOUS
 62
     3
  5
7A
 10
-24.310889
 20
100.766667
 30
0.0
 11
-24.310889
 21
101.266667
 31
0.0
  0
LINE
  8
LY_1
  6
CONTINUOUS
 62
     3
  5
7B
 10
-35.910889
 20
101.666667
 30
0.0
 11
-24.710889
 21
101.666667
 31
0.0
  0
LINE
  8
LY_1
  6
CONTINUOUS
 62
     3
  5
7C
 10
-36.310889
 20
100.766667
 30
0.0
 11
-24.310889
 21
100.766667
 31
0.0
  0
LINE
  8
LY_1
  6
CONTINUOUS
 62
     3
  5
7D
 10
-34.310889
 20
96.666667
 30
0.0
 11
-26.310889
 21
96.666667
 31
0.0
  0
LINE
  8
LY_1
  6
CONTINUOUS
 62
     3
  5
7E
 10
-32.62029
 20
97.023932
 30
0.0
 11
-32.62029
 21
100.395299
 31
0.0
  0
LINE
  8
LY_1
  6
CONTINUOUS
 62
     3
  5
7F
 10
-28.001488
 20
97.023932
 30
0.0
 11
-28.001488
 21
100.395299
 31
0.0
  0
LINE
  8
LY_1
  6
CONTINUOUS
 62
     3
  5
80
 10
-25.692087
 20
97.023932
 30
0.0
 11
-25.692087
 21
100.107624
 31
0.0
  0
LINE
  8
LY_1
  6
CONTINUOUS
 62
     3
  5
81
 10
-34.929691
 20
97.023932
 30
0.0
 11
-34.929691
 21
100.107624
 31
0.0
  0
LINE
  8
LY_1
  6
CONTINUOUS
 62
     3
  5
82
 10
-34.310889
 20
96.666667
 30
0.0
 11
-34.929691
 21
97.023932
 31
0.0
  0
LINE
  8
LY_1
  6
CONTINUOUS
 62
     3
  5
83
 10
-26.310889
 20
96.666667
 30
0.0
 11
-25.692087
 21
97.023932
 31
0.0
  0
ARC
  8
LY_1
  6
CONTINUOUS
 62
     3
  5
84
 10
-33.774991
 20
98.711325
 30
0.0
 40
2.044658
 50
244.384247
 51
304.384247
  0
ARC
  8
LY_1
  6
CONTINUOUS
 62
     3
  5
85
 10
-30.310889
 20
104.309401
 30
0.0
 40
7.642734
 50
252.412046
 51
287.587954
  0
ARC
  8
LY_1
  6
CONTINUOUS
 62
     3
  5
86
 10
-26.846788
 20
98.711325
 30
0.0
 40
2.044658
 50
235.615753
 51
295.615753
  0
ARC
  8
LY_1
  6
CONTINUOUS
 62
     3
  5
87
 10
-34.175344
 20
103.465411
 30
0.0
 40
3.441479
 50
257.338367
 51
296.862837
  0
ARC
  8
LY_1
  6
CONTINUOUS
 62
     3
  5
88
 10
-30.310889
 20
107.390289
 30
0.0
 40
7.366357
 50
251.729322
 51
288.270678
  0
ARC
  8
LY_1
  6
CONTINUOUS
 62
     3
  5
89
 10
-26.446435
 20
103.465411
 30
0.0
 40
3.441479
 50
243.137163
 51
282.661633
  0
ARC
  8
LY_1
  6
CONTINUOUS
 62
     3
  5
8A
 10
-35.910889
 20
101.266667
 30
0.0
 40
0.4
 50
90.0
 51
180.0
  0
ARC
  8
LY_1
  6
CONTINUOUS
 62
     3
  5
8B
 10
-24.710889
 20
101.266667
 30
0.0
 40
0.4
 50
0.0
 51
90.0
  0
LINE
  8
LY_1
  6
CONTINUOUS
 62
     3
  5
8C
 10
-34.929691
 20
100.107624
 30
0.0
 11
-36.310889
 21
100.766667
 31
0.0
  0
LINE
  8
LY_1
  6
CONTINUOUS
 62
     3
  5
8D
 10
-25.692087
 20
100.107624
 30
0.0
 11
-24.310889
 21
100.766667
 31
0.0
  0
CIRCLE
  8
LY_1
  6
CONTINUOUS
 62
     3
  5
8E
 10
30.310889
 20
-17.5
 30
0.0
 40
6.0
  0
CIRCLE
  8
LY_1
  6
CONTINUOUS
 62
     3
  5
8F
 10
30.310889
 20
-17.5
 30
0.0
 40
2.4
  0
CIRCLE
  8
LY_1
  6
CONTINUOUS
 62
     3
  5
90
 10
30.310889
 20
-17.5
 30
0.0
 40
2.5
  0
LINE
  8
LY_1
  6
CONTINUOUS
 62
     3
  5
91
 10
30.310889
 20
-22.118802
 30
0.0
 11
34.310889
 21
-19.809401
 31
0.0
  0
LINE
  8
LY_1
  6
CONTINUOUS
 62
     3
  5
92
 10
26.310889
 20
-15.190599
 30
0.0
 11
30.310889
 21
-12.881198
 31
0.0
  0
LINE
  8
LY_1
  6
CONTINUOUS
 62
     3
  5
93
 10
26.310889
 20
-19.809401
 30
0.0
 11
30.310889
 21
-22.118802
 31
0.0
  0
LINE
  8
LY_1
  6
CONTINUOUS
 62
     3
  5
94
 10
30.310889
 20
-12.881198
 30
0.0
 11
34.310889
 21
-15.190599
 31
0.0
  0
CIRCLE
  8
LY_1
  6
CONTINUOUS
 62
     3
  5
95
 10
30.310889
 20
-17.5
 30
0.0
 40
4.0
  0
LINE
  8
LY_1
  6
CONTINUOUS
 62
     3
  5
96
 10
34.310889
 20
-15.190599
 30
0.0
 11
34.310889
 21
-19.809401
 31
0.0
  0
LINE
  8
LY_1
  6
CONTINUOUS
 62
     3
  5
97
 10
26.310889
 20
-15.190599
 30
0.0
 11
26.310889
 21
-19.809401
 31
0.0
  0
CIRCLE
  8
LY_1
  6
CONTINUOUS
 62
     3
  5
98
 10
-30.310889
 20
-17.5
 30
0.0
 40
6.0
  0
CIRCLE
  8
LY_1
  6
CONTINUOUS
 62
    80
  5
99
 10
-30.310889
 20
-17.5
 30
0.0
 40
2.4
  0
CIRCLE
  8
LY_1
  6
CONTINUOUS
 62
     3
  5
9A
 10
-30.310889
 20
-17.5
 30
0.0
 40
2.5
  0
LINE
  8
LY_1
  6
CONTINUOUS
 62
     3
  5
9B
 10
-30.310889
 20
-22.118802
 30
0.0
 11
-26.310889
 21
-19.809401
 31
0.0
  0
LINE
  8
LY_1
  6
CONTINUOUS
 62
     3
  5
9C
 10
-34.310889
 20
-15.190599
 30
0.0
 11
-30.310889
 21
-12.881198
 31
0.0
  0
LINE
  8
LY_1
  6
CONTINUOUS
 62
     3
  5
9D
 10
-34.310889
 20
-19.809401
 30
0.0
 11
-30.310889
 21
-22.118802
 31
0.0
  0
LINE
  8
LY_1
  6
CONTINUOUS
 62
     3
  5
9E
 10
-30.310889
 20
-12.881198
 30
0.0
 11
-26.310889
 21
-15.190599
 31
0.0
  0
CIRCLE
  8
LY_1
  6
CONTINUOUS
 62
    80
  5
9F
 10
-30.310889
 20
-17.5
 30
0.0
 40
4.0
  0
LINE
  8
LY_1
  6
CONTINUOUS
 62
     3
  5
A0
 10
-26.310889
 20
-15.190599
 30
0.0
 11
-26.310889
 21
-19.809401
 31
0.0
  0
LINE
  8
LY_1
  6
CONTINUOUS
 62
     3
  5
A1
 10
-34.310889
 20
-15.190599
 30
0.0
 11
-34.310889
 21
-19.809401
 31
0.0
  0
CIRCLE
  8
LY_1
  6
CONTINUOUS
 62
     3
  5
A2
 10
0.0
 20
35.0
 30
0.0
 40
6.0
  0
CIRCLE
  8
LY_1
  6
CONTINUOUS
 62
     3
  5
A3
 10
0.0
 20
35.0
 30
0.0
 40
2.4
  0
CIRCLE
  8
LY_1
  6
CONTINUOUS
 62
     3
  5
A4
 10
0.0
 20
35.0
 30
0.0
 40
2.5
  0
LINE
  8
LY_1
  6
CONTINUOUS
 62
     3
  5
A5
 10
0.0
 20
30.381198
 30
0.0
 11
4.0
 21
32.690599
 31
0.0
  0
LINE
  8
LY_1
  6
CONTINUOUS
 62
     3
  5
A6
 10
-4.0
 20
37.309401
 30
0.0
 11
0.0
 21
39.618802
 31
0.0
  0
LINE
  8
LY_1
  6
CONTINUOUS
 62
     3
  5
A7
 10
-4.0
 20
32.690599
 30
0.0
 11
0.0
 21
30.381198
 31
0.0
  0
LINE
  8
LY_1
  6
CONTINUOUS
 62
     3
  5
A8
 10
0.0
 20
39.618802
 30
0.0
 11
4.0
 21
37.309401
 31
0.0
  0
CIRCLE
  8
LY_1
  6
CONTINUOUS
 62
     3
  5
A9
 10
0.0
 20
35.0
 30
0.0
 40
4.0
  0
LINE
  8
LY_1
  6
CONTINUOUS
 62
     3
  5
AA
 10
4.0
 20
37.309401
 30
0.0
 11
4.0
 21
32.690599
 31
0.0
  0
LINE
  8
LY_1
  6
CONTINUOUS
 62
     3
  5
AB
 10
-4.0
 20
37.309401
 30
0.0
 11
-4.0
 21
32.690599
 31
0.0
  0
LINE
  8
LY_1
  6
CONTINUOUS
 62
     3
  5
AC
 10
-14.851346
 20
11.15
 30
0.0
 11
-13.701346
 21
10.0
 31
0.0
  0
LINE
  8
LY_1
  6
CONTINUOUS
 62
     3
  5
AD
 10
-6.851346
 20
11.15
 30
0.0
 11
-8.001346
 21
10.0
 31
0.0
  0
LINE
  8
LY_1
  6
CONTINUOUS
 62
     3
  5
AE
 10
-8.001346
 20
18.0
 30
0.0
 11
-6.851346
 21
16.85
 31
0.0
  0
LINE
  8
LY_1
  6
CONTINUOUS
 62
     3
  5
AF
 10
-14.851346
 20
16.85
 30
0.0
 11
-13.701346
 21
18.0
 31
0.0
  0
LINE
  8
LY_1
  6
CONTINUOUS
 62
     3
  5
B0
 10
-6.851346
 20
10.0
 30
0.0
 11
-14.851346
 21
10.0
 31
0.0
  0
LINE
  8
LY_1
  6
CONTINUOUS
 62
     3
  5
B1
 10
-6.851346
 20
18.0
 30
0.0
 11
-14.851346
 21
18.0
 31
0.0
  0
LINE
  8
LY_1
  6
CONTINUOUS
 62
     3
  5
B2
 10
-14.851346
 20
10.0
 30
0.0
 11
-14.851346
 21
18.0
 31
0.0
  0
LINE
  8
LY_1
  6
CONTINUOUS
 62
     3
  5
B3
 10
-6.851346
 20
10.0
 30
0.0
 11
-6.851346
 21
18.0
 31
0.0
  0
LINE
  8
LY_1
  6
CONTINUOUS
 62
     3
  5
B4
 10
-12.351346
 20
14.375
 30
0.0
 11
-12.351346
 21
13.625
 31
0.0
  0
LINE
  8
LY_1
  6
CONTINUOUS
 62
     3
  5
B5
 10
-11.226346
 20
15.5
 30
0.0
 11
-10.476346
 21
15.5
 31
0.0
  0
LINE
  8
LY_1
  6
CONTINUOUS
 62
     3
  5
B6
 10
-11.226346
 20
15.5
 30
0.0
 11
-11.226346
 21
14.975037
 31
0.0
  0
LINE
  8
LY_1
  6
CONTINUOUS
 62
     3
  5
B7
 10
-12.351346
 20
14.375
 30
0.0
 11
-11.826321
 21
14.375
 31
0.0
  0
LINE
  8
LY_1
  6
CONTINUOUS
 62
     3
  5
B8
 10
-9.351346
 20
14.375
 30
0.0
 11
-9.351346
 21
13.625
 31
0.0
  0
LINE
  8
LY_1
  6
CONTINUOUS
 62
     3
  5
B9
 10
-10.476346
 20
15.5
 30
0.0
 11
-10.476346
 21
14.975037
 31
0.0
  0
LINE
  8
LY_1
  6
CONTINUOUS
 62
     3
  5
BA
 10
-9.876309
 20
14.375
 30
0.0
 11
-9.351346
 21
14.375
 31
0.0
  0
LINE
  8
LY_1
  6
CONTINUOUS
 62
     3
  5
BB
 10
-11.226346
 20
12.5
 30
0.0
 11
-10.476346
 21
12.5
 31
0.0
  0
LINE
  8
LY_1
  6
CONTINUOUS
 62
     3
  5
BC
 10
-10.476346
 20
13.025024
 30
0.0
 11
-10.476346
 21
12.5
 31
0.0
  0
LINE
  8
LY_1
  6
CONTINUOUS
 62
     3
  5
BD
 10
-9.876309
 20
13.625
 30
0.0
 11
-9.351346
 21
13.625
 31
0.0
  0
LINE
  8
LY_1
  6
CONTINUOUS
 62
     3
  5
BE
 10
-12.351346
 20
13.625
 30
0.0
 11
-11.826321
 21
13.625
 31
0.0
  0
LINE
  8
LY_1
  6
CONTINUOUS
 62
     3
  5
BF
 10
-11.226346
 20
13.025024
 30
0.0
 11
-11.226346
 21
12.5
 31
0.0
  0
CIRCLE
  8
LY_1
  6
CONTINUOUS
 62
     3
  5
C0
 10
-10.851346
 20
14.0
 30
0.0
 40
2.75
  0
ARC
  8
LY_1
  6
CONTINUOUS
 62
     3
  5
C1
 10
-11.826321
 20
14.975037
 30
0.0
 40
0.6
 50
269.999997
 51
0.0
  0
ARC
  8
LY_1
  6
CONTINUOUS
 62
     3
  5
C2
 10
-9.876309
 20
14.975037
 30
0.0
 40
0.6
 50
179.999995
 51
269.999997
  0
ARC
  8
LY_1
  6
CONTINUOUS
 62
     3
  5
C3
 10
-9.876309
 20
13.025024
 30
0.0
 40
0.6
 50
90.000003
 51
180.000005
  0
ARC
  8
LY_1
  6
CONTINUOUS
 62
     3
  5
C4
 10
-11.826321
 20
13.025024
 30
0.0
 40
0.6
 50
0.0
 51
90.000003
  0
ARC
  8
LY_1
  6
CONTINUOUS
 62
     3
  5
C5
 10
-1.526321
 20
13.025024
 30
0.0
 40
0.6
 50
0.0
 51
90.000003
  0
ARC
  8
LY_1
  6
CONTINUOUS
 62
     3
  5
C6
 10
0.423691
 20
13.025024
 30
0.0
 40
0.6
 50
90.000003
 51
180.000005
  0
ARC
  8
LY_1
  6
CONTINUOUS
 62
     3
  5
C7
 10
0.423691
 20
14.975037
 30
0.0
 40
0.6
 50
179.999995
 51
269.999997
  0
ARC
  8
LY_1
  6
CONTINUOUS
 62
     3
  5
C8
 10
-1.526321
 20
14.975037
 30
0.0
 40
0.6
 50
269.999997
 51
0.0
  0
CIRCLE
  8
LY_1
  6
CONTINUOUS
 62
     3
  5
C9
 10
-0.551346
 20
14.0
 30
0.0
 40
2.75
  0
LINE
  8
LY_1
  6
CONTINUOUS
 62
     3
  5
CA
 10
-0.926346
 20
13.025024
 30
0.0
 11
-0.926346
 21
12.5
 31
0.0
  0
LINE
  8
LY_1
  6
CONTINUOUS
 62
     3
  5
CB
 10
-2.051346
 20
13.625
 30
0.0
 11
-1.526321
 21
13.625
 31
0.0
  0
LINE
  8
LY_1
  6
CONTINUOUS
 62
     3
  5
CC
 10
0.423691
 20
13.625
 30
0.0
 11
0.948654
 21
13.625
 31
0.0
  0
LINE
  8
LY_1
  6
CONTINUOUS
 62
     3
  5
CD
 10
-0.176346
 20
13.025024
 30
0.0
 11
-0.176346
 21
12.5
 31
0.0
  0
LINE
  8
LY_1
  6
CONTINUOUS
 62
     3
  5
CE
 10
-0.926346
 20
12.5
 30
0.0
 11
-0.176346
 21
12.5
 31
0.0
  0
LINE
  8
LY_1
  6
CONTINUOUS
 62
     3
  5
CF
 10
0.423691
 20
14.375
 30
0.0
 11
0.948654
 21
14.375
 31
0.0
  0
LINE
  8
LY_1
  6
CONTINUOUS
 62
     3
  5
D0
 10
-0.176346
 20
15.5
 30
0.0
 11
-0.176346
 21
14.975037
 31
0.0
  0
LINE
  8
LY_1
  6
CONTINUOUS
 62
     3
  5
D1
 10
0.948654
 20
14.375
 30
0.0
 11
0.948654
 21
13.625
 31
0.0
  0
LINE
  8
LY_1
  6
CONTINUOUS
 62
     3
  5
D2
 10
-2.051346
 20
14.375
 30
0.0
 11
-1.526321
 21
14.375
 31
0.0
  0
LINE
  8
LY_1
  6
CONTINUOUS
 62
     3
  5
D3
 10
-0.926346
 20
15.5
 30
0.0
 11
-0.926346
 21
14.975037
 31
0.0
  0
LINE
  8
LY_1
  6
CONTINUOUS
 62
     3
  5
D4
 10
-0.926346
 20
15.5
 30
0.0
 11
-0.176346
 21
15.5
 31
0.0
  0
LINE
  8
LY_1
  6
CONTINUOUS
 62
     3
  5
D5
 10
-2.051346
 20
14.375
 30
0.0
 11
-2.051346
 21
13.625
 31
0.0
  0
LINE
  8
LY_1
  6
CONTINUOUS
 62
     3
  5
D6
 10
3.448654
 20
10.0
 30
0.0
 11
3.448654
 21
18.0
 31
0.0
  0
LINE
  8
LY_1
  6
CONTINUOUS
 62
     3
  5
D7
 10
-4.551346
 20
10.0
 30
0.0
 11
-4.551346
 21
18.0
 31
0.0
  0
LINE
  8
LY_1
  6
CONTINUOUS
 62
     3
  5
D8
 10
3.448654
 20
18.0
 30
0.0
 11
-4.551346
 21
18.0
 31
0.0
  0
LINE
  8
LY_1
  6
CONTINUOUS
 62
     3
  5
D9
 10
3.448654
 20
10.0
 30
0.0
 11
-4.551346
 21
10.0
 31
0.0
  0
LINE
  8
LY_1
  6
CONTINUOUS
 62
     3
  5
DA
 10
-4.551346
 20
16.85
 30
0.0
 11
-3.401346
 21
18.0
 31
0.0
  0
LINE
  8
LY_1
  6
CONTINUOUS
 62
     3
  5
DB
 10
2.298654
 20
18.0
 30
0.0
 11
3.448654
 21
16.85
 31
0.0
  0
LINE
  8
LY_1
  6
CONTINUOUS
 62
     3
  5
DC
 10
3.448654
 20
11.15
 30
0.0
 11
2.298654
 21
10.0
 31
0.0
  0
LINE
  8
LY_1
  6
CONTINUOUS
 62
     3
  5
DD
 10
-4.551346
 20
11.15
 30
0.0
 11
-3.401346
 21
10.0
 31
0.0
  0
CIRCLE
  8
LY_1
  6
CONTINUOUS
 62
     3
  5
DE
 10
30.310889
 20
-17.5
 30
0.0
 40
6.5
  0
CIRCLE
  8
LY_1
  6
CONTINUOUS
 62
     3
  5
DF
 10
30.310889
 20
-17.5
 30
0.0
 40
6.944444
  0
CIRCLE
  8
LY_1
  6
CONTINUOUS
 62
     3
  5
E0
 10
-30.310889
 20
-17.5
 30
0.0
 40
6.5
  0
CIRCLE
  8
LY_1
  6
CONTINUOUS
 62
     3
  5
E1
 10
-30.310889
 20
-17.5
 30
0.0
 40
6.944444
  0
CIRCLE
  8
LY_1
  6
CONTINUOUS
 62
     3
  5
E2
 10
0.0
 20
35.0
 30
0.0
 40
6.5
  0
CIRCLE
  8
LY_1
  6
CONTINUOUS
 62
     3
  5
E3
 10
0.0
 20
35.0
 30
0.0
 40
6.944444
  0
CIRCLE
  8
LY_1
  6
CONTINUOUS
 62
     3
  5
E4
 10
0.0
 20
35.0
 30
0.0
 40
2.0
  0
CIRCLE
  8
LY_1
  6
CONTINUOUS
 62
     3
  5
E5
 10
-30.310889
 20
-17.5
 30
0.0
 40
2.0
  0
CIRCLE
  8
LY_1
  6
CONTINUOUS
 62
     3
  5
E6
 10
30.310889
 20
-17.5
 30
0.0
 40
2.0
  0
LINE
  8
LY_1
  6
CONTINUOUS
 62
     3
  5
E7
 10
-24.119757
 20
47.337688
 30
0.0
 11
-24.919028
 21
48.906346
 31
0.0
  0
LINE
  8
LY_1
  6
CONTINUOUS
 62
     3
  5
E8
 10
24.119757
 20
47.337688
 30
0.0
 11
24.919028
 21
48.906346
 31
0.0
  0
ARC
  8
LY_1
  6
CONTINUOUS
 62
     3
  5
E9
 10
0.0
 20
0.0
 30
0.0
 40
54.888875
 50
63.0
 51
117.0
  0
ARC
  8
LY_1
  6
CONTINUOUS
 62
     3
  5
EA
 10
0.0
 20
0.0
 30
0.0
 40
52.98856
 50
95.729722
 51
106.770278
  0
ARC
  8
LY_1
  6
CONTINUOUS
 62
     3
  5
EB
 10
0.0
 20
0.0
 30
0.0
 40
54.97186
 50
118.416478
 51
129.083522
  0
ARC
  8
LY_1
  6
CONTINUOUS
 62
     3
  5
EC
 10
-38.172712
 20
57.129501
 30
0.0
 40
14.833177
 50
284.467836
 51
323.032164
  0
ARC
  8
LY_1
  6
CONTINUOUS
 62
     3
  5
ED
 10
-39.018452
 20
58.39524
 30
0.0
 40
19.26508
 50
288.97277
 51
318.52723
  0
ARC
  8
LY_1
  6
CONTINUOUS
 62
     3
  5
EE
 10
-34.341925
 20
42.282569
 30
0.0
 40
0.5
 50
104.467836
 51
129.083522
  0
ARC
  8
LY_1
  6
CONTINUOUS
 62
     3
  5
EF
 10
-25.921915
 20
47.908641
 30
0.0
 40
0.5
 50
118.416478
 51
143.032164
  0
ARC
  8
LY_1
  6
CONTINUOUS
 62
     3
  5
F0
 10
-24.209059
 20
45.305538
 30
0.0
 40
0.5
 50
118.117863
 51
138.52723
  0
ARC
  8
LY_1
  6
CONTINUOUS
 62
     3
  5
F1
 10
-32.592453
 20
39.703933
 30
0.0
 40
0.5
 50
108.97277
 51
129.382137
  0
LINE
  8
LY_1
  6
CONTINUOUS
 62
     3
  5
F2
 10
-32.909698
 20
40.090399
 30
0.0
 11
-34.657152
 21
42.670683
 31
0.0
  0
LINE
  8
LY_1
  6
CONTINUOUS
 62
     3
  5
F3
 10
-24.444703
 20
45.746528
 30
0.0
 11
-26.159853
 21
48.348396
 31
0.0
  0
ARC
  8
LY_1
  6
CONTINUOUS
 62
     3
  5
F4
 10
0.0
 20
0.0
 30
0.0
 40
54.97186
 50
140.916478
 51
151.583522
  0
ARC
  8
LY_1
  6
CONTINUOUS
 62
     3
  5
F5
 10
-57.129501
 20
38.172712
 30
0.0
 40
14.833177
 50
306.967836
 51
345.532164
  0
LINE
  8
LY_1
  6
CONTINUOUS
 62
     3
  5
F6
 10
-40.090399
 20
32.909698
 30
0.0
 11
-42.670683
 21
34.657152
 31
0.0
  0
ARC
  8
LY_1
  6
CONTINUOUS
 62
     3
  5
F7
 10
-42.282569
 20
34.341925
 30
0.0
 40
0.5
 50
140.916478
 51
165.532164
  0
ARC
  8
LY_1
  6
CONTINUOUS
 62
     3
  5
F8
 10
-58.39524
 20
39.018452
 30
0.0
 40
19.26508
 50
311.47277
 51
341.02723
  0
LINE
  8
LY_1
  6
CONTINUOUS
 62
     3
  5
F9
 10
-45.746528
 20
24.444703
 30
0.0
 11
-48.348396
 21
26.159853
 31
0.0
  0
ARC
  8
LY_1
  6
CONTINUOUS
 62
     3
  5
FA
 10
-45.305538
 20
24.209059
 30
0.0
 40
0.5
 50
131.47277
 51
151.882137
  0
ARC
  8
LY_1
  6
CONTINUOUS
 62
     3
  5
FB
 10
-47.908641
 20
25.921915
 30
0.0
 40
0.5
 50
126.967836
 51
151.583522
  0
ARC
  8
LY_1
  6
CONTINUOUS
 62
     3
  5
FC
 10
-39.703933
 20
32.592453
 30
0.0
 40
0.5
 50
140.617863
 51
161.02723
  0
ARC
  8
LY_1
  6
CONTINUOUS
 62
     3
  5
FD
 10
0.0
 20
0.0
 30
0.0
 40
54.97186
 50
163.416478
 51
174.083522
  0
ARC
  8
LY_1
  6
CONTINUOUS
 62
     3
  5
FE
 10
-67.388841
 20
13.404474
 30
0.0
 40
14.833177
 50
329.467836
 51
8.032164
  0
LINE
  8
LY_1
  6
CONTINUOUS
 62
     3
  5
FF
 10
-49.632695
 20
15.062665
 30
0.0
 11
-52.685289
 21
15.689669
 31
0.0
  0
ARC
  8
LY_1
  6
CONTINUOUS
 62
     3
  5
100
 10
-52.206086
 20
15.546963
 30
0.0
 40
0.5
 50
163.416478
 51
188.032164
  0
ARC
  8
LY_1
  6
CONTINUOUS
 62
     3
  5
101
 10
-68.881882
 20
13.701458
 30
0.0
 40
19.26508
 50
333.97277
 51
3.52723
  0
LINE
  8
LY_1
  6
CONTINUOUS
 62
     3
  5
102
 10
-51.618864
 20
5.077522
 30
0.0
 11
-54.679036
 21
5.666423
 31
0.0
  0
ARC
  8
LY_1
  6
CONTINUOUS
 62
     3
  5
103
 10
-51.121265
 20
5.028576
 30
0.0
 40
0.5
 50
153.97277
 51
174.382137
  0
ARC
  8
LY_1
  6
CONTINUOUS
 62
     3
  5
104
 10
-54.1817
 20
5.614883
 30
0.0
 40
0.5
 50
149.467836
 51
174.083522
  0
ARC
  8
LY_1
  6
CONTINUOUS
 62
     3
  5
105
 10
-49.154243
 20
14.917463
 30
0.0
 40
0.5
 50
163.117863
 51
183.52723
  0
ARC
  8
LY_1
  6
CONTINUOUS
 62
     3
  5
106
 10
0.0
 20
0.0
 30
0.0
 40
54.97186
 50
185.916478
 51
196.583522
  0
ARC
  8
LY_1
  6
CONTINUOUS
 62
     3
  5
107
 10
-67.388841
 20
-13.404474
 30
0.0
 40
14.833177
 50
351.967836
 51
30.532164
  0
LINE
  8
LY_1
  6
CONTINUOUS
 62
     3
  5
108
 10
-51.618864
 20
-5.077522
 30
0.0
 11
-54.679036
 21
-5.666423
 31
0.0
  0
ARC
  8
LY_1
  6
CONTINUOUS
 62
     3
  5
109
 10
-54.1817
 20
-5.614883
 30
0.0
 40
0.5
 50
185.916478
 51
210.532164
  0
ARC
  8
LY_1
  6
CONTINUOUS
 62
     3
  5
10A
 10
-68.881882
 20
-13.701458
 30
0.0
 40
19.26508
 50
356.47277
 51
26.02723
  0
LINE
  8
LY_1
  6
CONTINUOUS
 62
     3
  5
10B
 10
-49.632695
 20
-15.062665
 30
0.0
 11
-52.685289
 21
-15.689669
 31
0.0
  0
ARC
  8
LY_1
  6
CONTINUOUS
 62
     3
  5
10C
 10
-49.154243
 20
-14.917463
 30
0.0
 40
0.5
 50
176.47277
 51
196.882137
  0
ARC
  8
LY_1
  6
CONTINUOUS
 62
     3
  5
10D
 10
-52.206086
 20
-15.546963
 30
0.0
 40
0.5
 50
171.967836
 51
196.583522
  0
ARC
  8
LY_1
  6
CONTINUOUS
 62
     3
  5
10E
 10
-51.121265
 20
-5.028576
 30
0.0
 40
0.5
 50
185.617863
 51
206.02723
  0
ARC
  8
LY_1
  6
CONTINUOUS
 62
     3
  5
10F
 10
0.0
 20
0.0
 30
0.0
 40
54.97186
 50
208.416478
 51
219.083522
  0
ARC
  8
LY_1
  6
CONTINUOUS
 62
     3
  5
110
 10
-57.129501
 20
-38.172712
 30
0.0
 40
14.833177
 50
14.467836
 51
53.032164
  0
LINE
  8
LY_1
  6
CONTINUOUS
 62
     3
  5
111
 10
-45.746528
 20
-24.444703
 30
0.0
 11
-48.348396
 21
-26.159853
 31
0.0
  0
ARC
  8
LY_1
  6
CONTINUOUS
 62
     3
  5
112
 10
-47.908641
 20
-25.921915
 30
0.0
 40
0.5
 50
208.416478
 51
233.032164
  0
ARC
  8
LY_1
  6
CONTINUOUS
 62
     3
  5
113
 10
-58.39524
 20
-39.018452
 30
0.0
 40
19.26508
 50
18.97277
 51
48.52723
  0
LINE
  8
LY_1
  6
CONTINUOUS
 62
     3
  5
114
 10
-40.090399
 20
-32.909698
 30
0.0
 11
-42.670683
 21
-34.657152
 31
0.0
  0
ARC
  8
LY_1
  6
CONTINUOUS
 62
     3
  5
115
 10
-39.703933
 20
-32.592453
 30
0.0
 40
0.5
 50
198.97277
 51
219.382137
  0
ARC
  8
LY_1
  6
CONTINUOUS
 62
     3
  5
116
 10
-42.282569
 20
-34.341925
 30
0.0
 40
0.5
 50
194.467836
 51
219.083522
  0
ARC
  8
LY_1
  6
CONTINUOUS
 62
     3
  5
117
 10
-45.305538
 20
-24.209059
 30
0.0
 40
0.5
 50
208.117863
 51
228.52723
  0
ARC
  8
LY_1
  6
CONTINUOUS
 62
     3
  5
118
 10
0.0
 20
0.0
 30
0.0
 40
54.97186
 50
230.916478
 51
241.583522
  0
ARC
  8
LY_1
  6
CONTINUOUS
 62
     3
  5
119
 10
-38.172712
 20
-57.129501
 30
0.0
 40
14.833177
 50
36.967836
 51
75.532164
  0
LINE
  8
LY_1
  6
CONTINUOUS
 62
     3
  5
11A
 10
-32.909698
 20
-40.090399
 30
0.0
 11
-34.657152
 21
-42.670683
 31
0.0
  0
ARC
  8
LY_1
  6
CONTINUOUS
 62
     3
  5
11B
 10
-34.341925
 20
-42.282569
 30
0.0
 40
0.5
 50
230.916478
 51
255.532164
  0
ARC
  8
LY_1
  6
CONTINUOUS
 62
     3
  5
11C
 10
-39.018452
 20
-58.39524
 30
0.0
 40
19.26508
 50
41.47277
 51
71.02723
  0
LINE
  8
LY_1
  6
CONTINUOUS
 62
     3
  5
11D
 10
-24.444703
 20
-45.746528
 30
0.0
 11
-26.159853
 21
-48.348396
 31
0.0
  0
ARC
  8
LY_1
  6
CONTINUOUS
 62
     3
  5
11E
 10
-24.209059
 20
-45.305538
 30
0.0
 40
0.5
 50
221.47277
 51
241.882137
  0
ARC
  8
LY_1
  6
CONTINUOUS
 62
     3
  5
11F
 10
-25.921915
 20
-47.908641
 30
0.0
 40
0.5
 50
216.967836
 51
241.583522
  0
ARC
  8
LY_1
  6
CONTINUOUS
 62
     3
  5
120
 10
-32.592453
 20
-39.703933
 30
0.0
 40
0.5
 50
230.617863
 51
251.02723
  0
ARC
  8
LY_1
  6
CONTINUOUS
 62
     3
  5
121
 10
0.0
 20
0.0
 30
0.0
 40
54.97186
 50
253.416478
 51
264.083522
  0
ARC
  8
LY_1
  6
CONTINUOUS
 62
     3
  5
122
 10
-13.404474
 20
-67.388841
 30
0.0
 40
14.833177
 50
59.467836
 51
98.032164
  0
LINE
  8
LY_1
  6
CONTINUOUS
 62
     3
  5
123
 10
-15.062665
 20
-49.632695
 30
0.0
 11
-15.689669
 21
-52.685289
 31
0.0
  0
ARC
  8
LY_1
  6
CONTINUOUS
 62
     3
  5
124
 10
-15.546963
 20
-52.206086
 30
0.0
 40
0.5
 50
253.416478
 51
278.032164
  0
ARC
  8
LY_1
  6
CONTINUOUS
 62
     3
  5
125
 10
-13.701458
 20
-68.881882
 30
0.0
 40
19.26508
 50
63.97277
 51
93.52723
  0
LINE
  8
LY_1
  6
CONTINUOUS
 62
     3
  5
126
 10
-5.077522
 20
-51.618864
 30
0.0
 11
-5.666423
 21
-54.679036
 31
0.0
  0
ARC
  8
LY_1
  6
CONTINUOUS
 62
     3
  5
127
 10
-5.028576
 20
-51.121265
 30
0.0
 40
0.5
 50
243.97277
 51
264.382137
  0
ARC
  8
LY_1
  6
CONTINUOUS
 62
     3
  5
128
 10
-5.614883
 20
-54.1817
 30
0.0
 40
0.5
 50
239.467836
 51
264.083522
  0
ARC
  8
LY_1
  6
CONTINUOUS
 62
     3
  5
129
 10
-14.917463
 20
-49.154243
 30
0.0
 40
0.5
 50
253.117863
 51
273.52723
  0
ARC
  8
LY_1
  6
CONTINUOUS
 62
     3
  5
12A
 10
0.0
 20
0.0
 30
0.0
 40
54.97186
 50
275.916478
 51
286.583522
  0
ARC
  8
LY_1
  6
CONTINUOUS
 62
     3
  5
12B
 10
13.404474
 20
-67.388841
 30
0.0
 40
14.833177
 50
81.967836
 51
120.532164
  0
LINE
  8
LY_1
  6
CONTINUOUS
 62
     3
  5
12C
 10
5.077522
 20
-51.618864
 30
0.0
 11
5.666423
 21
-54.679036
 31
0.0
  0
ARC
  8
LY_1
  6
CONTINUOUS
 62
     3
  5
12D
 10
5.614883
 20
-54.1817
 30
0.0
 40
0.5
 50
275.916478
 51
300.532164
  0
ARC
  8
LY_1
  6
CONTINUOUS
 62
     3
  5
12E
 10
13.701458
 20
-68.881882
 30
0.0
 40
19.26508
 50
86.47277
 51
116.02723
  0
LINE
  8
LY_1
  6
CONTINUOUS
 62
     3
  5
12F
 10
15.062665
 20
-49.632695
 30
0.0
 11
15.689669
 21
-52.685289
 31
0.0
  0
ARC
  8
LY_1
  6
CONTINUOUS
 62
     3
  5
130
 10
14.917463
 20
-49.154243
 30
0.0
 40
0.5
 50
266.47277
 51
286.882137
  0
ARC
  8
LY_1
  6
CONTINUOUS
 62
     3
  5
131
 10
15.546963
 20
-52.206086
 30
0.0
 40
0.5
 50
261.967836
 51
286.583522
  0
ARC
  8
LY_1
  6
CONTINUOUS
 62
     3
  5
132
 10
5.028576
 20
-51.121265
 30
0.0
 40
0.5
 50
275.617863
 51
296.02723
  0
ARC
  8
LY_1
  6
CONTINUOUS
 62
     3
  5
133
 10
0.0
 20
0.0
 30
0.0
 40
54.97186
 50
298.416478
 51
309.083522
  0
ARC
  8
LY_1
  6
CONTINUOUS
 62
     3
  5
134
 10
38.172712
 20
-57.129501
 30
0.0
 40
14.833177
 50
104.467836
 51
143.032164
  0
LINE
  8
LY_1
  6
CONTINUOUS
 62
     3
  5
135
 10
24.444703
 20
-45.746528
 30
0.0
 11
26.159853
 21
-48.348396
 31
0.0
  0
ARC
  8
LY_1
  6
CONTINUOUS
 62
     3
  5
136
 10
25.921915
 20
-47.908641
 30
0.0
 40
0.5
 50
298.416478
 51
323.032164
  0
ARC
  8
LY_1
  6
CONTINUOUS
 62
     3
  5
137
 10
39.018452
 20
-58.39524
 30
0.0
 40
19.26508
 50
108.97277
 51
138.52723
  0
LINE
  8
LY_1
  6
CONTINUOUS
 62
     3
  5
138
 10
32.909698
 20
-40.090399
 30
0.0
 11
34.657152
 21
-42.670683
 31
0.0
  0
ARC
  8
LY_1
  6
CONTINUOUS
 62
     3
  5
139
 10
32.592453
 20
-39.703933
 30
0.0
 40
0.5
 50
288.97277
 51
309.382137
  0
ARC
  8
LY_1
  6
CONTINUOUS
 62
     3
  5
13A
 10
34.341925
 20
-42.282569
 30
0.0
 40
0.5
 50
284.467836
 51
309.083522
  0
ARC
  8
LY_1
  6
CONTINUOUS
 62
     3
  5
13B
 10
24.209059
 20
-45.305538
 30
0.0
 40
0.5
 50
298.117863
 51
318.52723
  0
ARC
  8
LY_1
  6
CONTINUOUS
 62
     3
  5
13C
 10
0.0
 20
0.0
 30
0.0
 40
54.97186
 50
320.916478
 51
331.583522
  0
ARC
  8
LY_1
  6
CONTINUOUS
 62
     3
  5
13D
 10
57.129501
 20
-38.172712
 30
0.0
 40
14.833177
 50
126.967836
 51
165.532164
  0
LINE
  8
LY_1
  6
CONTINUOUS
 62
     3
  5
13E
 10
40.090399
 20
-32.909698
 30
0.0
 11
42.670683
 21
-34.657152
 31
0.0
  0
ARC
  8
LY_1
  6
CONTINUOUS
 62
     3
  5
13F
 10
42.282569
 20
-34.341925
 30
0.0
 40
0.5
 50
320.916478
 51
345.532164
  0
ARC
  8
LY_1
  6
CONTINUOUS
 62
     3
  5
140
 10
58.39524
 20
-39.018452
 30
0.0
 40
19.26508
 50
131.47277
 51
161.02723
  0
LINE
  8
LY_1
  6
CONTINUOUS
 62
     3
  5
141
 10
45.746528
 20
-24.444703
 30
0.0
 11
48.348396
 21
-26.159853
 31
0.0
  0
ARC
  8
LY_1
  6
CONTINUOUS
 62
     3
  5
142
 10
45.305538
 20
-24.209059
 30
0.0
 40
0.5
 50
311.47277
 51
331.882137
  0
ARC
  8
LY_1
  6
CONTINUOUS
 62
     3
  5
143
 10
47.908641
 20
-25.921915
 30
0.0
 40
0.5
 50
306.967836
 51
331.583522
  0
ARC
  8
LY_1
  6
CONTINUOUS
 62
     3
  5
144
 10
39.703933
 20
-32.592453
 30
0.0
 40
0.5
 50
320.617863
 51
341.02723
  0
ARC
  8
LY_1
  6
CONTINUOUS
 62
     3
  5
145
 10
0.0
 20
0.0
 30
0.0
 40
54.97186
 50
343.416478
 51
354.083522
  0
ARC
  8
LY_1
  6
CONTINUOUS
 62
     3
  5
146
 10
67.388841
 20
-13.404474
 30
0.0
 40
14.833177
 50
149.467836
 51
188.032164
  0
LINE
  8
LY_1
  6
CONTINUOUS
 62
     3
  5
147
 10
49.632695
 20
-15.062665
 30
0.0
 11
52.685289
 21
-15.689669
 31
0.0
  0
ARC
  8
LY_1
  6
CONTINUOUS
 62
     3
  5
148
 10
52.206086
 20
-15.546963
 30
0.0
 40
0.5
 50
343.416478
 51
8.032164
  0
ARC
  8
LY_1
  6
CONTINUOUS
 62
     3
  5
149
 10
68.881882
 20
-13.701458
 30
0.0
 40
19.26508
 50
153.97277
 51
183.52723
  0
LINE
  8
LY_1
  6
CONTINUOUS
 62
     3
  5
14A
 10
51.618864
 20
-5.077522
 30
0.0
 11
54.679036
 21
-5.666423
 31
0.0
  0
ARC
  8
LY_1
  6
CONTINUOUS
 62
     3
  5
14B
 10
51.121265
 20
-5.028576
 30
0.0
 40
0.5
 50
333.97277
 51
354.382137
  0
ARC
  8
LY_1
  6
CONTINUOUS
 62
     3
  5
14C
 10
54.1817
 20
-5.614883
 30
0.0
 40
0.5
 50
329.467836
 51
354.083522
  0
ARC
  8
LY_1
  6
CONTINUOUS
 62
     3
  5
14D
 10
49.154243
 20
-14.917463
 30
0.0
 40
0.5
 50
343.117863
 51
3.52723
  0
ARC
  8
LY_1
  6
CONTINUOUS
 62
     3
  5
14E
 10
0.0
 20
0.0
 30
0.0
 40
54.97186
 50
5.916478
 51
16.583522
  0
ARC
  8
LY_1
  6
CONTINUOUS
 62
     3
  5
14F
 10
67.388841
 20
13.404474
 30
0.0
 40
14.833177
 50
171.967836
 51
210.532164
  0
LINE
  8
LY_1
  6
CONTINUOUS
 62
     3
  5
150
 10
51.618864
 20
5.077522
 30
0.0
 11
54.679036
 21
5.666423
 31
0.0
  0
ARC
  8
LY_1
  6
CONTINUOUS
 62
     3
  5
151
 10
54.1817
 20
5.614883
 30
0.0
 40
0.5
 50
5.916478
 51
30.532164
  0
ARC
  8
LY_1
  6
CONTINUOUS
 62
     3
  5
152
 10
68.881882
 20
13.701458
 30
0.0
 40
19.26508
 50
176.47277
 51
206.02723
  0
LINE
  8
LY_1
  6
CONTINUOUS
 62
     3
  5
153
 10
49.632695
 20
15.062665
 30
0.0
 11
52.685289
 21
15.689669
 31
0.0
  0
ARC
  8
LY_1
  6
CONTINUOUS
 62
     3
  5
154
 10
49.154243
 20
14.917463
 30
0.0
 40
0.5
 50
356.47277
 51
16.882137
  0
ARC
  8
LY_1
  6
CONTINUOUS
 62
     3
  5
155
 10
52.206086
 20
15.546963
 30
0.0
 40
0.5
 50
351.967836
 51
16.583522
  0
ARC
  8
LY_1
  6
CONTINUOUS
 62
     3
  5
156
 10
51.121265
 20
5.028576
 30
0.0
 40
0.5
 50
5.617863
 51
26.02723
  0
ARC
  8
LY_1
  6
CONTINUOUS
 62
     3
  5
157
 10
0.0
 20
0.0
 30
0.0
 40
54.97186
 50
28.416478
 51
39.083522
  0
ARC
  8
LY_1
  6
CONTINUOUS
 62
     3
  5
158
 10
57.129501
 20
38.172712
 30
0.0
 40
14.833177
 50
194.467836
 51
233.032164
  0
LINE
  8
LY_1
  6
CONTINUOUS
 62
     3
  5
159
 10
45.746528
 20
24.444703
 30
0.0
 11
48.348396
 21
26.159853
 31
0.0
  0
ARC
  8
LY_1
  6
CONTINUOUS
 62
     3
  5
15A
 10
47.908641
 20
25.921915
 30
0.0
 40
0.5
 50
28.416478
 51
53.032164
  0
ARC
  8
LY_1
  6
CONTINUOUS
 62
     3
  5
15B
 10
58.39524
 20
39.018452
 30
0.0
 40
19.26508
 50
198.97277
 51
228.52723
  0
LINE
  8
LY_1
  6
CONTINUOUS
 62
     3
  5
15C
 10
40.090399
 20
32.909698
 30
0.0
 11
42.670683
 21
34.657152
 31
0.0
  0
ARC
  8
LY_1
  6
CONTINUOUS
 62
     3
  5
15D
 10
39.703933
 20
32.592453
 30
0.0
 40
0.5
 50
18.97277
 51
39.382137
  0
ARC
  8
LY_1
  6
CONTINUOUS
 62
     3
  5
15E
 10
42.282569
 20
34.341925
 30
0.0
 40
0.5
 50
14.467836
 51
39.083522
  0
ARC
  8
LY_1
  6
CONTINUOUS
 62
     3
  5
15F
 10
45.305538
 20
24.209059
 30
0.0
 40
0.5
 50
28.117863
 51
48.52723
  0
ARC
  8
LY_1
  6
CONTINUOUS
 62
     3
  5
160
 10
0.0
 20
0.0
 30
0.0
 40
54.97186
 50
50.916478
 51
61.583522
  0
ARC
  8
LY_1
  6
CONTINUOUS
 62
     3
  5
161
 10
38.172712
 20
57.129501
 30
0.0
 40
14.833177
 50
216.967836
 51
255.532164
  0
LINE
  8
LY_1
  6
CONTINUOUS
 62
     3
  5
162
 10
32.909698
 20
40.090399
 30
0.0
 11
34.657152
 21
42.670683
 31
0.0
  0
ARC
  8
LY_1
  6
CONTINUOUS
 62
     3
  5
163
 10
34.341925
 20
42.282569
 30
0.0
 40
0.5
 50
50.916478
 51
75.532164
  0
ARC
  8
LY_1
  6
CONTINUOUS
 62
     3
  5
164
 10
39.018452
 20
58.39524
 30
0.0
 40
19.26508
 50
221.47277
 51
251.02723
  0
LINE
  8
LY_1
  6
CONTINUOUS
 62
     3
  5
165
 10
24.444703
 20
45.746528
 30
0.0
 11
26.159853
 21
48.348396
 31
0.0
  0
ARC
  8
LY_1
  6
CONTINUOUS
 62
     3
  5
166
 10
24.209059
 20
45.305538
 30
0.0
 40
0.5
 50
41.47277
 51
61.882137
  0
ARC
  8
LY_1
  6
CONTINUOUS
 62
     3
  5
167
 10
25.921915
 20
47.908641
 30
0.0
 40
0.5
 50
36.967836
 51
61.583522
  0
ARC
  8
LY_1
  6
CONTINUOUS
 62
     3
  5
168
 10
32.592453
 20
39.703933
 30
0.0
 40
0.5
 50
50.617863
 51
71.02723
  0
ARC
  8
LY_1
  6
CONTINUOUS
 62
     3
  5
169
 10
0.0
 20
0.0
 30
0.0
 40
52.17595
 50
151.850915
 51
163.149085
  0
ARC
  8
LY_1
  6
CONTINUOUS
 62
     3
  5
16A
 10
0.0
 20
0.0
 30
0.0
 40
52.17595
 50
174.350915
 51
185.649085
  0
ARC
  8
LY_1
  6
CONTINUOUS
 62
     3
  5
16B
 10
0.0
 20
0.0
 30
0.0
 40
52.17595
 50
196.850915
 51
208.149085
  0
ARC
  8
LY_1
  6
CONTINUOUS
 62
     3
  5
16C
 10
0.0
 20
0.0
 30
0.0
 40
52.17595
 50
219.350915
 51
230.649085
  0
ARC
  8
LY_1
  6
CONTINUOUS
 62
     3
  5
16D
 10
0.0
 20
0.0
 30
0.0
 40
52.17595
 50
241.850915
 51
253.149085
  0
ARC
  8
LY_1
  6
CONTINUOUS
 62
     3
  5
16E
 10
0.0
 20
0.0
 30
0.0
 40
52.17595
 50
264.350915
 51
275.649085
  0
ARC
  8
LY_1
  6
CONTINUOUS
 62
     3
  5
16F
 10
0.0
 20
0.0
 30
0.0
 40
52.17595
 50
286.850915
 51
298.149085
  0
ARC
  8
LY_1
  6
CONTINUOUS
 62
     3
  5
170
 10
0.0
 20
0.0
 30
0.0
 40
52.17595
 50
309.350915
 51
320.649085
  0
ARC
  8
LY_1
  6
CONTINUOUS
 62
     3
  5
171
 10
0.0
 20
0.0
 30
0.0
 40
52.17595
 50
331.850915
 51
343.149085
  0
ARC
  8
LY_1
  6
CONTINUOUS
 62
     3
  5
172
 10
0.0
 20
0.0
 30
0.0
 40
52.17595
 50
354.350915
 51
5.649085
  0
ARC
  8
LY_1
  6
CONTINUOUS
 62
     3
  5
173
 10
0.0
 20
0.0
 30
0.0
 40
52.17595
 50
16.850915
 51
28.149085
  0
ARC
  8
LY_1
  6
CONTINUOUS
 62
     3
  5
174
 10
0.0
 20
0.0
 30
0.0
 40
52.17595
 50
39.350915
 51
50.649085
  0
ARC
  8
LY_1
  6
CONTINUOUS
 62
     3
  5
175
 10
0.0
 20
0.0
 30
0.0
 40
52.17595
 50
61.850915
 51
73.149085
  0
ARC
  8
LY_1
  6
CONTINUOUS
 62
     3
  5
176
 10
0.0
 20
0.0
 30
0.0
 40
53.12833
 50
63.0
 51
117.0
  0
LINE
  8
LY_1
  6
CONTINUOUS
 62
     3
  5
177
 10
-5.077522
 20
51.618864
 30
0.0
 11
-5.290161
 21
52.723825
 31
0.0
  0
LINE
  8
LY_1
  6
CONTINUOUS
 62
     3
  5
178
 10
-15.062665
 20
49.632695
 30
0.0
 11
-15.289063
 21
50.73492
 31
0.0
  0
ARC
  8
LY_1
  6
CONTINUOUS
 62
     3
  5
179
 10
-13.701458
 20
68.881882
 30
0.0
 40
19.26508
 50
266.47277
 51
296.02723
  0
ARC
  8
LY_1
  6
CONTINUOUS
 62
     3
  5
17A
 10
-5.028576
 20
51.121265
 30
0.0
 40
0.5
 50
95.617863
 51
116.02723
  0
ARC
  8
LY_1
  6
CONTINUOUS
 62
     3
  5
17B
 10
-14.917463
 20
49.154243
 30
0.0
 40
0.5
 50
86.47277
 51
106.882137
  0
ARC
  8
LY_1
  6
CONTINUOUS
 62
     3
  5
17C
 10
0.0
 20
0.0
 30
0.0
 40
52.17595
 50
106.850915
 51
118.149085
  0
ARC
  8
LY_1
  6
CONTINUOUS
 62
     3
  5
17D
 10
0.0
 20
0.0
 30
0.0
 40
52.17595
 50
129.350915
 51
140.649085
  0
ARC
  8
LY_1
  6
CONTINUOUS
 62
     3
  5
17E
 10
0.0
 20
0.0
 30
0.0
 40
52.98856
 50
73.229722
 51
84.270278
  0
ARC
  8
LY_1
  6
CONTINUOUS
 62
     3
  5
17F
 10
5.028576
 20
51.121265
 30
0.0
 40
0.5
 50
63.97277
 51
84.382137
  0
ARC
  8
LY_1
  6
CONTINUOUS
 62
     3
  5
180
 10
14.917463
 20
49.154243
 30
0.0
 40
0.5
 50
73.117863
 51
93.52723
  0
ARC
  8
LY_1
  6
CONTINUOUS
 62
     3
  5
181
 10
13.701458
 20
68.881882
 30
0.0
 40
19.26508
 50
243.97277
 51
273.52723
  0
LINE
  8
LY_1
  6
CONTINUOUS
 62
     3
  5
182
 10
15.062665
 20
49.632695
 30
0.0
 11
15.289063
 21
50.73492
 31
0.0
  0
LINE
  8
LY_1
  6
CONTINUOUS
 62
     3
  5
183
 10
5.077522
 20
51.618864
 30
0.0
 11
5.290161
 21
52.723825
 31
0.0
  0
ARC
  8
LY_1
  6
CONTINUOUS
 62
     3
  5
184
 10
0.0
 20
0.0
 30
0.0
 40
52.17595
 50
84.350915
 51
95.649085
  0
ARC
  8
LY_1
  6
CONTINUOUS
 62
     3
  5
185
 10
-42.101346
 20
6.853377
 30
0.0
 40
1.0
 50
180.0
 51
270.0
  0
LINE
  8
LY_1
  6
CONTINUOUS
 62
     3
  5
186
 10
-35.801346
 20
5.853377
 30
0.0
 11
-42.101346
 21
5.853377
 31
0.0
  0
ARC
  8
LY_1
  6
CONTINUOUS
 62
     3
  5
187
 10
10.098654
 20
6.853377
 30
0.0
 40
1.0
 50
270.0
 51
0.0
  0
LINE
  8
LY_1
  6
CONTINUOUS
 62
     3
  5
188
 10
3.798654
 20
5.853377
 30
0.0
 11
10.098654
 21
5.853377
 31
0.0
  0
LINE
  8
LY_1
  6
CONTINUOUS
 62
     3
  5
189
 10
-37.453271
 20
7.453377
 30
0.0
 11
-35.801346
 21
7.453377
 31
0.0
  0
LINE
  8
LY_1
  6
CONTINUOUS
 62
     3
  5
18A
 10
3.798654
 20
7.453377
 30
0.0
 11
5.515963
 21
7.453377
 31
0.0
  0
LINE
  8
LY_1
  6
CONTINUOUS
 62
     3
  5
18B
 10
-35.801346
 20
-8.0
 30
0.0
 11
3.798654
 21
-8.0
 31
0.0
  0
ARC
  8
LY_1
  6
CONTINUOUS
 62
     3
  5
18C
 10
10.098654
 20
21.146623
 30
0.0
 40
1.0
 50
0.0
 51
90.0
  0
ARC
  8
LY_1
  6
CONTINUOUS
 62
     3
  5
18D
 10
-42.101346
 20
21.146623
 30
0.0
 40
1.0
 50
90.0
 51
180.0
  0
LINE
  8
LY_1
  6
CONTINUOUS
 62
     3
  5
18E
 10
-35.801346
 20
22.146623
 30
0.0
 11
-42.101346
 21
22.146623
 31
0.0
  0
LINE
  8
LY_1
  6
CONTINUOUS
 62
     3
  5
18F
 10
-43.101346
 20
6.853377
 30
0.0
 11
-43.101346
 21
21.146623
 31
0.0
  0
LINE
  8
LY_1
  6
CONTINUOUS
 62
     3
  5
190
 10
3.798654
 20
22.146623
 30
0.0
 11
10.098654
 21
22.146623
 31
0.0
  0
LINE
  8
LY_1
  6
CONTINUOUS
 62
     3
  5
191
 10
11.098654
 20
6.853377
 30
0.0
 11
11.098654
 21
21.146623
 31
0.0
  0
LINE
  8
LY_1
  6
CONTINUOUS
 62
     3
  5
192
 10
-37.453271
 20
20.546623
 30
0.0
 11
-35.801346
 21
20.546623
 31
0.0
  0
LINE
  8
LY_1
  6
CONTINUOUS
 62
     3
  5
193
 10
3.798654
 20
20.546623
 30
0.0
 11
5.515963
 21
20.546623
 31
0.0
  0
LINE
  8
LY_1
  6
CONTINUOUS
 62
     3
  5
194
 10
-25.501346
 20
5.5
 30
0.0
 11
-25.501346
 21
20.160106
 31
0.0
  0
LINE
  8
LY_1
  6
CONTINUOUS
 62
     3
  5
195
 10
-16.801346
 20
5.5
 30
0.0
 11
-16.801346
 21
20.160106
 31
0.0
  0
LINE
  8
LY_1
  6
CONTINUOUS
 62
     3
  5
196
 10
-15.201346
 20
5.5
 30
0.0
 11
-15.201346
 21
20.160106
 31
0.0
  0
LINE
  8
LY_1
  6
CONTINUOUS
 62
     3
  5
197
 10
-35.801346
 20
-8.0
 30
0.0
 11
-35.801346
 21
22.146623
 31
0.0
  0
LINE
  8
LY_1
  6
CONTINUOUS
 62
     3
  5
198
 10
-27.101346
 20
5.5
 30
0.0
 11
-27.101346
 21
20.160106
 31
0.0
  0
LINE
  8
LY_1
  6
CONTINUOUS
 62
     3
  5
199
 10
-4.901346
 20
5.5
 30
0.0
 11
-4.901346
 21
20.160106
 31
0.0
  0
LINE
  8
LY_1
  6
CONTINUOUS
 62
     3
  5
19A
 10
3.798654
 20
-8.0
 30
0.0
 11
3.798654
 21
22.146623
 31
0.0
  0
LINE
  8
LY_1
  6
CONTINUOUS
 62
     3
  5
19B
 10
-37.453271
 20
7.453377
 30
0.0
 11
-37.453271
 21
20.546623
 31
0.0
  0
LINE
  8
LY_1
  6
CONTINUOUS
 62
     3
  5
19C
 10
5.515963
 20
7.453377
 30
0.0
 11
5.515963
 21
20.546623
 31
0.0
  0
LINE
  8
LY_1
  6
CONTINUOUS
 62
     3
  5
19D
 10
-35.801346
 20
5.5
 30
0.0
 11
3.801346
 21
5.5
 31
0.0
  0
LINE
  8
LY_1
  6
CONTINUOUS
 62
     3
  5
19E
 10
-3.551346
 20
6.944144
 30
0.0
 11
-3.551346
 21
8.974688
 31
0.0
  0
LINE
  8
LY_1
  6
CONTINUOUS
 62
     3
  5
19F
 10
2.448654
 20
6.944144
 30
0.0
 11
2.448654
 21
8.974688
 31
0.0
  0
LINE
  8
LY_1
  6
CONTINUOUS
 62
     3
  5
1A0
 10
2.948654
 20
9.474688
 30
0.0
 11
3.798654
 21
9.474688
 31
0.0
  0
LINE
  8
LY_1
  6
CONTINUOUS
 62
     3
  5
1A1
 10
-4.901346
 20
9.474688
 30
0.0
 11
-4.051346
 21
9.474688
 31
0.0
  0
ARC
  8
LY_1
  6
CONTINUOUS
 62
     3
  5
1A2
 10
2.948654
 20
8.974688
 30
0.0
 40
0.5
 50
90.0
 51
180.0
  0
ARC
  8
LY_1
  6
CONTINUOUS
 62
     3
  5
1A3
 10
-4.051346
 20
8.974688
 30
0.0
 40
0.5
 50
0.0
 51
90.0
  0
LINE
  8
LY_1
  6
CONTINUOUS
 62
     3
  5
1A4
 10
-3.551346
 20
6.944144
 30
0.0
 11
2.448654
 21
6.944144
 31
0.0
  0
LINE
  8
LY_1
  6
CONTINUOUS
 62
     3
  5
1A5
 10
-35.801346
 20
3.0
 30
0.0
 11
3.801346
 21
3.0
 31
0.0
  0
LINE
  8
LY_1
  6
CONTINUOUS
 62
     3
  5
1A6
 10
-3.551346
 20
20.291103
 30
0.0
 11
2.448654
 21
20.291103
 31
0.0
  0
LINE
  8
LY_1
  6
CONTINUOUS
 62
     3
  5
1A7
 10
-4.901346
 20
18.204688
 30
0.0
 11
-3.551346
 21
18.204688
 31
0.0
  0
LINE
  8
LY_1
  6
CONTINUOUS
 62
     3
  5
1A8
 10
2.448654
 20
18.204688
 30
0.0
 11
2.448654
 21
20.291103
 31
0.0
  0
LINE
  8
LY_1
  6
CONTINUOUS
 62
     3
  5
1A9
 10
-3.551346
 20
18.204688
 30
0.0
 11
-3.551346
 21
20.291103
 31
0.0
  0
LINE
  8
LY_1
  6
CONTINUOUS
 62
     3
  5
1AA
 10
2.448654
 20
18.204688
 30
0.0
 11
3.798654
 21
18.204688
 31
0.0
  0
LINE
  8
LY_1
  6
CONTINUOUS
 62
     3
  5
1AB
 10
2.448654
 20
20.160106
 30
0.0
 11
3.798654
 21
20.160106
 31
0.0
  0
LINE
  8
LY_1
  6
CONTINUOUS
 62
     3
  5
1AC
 10
-3.551346
 20
20.160106
 30
0.0
 11
-4.901346
 21
20.160106
 31
0.0
  0
LINE
  8
LY_1
  6
CONTINUOUS
 62
     3
  5
1AD
 10
-7.851346
 20
18.204688
 30
0.0
 11
-6.501346
 21
18.204688
 31
0.0
  0
LINE
  8
LY_1
  6
CONTINUOUS
 62
     3
  5
1AE
 10
-7.851346
 20
20.160106
 30
0.0
 11
-6.501346
 21
20.160106
 31
0.0
  0
LINE
  8
LY_1
  6
CONTINUOUS
 62
     3
  5
1AF
 10
-13.851346
 20
20.160106
 30
0.0
 11
-15.201346
 21
20.160106
 31
0.0
  0
LINE
  8
LY_1
  6
CONTINUOUS
 62
     3
  5
1B0
 10
-13.851346
 20
18.204688
 30
0.0
 11
-13.851346
 21
20.291103
 31
0.0
  0
LINE
  8
LY_1
  6
CONTINUOUS
 62
     3
  5
1B1
 10
-7.851346
 20
18.204688
 30
0.0
 11
-7.851346
 21
20.291103
 31
0.0
  0
LINE
  8
LY_1
  6
CONTINUOUS
 62
     3
  5
1B2
 10
-15.201346
 20
18.204688
 30
0.0
 11
-13.851346
 21
18.204688
 31
0.0
  0
LINE
  8
LY_1
  6
CONTINUOUS
 62
     3
  5
1B3
 10
-13.851346
 20
20.291103
 30
0.0
 11
-7.851346
 21
20.291103
 31
0.0
  0
LINE
  8
LY_1
  6
CONTINUOUS
 62
     3
  5
1B4
 10
-18.151346
 20
18.204688
 30
0.0
 11
-16.801346
 21
18.204688
 31
0.0
  0
LINE
  8
LY_1
  6
CONTINUOUS
 62
     3
  5
1B5
 10
-18.151346
 20
20.160106
 30
0.0
 11
-16.801346
 21
20.160106
 31
0.0
  0
LINE
  8
LY_1
  6
CONTINUOUS
 62
     3
  5
1B6
 10
-24.151346
 20
20.160106
 30
0.0
 11
-25.501346
 21
20.160106
 31
0.0
  0
LINE
  8
LY_1
  6
CONTINUOUS
 62
     3
  5
1B7
 10
-24.151346
 20
18.204688
 30
0.0
 11
-24.151346
 21
20.291103
 31
0.0
  0
LINE
  8
LY_1
  6
CONTINUOUS
 62
     3
  5
1B8
 10
-18.151346
 20
18.204688
 30
0.0
 11
-18.151346
 21
20.291103
 31
0.0
  0
LINE
  8
LY_1
  6
CONTINUOUS
 62
     3
  5
1B9
 10
-25.501346
 20
18.204688
 30
0.0
 11
-24.151346
 21
18.204688
 31
0.0
  0
LINE
  8
LY_1
  6
CONTINUOUS
 62
     3
  5
1BA
 10
-24.151346
 20
20.291103
 30
0.0
 11
-18.151346
 21
20.291103
 31
0.0
  0
LINE
  8
LY_1
  6
CONTINUOUS
 62
     3
  5
1BB
 10
-28.451346
 20
18.204688
 30
0.0
 11
-27.101346
 21
18.204688
 31
0.0
  0
LINE
  8
LY_1
  6
CONTINUOUS
 62
     3
  5
1BC
 10
-28.451346
 20
20.160106
 30
0.0
 11
-27.101346
 21
20.160106
 31
0.0
  0
LINE
  8
LY_1
  6
CONTINUOUS
 62
     3
  5
1BD
 10
-34.451346
 20
20.160106
 30
0.0
 11
-35.801346
 21
20.160106
 31
0.0
  0
LINE
  8
LY_1
  6
CONTINUOUS
 62
     3
  5
1BE
 10
-34.451346
 20
18.204688
 30
0.0
 11
-34.451346
 21
20.291103
 31
0.0
  0
LINE
  8
LY_1
  6
CONTINUOUS
 62
     3
  5
1BF
 10
-28.451346
 20
18.204688
 30
0.0
 11
-28.451346
 21
20.291103
 31
0.0
  0
LINE
  8
LY_1
  6
CONTINUOUS
 62
     3
  5
1C0
 10
-35.801346
 20
18.204688
 30
0.0
 11
-34.451346
 21
18.204688
 31
0.0
  0
LINE
  8
LY_1
  6
CONTINUOUS
 62
     3
  5
1C1
 10
-34.451346
 20
20.291103
 30
0.0
 11
-28.451346
 21
20.291103
 31
0.0
  0
LINE
  8
LY_1
  6
CONTINUOUS
 62
     3
  5
1C2
 10
-6.501346
 20
5.5
 30
0.0
 11
-6.501346
 21
20.160106
 31
0.0
  0
LINE
  8
LY_1
  6
CONTINUOUS
 62
     3
  5
1C3
 10
-7.351346
 20
9.474688
 30
0.0
 11
-6.501346
 21
9.474688
 31
0.0
  0
LINE
  8
LY_1
  6
CONTINUOUS
 62
     3
  5
1C4
 10
-15.201346
 20
9.474688
 30
0.0
 11
-14.351346
 21
9.474688
 31
0.0
  0
LINE
  8
LY_1
  6
CONTINUOUS
 62
     3
  5
1C5
 10
-13.851346
 20
6.944144
 30
0.0
 11
-7.851346
 21
6.944144
 31
0.0
  0
ARC
  8
LY_1
  6
CONTINUOUS
 62
     3
  5
1C6
 10
-14.351346
 20
8.974688
 30
0.0
 40
0.5
 50
0.0
 51
90.0
  0
ARC
  8
LY_1
  6
CONTINUOUS
 62
     3
  5
1C7
 10
-7.351346
 20
8.974688
 30
0.0
 40
0.5
 50
90.0
 51
180.0
  0
LINE
  8
LY_1
  6
CONTINUOUS
 62
     3
  5
1C8
 10
-7.851346
 20
6.944144
 30
0.0
 11
-7.851346
 21
8.974688
 31
0.0
  0
LINE
  8
LY_1
  6
CONTINUOUS
 62
     3
  5
1C9
 10
-13.851346
 20
6.944144
 30
0.0
 11
-13.851346
 21
8.974688
 31
0.0
  0
LINE
  8
LY_1
  6
CONTINUOUS
 62
     3
  5
1CA
 10
-17.651346
 20
9.474688
 30
0.0
 11
-16.801346
 21
9.474688
 31
0.0
  0
LINE
  8
LY_1
  6
CONTINUOUS
 62
     3
  5
1CB
 10
-25.501346
 20
9.474688
 30
0.0
 11
-24.651346
 21
9.474688
 31
0.0
  0
LINE
  8
LY_1
  6
CONTINUOUS
 62
     3
  5
1CC
 10
-24.151346
 20
6.944144
 30
0.0
 11
-18.151346
 21
6.944144
 31
0.0
  0
ARC
  8
LY_1
  6
CONTINUOUS
 62
     3
  5
1CD
 10
-24.651346
 20
8.974688
 30
0.0
 40
0.5
 50
0.0
 51
90.0
  0
ARC
  8
LY_1
  6
CONTINUOUS
 62
     3
  5
1CE
 10
-17.651346
 20
8.974688
 30
0.0
 40
0.5
 50
90.0
 51
180.0
  0
LINE
  8
LY_1
  6
CONTINUOUS
 62
     3
  5
1CF
 10
-18.151346
 20
6.944144
 30
0.0
 11
-18.151346
 21
8.974688
 31
0.0
  0
LINE
  8
LY_1
  6
CONTINUOUS
 62
     3
  5
1D0
 10
-24.151346
 20
6.944144
 30
0.0
 11
-24.151346
 21
8.974688
 31
0.0
  0
LINE
  8
LY_1
  6
CONTINUOUS
 62
     3
  5
1D1
 10
-27.951346
 20
9.474688
 30
0.0
 11
-27.101346
 21
9.474688
 31
0.0
  0
LINE
  8
LY_1
  6
CONTINUOUS
 62
     3
  5
1D2
 10
-35.801346
 20
9.474688
 30
0.0
 11
-34.951346
 21
9.474688
 31
0.0
  0
LINE
  8
LY_1
  6
CONTINUOUS
 62
     3
  5
1D3
 10
-34.451346
 20
6.944144
 30
0.0
 11
-28.451346
 21
6.944144
 31
0.0
  0
ARC
  8
LY_1
  6
CONTINUOUS
 62
     3
  5
1D4
 10
-34.951346
 20
8.974688
 30
0.0
 40
0.5
 50
0.0
 51
90.0
  0
ARC
  8
LY_1
  6
CONTINUOUS
 62
     3
  5
1D5
 10
-27.951346
 20
8.974688
 30
0.0
 40
0.5
 50
90.0
 51
180.0
  0
LINE
  8
LY_1
  6
CONTINUOUS
 62
     3
  5
1D6
 10
-28.451346
 20
6.944144
 30
0.0
 11
-28.451346
 21
8.974688
 31
0.0
  0
LINE
  8
LY_1
  6
CONTINUOUS
 62
     3
  5
1D7
 10
-34.451346
 20
6.944144
 30
0.0
 11
-34.451346
 21
8.974688
 31
0.0
  0
CIRCLE
  8
LY_1
  6
CONTINUOUS
 62
     3
  5
1D8
 10
0.0
 20
0.0
 30
0.0
 40
56.230686
  0
ARC
  8
LY_1
  6
CONTINUOUS
 62
     3
  5
1D9
 10
35.864903
 20
102.666667
 30
0.0
 40
1.0
 50
270.0
 51
356.82017
  0
ARC
  8
LY_1
  6
CONTINUOUS
 62
     3
  5
1DA
 10
24.756876
 20
102.666667
 30
0.0
 40
1.0
 50
183.17983
 51
270.0
  0
LINE
  8
LY_1
  6
CONTINUOUS
 62
     3
  5
1DB
 10
-49.194777
 20
109.666667
 30
0.0
 11
49.194777
 21
109.666667
 31
0.0
  0
LINE
  8
LY_1
  6
CONTINUOUS
 62
     3
  5
1DC
 10
36.863363
 20
102.611197
 30
0.0
 11
37.20286
 21
108.722137
 31
0.0
  0
LINE
  8
LY_1
  6
CONTINUOUS
 62
     3
  5
1DD
 10
23.418919
 20
108.722137
 30
0.0
 11
23.758415
 21
102.611197
 31
0.0
  0
LINE
  8
LY_1
  6
CONTINUOUS
 62
     3
  5
1DE
 10
-55.0
 20
162.666667
 30
0.0
 11
55.0
 21
162.666667
 31
0.0
  0
ARC
  8
LY_1
  6
CONTINUOUS
 62
     3
  5
1DF
 10
-395.0
 20
162.666667
 30
0.0
 40
450.0
 50
353.577636
 51
0.0
  0
ARC
  8
LY_1
  6
CONTINUOUS
 62
     3
  5
1E0
 10
-49.194777
 20
112.666667
 30
0.0
 40
3.0
 50
186.422364
 51
270.0
  0
ARC
  8
LY_1
  6
CONTINUOUS
 62
     3
  5
1E1
 10
395.0
 20
162.666667
 30
0.0
 40
450.0
 50
180.0
 51
186.422364
  0
ARC
  8
LY_1
  6
CONTINUOUS
 62
     3
  5
1E2
 10
49.194777
 20
112.666667
 30
0.0
 40
3.0
 50
270.0
 51
353.577636
  0
ARC
  8
LY_1
  6
CONTINUOUS
 62
     3
  5
1E3
 10
22.420458
 20
108.666667
 30
0.0
 40
1.0
 50
3.17983
 51
90.0
  0
ARC
  8
LY_1
  6
CONTINUOUS
 62
     3
  5
1E4
 10
38.20132
 20
108.666667
 30
0.0
 40
1.0
 50
90.0
 51
176.82017
  0
LINE
  8
LY_1
  6
CONTINUOUS
 62
     3
  5
1E5
 10
32.310889
 20
85.666667
 30
0.0
 11
32.810889
 21
86.166667
 31
0.0
  0
LINE
  8
LY_1
  6
CONTINUOUS
 62
     3
  5
1E6
 10
27.810889
 20
86.166667
 30
0.0
 11
28.310889
 21
85.666667
 31
0.0
  0
LINE
  8
LY_1
  6
CONTINUOUS
 62
     3
  5
1E7
 10
32.310889
 20
85.666667
 30
0.0
 11
28.310889
 21
85.666667
 31
0.0
  0
LINE
  8
LY_1
  6
CONTINUOUS
 62
     3
  5
1E8
 10
32.810889
 20
96.666667
 30
0.0
 11
32.810889
 21
86.166667
 31
0.0
  0
LINE
  8
LY_1
  6
CONTINUOUS
 62
     3
  5
1E9
 10
27.810889
 20
96.666667
 30
0.0
 11
27.810889
 21
86.166667
 31
0.0
  0
LINE
  8
LY_1
  6
CONTINUOUS
 62
     3
  5
1EA
 10
-24.908019
 20
152.666667
 30
0.0
 11
24.908019
 21
152.666667
 31
0.0
  0
LINE
  8
LY_1
  6
CONTINUOUS
 62
     3
  5
1EB
 10
-15.289063
 20
120.166667
 30
0.0
 11
-5.290161
 21
120.166667
 31
0.0
  0
ARC
  8
LY_1
  6
CONTINUOUS
 62
     3
  5
1EC
 10
-469.667495
 20
149.366667
 30
0.0
 40
494.586523
 50
356.789391
 51
0.382294
  0
ARC
  8
LY_1
  6
CONTINUOUS
 62
     3
  5
1ED
 10
469.667495
 20
149.366667
 30
0.0
 40
494.586523
 50
179.617706
 51
183.210609
  0
ARC
  8
LY_1
  6
CONTINUOUS
 62
     3
  5
1EE
 10
49.010497
 20
112.666667
 30
0.0
 40
3.0
 50
270.0
 51
352.26514
  0
LINE
  8
LY_1
  6
CONTINUOUS
 62
     3
  5
1EF
 10
-24.14273
 20
121.666667
 30
0.0
 11
24.14273
 21
121.666667
 31
0.0
  0
ARC
  8
LY_1
  6
CONTINUOUS
 62
     3
  5
1F0
 10
120.417898
 20
120.166667
 30
0.0
 40
135.706961
 50
180.0
 51
183.310036
  0
ARC
  8
LY_1
  6
CONTINUOUS
 62
     3
  5
1F1
 10
139.183281
 20
120.166667
 30
0.0
 40
144.473442
 50
180.0
 51
183.108984
  0
ARC
  8
LY_1
  6
CONTINUOUS
 62
     3
  5
1F2
 10
-12.432481
 20
112.297071
 30
0.0
 40
2.630404
 50
179.25883
 51
270.0
  0
ARC
  8
LY_1
  6
CONTINUOUS
 62
     3
  5
1F3
 10
-7.813014
 20
112.182516
 30
0.0
 40
2.739524
 50
293.313604
 51
3.108984
  0
ARC
  8
LY_1
  6
CONTINUOUS
 62
     3
  5
1F4
 10
7.813014
 20
112.182516
 30
0.0
 40
2.739524
 50
176.891016
 51
246.686396
  0
ARC
  8
LY_1
  6
CONTINUOUS
 62
     3
  5
1F5
 10
12.432481
 20
112.297071
 30
0.0
 40
2.630404
 50
270.0
 51
0.74117
  0
ARC
  8
LY_1
  6
CONTINUOUS
 62
     3
  5
1F6
 10
-139.183281
 20
120.166667
 30
0.0
 40
144.473442
 50
356.891016
 51
0.0
  0
ARC
  8
LY_1
  6
CONTINUOUS
 62
     3
  5
1F7
 10
-120.417898
 20
120.166667
 30
0.0
 40
135.706961
 50
356.689964
 51
0.0
  0
LINE
  8
LY_1
  6
CONTINUOUS
 62
     3
  5
1F8
 10
15.289063
 20
120.166667
 30
0.0
 11
5.290161
 21
120.166667
 31
0.0
  0
ARC
  8
LY_1
  6
CONTINUOUS
 62
     3
  5
1F9
 10
721.016922
 20
152.140874
 30
0.0
 40
754.976932
 50
179.960097
 51
182.992131
  0
ARC
  8
LY_1
  6
CONTINUOUS
 62
     3
  5
1FA
 10
634.960113
 20
152.140874
 30
0.0
 40
660.605426
 50
179.954397
 51
183.454884
  0
ARC
  8
LY_1
  6
CONTINUOUS
 62
     3
  5
1FB
 10
-29.70104
 20
112.900794
 30
0.0
 40
3.234128
 50
182.992131
 51
270.0
  0
ARC
  8
LY_1
  6
CONTINUOUS
 62
     3
  5
1FC
 10
-30.697466
 20
111.953603
 30
0.0
 40
6.264148
 50
338.587292
 51
3.454884
  0
ARC
  8
LY_1
  6
CONTINUOUS
 62
     3
  5
1FD
 10
257.506584
 20
152.140882
 30
0.0
 40
305.854981
 50
179.901505
 51
187.42926
  0
ARC
  8
LY_1
  6
CONTINUOUS
 62
     3
  5
1FE
 10
265.720844
 20
152.140866
 30
0.0
 40
308.391527
 50
179.902312
 51
187.416918
  0
ARC
  8
LY_1
  6
CONTINUOUS
 62
     3
  5
1FF
 10
-42.447885
 20
113.02782
 30
0.0
 40
3.361154
 50
187.42926
 51
270.0
  0
ARC
  8
LY_1
  6
CONTINUOUS
 62
     3
  5
200
 10
-32.624618
 20
113.302974
 30
0.0
 40
7.528774
 50
187.416918
 51
208.880732
  0
ARC
  8
LY_1
  6
CONTINUOUS
 62
     3
  5
201
 10
205.793811
 20
152.140882
 30
0.0
 40
260.472847
 50
179.884344
 51
188.840693
  0
ARC
  8
LY_1
  6
CONTINUOUS
 62
     3
  5
202
 10
208.426486
 20
152.140866
 30
0.0
 40
261.111775
 50
179.884623
 51
189.007222
  0
ARC
  8
LY_1
  6
CONTINUOUS
 62
     3
  5
203
 10
-48.732425
 20
112.553016
 30
0.0
 40
2.88635
 50
188.840693
 51
270.0
  0
ARC
  8
LY_1
  6
CONTINUOUS
 62
     3
  5
204
 10
-47.597894
 20
111.557508
 30
0.0
 40
1.890842
 50
189.007222
 51
270.0
  0
ARC
  8
LY_1
  6
CONTINUOUS
 62
     3
  5
205
 10
-634.960113
 20
152.140874
 30
0.0
 40
660.605426
 50
356.545116
 51
0.045603
  0
ARC
  8
LY_1
  6
CONTINUOUS
 62
     3
  5
206
 10
47.597894
 20
111.557508
 30
0.0
 40
1.890842
 50
270.0
 51
350.992778
  0
ARC
  8
LY_1
  6
CONTINUOUS
 62
     3
  5
207
 10
48.732425
 20
112.553016
 30
0.0
 40
2.88635
 50
270.0
 51
351.159307
  0
ARC
  8
LY_1
  6
CONTINUOUS
 62
     3
  5
208
 10
-208.426486
 20
152.140866
 30
0.0
 40
261.111775
 50
350.992778
 51
0.115377
  0
ARC
  8
LY_1
  6
CONTINUOUS
 62
     3
  5
209
 10
-205.793811
 20
152.140882
 30
0.0
 40
260.472847
 50
351.159307
 51
0.115656
  0
ARC
  8
LY_1
  6
CONTINUOUS
 62
     3
  5
20A
 10
32.624618
 20
113.302974
 30
0.0
 40
7.528774
 50
331.119268
 51
352.583082
  0
ARC
  8
LY_1
  6
CONTINUOUS
 62
     3
  5
20B
 10
42.447885
 20
113.02782
 30
0.0
 40
3.361154
 50
270.0
 51
352.57074
  0
ARC
  8
LY_1
  6
CONTINUOUS
 62
     3
  5
20C
 10
-265.720844
 20
152.140866
 30
0.0
 40
308.391527
 50
352.583082
 51
0.097688
  0
ARC
  8
LY_1
  6
CONTINUOUS
 62
     3
  5
20D
 10
-257.506584
 20
152.140882
 30
0.0
 40
305.854981
 50
352.57074
 51
0.098495
  0
ARC
  8
LY_1
  6
CONTINUOUS
 62
     3
  5
20E
 10
29.70104
 20
112.900794
 30
0.0
 40
3.234128
 50
270.0
 51
357.007869
  0
ARC
  8
LY_1
  6
CONTINUOUS
 62
     3
  5
20F
 10
-721.016922
 20
152.140874
 30
0.0
 40
754.976932
 50
357.007869
 51
0.039903
  0
ARC
  8
LY_1
  6
CONTINUOUS
 62
     3
  5
210
 10
30.697466
 20
111.953603
 30
0.0
 40
6.264148
 50
176.545116
 51
201.412708
  0
LINE
  8
LY_1
  6
CONTINUOUS
 62
    80
  5
211
 10
28.310889
 20
85.666667
 30
0.0
 11
28.310889
 21
96.666667
 31
0.0
  0
LINE
  8
LY_1
  6
CONTINUOUS
 62
    80
  5
212
 10
32.310889
 20
85.666667
 30
0.0
 11
32.310889
 21
96.666667
 31
0.0
  0
LINE
  8
LY_1
  6
CONTINUOUS
 62
    80
  5
213
 10
27.810889
 20
86.166667
 30
0.0
 11
32.810889
 21
86.166667
 31
0.0
  0
ARC
  8
LY_1
  6
CONTINUOUS
 62
     3
  5
214
 10
-7.890431
 20
108.666667
 30
0.0
 40
1.0
 50
3.17983
 51
90.0
  0
ARC
  8
LY_1
  6
CONTINUOUS
 62
     3
  5
215
 10
7.890431
 20
108.666667
 30
0.0
 40
1.0
 50
90.0
 51
176.82017
  0
LINE
  8
LY_1
  6
CONTINUOUS
 62
    80
  5
216
 10
-2.5
 20
86.166667
 30
0.0
 11
2.5
 21
86.166667
 31
0.0
  0
LINE
  8
LY_1
  6
CONTINUOUS
 62
    80
  5
217
 10
2.0
 20
85.666667
 30
0.0
 11
2.0
 21
96.666667
 31
0.0
  0
LINE
  8
LY_1
  6
CONTINUOUS
 62
    80
  5
218
 10
-2.0
 20
85.666667
 30
0.0
 11
-2.0
 21
96.666667
 31
0.0
  0
LINE
  8
LY_1
  6
CONTINUOUS
 62
     3
  5
219
 10
-2.5
 20
96.666667
 30
0.0
 11
-2.5
 21
86.166667
 31
0.0
  0
LINE
  8
LY_1
  6
CONTINUOUS
 62
     3
  5
21A
 10
2.5
 20
96.666667
 30
0.0
 11
2.5
 21
86.166667
 31
0.0
  0
LINE
  8
LY_1
  6
CONTINUOUS
 62
     3
  5
21B
 10
2.0
 20
85.666667
 30
0.0
 11
-2.0
 21
85.666667
 31
0.0
  0
LINE
  8
LY_1
  6
CONTINUOUS
 62
     3
  5
21C
 10
-2.5
 20
86.166667
 30
0.0
 11
-2.0
 21
85.666667
 31
0.0
  0
LINE
  8
LY_1
  6
CONTINUOUS
 62
     3
  5
21D
 10
2.0
 20
85.666667
 30
0.0
 11
2.5
 21
86.166667
 31
0.0
  0
LINE
  8
LY_1
  6
CONTINUOUS
 62
     3
  5
21E
 10
-6.891971
 20
108.722137
 30
0.0
 11
-6.552474
 21
102.611197
 31
0.0
  0
LINE
  8
LY_1
  6
CONTINUOUS
 62
     3
  5
21F
 10
6.552474
 20
102.611197
 30
0.0
 11
6.891971
 21
108.722137
 31
0.0
  0
ARC
  8
LY_1
  6
CONTINUOUS
 62
     3
  5
220
 10
-5.554014
 20
102.666667
 30
0.0
 40
1.0
 50
183.17983
 51
270.0
  0
ARC
  8
LY_1
  6
CONTINUOUS
 62
     3
  5
221
 10
5.554014
 20
102.666667
 30
0.0
 40
1.0
 50
270.0
 51
356.82017
  0
ARC
  8
LY_1
  6
CONTINUOUS
 62
     3
  5
222
 10
-38.20132
 20
108.666667
 30
0.0
 40
1.0
 50
3.17983
 51
90.0
  0
ARC
  8
LY_1
  6
CONTINUOUS
 62
     3
  5
223
 10
-22.420458
 20
108.666667
 30
0.0
 40
1.0
 50
90.0
 51
176.82017
  0
LINE
  8
LY_1
  6
CONTINUOUS
 62
    80
  5
224
 10
-32.810889
 20
86.166667
 30
0.0
 11
-27.810889
 21
86.166667
 31
0.0
  0
LINE
  8
LY_1
  6
CONTINUOUS
 62
    80
  5
225
 10
-28.310889
 20
85.666667
 30
0.0
 11
-28.310889
 21
96.666667
 31
0.0
  0
LINE
  8
LY_1
  6
CONTINUOUS
 62
    80
  5
226
 10
-32.310889
 20
85.666667
 30
0.0
 11
-32.310889
 21
96.666667
 31
0.0
  0
LINE
  8
LY_1
  6
CONTINUOUS
 62
     3
  5
227
 10
-32.810889
 20
96.666667
 30
0.0
 11
-32.810889
 21
86.166667
 31
0.0
  0
LINE
  8
LY_1
  6
CONTINUOUS
 62
     3
  5
228
 10
-27.810889
 20
96.666667
 30
0.0
 11
-27.810889
 21
86.166667
 31
0.0
  0
LINE
  8
LY_1
  6
CONTINUOUS
 62
     3
  5
229
 10
-28.310889
 20
85.666667
 30
0.0
 11
-32.310889
 21
85.666667
 31
0.0
  0
LINE
  8
LY_1
  6
CONTINUOUS
 62
     3
  5
22A
 10
-32.810889
 20
86.166667
 30
0.0
 11
-32.310889
 21
85.666667
 31
0.0
  0
LINE
  8
LY_1
  6
CONTINUOUS
 62
     3
  5
22B
 10
-28.310889
 20
85.666667
 30
0.0
 11
-27.810889
 21
86.166667
 31
0.0
  0
LINE
  8
LY_1
  6
CONTINUOUS
 62
     3
  5
22C
 10
-37.20286
 20
108.722137
 30
0.0
 11
-36.863363
 21
102.611197
 31
0.0
  0
LINE
  8
LY_1
  6
CONTINUOUS
 62
     3
  5
22D
 10
-23.758415
 20
102.611197
 30
0.0
 11
-23.418919
 21
108.722137
 31
0.0
  0
ARC
  8
LY_1
  6
CONTINUOUS
 62
     3
  5
22E
 10
-35.864903
 20
102.666667
 30
0.0
 40
1.0
 50
183.17983
 51
270.0
  0
ARC
  8
LY_1
  6
CONTINUOUS
 62
     3
  5
22F
 10
-24.756876
 20
102.666667
 30
0.0
 40
1.0
 50
270.0
 51
356.82017
  0
POLYLINE
  8
LY_1
  6
CONTINUOUS
 62
     3
  5
230
 66
     1
 10
0.0
 20
0.0
 30
0.0
  0
VERTEX
  8
LY_1
  6
CONTINUOUS
 62
     3
  5
237
 10
-52.684759
 20
152.666667
 30
0.0
  0
VERTEX
  8
LY_1
  6
CONTINUOUS
 62
     3
  5
238
 10
-52.693288
 20
153.319298
 30
0.0
  0
VERTEX
  8
LY_1
  6
CONTINUOUS
 62
     3
  5
239
 10
-52.718727
 20
153.960762
 30
0.0
  0
VERTEX
  8
LY_1
  6
CONTINUOUS
 62
     3
  5
23A
 10
-52.760642
 20
154.580084
 30
0.0
  0
VERTEX
  8
LY_1
  6
CONTINUOUS
 62
     3
  5
23B
 10
-52.818315
 20
155.166667
 30
0.0
  0
VERTEX
  8
LY_1
  6
CONTINUOUS
 62
     3
  5
23C
 10
-52.89076
 20
155.710474
 30
0.0
  0
VERTEX
  8
LY_1
  6
CONTINUOUS
 62
     3
  5
23D
 10
-52.976737
 20
156.202201
 30
0.0
  0
VERTEX
  8
LY_1
  6
CONTINUOUS
 62
     3
  5
23E
 10
-53.074774
 20
156.633433
 30
0.0
  0
VERTEX
  8
LY_1
  6
CONTINUOUS
 62
     3
  5
23F
 10
-53.183196
 20
156.996794
 30
0.0
  0
VERTEX
  8
LY_1
  6
CONTINUOUS
 62
     3
  5
240
 10
-53.300146
 20
157.286064
 30
0.0
  0
VERTEX
  8
LY_1
  6
CONTINUOUS
 62
     3
  5
241
 10
-53.423623
 20
157.496296
 30
0.0
  0
VERTEX
  8
LY_1
  6
CONTINUOUS
 62
     3
  5
242
 10
-53.551514
 20
157.623891
 30
0.0
  0
VERTEX
  8
LY_1
  6
CONTINUOUS
 62
     3
  5
243
 10
-53.681632
 20
157.666667
 30
0.0
  0
VERTEX
  8
LY_1
  6
CONTINUOUS
 62
     3
  5
244
 10
-53.81175
 20
157.623891
 30
0.0
  0
VERTEX
  8
LY_1
  6
CONTINUOUS
 62
     3
  5
245
 10
-53.939642
 20
157.496296
 30
0.0
  0
VERTEX
  8
LY_1
  6
CONTINUOUS
 62
     3
  5
246
 10
-54.063119
 20
157.286064
 30
0.0
  0
VERTEX
  8
LY_1
  6
CONTINUOUS
 62
     3
  5
247
 10
-54.180069
 20
156.996794
 30
0.0
  0
VERTEX
  8
LY_1
  6
CONTINUOUS
 62
     3
  5
248
 10
-54.28849
 20
156.633433
 30
0.0
  0
VERTEX
  8
LY_1
  6
CONTINUOUS
 62
     3
  5
249
 10
-54.386528
 20
156.202201
 30
0.0
  0
VERTEX
  8
LY_1
  6
CONTINUOUS
 62
     3
  5
24A
 10
-54.472505
 20
155.710474
 30
0.0
  0
VERTEX
  8
LY_1
  6
CONTINUOUS
 62
     3
  5
24B
 10
-54.54495
 20
155.166667
 30
0.0
  0
VERTEX
  8
LY_1
  6
CONTINUOUS
 62
     3
  5
24C
 10
-54.602623
 20
154.580084
 30
0.0
  0
VERTEX
  8
LY_1
  6
CONTINUOUS
 62
     3
  5
24D
 10
-54.644538
 20
153.960762
 30
0.0
  0
VERTEX
  8
LY_1
  6
CONTINUOUS
 62
     3
  5
24E
 10
-54.669977
 20
153.319298
 30
0.0
  0
VERTEX
  8
LY_1
  6
CONTINUOUS
 62
     3
  5
24F
 10
-54.678506
 20
152.666667
 30
0.0
  0
SEQEND
  8
LY_1
  6
CONTINUOUS
 62
     3
  5
250
  0
POLYLINE
  8
LY_1
  6
CONTINUOUS
 62
     3
  5
231
 66
     1
 10
0.0
 20
0.0
 30
0.0
  0
VERTEX
  8
LY_1
  6
CONTINUOUS
 62
     3
  5
251
 10
-42.670235
 20
152.666674
 30
0.0
  0
VERTEX
  8
LY_1
  6
CONTINUOUS
 62
     3
  5
252
 10
-42.694522
 20
153.319305
 30
0.0
  0
VERTEX
  8
LY_1
  6
CONTINUOUS
 62
     3
  5
253
 10
-42.766968
 20
153.960769
 30
0.0
  0
VERTEX
  8
LY_1
  6
CONTINUOUS
 62
     3
  5
254
 10
-42.886332
 20
154.580091
 30
0.0
  0
VERTEX
  8
LY_1
  6
CONTINUOUS
 62
     3
  5
255
 10
-43.050572
 20
155.166673
 30
0.0
  0
VERTEX
  8
LY_1
  6
CONTINUOUS
 62
     3
  5
256
 10
-43.256877
 20
155.71048
 30
0.0
  0
VERTEX
  8
LY_1
  6
CONTINUOUS
 62
     3
  5
257
 10
-43.501719
 20
156.202206
 30
0.0
  0
VERTEX
  8
LY_1
  6
CONTINUOUS
 62
     3
  5
258
 10
-43.780908
 20
156.633438
 30
0.0
  0
VERTEX
  8
LY_1
  6
CONTINUOUS
 62
     3
  5
259
 10
-44.089666
 20
156.996797
 30
0.0
  0
VERTEX
  8
LY_1
  6
CONTINUOUS
 62
     3
  5
25A
 10
-44.422711
 20
157.286067
 30
0.0
  0
VERTEX
  8
LY_1
  6
CONTINUOUS
 62
     3
  5
25B
 10
-44.774344
 20
157.496298
 30
0.0
  0
VERTEX
  8
LY_1
  6
CONTINUOUS
 62
     3
  5
25C
 10
-45.138549
 20
157.623892
 30
0.0
  0
VERTEX
  8
LY_1
  6
CONTINUOUS
 62
     3
  5
25D
 10
-45.509094
 20
157.666667
 30
0.0
  0
VERTEX
  8
LY_1
  6
CONTINUOUS
 62
     3
  5
25E
 10
-45.879639
 20
157.62389
 30
0.0
  0
VERTEX
  8
LY_1
  6
CONTINUOUS
 62
     3
  5
25F
 10
-46.243844
 20
157.496294
 30
0.0
  0
VERTEX
  8
LY_1
  6
CONTINUOUS
 62
     3
  5
260
 10
-46.595476
 20
157.286061
 30
0.0
  0
VERTEX
  8
LY_1
  6
CONTINUOUS
 62
     3
  5
261
 10
-46.928521
 20
156.99679
 30
0.0
  0
VERTEX
  8
LY_1
  6
CONTINUOUS
 62
     3
  5
262
 10
-47.237278
 20
156.633429
 30
0.0
  0
VERTEX
  8
LY_1
  6
CONTINUOUS
 62
     3
  5
263
 10
-47.516466
 20
156.202195
 30
0.0
  0
VERTEX
  8
LY_1
  6
CONTINUOUS
 62
     3
  5
264
 10
-47.761307
 20
155.710468
 30
0.0
  0
VERTEX
  8
LY_1
  6
CONTINUOUS
 62
     3
  5
265
 10
-47.967612
 20
155.16666
 30
0.0
  0
VERTEX
  8
LY_1
  6
CONTINUOUS
 62
     3
  5
266
 10
-48.131851
 20
154.580077
 30
0.0
  0
VERTEX
  8
LY_1
  6
CONTINUOUS
 62
     3
  5
267
 10
-48.251214
 20
153.960755
 30
0.0
  0
VERTEX
  8
LY_1
  6
CONTINUOUS
 62
     3
  5
268
 10
-48.323658
 20
153.31929
 30
0.0
  0
VERTEX
  8
LY_1
  6
CONTINUOUS
 62
     3
  5
269
 10
-48.347945
 20
152.666659
 30
0.0
  0
VERTEX
  8
LY_1
  6
CONTINUOUS
 62
     3
  5
26A
 10
-48.347945
 20
152.666659
 30
0.0
  0
SEQEND
  8
LY_1
  6
CONTINUOUS
 62
     3
  5
26B
  0
POLYLINE
  8
LY_1
  6
CONTINUOUS
 62
     3
  5
232
 66
     1
 10
0.0
 20
0.0
 30
0.0
  0
VERTEX
  8
LY_1
  6
CONTINUOUS
 62
     3
  5
26C
 10
-25.645104
 20
152.666667
 30
0.0
  0
VERTEX
  8
LY_1
  6
CONTINUOUS
 62
     3
  5
26D
 10
-25.680671
 20
153.319298
 30
0.0
  0
VERTEX
  8
LY_1
  6
CONTINUOUS
 62
     3
  5
26E
 10
-25.786763
 20
153.960762
 30
0.0
  0
VERTEX
  8
LY_1
  6
CONTINUOUS
 62
     3
  5
26F
 10
-25.961564
 20
154.580084
 30
0.0
  0
VERTEX
  8
LY_1
  6
CONTINUOUS
 62
     3
  5
270
 10
-26.202085
 20
155.166667
 30
0.0
  0
VERTEX
  8
LY_1
  6
CONTINUOUS
 62
     3
  5
271
 10
-26.504209
 20
155.710474
 30
0.0
  0
VERTEX
  8
LY_1
  6
CONTINUOUS
 62
     3
  5
272
 10
-26.862767
 20
156.202201
 30
0.0
  0
VERTEX
  8
LY_1
  6
CONTINUOUS
 62
     3
  5
273
 10
-27.271624
 20
156.633433
 30
0.0
  0
VERTEX
  8
LY_1
  6
CONTINUOUS
 62
     3
  5
274
 10
-27.723785
 20
156.996794
 30
0.0
  0
VERTEX
  8
LY_1
  6
CONTINUOUS
 62
     3
  5
275
 10
-28.211512
 20
157.286064
 30
0.0
  0
VERTEX
  8
LY_1
  6
CONTINUOUS
 62
     3
  5
276
 10
-28.726461
 20
157.496296
 30
0.0
  0
VERTEX
  8
LY_1
  6
CONTINUOUS
 62
     3
  5
277
 10
-29.259821
 20
157.623891
 30
0.0
  0
VERTEX
  8
LY_1
  6
CONTINUOUS
 62
     3
  5
278
 10
-29.802465
 20
157.666667
 30
0.0
  0
VERTEX
  8
LY_1
  6
CONTINUOUS
 62
     3
  5
279
 10
-30.34511
 20
157.623891
 30
0.0
  0
VERTEX
  8
LY_1
  6
CONTINUOUS
 62
     3
  5
27A
 10
-30.87847
 20
157.496296
 30
0.0
  0
VERTEX
  8
LY_1
  6
CONTINUOUS
 62
     3
  5
27B
 10
-31.393419
 20
157.286064
 30
0.0
  0
VERTEX
  8
LY_1
  6
CONTINUOUS
 62
     3
  5
27C
 10
-31.881146
 20
156.996794
 30
0.0
  0
VERTEX
  8
LY_1
  6
CONTINUOUS
 62
     3
  5
27D
 10
-32.333306
 20
156.633433
 30
0.0
  0
VERTEX
  8
LY_1
  6
CONTINUOUS
 62
     3
  5
27E
 10
-32.742164
 20
156.202201
 30
0.0
  0
VERTEX
  8
LY_1
  6
CONTINUOUS
 62
     3
  5
27F
 10
-33.100722
 20
155.710474
 30
0.0
  0
VERTEX
  8
LY_1
  6
CONTINUOUS
 62
     3
  5
280
 10
-33.402846
 20
155.166667
 30
0.0
  0
VERTEX
  8
LY_1
  6
CONTINUOUS
 62
     3
  5
281
 10
-33.643366
 20
154.580084
 30
0.0
  0
VERTEX
  8
LY_1
  6
CONTINUOUS
 62
     3
  5
282
 10
-33.818168
 20
153.960762
 30
0.0
  0
VERTEX
  8
LY_1
  6
CONTINUOUS
 62
     3
  5
283
 10
-33.92426
 20
153.319298
 30
0.0
  0
VERTEX
  8
LY_1
  6
CONTINUOUS
 62
     3
  5
284
 10
-33.959826
 20
152.666667
 30
0.0
  0
VERTEX
  8
LY_1
  6
CONTINUOUS
 62
     3
  5
285
 10
-33.959826
 20
152.666667
 30
0.0
  0
SEQEND
  8
LY_1
  6
CONTINUOUS
 62
     3
  5
286
  0
POLYLINE
  8
LY_1
  6
CONTINUOUS
 62
     3
  5
233
 66
     1
 10
0.0
 20
0.0
 30
0.0
  0
VERTEX
  8
LY_1
  6
CONTINUOUS
 62
     3
  5
287
 10
52.684759
 20
152.666667
 30
0.0
  0
VERTEX
  8
LY_1
  6
CONTINUOUS
 62
     3
  5
288
 10
52.693288
 20
153.319298
 30
0.0
  0
VERTEX
  8
LY_1
  6
CONTINUOUS
 62
     3
  5
289
 10
52.718727
 20
153.960762
 30
0.0
  0
VERTEX
  8
LY_1
  6
CONTINUOUS
 62
     3
  5
28A
 10
52.760642
 20
154.580084
 30
0.0
  0
VERTEX
  8
LY_1
  6
CONTINUOUS
 62
     3
  5
28B
 10
52.818315
 20
155.166667
 30
0.0
  0
VERTEX
  8
LY_1
  6
CONTINUOUS
 62
     3
  5
28C
 10
52.89076
 20
155.710474
 30
0.0
  0
VERTEX
  8
LY_1
  6
CONTINUOUS
 62
     3
  5
28D
 10
52.976737
 20
156.202201
 30
0.0
  0
VERTEX
  8
LY_1
  6
CONTINUOUS
 62
     3
  5
28E
 10
53.074774
 20
156.633433
 30
0.0
  0
VERTEX
  8
LY_1
  6
CONTINUOUS
 62
     3
  5
28F
 10
53.183196
 20
156.996794
 30
0.0
  0
VERTEX
  8
LY_1
  6
CONTINUOUS
 62
     3
  5
290
 10
53.300146
 20
157.286064
 30
0.0
  0
VERTEX
  8
LY_1
  6
CONTINUOUS
 62
     3
  5
291
 10
53.423623
 20
157.496296
 30
0.0
  0
VERTEX
  8
LY_1
  6
CONTINUOUS
 62
     3
  5
292
 10
53.551514
 20
157.623891
 30
0.0
  0
VERTEX
  8
LY_1
  6
CONTINUOUS
 62
     3
  5
293
 10
53.681632
 20
157.666667
 30
0.0
  0
VERTEX
  8
LY_1
  6
CONTINUOUS
 62
     3
  5
294
 10
53.81175
 20
157.623891
 30
0.0
  0
VERTEX
  8
LY_1
  6
CONTINUOUS
 62
     3
  5
295
 10
53.939642
 20
157.496296
 30
0.0
  0
VERTEX
  8
LY_1
  6
CONTINUOUS
 62
     3
  5
296
 10
54.063119
 20
157.286064
 30
0.0
  0
VERTEX
  8
LY_1
  6
CONTINUOUS
 62
     3
  5
297
 10
54.180069
 20
156.996794
 30
0.0
  0
VERTEX
  8
LY_1
  6
CONTINUOUS
 62
     3
  5
298
 10
54.28849
 20
156.633433
 30
0.0
  0
VERTEX
  8
LY_1
  6
CONTINUOUS
 62
     3
  5
299
 10
54.386528
 20
156.202201
 30
0.0
  0
VERTEX
  8
LY_1
  6
CONTINUOUS
 62
     3
  5
29A
 10
54.472505
 20
155.710474
 30
0.0
  0
VERTEX
  8
LY_1
  6
CONTINUOUS
 62
     3
  5
29B
 10
54.54495
 20
155.166667
 30
0.0
  0
VERTEX
  8
LY_1
  6
CONTINUOUS
 62
     3
  5
29C
 10
54.602623
 20
154.580084
 30
0.0
  0
VERTEX
  8
LY_1
  6
CONTINUOUS
 62
     3
  5
29D
 10
54.644538
 20
153.960762
 30
0.0
  0
VERTEX
  8
LY_1
  6
CONTINUOUS
 62
     3
  5
29E
 10
54.669977
 20
153.319298
 30
0.0
  0
VERTEX
  8
LY_1
  6
CONTINUOUS
 62
     3
  5
29F
 10
54.678506
 20
152.666667
 30
0.0
  0
VERTEX
  8
LY_1
  6
CONTINUOUS
 62
     3
  5
2A0
 10
54.678506
 20
152.666667
 30
0.0
  0
SEQEND
  8
LY_1
  6
CONTINUOUS
 62
     3
  5
2A1
  0
POLYLINE
  8
LY_1
  6
CONTINUOUS
 62
     3
  5
234
 66
     1
 10
0.0
 20
0.0
 30
0.0
  0
VERTEX
  8
LY_1
  6
CONTINUOUS
 62
     3
  5
2A2
 10
42.670235
 20
152.666674
 30
0.0
  0
VERTEX
  8
LY_1
  6
CONTINUOUS
 62
     3
  5
2A3
 10
42.694522
 20
153.319305
 30
0.0
  0
VERTEX
  8
LY_1
  6
CONTINUOUS
 62
     3
  5
2A4
 10
42.766968
 20
153.960769
 30
0.0
  0
VERTEX
  8
LY_1
  6
CONTINUOUS
 62
     3
  5
2A5
 10
42.886332
 20
154.580091
 30
0.0
  0
VERTEX
  8
LY_1
  6
CONTINUOUS
 62
     3
  5
2A6
 10
43.050572
 20
155.166673
 30
0.0
  0
VERTEX
  8
LY_1
  6
CONTINUOUS
 62
     3
  5
2A7
 10
43.256877
 20
155.71048
 30
0.0
  0
VERTEX
  8
LY_1
  6
CONTINUOUS
 62
     3
  5
2A8
 10
43.501719
 20
156.202206
 30
0.0
  0
VERTEX
  8
LY_1
  6
CONTINUOUS
 62
     3
  5
2A9
 10
43.780908
 20
156.633438
 30
0.0
  0
VERTEX
  8
LY_1
  6
CONTINUOUS
 62
     3
  5
2AA
 10
44.089666
 20
156.996797
 30
0.0
  0
VERTEX
  8
LY_1
  6
CONTINUOUS
 62
     3
  5
2AB
 10
44.422711
 20
157.286067
 30
0.0
  0
VERTEX
  8
LY_1
  6
CONTINUOUS
 62
     3
  5
2AC
 10
44.774344
 20
157.496298
 30
0.0
  0
VERTEX
  8
LY_1
  6
CONTINUOUS
 62
     3
  5
2AD
 10
45.138549
 20
157.623892
 30
0.0
  0
VERTEX
  8
LY_1
  6
CONTINUOUS
 62
     3
  5
2AE
 10
45.509094
 20
157.666667
 30
0.0
  0
VERTEX
  8
LY_1
  6
CONTINUOUS
 62
     3
  5
2AF
 10
45.879639
 20
157.62389
 30
0.0
  0
VERTEX
  8
LY_1
  6
CONTINUOUS
 62
     3
  5
2B0
 10
46.243844
 20
157.496294
 30
0.0
  0
VERTEX
  8
LY_1
  6
CONTINUOUS
 62
     3
  5
2B1
 10
46.595476
 20
157.286061
 30
0.0
  0
VERTEX
  8
LY_1
  6
CONTINUOUS
 62
     3
  5
2B2
 10
46.928521
 20
156.99679
 30
0.0
  0
VERTEX
  8
LY_1
  6
CONTINUOUS
 62
     3
  5
2B3
 10
47.237278
 20
156.633429
 30
0.0
  0
VERTEX
  8
LY_1
  6
CONTINUOUS
 62
     3
  5
2B4
 10
47.516466
 20
156.202195
 30
0.0
  0
VERTEX
  8
LY_1
  6
CONTINUOUS
 62
     3
  5
2B5
 10
47.761307
 20
155.710468
 30
0.0
  0
VERTEX
  8
LY_1
  6
CONTINUOUS
 62
     3
  5
2B6
 10
47.967612
 20
155.16666
 30
0.0
  0
VERTEX
  8
LY_1
  6
CONTINUOUS
 62
     3
  5
2B7
 10
48.131851
 20
154.580077
 30
0.0
  0
VERTEX
  8
LY_1
  6
CONTINUOUS
 62
     3
  5
2B8
 10
48.251214
 20
153.960755
 30
0.0
  0
VERTEX
  8
LY_1
  6
CONTINUOUS
 62
     3
  5
2B9
 10
48.323658
 20
153.31929
 30
0.0
  0
VERTEX
  8
LY_1
  6
CONTINUOUS
 62
     3
  5
2BA
 10
48.347945
 20
152.666659
 30
0.0
  0
SEQEND
  8
LY_1
  6
CONTINUOUS
 62
     3
  5
2BB
  0
POLYLINE
  8
LY_1
  6
CONTINUOUS
 62
     3
  5
235
 66
     1
 10
0.0
 20
0.0
 30
0.0
  0
VERTEX
  8
LY_1
  6
CONTINUOUS
 62
     3
  5
2BC
 10
25.645104
 20
152.666667
 30
0.0
  0
VERTEX
  8
LY_1
  6
CONTINUOUS
 62
     3
  5
2BD
 10
25.680671
 20
153.319298
 30
0.0
  0
VERTEX
  8
LY_1
  6
CONTINUOUS
 62
     3
  5
2BE
 10
25.786763
 20
153.960762
 30
0.0
  0
VERTEX
  8
LY_1
  6
CONTINUOUS
 62
     3
  5
2BF
 10
25.961564
 20
154.580084
 30
0.0
  0
VERTEX
  8
LY_1
  6
CONTINUOUS
 62
     3
  5
2C0
 10
26.202085
 20
155.166667
 30
0.0
  0
VERTEX
  8
LY_1
  6
CONTINUOUS
 62
     3
  5
2C1
 10
26.504209
 20
155.710474
 30
0.0
  0
VERTEX
  8
LY_1
  6
CONTINUOUS
 62
     3
  5
2C2
 10
26.862767
 20
156.202201
 30
0.0
  0
VERTEX
  8
LY_1
  6
CONTINUOUS
 62
     3
  5
2C3
 10
27.271624
 20
156.633433
 30
0.0
  0
VERTEX
  8
LY_1
  6
CONTINUOUS
 62
     3
  5
2C4
 10
27.723785
 20
156.996794
 30
0.0
  0
VERTEX
  8
LY_1
  6
CONTINUOUS
 62
     3
  5
2C5
 10
28.211512
 20
157.286064
 30
0.0
  0
VERTEX
  8
LY_1
  6
CONTINUOUS
 62
     3
  5
2C6
 10
28.726461
 20
157.496296
 30
0.0
  0
VERTEX
  8
LY_1
  6
CONTINUOUS
 62
     3
  5
2C7
 10
29.259821
 20
157.623891
 30
0.0
  0
VERTEX
  8
LY_1
  6
CONTINUOUS
 62
     3
  5
2C8
 10
29.802465
 20
157.666667
 30
0.0
  0
VERTEX
  8
LY_1
  6
CONTINUOUS
 62
     3
  5
2C9
 10
30.34511
 20
157.623891
 30
0.0
  0
VERTEX
  8
LY_1
  6
CONTINUOUS
 62
     3
  5
2CA
 10
30.87847
 20
157.496296
 30
0.0
  0
VERTEX
  8
LY_1
  6
CONTINUOUS
 62
     3
  5
2CB
 10
31.393419
 20
157.286064
 30
0.0
  0
VERTEX
  8
LY_1
  6
CONTINUOUS
 62
     3
  5
2CC
 10
31.881146
 20
156.996794
 30
0.0
  0
VERTEX
  8
LY_1
  6
CONTINUOUS
 62
     3
  5
2CD
 10
32.333306
 20
156.633433
 30
0.0
  0
VERTEX
  8
LY_1
  6
CONTINUOUS
 62
     3
  5
2CE
 10
32.742164
 20
156.202201
 30
0.0
  0
VERTEX
  8
LY_1
  6
CONTINUOUS
 62
     3
  5
2CF
 10
33.100722
 20
155.710474
 30
0.0
  0
VERTEX
  8
LY_1
  6
CONTINUOUS
 62
     3
  5
2D0
 10
33.402846
 20
155.166667
 30
0.0
  0
VERTEX
  8
LY_1
  6
CONTINUOUS
 62
     3
  5
2D1
 10
33.643366
 20
154.580084
 30
0.0
  0
VERTEX
  8
LY_1
  6
CONTINUOUS
 62
     3
  5
2D2
 10
33.818168
 20
153.960762
 30
0.0
  0
VERTEX
  8
LY_1
  6
CONTINUOUS
 62
     3
  5
2D3
 10
33.92426
 20
153.319298
 30
0.0
  0
VERTEX
  8
LY_1
  6
CONTINUOUS
 62
     3
  5
2D4
 10
33.959826
 20
152.666667
 30
0.0
  0
VERTEX
  8
LY_1
  6
CONTINUOUS
 62
     3
  5
2D5
 10
33.959826
 20
152.666667
 30
0.0
  0
SEQEND
  8
LY_1
  6
CONTINUOUS
 62
     3
  5
2D6
  0
ENDSEC
  0
EOF
