  0
SECTION
  2
HEADER
  9
$ACADVER
  1
AC1009
  9
$DWGCODEPAGE
  3
dos932
  9
$INSBASE
 10
0.0
 20
0.0
 30
0.0
  9
$EXTMIN
 10
-55.0
 20
-169.694972
 30
0.0
  9
$EXTMAX
 10
55.010818
 20
153.0
 30
0.0
  9
$LIMMIN
 10
-55.0
 20
-169.694972
  9
$LIMMAX
 10
55.010818
 20
153.0
  9
$ORTHOMODE
 70
     0
  9
$REGENMODE
 70
     1
  9
$FILLMODE
 70
     1
  9
$QTEXTMODE
 70
     0
  9
$MIRRTEXT
 70
     1
  9
$DRAGMODE
 70
     2
  9
$LTSCALE
 40
1.0
  9
$OSMODE
 70
     0
  9
$ATTMODE
 70
     1
  9
$TEXTSIZE
 40
4.1656
  9
$TRACEWID
 40
0.05
  9
$TEXTSTYLE
  7
MX_NOTE_STANDARD
  9
$CLAYER
  8
LY_1
  9
$CELTYPE
  6
CONTINUOUS
  9
$CECOLOR
 62
   256
  9
$DIMSCALE
 40
1.0
  9
$DIMASZ
 40
2.5
  9
$DIMEXO
 40
0.5
  9
$DIMDLI
 40
3.75
  9
$DIMRND
 40
0.0
  9
$DIMDLE
 40
0.0
  9
$DIMEXE
 40
1.0
  9
$DIMTP
 40
0.0
  9
$DIMTM
 40
0.0
  9
$DIMTXT
 40
2.5
  9
$DIMCEN
 40
2.5
  9
$DIMTSZ
 40
0.0
  9
$DIMTOL
 70
     0
  9
$DIMLIM
 70
     0
  9
$DIMTIH
 70
     0
  9
$DIMTOH
 70
     0
  9
$DIMSE1
 70
     0
  9
$DIMSE2
 70
     0
  9
$DIMTAD
 70
     1
  9
$DIMZIN
 70
     8
  9
$DIMBLK
  1

  9
$DIMASO
 70
     1
  9
$DIMSHO
 70
     1
  9
$DIMPOST
  1

  9
$DIMAPOST
  1

  9
$DIMALT
 70
     0
  9
$DIMALTD
 70
     4
  9
$DIMALTF
 40
0.03937
  9
$DIMLFAC
 40
1.0
  9
$DIMTOFL
 70
     1
  9
$DIMTVP
 40
0.0
  9
$DIMTIX
 70
     0
  9
$DIMSOXD
 70
     0
  9
$DIMSAH
 70
     0
  9
$DIMBLK1
  1

  9
$DIMBLK2
  1

  9
$DIMSTYLE
  2
MXDIMSTYLE
  9
$DIMCLRD
 70
     0
  9
$DIMCLRE
 70
     0
  9
$DIMCLRT
 70
     0
  9
$DIMTFAC
 40
1.0
  9
$DIMGAP
 40
1.0
  9
$LUNITS
 70
     2
  9
$LUPREC
 70
     4
  9
$AXISMODE
 70
     0
  9
$AXISUNIT
 10
0.0
 20
0.0
  9
$SKETCHINC
 40
0.1
  9
$FILLETRAD
 40
0.0
  9
$AUNITS
 70
     0
  9
$AUPREC
 70
     0
  9
$MENU
  1
acad
  9
$ELEVATION
 40
0.0
  9
$PELEVATION
 40
0.0
  9
$THICKNESS
 40
0.0
  9
$LIMCHECK
 70
     0
  9
$BLIPMODE
 70
     1
  9
$CHAMFERA
 40
0.0
  9
$CHAMFERB
 40
0.0
  9
$SKPOLY
 70
     0
  9
$TDCREATE
 40
2453676.660949074
  9
$TDUPDATE
 40
2453676.660949074
  9
$TDINDWG
 40
0.0000000000
  9
$TDUSRTIMER
 40
0.0000000000
  9
$USRTIMER
 70
     1
  9
$ANGBASE
 50
0.0
  9
$ANGDIR
 70
     0
  9
$PDMODE
 70
     0
  9
$PDSIZE
 40
0.0
  9
$PLINEWID
 40
0.0
  9
$COORDS
 70
     1
  9
$SPLFRAME
 70
     0
  9
$SPLINETYPE
 70
     6
  9
$SPLINESEGS
 70
     8
  9
$ATTDIA
 70
     0
  9
$ATTREQ
 70
     1
  9
$HANDLING
 70
     1
  9
$HANDSEED
  5
D25
  9
$SURFTAB1
 70
     6
  9
$SURFTAB2
 70
     6
  9
$SURFTYPE
 70
     6
  9
$SURFU
 70
     6
  9
$SURFV
 70
     6
  9
$UCSNAME
  2

  9
$UCSORG
 10
0.0
 20
0.0
 30
0.0
  9
$UCSXDIR
 10
1.0
 20
0.0
 30
0.0
  9
$UCSYDIR
 10
0.0
 20
1.0
 30
0.0
  9
$PUCSNAME
  2

  9
$PUCSORG
 10
0.0
 20
0.0
 30
0.0
  9
$PUCSXDIR
 10
1.0
 20
0.0
 30
0.0
  9
$PUCSYDIR
 10
0.0
 20
1.0
 30
0.0
  9
$USERI1
 70
     0
  9
$USERI2
 70
     0
  9
$USERI3
 70
     0
  9
$USERI4
 70
     0
  9
$USERI5
 70
     0
  9
$USERR1
 40
0.0
  9
$USERR2
 40
0.0
  9
$USERR3
 40
0.0
  9
$USERR4
 40
0.0
  9
$USERR5
 40
0.0
  9
$WORLDVIEW
 70
     1
  9
$SHADEDGE
 70
     3
  9
$SHADEDIF
 70
    70
  9
$TILEMODE
 70
     1
  9
$MAXACTVP
 70
    16
  9
$PINSBASE
 10
0.0
 20
0.0
 30
0.0
  9
$PLIMCHECK
 70
     0
  9
$PEXTMIN
 10
1.000000E+20
 20
1.000000E+20
 30
1.000000E+20
  9
$PEXTMAX
 10
-1.000000E+20
 20
-1.000000E+20
 30
-1.000000E+20
  9
$PLIMMIN
 10
0.0
 20
0.0
  9
$PLIMMAX
 10
12.0
 20
9.0
  9
$UNITMODE
 70
     0
  9
$VISRETAIN
 70
     0
  9
$PLINEGEN
 70
     1
  9
$PSLTSCALE
 70
     0
  9
$TREEDEPTH
 70
  3020
  9
$DWGCODEPAGE
  3
dos932
  0
ENDSEC
  0
SECTION
  2
TABLES
  0
TABLE
  2
VPORT
 70
     1
  0
VPORT
  2
*ACTIVE
 70
     0
 10
0.0
 20
0.0
 11
1.0
 21
1.0
 12
0.005409
 22
-8.347486
 13
0.0
 23
0.0
 14
1.0
 24
1.0
 15
0.0
 25
0.0
 16
0.0
 26
0.0
 36
1.0
 17
0.0
 27
0.0
 37
0.0
 40
325.921922
 41
1.732051
 42
50.0
 43
0.0
 44
0.0
 50
0.0
 51
0.0
 71
     0
 72
   100
 73
     1
 74
     1
 75
     0
 76
     0
 77
     0
 78
     0
  0
ENDTAB
  0
TABLE
  2
LTYPE
 70
     1
  0
LTYPE
  2
CONTINUOUS
 70
    64
  3
Solid line
 72
    65
 73
     0
 40
0.0
  0
ENDTAB
  0
TABLE
  2
LAYER
 70
     3
  0
LAYER
  2
0
 70
     0
 62
     7
  6
CONTINUOUS
  0
LAYER
  2
LY_1
 70
     0
 62
     7
  6
CONTINUOUS
  0
LAYER
  2
DEFPOINTS
 70
     0
 62
     7
  6
CONTINUOUS
  0
ENDTAB
  0
TABLE
  2
STYLE
 70
     1
  0
STYLE
  2
MX_NOTE_STANDARD
 70
     0
 40
0.0
 41
1.0
 50
0.0
 71
     0
 42
4.1656
  3
txt.shx
  4
extfont.shx
  0
ENDTAB
  0
TABLE
  2
VIEW
 70
     0
  0
ENDTAB
  0
TABLE
  2
UCS
 70
     0
  0
ENDTAB
  0
TABLE
  2
APPID
 70
     1
  0
APPID
  2
ACAD
 70
     0
  0
ENDTAB
  0
TABLE
  2
DIMSTYLE
 70
     1
  0
DIMSTYLE
  2
MXDIMSTYLE
 70
     0
  3

  4

  5

  6

  7

 40
1.0
 41
2.5
 42
0.5
 43
3.75
 44
1.0
 45
0.0
 46
0.0
 47
0.0
 48
0.0
 71
     0
 72
     0
 73
     0
 74
     0
 75
     0
 76
     0
 77
     1
 78
     8
140
2.5
141
2.5
142
0.0
143
0.03937
144
1.0
145
0.0
146
1.0
147
1.0
170
     0
171
     4
172
     1
173
     0
174
     0
175
     0
176
     0
177
     0
178
     0
  0
ENDTAB
  0
ENDSEC
  0
SECTION
  2
BLOCKS
  0
BLOCK
  8
0
  5
21
  2
MS_1
 70
     0
 10
0.0
 20
0.0
 30
0.0
  3
MS_1
  0
ENDBLK
  8
0
  5
22
  0
BLOCK
  8
0
  5
23
  2
MS_2
 70
     0
 10
0.0
 20
0.0
 30
0.0
  3
MS_2
  0
LINE
  8
0
  6
CONTINUOUS
 62
     3
  5
24
 10
3.5
 20
2.020726
 30
0.0
 11
3.5
 21
-2.020726
 31
0.0
  0
LINE
  8
0
  6
CONTINUOUS
 62
     3
  5
25
 10
-3.5
 20
2.020726
 30
0.0
 11
-3.5
 21
-2.020726
 31
0.0
  0
CIRCLE
  8
0
  6
CONTINUOUS
 62
     3
  5
26
 10
0.0
 20
0.0
 30
0.0
 40
3.5
  0
LINE
  8
0
  6
CONTINUOUS
 62
     3
  5
27
 10
0.0
 20
4.041452
 30
0.0
 11
3.5
 21
2.020726
 31
0.0
  0
LINE
  8
0
  6
CONTINUOUS
 62
     3
  5
28
 10
-3.5
 20
-2.020726
 30
0.0
 11
0.0
 21
-4.041452
 31
0.0
  0
LINE
  8
0
  6
CONTINUOUS
 62
     3
  5
29
 10
-3.5
 20
2.020726
 30
0.0
 11
0.0
 21
4.041452
 31
0.0
  0
LINE
  8
0
  6
CONTINUOUS
 62
     3
  5
2A
 10
0.0
 20
-4.041452
 30
0.0
 11
3.5
 21
-2.020726
 31
0.0
  0
CIRCLE
  8
0
  6
CONTINUOUS
 62
     3
  5
2B
 10
0.0
 20
0.0
 30
0.0
 40
5.25
  0
CIRCLE
  8
0
  6
CONTINUOUS
 62
     3
  5
2C
 10
0.0
 20
0.0
 30
0.0
 40
2.0
  0
CIRCLE
  8
0
  6
CONTINUOUS
 62
     3
  5
2D
 10
0.0
 20
0.0
 30
0.0
 40
1.9
  0
ENDBLK
  8
0
  5
2E
  0
ENDSEC
  0
SECTION
  2
ENTITIES
  0
LINE
  8
LY_1
  6
CONTINUOUS
 62
     3
  5
2F
 10
-31.80934
 20
-20.0
 30
0.0
 11
-28.80934
 21
-20.0
 31
0.0
  0
LINE
  8
LY_1
  6
CONTINUOUS
 62
     3
  5
30
 10
-28.30934
 20
-12.2
 30
0.0
 11
-28.30934
 21
-19.5
 31
0.0
  0
LINE
  8
LY_1
  6
CONTINUOUS
 62
     3
  5
31
 10
-32.30934
 20
-12.2
 30
0.0
 11
-32.30934
 21
-19.5
 31
0.0
  0
LINE
  8
LY_1
  6
CONTINUOUS
 62
    80
  5
32
 10
-32.30934
 20
-19.5
 30
0.0
 11
-28.30934
 21
-19.5
 31
0.0
  0
LINE
  8
LY_1
  6
CONTINUOUS
 62
    80
  5
33
 10
-31.80934
 20
-12.2
 30
0.0
 11
-31.80934
 21
-20.0
 31
0.0
  0
LINE
  8
LY_1
  6
CONTINUOUS
 62
    80
  5
34
 10
-28.80934
 20
-12.2
 30
0.0
 11
-28.80934
 21
-20.0
 31
0.0
  0
LINE
  8
LY_1
  6
CONTINUOUS
 62
     3
  5
35
 10
-31.80934
 20
-20.0
 30
0.0
 11
-32.30934
 21
-19.5
 31
0.0
  0
LINE
  8
LY_1
  6
CONTINUOUS
 62
     3
  5
36
 10
-28.80934
 20
-20.0
 30
0.0
 11
-28.30934
 21
-19.5
 31
0.0
  0
LINE
  8
LY_1
  6
CONTINUOUS
 62
   253
  5
37
 10
-35.25934
 20
-8.0
 30
0.0
 11
-25.35934
 21
-8.0
 31
0.0
  0
LINE
  8
LY_1
  6
CONTINUOUS
 62
   253
  5
38
 10
-35.55934
 20
-8.8
 30
0.0
 11
-25.05934
 21
-8.8
 31
0.0
  0
LINE
  8
LY_1
  6
CONTINUOUS
 62
   253
  5
39
 10
-25.05934
 20
-8.8
 30
0.0
 11
-26.267888
 21
-9.239876
 31
0.0
  0
ARC
  8
LY_1
  6
CONTINUOUS
 62
   253
  5
3A
 10
-35.25934
 20
-8.3
 30
0.0
 40
0.3
 50
90.0
 51
180.0
  0
ARC
  8
LY_1
  6
CONTINUOUS
 62
   253
  5
3B
 10
-30.30934
 20
-1.716967
 30
0.0
 40
7.577382
 50
254.533279
 51
285.466721
  0
ARC
  8
LY_1
  6
CONTINUOUS
 62
   253
  5
3C
 10
-26.897348
 20
-5.630281
 30
0.0
 40
3.664068
 50
247.684578
 51
279.892068
  0
ARC
  8
LY_1
  6
CONTINUOUS
 62
   253
  5
3D
 10
-33.721331
 20
-5.630281
 30
0.0
 40
3.664068
 50
260.107932
 51
292.315422
  0
LINE
  8
LY_1
  6
CONTINUOUS
 62
   253
  5
3E
 10
-35.55934
 20
-8.8
 30
0.0
 11
-34.350791
 21
-9.239876
 31
0.0
  0
ARC
  8
LY_1
  6
CONTINUOUS
 62
   253
  5
3F
 10
-27.278251
 20
-10.410924
 30
0.0
 40
1.789076
 50
235.615753
 51
295.615753
  0
ARC
  8
LY_1
  6
CONTINUOUS
 62
   253
  5
40
 10
-33.340428
 20
-10.410924
 30
0.0
 40
1.789076
 50
244.384247
 51
304.384247
  0
ARC
  8
LY_1
  6
CONTINUOUS
 62
   253
  5
41
 10
-30.30934
 20
-5.512607
 30
0.0
 40
6.687393
 50
252.412046
 51
287.587954
  0
LINE
  8
LY_1
  6
CONTINUOUS
 62
   253
  5
42
 10
-26.80934
 20
-12.2
 30
0.0
 11
-26.267888
 21
-11.887393
 31
0.0
  0
LINE
  8
LY_1
  6
CONTINUOUS
 62
   253
  5
43
 10
-33.80934
 20
-12.2
 30
0.0
 11
-34.350791
 21
-11.887393
 31
0.0
  0
LINE
  8
LY_1
  6
CONTINUOUS
 62
   253
  5
44
 10
-28.288614
 20
-11.887393
 30
0.0
 11
-28.288614
 21
-9.019938
 31
0.0
  0
LINE
  8
LY_1
  6
CONTINUOUS
 62
   253
  5
45
 10
-32.330065
 20
-11.887393
 30
0.0
 11
-32.330065
 21
-9.019938
 31
0.0
  0
LINE
  8
LY_1
  6
CONTINUOUS
 62
   253
  5
46
 10
-26.267888
 20
-11.887393
 30
0.0
 11
-26.267888
 21
-9.239876
 31
0.0
  0
LINE
  8
LY_1
  6
CONTINUOUS
 62
   253
  5
47
 10
-34.350791
 20
-11.887393
 30
0.0
 11
-34.350791
 21
-9.239876
 31
0.0
  0
LINE
  8
LY_1
  6
CONTINUOUS
 62
   253
  5
48
 10
-35.55934
 20
-8.8
 30
0.0
 11
-35.55934
 21
-8.3
 31
0.0
  0
LINE
  8
LY_1
  6
CONTINUOUS
 62
   253
  5
49
 10
-33.80934
 20
-12.2
 30
0.0
 11
-26.80934
 21
-12.2
 31
0.0
  0
ARC
  8
LY_1
  6
CONTINUOUS
 62
   253
  5
4A
 10
-25.35934
 20
-8.3
 30
0.0
 40
0.3
 50
0.0
 51
90.0
  0
LINE
  8
LY_1
  6
CONTINUOUS
 62
   253
  5
4B
 10
-25.05934
 20
-8.8
 30
0.0
 11
-25.05934
 21
-8.3
 31
0.0
  0
LINE
  8
LY_1
  6
CONTINUOUS
 62
     3
  5
4C
 10
-1.498034
 20
-20.0
 30
0.0
 11
1.501966
 21
-20.0
 31
0.0
  0
LINE
  8
LY_1
  6
CONTINUOUS
 62
     3
  5
4D
 10
2.001966
 20
-12.2
 30
0.0
 11
2.001966
 21
-19.5
 31
0.0
  0
LINE
  8
LY_1
  6
CONTINUOUS
 62
     3
  5
4E
 10
-1.998034
 20
-12.2
 30
0.0
 11
-1.998034
 21
-19.5
 31
0.0
  0
LINE
  8
LY_1
  6
CONTINUOUS
 62
    80
  5
4F
 10
-1.998034
 20
-19.5
 30
0.0
 11
2.001966
 21
-19.5
 31
0.0
  0
LINE
  8
LY_1
  6
CONTINUOUS
 62
    80
  5
50
 10
-1.498034
 20
-12.2
 30
0.0
 11
-1.498034
 21
-20.0
 31
0.0
  0
LINE
  8
LY_1
  6
CONTINUOUS
 62
    80
  5
51
 10
1.501966
 20
-12.2
 30
0.0
 11
1.501966
 21
-20.0
 31
0.0
  0
LINE
  8
LY_1
  6
CONTINUOUS
 62
     3
  5
52
 10
-1.498034
 20
-20.0
 30
0.0
 11
-1.998034
 21
-19.5
 31
0.0
  0
LINE
  8
LY_1
  6
CONTINUOUS
 62
     3
  5
53
 10
1.501966
 20
-20.0
 30
0.0
 11
2.001966
 21
-19.5
 31
0.0
  0
LINE
  8
LY_1
  6
CONTINUOUS
 62
   253
  5
54
 10
-4.948034
 20
-8.0
 30
0.0
 11
4.951966
 21
-8.0
 31
0.0
  0
LINE
  8
LY_1
  6
CONTINUOUS
 62
   253
  5
55
 10
-5.248034
 20
-8.8
 30
0.0
 11
5.251966
 21
-8.8
 31
0.0
  0
LINE
  8
LY_1
  6
CONTINUOUS
 62
   253
  5
56
 10
5.251966
 20
-8.8
 30
0.0
 11
4.043418
 21
-9.239876
 31
0.0
  0
ARC
  8
LY_1
  6
CONTINUOUS
 62
   253
  5
57
 10
-4.948034
 20
-8.3
 30
0.0
 40
0.3
 50
90.0
 51
180.0
  0
ARC
  8
LY_1
  6
CONTINUOUS
 62
   253
  5
58
 10
0.001966
 20
-1.716967
 30
0.0
 40
7.577382
 50
254.533279
 51
285.466721
  0
ARC
  8
LY_1
  6
CONTINUOUS
 62
   253
  5
59
 10
3.413958
 20
-5.630281
 30
0.0
 40
3.664068
 50
247.684578
 51
279.892068
  0
ARC
  8
LY_1
  6
CONTINUOUS
 62
   253
  5
5A
 10
-3.410025
 20
-5.630281
 30
0.0
 40
3.664068
 50
260.107932
 51
292.315422
  0
LINE
  8
LY_1
  6
CONTINUOUS
 62
   253
  5
5B
 10
-5.248034
 20
-8.8
 30
0.0
 11
-4.039485
 21
-9.239876
 31
0.0
  0
ARC
  8
LY_1
  6
CONTINUOUS
 62
   253
  5
5C
 10
3.033055
 20
-10.410924
 30
0.0
 40
1.789076
 50
235.615753
 51
295.615753
  0
ARC
  8
LY_1
  6
CONTINUOUS
 62
   253
  5
5D
 10
-3.029122
 20
-10.410924
 30
0.0
 40
1.789076
 50
244.384247
 51
304.384247
  0
ARC
  8
LY_1
  6
CONTINUOUS
 62
   253
  5
5E
 10
0.001966
 20
-5.512607
 30
0.0
 40
6.687393
 50
252.412046
 51
287.587954
  0
LINE
  8
LY_1
  6
CONTINUOUS
 62
   253
  5
5F
 10
3.501966
 20
-12.2
 30
0.0
 11
4.043418
 21
-11.887393
 31
0.0
  0
LINE
  8
LY_1
  6
CONTINUOUS
 62
   253
  5
60
 10
-3.498034
 20
-12.2
 30
0.0
 11
-4.039485
 21
-11.887393
 31
0.0
  0
LINE
  8
LY_1
  6
CONTINUOUS
 62
   253
  5
61
 10
2.022692
 20
-11.887393
 30
0.0
 11
2.022692
 21
-9.019938
 31
0.0
  0
LINE
  8
LY_1
  6
CONTINUOUS
 62
   253
  5
62
 10
-2.018759
 20
-11.887393
 30
0.0
 11
-2.018759
 21
-9.019938
 31
0.0
  0
LINE
  8
LY_1
  6
CONTINUOUS
 62
   253
  5
63
 10
4.043418
 20
-11.887393
 30
0.0
 11
4.043418
 21
-9.239876
 31
0.0
  0
LINE
  8
LY_1
  6
CONTINUOUS
 62
   253
  5
64
 10
-4.039485
 20
-11.887393
 30
0.0
 11
-4.039485
 21
-9.239876
 31
0.0
  0
LINE
  8
LY_1
  6
CONTINUOUS
 62
   253
  5
65
 10
-5.248034
 20
-8.8
 30
0.0
 11
-5.248034
 21
-8.3
 31
0.0
  0
LINE
  8
LY_1
  6
CONTINUOUS
 62
   253
  5
66
 10
-3.498034
 20
-12.2
 30
0.0
 11
3.501966
 21
-12.2
 31
0.0
  0
ARC
  8
LY_1
  6
CONTINUOUS
 62
   253
  5
67
 10
4.951966
 20
-8.3
 30
0.0
 40
0.3
 50
0.0
 51
90.0
  0
LINE
  8
LY_1
  6
CONTINUOUS
 62
   253
  5
68
 10
5.251966
 20
-8.8
 30
0.0
 11
5.251966
 21
-8.3
 31
0.0
  0
LINE
  8
LY_1
  6
CONTINUOUS
 62
   253
  5
69
 10
25.363272
 20
-8.0
 30
0.0
 11
35.263272
 21
-8.0
 31
0.0
  0
LINE
  8
LY_1
  6
CONTINUOUS
 62
   253
  5
6A
 10
25.063272
 20
-8.8
 30
0.0
 11
35.563272
 21
-8.8
 31
0.0
  0
LINE
  8
LY_1
  6
CONTINUOUS
 62
   253
  5
6B
 10
35.563272
 20
-8.8
 30
0.0
 11
34.354724
 21
-9.239876
 31
0.0
  0
ARC
  8
LY_1
  6
CONTINUOUS
 62
   253
  5
6C
 10
25.363272
 20
-8.3
 30
0.0
 40
0.3
 50
90.0
 51
180.0
  0
ARC
  8
LY_1
  6
CONTINUOUS
 62
   253
  5
6D
 10
30.313272
 20
-1.716967
 30
0.0
 40
7.577382
 50
254.533279
 51
285.466721
  0
ARC
  8
LY_1
  6
CONTINUOUS
 62
   253
  5
6E
 10
33.725264
 20
-5.630281
 30
0.0
 40
3.664068
 50
247.684578
 51
279.892068
  0
ARC
  8
LY_1
  6
CONTINUOUS
 62
   253
  5
6F
 10
26.901281
 20
-5.630281
 30
0.0
 40
3.664068
 50
260.107932
 51
292.315422
  0
LINE
  8
LY_1
  6
CONTINUOUS
 62
   253
  5
70
 10
25.063272
 20
-8.8
 30
0.0
 11
26.271821
 21
-9.239876
 31
0.0
  0
ARC
  8
LY_1
  6
CONTINUOUS
 62
   253
  5
71
 10
33.344361
 20
-10.410924
 30
0.0
 40
1.789076
 50
235.615753
 51
295.615753
  0
ARC
  8
LY_1
  6
CONTINUOUS
 62
   253
  5
72
 10
27.282184
 20
-10.410924
 30
0.0
 40
1.789076
 50
244.384247
 51
304.384247
  0
ARC
  8
LY_1
  6
CONTINUOUS
 62
   253
  5
73
 10
30.313272
 20
-5.512607
 30
0.0
 40
6.687393
 50
252.412046
 51
287.587954
  0
LINE
  8
LY_1
  6
CONTINUOUS
 62
   253
  5
74
 10
33.813272
 20
-12.2
 30
0.0
 11
34.354724
 21
-11.887393
 31
0.0
  0
LINE
  8
LY_1
  6
CONTINUOUS
 62
   253
  5
75
 10
26.813272
 20
-12.2
 30
0.0
 11
26.271821
 21
-11.887393
 31
0.0
  0
LINE
  8
LY_1
  6
CONTINUOUS
 62
   253
  5
76
 10
32.333998
 20
-11.887393
 30
0.0
 11
32.333998
 21
-9.019938
 31
0.0
  0
LINE
  8
LY_1
  6
CONTINUOUS
 62
   253
  5
77
 10
28.292547
 20
-11.887393
 30
0.0
 11
28.292547
 21
-9.019938
 31
0.0
  0
LINE
  8
LY_1
  6
CONTINUOUS
 62
   253
  5
78
 10
34.354724
 20
-11.887393
 30
0.0
 11
34.354724
 21
-9.239876
 31
0.0
  0
LINE
  8
LY_1
  6
CONTINUOUS
 62
   253
  5
79
 10
26.271821
 20
-11.887393
 30
0.0
 11
26.271821
 21
-9.239876
 31
0.0
  0
LINE
  8
LY_1
  6
CONTINUOUS
 62
   253
  5
7A
 10
25.063272
 20
-8.8
 30
0.0
 11
25.063272
 21
-8.3
 31
0.0
  0
LINE
  8
LY_1
  6
CONTINUOUS
 62
   253
  5
7B
 10
26.813272
 20
-12.2
 30
0.0
 11
33.813272
 21
-12.2
 31
0.0
  0
ARC
  8
LY_1
  6
CONTINUOUS
 62
   253
  5
7C
 10
35.263272
 20
-8.3
 30
0.0
 40
0.3
 50
0.0
 51
90.0
  0
LINE
  8
LY_1
  6
CONTINUOUS
 62
   253
  5
7D
 10
35.563272
 20
-8.8
 30
0.0
 11
35.563272
 21
-8.3
 31
0.0
  0
POLYLINE
  8
LY_1
  6
CONTINUOUS
 62
     3
  5
7E
 66
     1
 10
0.0
 20
0.0
 30
0.0
  0
VERTEX
  8
LY_1
  6
CONTINUOUS
 62
     3
  5
1DA
 10
48.235899
 20
43.0
 30
0.0
  0
VERTEX
  8
LY_1
  6
CONTINUOUS
 62
     3
  5
1DB
 10
48.243566
 20
43.136503
 30
0.0
  0
VERTEX
  8
LY_1
  6
CONTINUOUS
 62
     3
  5
1DC
 10
48.248239
 20
43.273172
 30
0.0
  0
VERTEX
  8
LY_1
  6
CONTINUOUS
 62
     3
  5
1DD
 10
48.250006
 20
43.409962
 30
0.0
  0
VERTEX
  8
LY_1
  6
CONTINUOUS
 62
     3
  5
1DE
 10
48.248957
 20
43.546831
 30
0.0
  0
VERTEX
  8
LY_1
  6
CONTINUOUS
 62
     3
  5
1DF
 10
48.24518
 20
43.683735
 30
0.0
  0
VERTEX
  8
LY_1
  6
CONTINUOUS
 62
     3
  5
1E0
 10
48.238765
 20
43.820629
 30
0.0
  0
VERTEX
  8
LY_1
  6
CONTINUOUS
 62
     3
  5
1E1
 10
48.2298
 20
43.95747
 30
0.0
  0
VERTEX
  8
LY_1
  6
CONTINUOUS
 62
     3
  5
1E2
 10
48.218375
 20
44.094215
 30
0.0
  0
VERTEX
  8
LY_1
  6
CONTINUOUS
 62
     3
  5
1E3
 10
48.204578
 20
44.230819
 30
0.0
  0
VERTEX
  8
LY_1
  6
CONTINUOUS
 62
     3
  5
1E4
 10
48.188499
 20
44.36724
 30
0.0
  0
VERTEX
  8
LY_1
  6
CONTINUOUS
 62
     3
  5
1E5
 10
48.170226
 20
44.503432
 30
0.0
  0
VERTEX
  8
LY_1
  6
CONTINUOUS
 62
     3
  5
1E6
 10
48.149849
 20
44.639354
 30
0.0
  0
VERTEX
  8
LY_1
  6
CONTINUOUS
 62
     3
  5
1E7
 10
48.127456
 20
44.77496
 30
0.0
  0
VERTEX
  8
LY_1
  6
CONTINUOUS
 62
     3
  5
1E8
 10
48.103138
 20
44.910207
 30
0.0
  0
VERTEX
  8
LY_1
  6
CONTINUOUS
 62
     3
  5
1E9
 10
48.076981
 20
45.045051
 30
0.0
  0
VERTEX
  8
LY_1
  6
CONTINUOUS
 62
     3
  5
1EA
 10
48.049076
 20
45.179449
 30
0.0
  0
VERTEX
  8
LY_1
  6
CONTINUOUS
 62
     3
  5
1EB
 10
48.022497
 20
45.299953
 30
0.0
  0
VERTEX
  8
LY_1
  6
CONTINUOUS
 62
     3
  5
1EC
 10
47.994336
 20
45.419972
 30
0.0
  0
VERTEX
  8
LY_1
  6
CONTINUOUS
 62
     3
  5
1ED
 10
47.964357
 20
45.539418
 30
0.0
  0
VERTEX
  8
LY_1
  6
CONTINUOUS
 62
     3
  5
1EE
 10
47.932321
 20
45.658203
 30
0.0
  0
VERTEX
  8
LY_1
  6
CONTINUOUS
 62
     3
  5
1EF
 10
47.897992
 20
45.776238
 30
0.0
  0
VERTEX
  8
LY_1
  6
CONTINUOUS
 62
     3
  5
1F0
 10
47.861131
 20
45.893437
 30
0.0
  0
VERTEX
  8
LY_1
  6
CONTINUOUS
 62
     3
  5
1F1
 10
47.821501
 20
46.00971
 30
0.0
  0
VERTEX
  8
LY_1
  6
CONTINUOUS
 62
     3
  5
1F2
 10
47.778864
 20
46.12497
 30
0.0
  0
VERTEX
  8
LY_1
  6
CONTINUOUS
 62
     3
  5
1F3
 10
47.732983
 20
46.239129
 30
0.0
  0
VERTEX
  8
LY_1
  6
CONTINUOUS
 62
     3
  5
1F4
 10
47.683621
 20
46.352098
 30
0.0
  0
VERTEX
  8
LY_1
  6
CONTINUOUS
 62
     3
  5
1F5
 10
47.630539
 20
46.46379
 30
0.0
  0
VERTEX
  8
LY_1
  6
CONTINUOUS
 62
     3
  5
1F6
 10
47.5735
 20
46.574115
 30
0.0
  0
VERTEX
  8
LY_1
  6
CONTINUOUS
 62
     3
  5
1F7
 10
47.512266
 20
46.682987
 30
0.0
  0
VERTEX
  8
LY_1
  6
CONTINUOUS
 62
     3
  5
1F8
 10
47.4466
 20
46.790318
 30
0.0
  0
VERTEX
  8
LY_1
  6
CONTINUOUS
 62
     3
  5
1F9
 10
47.376264
 20
46.896018
 30
0.0
  0
VERTEX
  8
LY_1
  6
CONTINUOUS
 62
     3
  5
1FA
 10
47.301021
 20
47.0
 30
0.0
  0
VERTEX
  8
LY_1
  6
CONTINUOUS
 62
     3
  5
1FB
 10
47.224198
 20
47.097846
 30
0.0
  0
VERTEX
  8
LY_1
  6
CONTINUOUS
 62
     3
  5
1FC
 10
47.142943
 20
47.193496
 30
0.0
  0
VERTEX
  8
LY_1
  6
CONTINUOUS
 62
     3
  5
1FD
 10
47.057546
 20
47.28641
 30
0.0
  0
VERTEX
  8
LY_1
  6
CONTINUOUS
 62
     3
  5
1FE
 10
46.968297
 20
47.376049
 30
0.0
  0
VERTEX
  8
LY_1
  6
CONTINUOUS
 62
     3
  5
1FF
 10
46.875486
 20
47.461873
 30
0.0
  0
VERTEX
  8
LY_1
  6
CONTINUOUS
 62
     3
  5
200
 10
46.779404
 20
47.543345
 30
0.0
  0
VERTEX
  8
LY_1
  6
CONTINUOUS
 62
     3
  5
201
 10
46.680339
 20
47.619923
 30
0.0
  0
VERTEX
  8
LY_1
  6
CONTINUOUS
 62
     3
  5
202
 10
46.578583
 20
47.691071
 30
0.0
  0
VERTEX
  8
LY_1
  6
CONTINUOUS
 62
     3
  5
203
 10
46.474425
 20
47.756247
 30
0.0
  0
VERTEX
  8
LY_1
  6
CONTINUOUS
 62
     3
  5
204
 10
46.368156
 20
47.814914
 30
0.0
  0
VERTEX
  8
LY_1
  6
CONTINUOUS
 62
     3
  5
205
 10
46.260065
 20
47.866531
 30
0.0
  0
VERTEX
  8
LY_1
  6
CONTINUOUS
 62
     3
  5
206
 10
46.150442
 20
47.91056
 30
0.0
  0
VERTEX
  8
LY_1
  6
CONTINUOUS
 62
     3
  5
207
 10
46.039578
 20
47.946462
 30
0.0
  0
VERTEX
  8
LY_1
  6
CONTINUOUS
 62
     3
  5
208
 10
45.927762
 20
47.973698
 30
0.0
  0
VERTEX
  8
LY_1
  6
CONTINUOUS
 62
     3
  5
209
 10
45.815284
 20
47.991728
 30
0.0
  0
VERTEX
  8
LY_1
  6
CONTINUOUS
 62
     3
  5
20A
 10
45.702436
 20
48.000013
 30
0.0
  0
VERTEX
  8
LY_1
  6
CONTINUOUS
 62
     3
  5
20B
 10
45.582503
 20
47.997752
 30
0.0
  0
VERTEX
  8
LY_1
  6
CONTINUOUS
 62
     3
  5
20C
 10
45.462766
 20
47.984524
 30
0.0
  0
VERTEX
  8
LY_1
  6
CONTINUOUS
 62
     3
  5
20D
 10
45.343511
 20
47.960956
 30
0.0
  0
VERTEX
  8
LY_1
  6
CONTINUOUS
 62
     3
  5
20E
 10
45.225024
 20
47.927678
 30
0.0
  0
VERTEX
  8
LY_1
  6
CONTINUOUS
 62
     3
  5
20F
 10
45.107594
 20
47.885319
 30
0.0
  0
VERTEX
  8
LY_1
  6
CONTINUOUS
 62
     3
  5
210
 10
44.991506
 20
47.834509
 30
0.0
  0
VERTEX
  8
LY_1
  6
CONTINUOUS
 62
     3
  5
211
 10
44.877048
 20
47.775876
 30
0.0
  0
VERTEX
  8
LY_1
  6
CONTINUOUS
 62
     3
  5
212
 10
44.764506
 20
47.710051
 30
0.0
  0
VERTEX
  8
LY_1
  6
CONTINUOUS
 62
     3
  5
213
 10
44.654168
 20
47.637661
 30
0.0
  0
VERTEX
  8
LY_1
  6
CONTINUOUS
 62
     3
  5
214
 10
44.546321
 20
47.559337
 30
0.0
  0
VERTEX
  8
LY_1
  6
CONTINUOUS
 62
     3
  5
215
 10
44.44125
 20
47.475708
 30
0.0
  0
VERTEX
  8
LY_1
  6
CONTINUOUS
 62
     3
  5
216
 10
44.339244
 20
47.387402
 30
0.0
  0
VERTEX
  8
LY_1
  6
CONTINUOUS
 62
     3
  5
217
 10
44.240589
 20
47.295049
 30
0.0
  0
VERTEX
  8
LY_1
  6
CONTINUOUS
 62
     3
  5
218
 10
44.145572
 20
47.199278
 30
0.0
  0
VERTEX
  8
LY_1
  6
CONTINUOUS
 62
     3
  5
219
 10
44.05448
 20
47.100719
 30
0.0
  0
VERTEX
  8
LY_1
  6
CONTINUOUS
 62
     3
  5
21A
 10
43.9676
 20
47.0
 30
0.0
  0
VERTEX
  8
LY_1
  6
CONTINUOUS
 62
     3
  5
21B
 10
43.883665
 20
46.895761
 30
0.0
  0
VERTEX
  8
LY_1
  6
CONTINUOUS
 62
     3
  5
21C
 10
43.804197
 20
46.789991
 30
0.0
  0
VERTEX
  8
LY_1
  6
CONTINUOUS
 62
     3
  5
21D
 10
43.728995
 20
46.682744
 30
0.0
  0
VERTEX
  8
LY_1
  6
CONTINUOUS
 62
     3
  5
21E
 10
43.657861
 20
46.574077
 30
0.0
  0
VERTEX
  8
LY_1
  6
CONTINUOUS
 62
     3
  5
21F
 10
43.590595
 20
46.464045
 30
0.0
  0
VERTEX
  8
LY_1
  6
CONTINUOUS
 62
     3
  5
220
 10
43.526998
 20
46.352703
 30
0.0
  0
VERTEX
  8
LY_1
  6
CONTINUOUS
 62
     3
  5
221
 10
43.46687
 20
46.240106
 30
0.0
  0
VERTEX
  8
LY_1
  6
CONTINUOUS
 62
     3
  5
222
 10
43.410012
 20
46.126312
 30
0.0
  0
VERTEX
  8
LY_1
  6
CONTINUOUS
 62
     3
  5
223
 10
43.356225
 20
46.011373
 30
0.0
  0
VERTEX
  8
LY_1
  6
CONTINUOUS
 62
     3
  5
224
 10
43.305308
 20
45.895347
 30
0.0
  0
VERTEX
  8
LY_1
  6
CONTINUOUS
 62
     3
  5
225
 10
43.257064
 20
45.778288
 30
0.0
  0
VERTEX
  8
LY_1
  6
CONTINUOUS
 62
     3
  5
226
 10
43.211293
 20
45.660253
 30
0.0
  0
VERTEX
  8
LY_1
  6
CONTINUOUS
 62
     3
  5
227
 10
43.167794
 20
45.541296
 30
0.0
  0
VERTEX
  8
LY_1
  6
CONTINUOUS
 62
     3
  5
228
 10
43.12637
 20
45.421472
 30
0.0
  0
VERTEX
  8
LY_1
  6
CONTINUOUS
 62
     3
  5
229
 10
43.086819
 20
45.300839
 30
0.0
  0
VERTEX
  8
LY_1
  6
CONTINUOUS
 62
     3
  5
22A
 10
43.048944
 20
45.179449
 30
0.0
  0
VERTEX
  8
LY_1
  6
CONTINUOUS
 62
     3
  5
22B
 10
43.009605
 20
45.047077
 30
0.0
  0
VERTEX
  8
LY_1
  6
CONTINUOUS
 62
     3
  5
22C
 10
42.972076
 20
44.913936
 30
0.0
  0
VERTEX
  8
LY_1
  6
CONTINUOUS
 62
     3
  5
22D
 10
42.936437
 20
44.780083
 30
0.0
  0
VERTEX
  8
LY_1
  6
CONTINUOUS
 62
     3
  5
22E
 10
42.902763
 20
44.645572
 30
0.0
  0
VERTEX
  8
LY_1
  6
CONTINUOUS
 62
     3
  5
22F
 10
42.871133
 20
44.510457
 30
0.0
  0
VERTEX
  8
LY_1
  6
CONTINUOUS
 62
     3
  5
230
 10
42.841624
 20
44.374793
 30
0.0
  0
VERTEX
  8
LY_1
  6
CONTINUOUS
 62
     3
  5
231
 10
42.814313
 20
44.238635
 30
0.0
  0
VERTEX
  8
LY_1
  6
CONTINUOUS
 62
     3
  5
232
 10
42.789277
 20
44.102038
 30
0.0
  0
VERTEX
  8
LY_1
  6
CONTINUOUS
 62
     3
  5
233
 10
42.766595
 20
43.965056
 30
0.0
  0
VERTEX
  8
LY_1
  6
CONTINUOUS
 62
     3
  5
234
 10
42.746342
 20
43.827744
 30
0.0
  0
VERTEX
  8
LY_1
  6
CONTINUOUS
 62
     3
  5
235
 10
42.728597
 20
43.690156
 30
0.0
  0
VERTEX
  8
LY_1
  6
CONTINUOUS
 62
     3
  5
236
 10
42.713438
 20
43.552348
 30
0.0
  0
VERTEX
  8
LY_1
  6
CONTINUOUS
 62
     3
  5
237
 10
42.70094
 20
43.414373
 30
0.0
  0
VERTEX
  8
LY_1
  6
CONTINUOUS
 62
     3
  5
238
 10
42.691183
 20
43.276287
 30
0.0
  0
VERTEX
  8
LY_1
  6
CONTINUOUS
 62
     3
  5
239
 10
42.684242
 20
43.138145
 30
0.0
  0
VERTEX
  8
LY_1
  6
CONTINUOUS
 62
     3
  5
23A
 10
42.680196
 20
43.0
 30
0.0
  0
SEQEND
  8
LY_1
  6
CONTINUOUS
 62
     3
  5
23B
  0
POLYLINE
  8
LY_1
  6
CONTINUOUS
 62
     3
  5
7F
 66
     1
 10
0.0
 20
0.0
 30
0.0
  0
VERTEX
  8
LY_1
  6
CONTINUOUS
 62
     3
  5
23C
 10
34.53211
 20
43.0
 30
0.0
  0
VERTEX
  8
LY_1
  6
CONTINUOUS
 62
     3
  5
23D
 10
34.534838
 20
43.138054
 30
0.0
  0
VERTEX
  8
LY_1
  6
CONTINUOUS
 62
     3
  5
23E
 10
34.534217
 20
43.276278
 30
0.0
  0
VERTEX
  8
LY_1
  6
CONTINUOUS
 62
     3
  5
23F
 10
34.530251
 20
43.414581
 30
0.0
  0
VERTEX
  8
LY_1
  6
CONTINUOUS
 62
     3
  5
240
 10
34.522947
 20
43.552877
 30
0.0
  0
VERTEX
  8
LY_1
  6
CONTINUOUS
 62
     3
  5
241
 10
34.512311
 20
43.691075
 30
0.0
  0
VERTEX
  8
LY_1
  6
CONTINUOUS
 62
     3
  5
242
 10
34.49835
 20
43.829087
 30
0.0
  0
VERTEX
  8
LY_1
  6
CONTINUOUS
 62
     3
  5
243
 10
34.481068
 20
43.966825
 30
0.0
  0
VERTEX
  8
LY_1
  6
CONTINUOUS
 62
     3
  5
244
 10
34.460473
 20
44.104199
 30
0.0
  0
VERTEX
  8
LY_1
  6
CONTINUOUS
 62
     3
  5
245
 10
34.436571
 20
44.24112
 30
0.0
  0
VERTEX
  8
LY_1
  6
CONTINUOUS
 62
     3
  5
246
 10
34.409367
 20
44.377501
 30
0.0
  0
VERTEX
  8
LY_1
  6
CONTINUOUS
 62
     3
  5
247
 10
34.378868
 20
44.513252
 30
0.0
  0
VERTEX
  8
LY_1
  6
CONTINUOUS
 62
     3
  5
248
 10
34.345079
 20
44.648284
 30
0.0
  0
VERTEX
  8
LY_1
  6
CONTINUOUS
 62
     3
  5
249
 10
34.308007
 20
44.782508
 30
0.0
  0
VERTEX
  8
LY_1
  6
CONTINUOUS
 62
     3
  5
24A
 10
34.267659
 20
44.915837
 30
0.0
  0
VERTEX
  8
LY_1
  6
CONTINUOUS
 62
     3
  5
24B
 10
34.224039
 20
45.04818
 30
0.0
  0
VERTEX
  8
LY_1
  6
CONTINUOUS
 62
     3
  5
24C
 10
34.177154
 20
45.179449
 30
0.0
  0
VERTEX
  8
LY_1
  6
CONTINUOUS
 62
     3
  5
24D
 10
34.12778
 20
45.307607
 30
0.0
  0
VERTEX
  8
LY_1
  6
CONTINUOUS
 62
     3
  5
24E
 10
34.075214
 20
45.434498
 30
0.0
  0
VERTEX
  8
LY_1
  6
CONTINUOUS
 62
     3
  5
24F
 10
34.019424
 20
45.559982
 30
0.0
  0
VERTEX
  8
LY_1
  6
CONTINUOUS
 62
     3
  5
250
 10
33.960381
 20
45.683921
 30
0.0
  0
VERTEX
  8
LY_1
  6
CONTINUOUS
 62
     3
  5
251
 10
33.898054
 20
45.806176
 30
0.0
  0
VERTEX
  8
LY_1
  6
CONTINUOUS
 62
     3
  5
252
 10
33.832412
 20
45.926606
 30
0.0
  0
VERTEX
  8
LY_1
  6
CONTINUOUS
 62
     3
  5
253
 10
33.763425
 20
46.045074
 30
0.0
  0
VERTEX
  8
LY_1
  6
CONTINUOUS
 62
     3
  5
254
 10
33.691061
 20
46.16144
 30
0.0
  0
VERTEX
  8
LY_1
  6
CONTINUOUS
 62
     3
  5
255
 10
33.615291
 20
46.275565
 30
0.0
  0
VERTEX
  8
LY_1
  6
CONTINUOUS
 62
     3
  5
256
 10
33.536084
 20
46.387309
 30
0.0
  0
VERTEX
  8
LY_1
  6
CONTINUOUS
 62
     3
  5
257
 10
33.453409
 20
46.496535
 30
0.0
  0
VERTEX
  8
LY_1
  6
CONTINUOUS
 62
     3
  5
258
 10
33.367235
 20
46.603101
 30
0.0
  0
VERTEX
  8
LY_1
  6
CONTINUOUS
 62
     3
  5
259
 10
33.277533
 20
46.70687
 30
0.0
  0
VERTEX
  8
LY_1
  6
CONTINUOUS
 62
     3
  5
25A
 10
33.184271
 20
46.807702
 30
0.0
  0
VERTEX
  8
LY_1
  6
CONTINUOUS
 62
     3
  5
25B
 10
33.087419
 20
46.905459
 30
0.0
  0
VERTEX
  8
LY_1
  6
CONTINUOUS
 62
     3
  5
25C
 10
32.986946
 20
47.0
 30
0.0
  0
VERTEX
  8
LY_1
  6
CONTINUOUS
 62
     3
  5
25D
 10
32.8599
 20
47.110441
 30
0.0
  0
VERTEX
  8
LY_1
  6
CONTINUOUS
 62
     3
  5
25E
 10
32.727794
 20
47.215669
 30
0.0
  0
VERTEX
  8
LY_1
  6
CONTINUOUS
 62
     3
  5
25F
 10
32.59097
 20
47.315431
 30
0.0
  0
VERTEX
  8
LY_1
  6
CONTINUOUS
 62
     3
  5
260
 10
32.449769
 20
47.409474
 30
0.0
  0
VERTEX
  8
LY_1
  6
CONTINUOUS
 62
     3
  5
261
 10
32.304532
 20
47.497546
 30
0.0
  0
VERTEX
  8
LY_1
  6
CONTINUOUS
 62
     3
  5
262
 10
32.155599
 20
47.579395
 30
0.0
  0
VERTEX
  8
LY_1
  6
CONTINUOUS
 62
     3
  5
263
 10
32.003312
 20
47.654767
 30
0.0
  0
VERTEX
  8
LY_1
  6
CONTINUOUS
 62
     3
  5
264
 10
31.848012
 20
47.723411
 30
0.0
  0
VERTEX
  8
LY_1
  6
CONTINUOUS
 62
     3
  5
265
 10
31.69004
 20
47.785073
 30
0.0
  0
VERTEX
  8
LY_1
  6
CONTINUOUS
 62
     3
  5
266
 10
31.529736
 20
47.839501
 30
0.0
  0
VERTEX
  8
LY_1
  6
CONTINUOUS
 62
     3
  5
267
 10
31.367442
 20
47.886443
 30
0.0
  0
VERTEX
  8
LY_1
  6
CONTINUOUS
 62
     3
  5
268
 10
31.2035
 20
47.925645
 30
0.0
  0
VERTEX
  8
LY_1
  6
CONTINUOUS
 62
     3
  5
269
 10
31.038249
 20
47.956856
 30
0.0
  0
VERTEX
  8
LY_1
  6
CONTINUOUS
 62
     3
  5
26A
 10
30.87203
 20
47.979823
 30
0.0
  0
VERTEX
  8
LY_1
  6
CONTINUOUS
 62
     3
  5
26B
 10
30.705186
 20
47.994293
 30
0.0
  0
VERTEX
  8
LY_1
  6
CONTINUOUS
 62
     3
  5
26C
 10
30.538057
 20
48.000013
 30
0.0
  0
VERTEX
  8
LY_1
  6
CONTINUOUS
 62
     3
  5
26D
 10
30.36564
 20
47.996572
 30
0.0
  0
VERTEX
  8
LY_1
  6
CONTINUOUS
 62
     3
  5
26E
 10
30.193595
 20
47.983847
 30
0.0
  0
VERTEX
  8
LY_1
  6
CONTINUOUS
 62
     3
  5
26F
 10
30.022231
 20
47.962139
 30
0.0
  0
VERTEX
  8
LY_1
  6
CONTINUOUS
 62
     3
  5
270
 10
29.85186
 20
47.931751
 30
0.0
  0
VERTEX
  8
LY_1
  6
CONTINUOUS
 62
     3
  5
271
 10
29.682793
 20
47.892986
 30
0.0
  0
VERTEX
  8
LY_1
  6
CONTINUOUS
 62
     3
  5
272
 10
29.515342
 20
47.846144
 30
0.0
  0
VERTEX
  8
LY_1
  6
CONTINUOUS
 62
     3
  5
273
 10
29.349817
 20
47.791528
 30
0.0
  0
VERTEX
  8
LY_1
  6
CONTINUOUS
 62
     3
  5
274
 10
29.18653
 20
47.729441
 30
0.0
  0
VERTEX
  8
LY_1
  6
CONTINUOUS
 62
     3
  5
275
 10
29.025792
 20
47.660183
 30
0.0
  0
VERTEX
  8
LY_1
  6
CONTINUOUS
 62
     3
  5
276
 10
28.867914
 20
47.584058
 30
0.0
  0
VERTEX
  8
LY_1
  6
CONTINUOUS
 62
     3
  5
277
 10
28.713206
 20
47.501367
 30
0.0
  0
VERTEX
  8
LY_1
  6
CONTINUOUS
 62
     3
  5
278
 10
28.561982
 20
47.412413
 30
0.0
  0
VERTEX
  8
LY_1
  6
CONTINUOUS
 62
     3
  5
279
 10
28.41455
 20
47.317497
 30
0.0
  0
VERTEX
  8
LY_1
  6
CONTINUOUS
 62
     3
  5
27A
 10
28.271223
 20
47.216921
 30
0.0
  0
VERTEX
  8
LY_1
  6
CONTINUOUS
 62
     3
  5
27B
 10
28.132312
 20
47.110988
 30
0.0
  0
VERTEX
  8
LY_1
  6
CONTINUOUS
 62
     3
  5
27C
 10
27.998128
 20
47.0
 30
0.0
  0
VERTEX
  8
LY_1
  6
CONTINUOUS
 62
     3
  5
27D
 10
27.891758
 20
46.905371
 30
0.0
  0
VERTEX
  8
LY_1
  6
CONTINUOUS
 62
     3
  5
27E
 10
27.788766
 20
46.807657
 30
0.0
  0
VERTEX
  8
LY_1
  6
CONTINUOUS
 62
     3
  5
27F
 10
27.689138
 20
46.706971
 30
0.0
  0
VERTEX
  8
LY_1
  6
CONTINUOUS
 62
     3
  5
280
 10
27.59286
 20
46.603428
 30
0.0
  0
VERTEX
  8
LY_1
  6
CONTINUOUS
 62
     3
  5
281
 10
27.499919
 20
46.49714
 30
0.0
  0
VERTEX
  8
LY_1
  6
CONTINUOUS
 62
     3
  5
282
 10
27.410301
 20
46.388223
 30
0.0
  0
VERTEX
  8
LY_1
  6
CONTINUOUS
 62
     3
  5
283
 10
27.323994
 20
46.276789
 30
0.0
  0
VERTEX
  8
LY_1
  6
CONTINUOUS
 62
     3
  5
284
 10
27.240982
 20
46.162953
 30
0.0
  0
VERTEX
  8
LY_1
  6
CONTINUOUS
 62
     3
  5
285
 10
27.161253
 20
46.046829
 30
0.0
  0
VERTEX
  8
LY_1
  6
CONTINUOUS
 62
     3
  5
286
 10
27.084793
 20
45.92853
 30
0.0
  0
VERTEX
  8
LY_1
  6
CONTINUOUS
 62
     3
  5
287
 10
27.011589
 20
45.80817
 30
0.0
  0
VERTEX
  8
LY_1
  6
CONTINUOUS
 62
     3
  5
288
 10
26.941627
 20
45.685864
 30
0.0
  0
VERTEX
  8
LY_1
  6
CONTINUOUS
 62
     3
  5
289
 10
26.874893
 20
45.561725
 30
0.0
  0
VERTEX
  8
LY_1
  6
CONTINUOUS
 62
     3
  5
28A
 10
26.811375
 20
45.435867
 30
0.0
  0
VERTEX
  8
LY_1
  6
CONTINUOUS
 62
     3
  5
28B
 10
26.751057
 20
45.308404
 30
0.0
  0
VERTEX
  8
LY_1
  6
CONTINUOUS
 62
     3
  5
28C
 10
26.693928
 20
45.179449
 30
0.0
  0
VERTEX
  8
LY_1
  6
CONTINUOUS
 62
     3
  5
28D
 10
26.640177
 20
45.049615
 30
0.0
  0
VERTEX
  8
LY_1
  6
CONTINUOUS
 62
     3
  5
28E
 10
26.589584
 20
44.918504
 30
0.0
  0
VERTEX
  8
LY_1
  6
CONTINUOUS
 62
     3
  5
28F
 10
26.542157
 20
44.786209
 30
0.0
  0
VERTEX
  8
LY_1
  6
CONTINUOUS
 62
     3
  5
290
 10
26.497904
 20
44.65282
 30
0.0
  0
VERTEX
  8
LY_1
  6
CONTINUOUS
 62
     3
  5
291
 10
26.456834
 20
44.518429
 30
0.0
  0
VERTEX
  8
LY_1
  6
CONTINUOUS
 62
     3
  5
292
 10
26.418954
 20
44.383126
 30
0.0
  0
VERTEX
  8
LY_1
  6
CONTINUOUS
 62
     3
  5
293
 10
26.384273
 20
44.247003
 30
0.0
  0
VERTEX
  8
LY_1
  6
CONTINUOUS
 62
     3
  5
294
 10
26.352799
 20
44.11015
 30
0.0
  0
VERTEX
  8
LY_1
  6
CONTINUOUS
 62
     3
  5
295
 10
26.324539
 20
43.972659
 30
0.0
  0
VERTEX
  8
LY_1
  6
CONTINUOUS
 62
     3
  5
296
 10
26.299502
 20
43.834621
 30
0.0
  0
VERTEX
  8
LY_1
  6
CONTINUOUS
 62
     3
  5
297
 10
26.277697
 20
43.696126
 30
0.0
  0
VERTEX
  8
LY_1
  6
CONTINUOUS
 62
     3
  5
298
 10
26.25913
 20
43.557267
 30
0.0
  0
VERTEX
  8
LY_1
  6
CONTINUOUS
 62
     3
  5
299
 10
26.24381
 20
43.418134
 30
0.0
  0
VERTEX
  8
LY_1
  6
CONTINUOUS
 62
     3
  5
29A
 10
26.231745
 20
43.278817
 30
0.0
  0
VERTEX
  8
LY_1
  6
CONTINUOUS
 62
     3
  5
29B
 10
26.222944
 20
43.139409
 30
0.0
  0
VERTEX
  8
LY_1
  6
CONTINUOUS
 62
     3
  5
29C
 10
26.217414
 20
43.0
 30
0.0
  0
SEQEND
  8
LY_1
  6
CONTINUOUS
 62
     3
  5
29D
  0
POLYLINE
  8
LY_1
  6
CONTINUOUS
 62
     3
  5
80
 66
     1
 10
0.0
 20
0.0
 30
0.0
  0
VERTEX
  8
LY_1
  6
CONTINUOUS
 62
     3
  5
29E
 10
-34.528099
 20
43.0
 30
0.0
  0
VERTEX
  8
LY_1
  6
CONTINUOUS
 62
     3
  5
29F
 10
-34.530827
 20
43.138054
 30
0.0
  0
VERTEX
  8
LY_1
  6
CONTINUOUS
 62
     3
  5
2A0
 10
-34.530206
 20
43.276278
 30
0.0
  0
VERTEX
  8
LY_1
  6
CONTINUOUS
 62
     3
  5
2A1
 10
-34.52624
 20
43.414581
 30
0.0
  0
VERTEX
  8
LY_1
  6
CONTINUOUS
 62
     3
  5
2A2
 10
-34.518936
 20
43.552877
 30
0.0
  0
VERTEX
  8
LY_1
  6
CONTINUOUS
 62
     3
  5
2A3
 10
-34.5083
 20
43.691075
 30
0.0
  0
VERTEX
  8
LY_1
  6
CONTINUOUS
 62
     3
  5
2A4
 10
-34.494339
 20
43.829087
 30
0.0
  0
VERTEX
  8
LY_1
  6
CONTINUOUS
 62
     3
  5
2A5
 10
-34.477057
 20
43.966825
 30
0.0
  0
VERTEX
  8
LY_1
  6
CONTINUOUS
 62
     3
  5
2A6
 10
-34.456462
 20
44.104199
 30
0.0
  0
VERTEX
  8
LY_1
  6
CONTINUOUS
 62
     3
  5
2A7
 10
-34.43256
 20
44.24112
 30
0.0
  0
VERTEX
  8
LY_1
  6
CONTINUOUS
 62
     3
  5
2A8
 10
-34.405356
 20
44.377501
 30
0.0
  0
VERTEX
  8
LY_1
  6
CONTINUOUS
 62
     3
  5
2A9
 10
-34.374856
 20
44.513252
 30
0.0
  0
VERTEX
  8
LY_1
  6
CONTINUOUS
 62
     3
  5
2AA
 10
-34.341068
 20
44.648284
 30
0.0
  0
VERTEX
  8
LY_1
  6
CONTINUOUS
 62
     3
  5
2AB
 10
-34.303996
 20
44.782508
 30
0.0
  0
VERTEX
  8
LY_1
  6
CONTINUOUS
 62
     3
  5
2AC
 10
-34.263647
 20
44.915837
 30
0.0
  0
VERTEX
  8
LY_1
  6
CONTINUOUS
 62
     3
  5
2AD
 10
-34.220028
 20
45.04818
 30
0.0
  0
VERTEX
  8
LY_1
  6
CONTINUOUS
 62
     3
  5
2AE
 10
-34.173143
 20
45.179449
 30
0.0
  0
VERTEX
  8
LY_1
  6
CONTINUOUS
 62
     3
  5
2AF
 10
-34.123769
 20
45.307607
 30
0.0
  0
VERTEX
  8
LY_1
  6
CONTINUOUS
 62
     3
  5
2B0
 10
-34.071203
 20
45.434498
 30
0.0
  0
VERTEX
  8
LY_1
  6
CONTINUOUS
 62
     3
  5
2B1
 10
-34.015413
 20
45.559982
 30
0.0
  0
VERTEX
  8
LY_1
  6
CONTINUOUS
 62
     3
  5
2B2
 10
-33.95637
 20
45.683921
 30
0.0
  0
VERTEX
  8
LY_1
  6
CONTINUOUS
 62
     3
  5
2B3
 10
-33.894043
 20
45.806176
 30
0.0
  0
VERTEX
  8
LY_1
  6
CONTINUOUS
 62
     3
  5
2B4
 10
-33.828401
 20
45.926606
 30
0.0
  0
VERTEX
  8
LY_1
  6
CONTINUOUS
 62
     3
  5
2B5
 10
-33.759413
 20
46.045074
 30
0.0
  0
VERTEX
  8
LY_1
  6
CONTINUOUS
 62
     3
  5
2B6
 10
-33.68705
 20
46.16144
 30
0.0
  0
VERTEX
  8
LY_1
  6
CONTINUOUS
 62
     3
  5
2B7
 10
-33.61128
 20
46.275565
 30
0.0
  0
VERTEX
  8
LY_1
  6
CONTINUOUS
 62
     3
  5
2B8
 10
-33.532073
 20
46.387309
 30
0.0
  0
VERTEX
  8
LY_1
  6
CONTINUOUS
 62
     3
  5
2B9
 10
-33.449398
 20
46.496535
 30
0.0
  0
VERTEX
  8
LY_1
  6
CONTINUOUS
 62
     3
  5
2BA
 10
-33.363224
 20
46.603101
 30
0.0
  0
VERTEX
  8
LY_1
  6
CONTINUOUS
 62
     3
  5
2BB
 10
-33.273522
 20
46.70687
 30
0.0
  0
VERTEX
  8
LY_1
  6
CONTINUOUS
 62
     3
  5
2BC
 10
-33.18026
 20
46.807702
 30
0.0
  0
VERTEX
  8
LY_1
  6
CONTINUOUS
 62
     3
  5
2BD
 10
-33.083408
 20
46.905459
 30
0.0
  0
VERTEX
  8
LY_1
  6
CONTINUOUS
 62
     3
  5
2BE
 10
-32.982935
 20
47.0
 30
0.0
  0
VERTEX
  8
LY_1
  6
CONTINUOUS
 62
     3
  5
2BF
 10
-32.855888
 20
47.110441
 30
0.0
  0
VERTEX
  8
LY_1
  6
CONTINUOUS
 62
     3
  5
2C0
 10
-32.723783
 20
47.215669
 30
0.0
  0
VERTEX
  8
LY_1
  6
CONTINUOUS
 62
     3
  5
2C1
 10
-32.586959
 20
47.315431
 30
0.0
  0
VERTEX
  8
LY_1
  6
CONTINUOUS
 62
     3
  5
2C2
 10
-32.445758
 20
47.409474
 30
0.0
  0
VERTEX
  8
LY_1
  6
CONTINUOUS
 62
     3
  5
2C3
 10
-32.300521
 20
47.497546
 30
0.0
  0
VERTEX
  8
LY_1
  6
CONTINUOUS
 62
     3
  5
2C4
 10
-32.151588
 20
47.579395
 30
0.0
  0
VERTEX
  8
LY_1
  6
CONTINUOUS
 62
     3
  5
2C5
 10
-31.999301
 20
47.654767
 30
0.0
  0
VERTEX
  8
LY_1
  6
CONTINUOUS
 62
     3
  5
2C6
 10
-31.844001
 20
47.723411
 30
0.0
  0
VERTEX
  8
LY_1
  6
CONTINUOUS
 62
     3
  5
2C7
 10
-31.686028
 20
47.785073
 30
0.0
  0
VERTEX
  8
LY_1
  6
CONTINUOUS
 62
     3
  5
2C8
 10
-31.525725
 20
47.839501
 30
0.0
  0
VERTEX
  8
LY_1
  6
CONTINUOUS
 62
     3
  5
2C9
 10
-31.363431
 20
47.886443
 30
0.0
  0
VERTEX
  8
LY_1
  6
CONTINUOUS
 62
     3
  5
2CA
 10
-31.199488
 20
47.925645
 30
0.0
  0
VERTEX
  8
LY_1
  6
CONTINUOUS
 62
     3
  5
2CB
 10
-31.034237
 20
47.956856
 30
0.0
  0
VERTEX
  8
LY_1
  6
CONTINUOUS
 62
     3
  5
2CC
 10
-30.868019
 20
47.979823
 30
0.0
  0
VERTEX
  8
LY_1
  6
CONTINUOUS
 62
     3
  5
2CD
 10
-30.701175
 20
47.994293
 30
0.0
  0
VERTEX
  8
LY_1
  6
CONTINUOUS
 62
     3
  5
2CE
 10
-30.534046
 20
48.000013
 30
0.0
  0
VERTEX
  8
LY_1
  6
CONTINUOUS
 62
     3
  5
2CF
 10
-30.361629
 20
47.996572
 30
0.0
  0
VERTEX
  8
LY_1
  6
CONTINUOUS
 62
     3
  5
2D0
 10
-30.189584
 20
47.983847
 30
0.0
  0
VERTEX
  8
LY_1
  6
CONTINUOUS
 62
     3
  5
2D1
 10
-30.01822
 20
47.962139
 30
0.0
  0
VERTEX
  8
LY_1
  6
CONTINUOUS
 62
     3
  5
2D2
 10
-29.847849
 20
47.931751
 30
0.0
  0
VERTEX
  8
LY_1
  6
CONTINUOUS
 62
     3
  5
2D3
 10
-29.678782
 20
47.892986
 30
0.0
  0
VERTEX
  8
LY_1
  6
CONTINUOUS
 62
     3
  5
2D4
 10
-29.511331
 20
47.846144
 30
0.0
  0
VERTEX
  8
LY_1
  6
CONTINUOUS
 62
     3
  5
2D5
 10
-29.345806
 20
47.791528
 30
0.0
  0
VERTEX
  8
LY_1
  6
CONTINUOUS
 62
     3
  5
2D6
 10
-29.182519
 20
47.729441
 30
0.0
  0
VERTEX
  8
LY_1
  6
CONTINUOUS
 62
     3
  5
2D7
 10
-29.021781
 20
47.660183
 30
0.0
  0
VERTEX
  8
LY_1
  6
CONTINUOUS
 62
     3
  5
2D8
 10
-28.863902
 20
47.584058
 30
0.0
  0
VERTEX
  8
LY_1
  6
CONTINUOUS
 62
     3
  5
2D9
 10
-28.709195
 20
47.501367
 30
0.0
  0
VERTEX
  8
LY_1
  6
CONTINUOUS
 62
     3
  5
2DA
 10
-28.55797
 20
47.412413
 30
0.0
  0
VERTEX
  8
LY_1
  6
CONTINUOUS
 62
     3
  5
2DB
 10
-28.410539
 20
47.317497
 30
0.0
  0
VERTEX
  8
LY_1
  6
CONTINUOUS
 62
     3
  5
2DC
 10
-28.267212
 20
47.216921
 30
0.0
  0
VERTEX
  8
LY_1
  6
CONTINUOUS
 62
     3
  5
2DD
 10
-28.128301
 20
47.110988
 30
0.0
  0
VERTEX
  8
LY_1
  6
CONTINUOUS
 62
     3
  5
2DE
 10
-27.994117
 20
47.0
 30
0.0
  0
VERTEX
  8
LY_1
  6
CONTINUOUS
 62
     3
  5
2DF
 10
-27.887747
 20
46.905371
 30
0.0
  0
VERTEX
  8
LY_1
  6
CONTINUOUS
 62
     3
  5
2E0
 10
-27.784755
 20
46.807657
 30
0.0
  0
VERTEX
  8
LY_1
  6
CONTINUOUS
 62
     3
  5
2E1
 10
-27.685127
 20
46.706971
 30
0.0
  0
VERTEX
  8
LY_1
  6
CONTINUOUS
 62
     3
  5
2E2
 10
-27.588849
 20
46.603428
 30
0.0
  0
VERTEX
  8
LY_1
  6
CONTINUOUS
 62
     3
  5
2E3
 10
-27.495908
 20
46.49714
 30
0.0
  0
VERTEX
  8
LY_1
  6
CONTINUOUS
 62
     3
  5
2E4
 10
-27.40629
 20
46.388223
 30
0.0
  0
VERTEX
  8
LY_1
  6
CONTINUOUS
 62
     3
  5
2E5
 10
-27.319983
 20
46.276789
 30
0.0
  0
VERTEX
  8
LY_1
  6
CONTINUOUS
 62
     3
  5
2E6
 10
-27.236971
 20
46.162953
 30
0.0
  0
VERTEX
  8
LY_1
  6
CONTINUOUS
 62
     3
  5
2E7
 10
-27.157242
 20
46.046829
 30
0.0
  0
VERTEX
  8
LY_1
  6
CONTINUOUS
 62
     3
  5
2E8
 10
-27.080782
 20
45.92853
 30
0.0
  0
VERTEX
  8
LY_1
  6
CONTINUOUS
 62
     3
  5
2E9
 10
-27.007578
 20
45.80817
 30
0.0
  0
VERTEX
  8
LY_1
  6
CONTINUOUS
 62
     3
  5
2EA
 10
-26.937616
 20
45.685864
 30
0.0
  0
VERTEX
  8
LY_1
  6
CONTINUOUS
 62
     3
  5
2EB
 10
-26.870882
 20
45.561725
 30
0.0
  0
VERTEX
  8
LY_1
  6
CONTINUOUS
 62
     3
  5
2EC
 10
-26.807364
 20
45.435867
 30
0.0
  0
VERTEX
  8
LY_1
  6
CONTINUOUS
 62
     3
  5
2ED
 10
-26.747046
 20
45.308404
 30
0.0
  0
VERTEX
  8
LY_1
  6
CONTINUOUS
 62
     3
  5
2EE
 10
-26.689917
 20
45.179449
 30
0.0
  0
VERTEX
  8
LY_1
  6
CONTINUOUS
 62
     3
  5
2EF
 10
-26.636166
 20
45.049615
 30
0.0
  0
VERTEX
  8
LY_1
  6
CONTINUOUS
 62
     3
  5
2F0
 10
-26.585572
 20
44.918504
 30
0.0
  0
VERTEX
  8
LY_1
  6
CONTINUOUS
 62
     3
  5
2F1
 10
-26.538146
 20
44.786209
 30
0.0
  0
VERTEX
  8
LY_1
  6
CONTINUOUS
 62
     3
  5
2F2
 10
-26.493893
 20
44.65282
 30
0.0
  0
VERTEX
  8
LY_1
  6
CONTINUOUS
 62
     3
  5
2F3
 10
-26.452823
 20
44.518429
 30
0.0
  0
VERTEX
  8
LY_1
  6
CONTINUOUS
 62
     3
  5
2F4
 10
-26.414943
 20
44.383126
 30
0.0
  0
VERTEX
  8
LY_1
  6
CONTINUOUS
 62
     3
  5
2F5
 10
-26.380262
 20
44.247003
 30
0.0
  0
VERTEX
  8
LY_1
  6
CONTINUOUS
 62
     3
  5
2F6
 10
-26.348788
 20
44.11015
 30
0.0
  0
VERTEX
  8
LY_1
  6
CONTINUOUS
 62
     3
  5
2F7
 10
-26.320528
 20
43.972659
 30
0.0
  0
VERTEX
  8
LY_1
  6
CONTINUOUS
 62
     3
  5
2F8
 10
-26.295491
 20
43.834621
 30
0.0
  0
VERTEX
  8
LY_1
  6
CONTINUOUS
 62
     3
  5
2F9
 10
-26.273685
 20
43.696126
 30
0.0
  0
VERTEX
  8
LY_1
  6
CONTINUOUS
 62
     3
  5
2FA
 10
-26.255118
 20
43.557267
 30
0.0
  0
VERTEX
  8
LY_1
  6
CONTINUOUS
 62
     3
  5
2FB
 10
-26.239799
 20
43.418134
 30
0.0
  0
VERTEX
  8
LY_1
  6
CONTINUOUS
 62
     3
  5
2FC
 10
-26.227734
 20
43.278817
 30
0.0
  0
VERTEX
  8
LY_1
  6
CONTINUOUS
 62
     3
  5
2FD
 10
-26.218933
 20
43.139409
 30
0.0
  0
VERTEX
  8
LY_1
  6
CONTINUOUS
 62
     3
  5
2FE
 10
-26.213402
 20
43.0
 30
0.0
  0
SEQEND
  8
LY_1
  6
CONTINUOUS
 62
     3
  5
2FF
  0
POLYLINE
  8
LY_1
  6
CONTINUOUS
 62
     3
  5
81
 66
     1
 10
0.0
 20
0.0
 30
0.0
  0
VERTEX
  8
LY_1
  6
CONTINUOUS
 62
     3
  5
300
 10
-48.231887
 20
43.0
 30
0.0
  0
VERTEX
  8
LY_1
  6
CONTINUOUS
 62
     3
  5
301
 10
-48.239555
 20
43.136503
 30
0.0
  0
VERTEX
  8
LY_1
  6
CONTINUOUS
 62
     3
  5
302
 10
-48.244228
 20
43.273172
 30
0.0
  0
VERTEX
  8
LY_1
  6
CONTINUOUS
 62
     3
  5
303
 10
-48.245995
 20
43.409962
 30
0.0
  0
VERTEX
  8
LY_1
  6
CONTINUOUS
 62
     3
  5
304
 10
-48.244946
 20
43.546831
 30
0.0
  0
VERTEX
  8
LY_1
  6
CONTINUOUS
 62
     3
  5
305
 10
-48.241169
 20
43.683735
 30
0.0
  0
VERTEX
  8
LY_1
  6
CONTINUOUS
 62
     3
  5
306
 10
-48.234754
 20
43.820629
 30
0.0
  0
VERTEX
  8
LY_1
  6
CONTINUOUS
 62
     3
  5
307
 10
-48.225789
 20
43.95747
 30
0.0
  0
VERTEX
  8
LY_1
  6
CONTINUOUS
 62
     3
  5
308
 10
-48.214364
 20
44.094215
 30
0.0
  0
VERTEX
  8
LY_1
  6
CONTINUOUS
 62
     3
  5
309
 10
-48.200567
 20
44.230819
 30
0.0
  0
VERTEX
  8
LY_1
  6
CONTINUOUS
 62
     3
  5
30A
 10
-48.184488
 20
44.36724
 30
0.0
  0
VERTEX
  8
LY_1
  6
CONTINUOUS
 62
     3
  5
30B
 10
-48.166215
 20
44.503432
 30
0.0
  0
VERTEX
  8
LY_1
  6
CONTINUOUS
 62
     3
  5
30C
 10
-48.145838
 20
44.639354
 30
0.0
  0
VERTEX
  8
LY_1
  6
CONTINUOUS
 62
     3
  5
30D
 10
-48.123445
 20
44.77496
 30
0.0
  0
VERTEX
  8
LY_1
  6
CONTINUOUS
 62
     3
  5
30E
 10
-48.099126
 20
44.910207
 30
0.0
  0
VERTEX
  8
LY_1
  6
CONTINUOUS
 62
     3
  5
30F
 10
-48.07297
 20
45.045051
 30
0.0
  0
VERTEX
  8
LY_1
  6
CONTINUOUS
 62
     3
  5
310
 10
-48.045065
 20
45.179449
 30
0.0
  0
VERTEX
  8
LY_1
  6
CONTINUOUS
 62
     3
  5
311
 10
-48.018486
 20
45.299953
 30
0.0
  0
VERTEX
  8
LY_1
  6
CONTINUOUS
 62
     3
  5
312
 10
-47.990325
 20
45.419972
 30
0.0
  0
VERTEX
  8
LY_1
  6
CONTINUOUS
 62
     3
  5
313
 10
-47.960346
 20
45.539418
 30
0.0
  0
VERTEX
  8
LY_1
  6
CONTINUOUS
 62
     3
  5
314
 10
-47.92831
 20
45.658203
 30
0.0
  0
VERTEX
  8
LY_1
  6
CONTINUOUS
 62
     3
  5
315
 10
-47.89398
 20
45.776238
 30
0.0
  0
VERTEX
  8
LY_1
  6
CONTINUOUS
 62
     3
  5
316
 10
-47.85712
 20
45.893437
 30
0.0
  0
VERTEX
  8
LY_1
  6
CONTINUOUS
 62
     3
  5
317
 10
-47.81749
 20
46.00971
 30
0.0
  0
VERTEX
  8
LY_1
  6
CONTINUOUS
 62
     3
  5
318
 10
-47.774853
 20
46.12497
 30
0.0
  0
VERTEX
  8
LY_1
  6
CONTINUOUS
 62
     3
  5
319
 10
-47.728972
 20
46.239129
 30
0.0
  0
VERTEX
  8
LY_1
  6
CONTINUOUS
 62
     3
  5
31A
 10
-47.67961
 20
46.352098
 30
0.0
  0
VERTEX
  8
LY_1
  6
CONTINUOUS
 62
     3
  5
31B
 10
-47.626528
 20
46.46379
 30
0.0
  0
VERTEX
  8
LY_1
  6
CONTINUOUS
 62
     3
  5
31C
 10
-47.569488
 20
46.574115
 30
0.0
  0
VERTEX
  8
LY_1
  6
CONTINUOUS
 62
     3
  5
31D
 10
-47.508255
 20
46.682987
 30
0.0
  0
VERTEX
  8
LY_1
  6
CONTINUOUS
 62
     3
  5
31E
 10
-47.442589
 20
46.790318
 30
0.0
  0
VERTEX
  8
LY_1
  6
CONTINUOUS
 62
     3
  5
31F
 10
-47.372253
 20
46.896018
 30
0.0
  0
VERTEX
  8
LY_1
  6
CONTINUOUS
 62
     3
  5
320
 10
-47.29701
 20
47.0
 30
0.0
  0
VERTEX
  8
LY_1
  6
CONTINUOUS
 62
     3
  5
321
 10
-47.220187
 20
47.097846
 30
0.0
  0
VERTEX
  8
LY_1
  6
CONTINUOUS
 62
     3
  5
322
 10
-47.138932
 20
47.193496
 30
0.0
  0
VERTEX
  8
LY_1
  6
CONTINUOUS
 62
     3
  5
323
 10
-47.053535
 20
47.28641
 30
0.0
  0
VERTEX
  8
LY_1
  6
CONTINUOUS
 62
     3
  5
324
 10
-46.964286
 20
47.376049
 30
0.0
  0
VERTEX
  8
LY_1
  6
CONTINUOUS
 62
     3
  5
325
 10
-46.871475
 20
47.461873
 30
0.0
  0
VERTEX
  8
LY_1
  6
CONTINUOUS
 62
     3
  5
326
 10
-46.775393
 20
47.543345
 30
0.0
  0
VERTEX
  8
LY_1
  6
CONTINUOUS
 62
     3
  5
327
 10
-46.676328
 20
47.619923
 30
0.0
  0
VERTEX
  8
LY_1
  6
CONTINUOUS
 62
     3
  5
328
 10
-46.574572
 20
47.691071
 30
0.0
  0
VERTEX
  8
LY_1
  6
CONTINUOUS
 62
     3
  5
329
 10
-46.470414
 20
47.756247
 30
0.0
  0
VERTEX
  8
LY_1
  6
CONTINUOUS
 62
     3
  5
32A
 10
-46.364145
 20
47.814914
 30
0.0
  0
VERTEX
  8
LY_1
  6
CONTINUOUS
 62
     3
  5
32B
 10
-46.256053
 20
47.866531
 30
0.0
  0
VERTEX
  8
LY_1
  6
CONTINUOUS
 62
     3
  5
32C
 10
-46.146431
 20
47.91056
 30
0.0
  0
VERTEX
  8
LY_1
  6
CONTINUOUS
 62
     3
  5
32D
 10
-46.035566
 20
47.946462
 30
0.0
  0
VERTEX
  8
LY_1
  6
CONTINUOUS
 62
     3
  5
32E
 10
-45.923751
 20
47.973698
 30
0.0
  0
VERTEX
  8
LY_1
  6
CONTINUOUS
 62
     3
  5
32F
 10
-45.811273
 20
47.991728
 30
0.0
  0
VERTEX
  8
LY_1
  6
CONTINUOUS
 62
     3
  5
330
 10
-45.698425
 20
48.000013
 30
0.0
  0
VERTEX
  8
LY_1
  6
CONTINUOUS
 62
     3
  5
331
 10
-45.578492
 20
47.997752
 30
0.0
  0
VERTEX
  8
LY_1
  6
CONTINUOUS
 62
     3
  5
332
 10
-45.458755
 20
47.984524
 30
0.0
  0
VERTEX
  8
LY_1
  6
CONTINUOUS
 62
     3
  5
333
 10
-45.3395
 20
47.960956
 30
0.0
  0
VERTEX
  8
LY_1
  6
CONTINUOUS
 62
     3
  5
334
 10
-45.221013
 20
47.927678
 30
0.0
  0
VERTEX
  8
LY_1
  6
CONTINUOUS
 62
     3
  5
335
 10
-45.103583
 20
47.885319
 30
0.0
  0
VERTEX
  8
LY_1
  6
CONTINUOUS
 62
     3
  5
336
 10
-44.987495
 20
47.834509
 30
0.0
  0
VERTEX
  8
LY_1
  6
CONTINUOUS
 62
     3
  5
337
 10
-44.873037
 20
47.775876
 30
0.0
  0
VERTEX
  8
LY_1
  6
CONTINUOUS
 62
     3
  5
338
 10
-44.760495
 20
47.710051
 30
0.0
  0
VERTEX
  8
LY_1
  6
CONTINUOUS
 62
     3
  5
339
 10
-44.650157
 20
47.637661
 30
0.0
  0
VERTEX
  8
LY_1
  6
CONTINUOUS
 62
     3
  5
33A
 10
-44.54231
 20
47.559337
 30
0.0
  0
VERTEX
  8
LY_1
  6
CONTINUOUS
 62
     3
  5
33B
 10
-44.437239
 20
47.475708
 30
0.0
  0
VERTEX
  8
LY_1
  6
CONTINUOUS
 62
     3
  5
33C
 10
-44.335233
 20
47.387402
 30
0.0
  0
VERTEX
  8
LY_1
  6
CONTINUOUS
 62
     3
  5
33D
 10
-44.236578
 20
47.295049
 30
0.0
  0
VERTEX
  8
LY_1
  6
CONTINUOUS
 62
     3
  5
33E
 10
-44.141561
 20
47.199278
 30
0.0
  0
VERTEX
  8
LY_1
  6
CONTINUOUS
 62
     3
  5
33F
 10
-44.050469
 20
47.100719
 30
0.0
  0
VERTEX
  8
LY_1
  6
CONTINUOUS
 62
     3
  5
340
 10
-43.963589
 20
47.0
 30
0.0
  0
VERTEX
  8
LY_1
  6
CONTINUOUS
 62
     3
  5
341
 10
-43.879654
 20
46.895761
 30
0.0
  0
VERTEX
  8
LY_1
  6
CONTINUOUS
 62
     3
  5
342
 10
-43.800186
 20
46.789991
 30
0.0
  0
VERTEX
  8
LY_1
  6
CONTINUOUS
 62
     3
  5
343
 10
-43.724984
 20
46.682744
 30
0.0
  0
VERTEX
  8
LY_1
  6
CONTINUOUS
 62
     3
  5
344
 10
-43.65385
 20
46.574077
 30
0.0
  0
VERTEX
  8
LY_1
  6
CONTINUOUS
 62
     3
  5
345
 10
-43.586584
 20
46.464045
 30
0.0
  0
VERTEX
  8
LY_1
  6
CONTINUOUS
 62
     3
  5
346
 10
-43.522987
 20
46.352703
 30
0.0
  0
VERTEX
  8
LY_1
  6
CONTINUOUS
 62
     3
  5
347
 10
-43.462859
 20
46.240106
 30
0.0
  0
VERTEX
  8
LY_1
  6
CONTINUOUS
 62
     3
  5
348
 10
-43.406001
 20
46.126312
 30
0.0
  0
VERTEX
  8
LY_1
  6
CONTINUOUS
 62
     3
  5
349
 10
-43.352213
 20
46.011373
 30
0.0
  0
VERTEX
  8
LY_1
  6
CONTINUOUS
 62
     3
  5
34A
 10
-43.301297
 20
45.895347
 30
0.0
  0
VERTEX
  8
LY_1
  6
CONTINUOUS
 62
     3
  5
34B
 10
-43.253053
 20
45.778288
 30
0.0
  0
VERTEX
  8
LY_1
  6
CONTINUOUS
 62
     3
  5
34C
 10
-43.207282
 20
45.660253
 30
0.0
  0
VERTEX
  8
LY_1
  6
CONTINUOUS
 62
     3
  5
34D
 10
-43.163783
 20
45.541296
 30
0.0
  0
VERTEX
  8
LY_1
  6
CONTINUOUS
 62
     3
  5
34E
 10
-43.122359
 20
45.421472
 30
0.0
  0
VERTEX
  8
LY_1
  6
CONTINUOUS
 62
     3
  5
34F
 10
-43.082808
 20
45.300839
 30
0.0
  0
VERTEX
  8
LY_1
  6
CONTINUOUS
 62
     3
  5
350
 10
-43.044933
 20
45.179449
 30
0.0
  0
VERTEX
  8
LY_1
  6
CONTINUOUS
 62
     3
  5
351
 10
-43.005594
 20
45.047077
 30
0.0
  0
VERTEX
  8
LY_1
  6
CONTINUOUS
 62
     3
  5
352
 10
-42.968065
 20
44.913936
 30
0.0
  0
VERTEX
  8
LY_1
  6
CONTINUOUS
 62
     3
  5
353
 10
-42.932426
 20
44.780083
 30
0.0
  0
VERTEX
  8
LY_1
  6
CONTINUOUS
 62
     3
  5
354
 10
-42.898752
 20
44.645572
 30
0.0
  0
VERTEX
  8
LY_1
  6
CONTINUOUS
 62
     3
  5
355
 10
-42.867122
 20
44.510457
 30
0.0
  0
VERTEX
  8
LY_1
  6
CONTINUOUS
 62
     3
  5
356
 10
-42.837613
 20
44.374793
 30
0.0
  0
VERTEX
  8
LY_1
  6
CONTINUOUS
 62
     3
  5
357
 10
-42.810302
 20
44.238635
 30
0.0
  0
VERTEX
  8
LY_1
  6
CONTINUOUS
 62
     3
  5
358
 10
-42.785266
 20
44.102038
 30
0.0
  0
VERTEX
  8
LY_1
  6
CONTINUOUS
 62
     3
  5
359
 10
-42.762583
 20
43.965056
 30
0.0
  0
VERTEX
  8
LY_1
  6
CONTINUOUS
 62
     3
  5
35A
 10
-42.742331
 20
43.827744
 30
0.0
  0
VERTEX
  8
LY_1
  6
CONTINUOUS
 62
     3
  5
35B
 10
-42.724586
 20
43.690156
 30
0.0
  0
VERTEX
  8
LY_1
  6
CONTINUOUS
 62
     3
  5
35C
 10
-42.709427
 20
43.552348
 30
0.0
  0
VERTEX
  8
LY_1
  6
CONTINUOUS
 62
     3
  5
35D
 10
-42.696929
 20
43.414373
 30
0.0
  0
VERTEX
  8
LY_1
  6
CONTINUOUS
 62
     3
  5
35E
 10
-42.687172
 20
43.276287
 30
0.0
  0
VERTEX
  8
LY_1
  6
CONTINUOUS
 62
     3
  5
35F
 10
-42.680231
 20
43.138145
 30
0.0
  0
VERTEX
  8
LY_1
  6
CONTINUOUS
 62
     3
  5
360
 10
-42.676185
 20
43.0
 30
0.0
  0
SEQEND
  8
LY_1
  6
CONTINUOUS
 62
     3
  5
361
  0
POLYLINE
  8
LY_1
  6
CONTINUOUS
 62
     3
  5
82
 66
     1
 10
0.0
 20
0.0
 30
0.0
  0
VERTEX
  8
LY_1
  6
CONTINUOUS
 62
     3
  5
362
 10
-54.592503
 20
43.0
 30
0.0
  0
VERTEX
  8
LY_1
  6
CONTINUOUS
 62
     3
  5
363
 10
-54.60035
 20
43.136438
 30
0.0
  0
VERTEX
  8
LY_1
  6
CONTINUOUS
 62
     3
  5
364
 10
-54.606648
 20
43.273741
 30
0.0
  0
VERTEX
  8
LY_1
  6
CONTINUOUS
 62
     3
  5
365
 10
-54.611522
 20
43.411718
 30
0.0
  0
VERTEX
  8
LY_1
  6
CONTINUOUS
 62
     3
  5
366
 10
-54.615098
 20
43.550176
 30
0.0
  0
VERTEX
  8
LY_1
  6
CONTINUOUS
 62
     3
  5
367
 10
-54.617501
 20
43.688925
 30
0.0
  0
VERTEX
  8
LY_1
  6
CONTINUOUS
 62
     3
  5
368
 10
-54.618855
 20
43.827772
 30
0.0
  0
VERTEX
  8
LY_1
  6
CONTINUOUS
 62
     3
  5
369
 10
-54.619286
 20
43.966525
 30
0.0
  0
VERTEX
  8
LY_1
  6
CONTINUOUS
 62
     3
  5
36A
 10
-54.618919
 20
44.104993
 30
0.0
  0
VERTEX
  8
LY_1
  6
CONTINUOUS
 62
     3
  5
36B
 10
-54.617878
 20
44.242984
 30
0.0
  0
VERTEX
  8
LY_1
  6
CONTINUOUS
 62
     3
  5
36C
 10
-54.61629
 20
44.380306
 30
0.0
  0
VERTEX
  8
LY_1
  6
CONTINUOUS
 62
     3
  5
36D
 10
-54.614278
 20
44.516767
 30
0.0
  0
VERTEX
  8
LY_1
  6
CONTINUOUS
 62
     3
  5
36E
 10
-54.611969
 20
44.652176
 30
0.0
  0
VERTEX
  8
LY_1
  6
CONTINUOUS
 62
     3
  5
36F
 10
-54.609488
 20
44.78634
 30
0.0
  0
VERTEX
  8
LY_1
  6
CONTINUOUS
 62
     3
  5
370
 10
-54.606958
 20
44.919068
 30
0.0
  0
VERTEX
  8
LY_1
  6
CONTINUOUS
 62
     3
  5
371
 10
-54.604506
 20
45.050169
 30
0.0
  0
VERTEX
  8
LY_1
  6
CONTINUOUS
 62
     3
  5
372
 10
-54.602256
 20
45.179449
 30
0.0
  0
VERTEX
  8
LY_1
  6
CONTINUOUS
 62
     3
  5
373
 10
-54.600555
 20
45.286579
 30
0.0
  0
VERTEX
  8
LY_1
  6
CONTINUOUS
 62
     3
  5
374
 10
-54.598802
 20
45.392697
 30
0.0
  0
VERTEX
  8
LY_1
  6
CONTINUOUS
 62
     3
  5
375
 10
-54.596714
 20
45.49821
 30
0.0
  0
VERTEX
  8
LY_1
  6
CONTINUOUS
 62
     3
  5
376
 10
-54.594007
 20
45.603525
 30
0.0
  0
VERTEX
  8
LY_1
  6
CONTINUOUS
 62
     3
  5
377
 10
-54.590399
 20
45.709048
 30
0.0
  0
VERTEX
  8
LY_1
  6
CONTINUOUS
 62
     3
  5
378
 10
-54.585607
 20
45.815188
 30
0.0
  0
VERTEX
  8
LY_1
  6
CONTINUOUS
 62
     3
  5
379
 10
-54.579347
 20
45.92235
 30
0.0
  0
VERTEX
  8
LY_1
  6
CONTINUOUS
 62
     3
  5
37A
 10
-54.571335
 20
46.030942
 30
0.0
  0
VERTEX
  8
LY_1
  6
CONTINUOUS
 62
     3
  5
37B
 10
-54.56129
 20
46.141372
 30
0.0
  0
VERTEX
  8
LY_1
  6
CONTINUOUS
 62
     3
  5
37C
 10
-54.548928
 20
46.254045
 30
0.0
  0
VERTEX
  8
LY_1
  6
CONTINUOUS
 62
     3
  5
37D
 10
-54.533966
 20
46.369369
 30
0.0
  0
VERTEX
  8
LY_1
  6
CONTINUOUS
 62
     3
  5
37E
 10
-54.51612
 20
46.487752
 30
0.0
  0
VERTEX
  8
LY_1
  6
CONTINUOUS
 62
     3
  5
37F
 10
-54.495107
 20
46.609599
 30
0.0
  0
VERTEX
  8
LY_1
  6
CONTINUOUS
 62
     3
  5
380
 10
-54.470645
 20
46.735318
 30
0.0
  0
VERTEX
  8
LY_1
  6
CONTINUOUS
 62
     3
  5
381
 10
-54.44245
 20
46.865316
 30
0.0
  0
VERTEX
  8
LY_1
  6
CONTINUOUS
 62
     3
  5
382
 10
-54.410239
 20
47.0
 30
0.0
  0
VERTEX
  8
LY_1
  6
CONTINUOUS
 62
     3
  5
383
 10
-54.388445
 20
47.084746
 30
0.0
  0
VERTEX
  8
LY_1
  6
CONTINUOUS
 62
     3
  5
384
 10
-54.365096
 20
47.170539
 30
0.0
  0
VERTEX
  8
LY_1
  6
CONTINUOUS
 62
     3
  5
385
 10
-54.340246
 20
47.256519
 30
0.0
  0
VERTEX
  8
LY_1
  6
CONTINUOUS
 62
     3
  5
386
 10
-54.313949
 20
47.341827
 30
0.0
  0
VERTEX
  8
LY_1
  6
CONTINUOUS
 62
     3
  5
387
 10
-54.286259
 20
47.425602
 30
0.0
  0
VERTEX
  8
LY_1
  6
CONTINUOUS
 62
     3
  5
388
 10
-54.257232
 20
47.506984
 30
0.0
  0
VERTEX
  8
LY_1
  6
CONTINUOUS
 62
     3
  5
389
 10
-54.226921
 20
47.585114
 30
0.0
  0
VERTEX
  8
LY_1
  6
CONTINUOUS
 62
     3
  5
38A
 10
-54.19538
 20
47.65913
 30
0.0
  0
VERTEX
  8
LY_1
  6
CONTINUOUS
 62
     3
  5
38B
 10
-54.162665
 20
47.728175
 30
0.0
  0
VERTEX
  8
LY_1
  6
CONTINUOUS
 62
     3
  5
38C
 10
-54.128829
 20
47.791386
 30
0.0
  0
VERTEX
  8
LY_1
  6
CONTINUOUS
 62
     3
  5
38D
 10
-54.093927
 20
47.847905
 30
0.0
  0
VERTEX
  8
LY_1
  6
CONTINUOUS
 62
     3
  5
38E
 10
-54.058013
 20
47.896872
 30
0.0
  0
VERTEX
  8
LY_1
  6
CONTINUOUS
 62
     3
  5
38F
 10
-54.021142
 20
47.937426
 30
0.0
  0
VERTEX
  8
LY_1
  6
CONTINUOUS
 62
     3
  5
390
 10
-53.983368
 20
47.968707
 30
0.0
  0
VERTEX
  8
LY_1
  6
CONTINUOUS
 62
     3
  5
391
 10
-53.944745
 20
47.989856
 30
0.0
  0
VERTEX
  8
LY_1
  6
CONTINUOUS
 62
     3
  5
392
 10
-53.905327
 20
48.000013
 30
0.0
  0
VERTEX
  8
LY_1
  6
CONTINUOUS
 62
     3
  5
393
 10
-53.862258
 20
47.998052
 30
0.0
  0
VERTEX
  8
LY_1
  6
CONTINUOUS
 62
     3
  5
394
 10
-53.818522
 20
47.983442
 30
0.0
  0
VERTEX
  8
LY_1
  6
CONTINUOUS
 62
     3
  5
395
 10
-53.774305
 20
47.957165
 30
0.0
  0
VERTEX
  8
LY_1
  6
CONTINUOUS
 62
     3
  5
396
 10
-53.729791
 20
47.9202
 30
0.0
  0
VERTEX
  8
LY_1
  6
CONTINUOUS
 62
     3
  5
397
 10
-53.685165
 20
47.873529
 30
0.0
  0
VERTEX
  8
LY_1
  6
CONTINUOUS
 62
     3
  5
398
 10
-53.640611
 20
47.818132
 30
0.0
  0
VERTEX
  8
LY_1
  6
CONTINUOUS
 62
     3
  5
399
 10
-53.596315
 20
47.754991
 30
0.0
  0
VERTEX
  8
LY_1
  6
CONTINUOUS
 62
     3
  5
39A
 10
-53.552461
 20
47.685084
 30
0.0
  0
VERTEX
  8
LY_1
  6
CONTINUOUS
 62
     3
  5
39B
 10
-53.509233
 20
47.609394
 30
0.0
  0
VERTEX
  8
LY_1
  6
CONTINUOUS
 62
     3
  5
39C
 10
-53.466817
 20
47.528902
 30
0.0
  0
VERTEX
  8
LY_1
  6
CONTINUOUS
 62
     3
  5
39D
 10
-53.425396
 20
47.444586
 30
0.0
  0
VERTEX
  8
LY_1
  6
CONTINUOUS
 62
     3
  5
39E
 10
-53.385156
 20
47.35743
 30
0.0
  0
VERTEX
  8
LY_1
  6
CONTINUOUS
 62
     3
  5
39F
 10
-53.346282
 20
47.268412
 30
0.0
  0
VERTEX
  8
LY_1
  6
CONTINUOUS
 62
     3
  5
3A0
 10
-53.308957
 20
47.178514
 30
0.0
  0
VERTEX
  8
LY_1
  6
CONTINUOUS
 62
     3
  5
3A1
 10
-53.273368
 20
47.088716
 30
0.0
  0
VERTEX
  8
LY_1
  6
CONTINUOUS
 62
     3
  5
3A2
 10
-53.239697
 20
47.0
 30
0.0
  0
VERTEX
  8
LY_1
  6
CONTINUOUS
 62
     3
  5
3A3
 10
-53.191549
 20
46.866205
 30
0.0
  0
VERTEX
  8
LY_1
  6
CONTINUOUS
 62
     3
  5
3A4
 10
-53.14812
 20
46.736963
 30
0.0
  0
VERTEX
  8
LY_1
  6
CONTINUOUS
 62
     3
  5
3A5
 10
-53.109073
 20
46.61187
 30
0.0
  0
VERTEX
  8
LY_1
  6
CONTINUOUS
 62
     3
  5
3A6
 10
-53.074071
 20
46.490521
 30
0.0
  0
VERTEX
  8
LY_1
  6
CONTINUOUS
 62
     3
  5
3A7
 10
-53.042774
 20
46.372514
 30
0.0
  0
VERTEX
  8
LY_1
  6
CONTINUOUS
 62
     3
  5
3A8
 10
-53.014845
 20
46.257444
 30
0.0
  0
VERTEX
  8
LY_1
  6
CONTINUOUS
 62
     3
  5
3A9
 10
-52.989947
 20
46.144907
 30
0.0
  0
VERTEX
  8
LY_1
  6
CONTINUOUS
 62
     3
  5
3AA
 10
-52.96774
 20
46.0345
 30
0.0
  0
VERTEX
  8
LY_1
  6
CONTINUOUS
 62
     3
  5
3AB
 10
-52.947888
 20
45.925819
 30
0.0
  0
VERTEX
  8
LY_1
  6
CONTINUOUS
 62
     3
  5
3AC
 10
-52.930051
 20
45.81846
 30
0.0
  0
VERTEX
  8
LY_1
  6
CONTINUOUS
 62
     3
  5
3AD
 10
-52.913893
 20
45.712019
 30
0.0
  0
VERTEX
  8
LY_1
  6
CONTINUOUS
 62
     3
  5
3AE
 10
-52.899075
 20
45.606092
 30
0.0
  0
VERTEX
  8
LY_1
  6
CONTINUOUS
 62
     3
  5
3AF
 10
-52.885258
 20
45.500275
 30
0.0
  0
VERTEX
  8
LY_1
  6
CONTINUOUS
 62
     3
  5
3B0
 10
-52.872107
 20
45.394165
 30
0.0
  0
VERTEX
  8
LY_1
  6
CONTINUOUS
 62
     3
  5
3B1
 10
-52.859281
 20
45.287358
 30
0.0
  0
VERTEX
  8
LY_1
  6
CONTINUOUS
 62
     3
  5
3B2
 10
-52.846443
 20
45.179449
 30
0.0
  0
VERTEX
  8
LY_1
  6
CONTINUOUS
 62
     3
  5
3B3
 10
-52.830999
 20
45.050811
 30
0.0
  0
VERTEX
  8
LY_1
  6
CONTINUOUS
 62
     3
  5
3B4
 10
-52.815219
 20
44.920282
 30
0.0
  0
VERTEX
  8
LY_1
  6
CONTINUOUS
 62
     3
  5
3B5
 10
-52.799251
 20
44.788051
 30
0.0
  0
VERTEX
  8
LY_1
  6
CONTINUOUS
 62
     3
  5
3B6
 10
-52.783242
 20
44.654308
 30
0.0
  0
VERTEX
  8
LY_1
  6
CONTINUOUS
 62
     3
  5
3B7
 10
-52.767339
 20
44.519239
 30
0.0
  0
VERTEX
  8
LY_1
  6
CONTINUOUS
 62
     3
  5
3B8
 10
-52.75169
 20
44.383035
 30
0.0
  0
VERTEX
  8
LY_1
  6
CONTINUOUS
 62
     3
  5
3B9
 10
-52.736443
 20
44.245884
 30
0.0
  0
VERTEX
  8
LY_1
  6
CONTINUOUS
 62
     3
  5
3BA
 10
-52.721744
 20
44.107973
 30
0.0
  0
VERTEX
  8
LY_1
  6
CONTINUOUS
 62
     3
  5
3BB
 10
-52.707741
 20
43.969492
 30
0.0
  0
VERTEX
  8
LY_1
  6
CONTINUOUS
 62
     3
  5
3BC
 10
-52.694583
 20
43.83063
 30
0.0
  0
VERTEX
  8
LY_1
  6
CONTINUOUS
 62
     3
  5
3BD
 10
-52.682415
 20
43.691574
 30
0.0
  0
VERTEX
  8
LY_1
  6
CONTINUOUS
 62
     3
  5
3BE
 10
-52.671385
 20
43.552514
 30
0.0
  0
VERTEX
  8
LY_1
  6
CONTINUOUS
 62
     3
  5
3BF
 10
-52.661642
 20
43.413638
 30
0.0
  0
VERTEX
  8
LY_1
  6
CONTINUOUS
 62
     3
  5
3C0
 10
-52.653331
 20
43.275135
 30
0.0
  0
VERTEX
  8
LY_1
  6
CONTINUOUS
 62
     3
  5
3C1
 10
-52.646602
 20
43.137193
 30
0.0
  0
VERTEX
  8
LY_1
  6
CONTINUOUS
 62
     3
  5
3C2
 10
-52.6416
 20
43.0
 30
0.0
  0
SEQEND
  8
LY_1
  6
CONTINUOUS
 62
     3
  5
3C3
  0
POLYLINE
  8
LY_1
  6
CONTINUOUS
 62
     3
  5
83
 66
     1
 10
0.0
 20
0.0
 30
0.0
  0
VERTEX
  8
LY_1
  6
CONTINUOUS
 62
     3
  5
3C4
 10
-15.026294
 20
2.311751
 30
0.0
  0
VERTEX
  8
LY_1
  6
CONTINUOUS
 62
     3
  5
3C5
 10
-15.024117
 20
2.255163
 30
0.0
  0
VERTEX
  8
LY_1
  6
CONTINUOUS
 62
     3
  5
3C6
 10
-15.0217
 20
2.198425
 30
0.0
  0
VERTEX
  8
LY_1
  6
CONTINUOUS
 62
     3
  5
3C7
 10
-15.019018
 20
2.141575
 30
0.0
  0
VERTEX
  8
LY_1
  6
CONTINUOUS
 62
     3
  5
3C8
 10
-15.016051
 20
2.084654
 30
0.0
  0
VERTEX
  8
LY_1
  6
CONTINUOUS
 62
     3
  5
3C9
 10
-15.012777
 20
2.0277
 30
0.0
  0
VERTEX
  8
LY_1
  6
CONTINUOUS
 62
     3
  5
3CA
 10
-15.009173
 20
1.970754
 30
0.0
  0
VERTEX
  8
LY_1
  6
CONTINUOUS
 62
     3
  5
3CB
 10
-15.005217
 20
1.913854
 30
0.0
  0
VERTEX
  8
LY_1
  6
CONTINUOUS
 62
     3
  5
3CC
 10
-15.000889
 20
1.857041
 30
0.0
  0
VERTEX
  8
LY_1
  6
CONTINUOUS
 62
     3
  5
3CD
 10
-14.996165
 20
1.800353
 30
0.0
  0
VERTEX
  8
LY_1
  6
CONTINUOUS
 62
     3
  5
3CE
 10
-14.991023
 20
1.74383
 30
0.0
  0
VERTEX
  8
LY_1
  6
CONTINUOUS
 62
     3
  5
3CF
 10
-14.985443
 20
1.687511
 30
0.0
  0
VERTEX
  8
LY_1
  6
CONTINUOUS
 62
     3
  5
3D0
 10
-14.979401
 20
1.631437
 30
0.0
  0
VERTEX
  8
LY_1
  6
CONTINUOUS
 62
     3
  5
3D1
 10
-14.972876
 20
1.575646
 30
0.0
  0
VERTEX
  8
LY_1
  6
CONTINUOUS
 62
     3
  5
3D2
 10
-14.965846
 20
1.520178
 30
0.0
  0
VERTEX
  8
LY_1
  6
CONTINUOUS
 62
     3
  5
3D3
 10
-14.958289
 20
1.465072
 30
0.0
  0
VERTEX
  8
LY_1
  6
CONTINUOUS
 62
     3
  5
3D4
 10
-14.950182
 20
1.410368
 30
0.0
  0
VERTEX
  8
LY_1
  6
CONTINUOUS
 62
     3
  5
3D5
 10
-14.942904
 20
1.3645
 30
0.0
  0
VERTEX
  8
LY_1
  6
CONTINUOUS
 62
     3
  5
3D6
 10
-14.935269
 20
1.318864
 30
0.0
  0
VERTEX
  8
LY_1
  6
CONTINUOUS
 62
     3
  5
3D7
 10
-14.927327
 20
1.273378
 30
0.0
  0
VERTEX
  8
LY_1
  6
CONTINUOUS
 62
     3
  5
3D8
 10
-14.919129
 20
1.227957
 30
0.0
  0
VERTEX
  8
LY_1
  6
CONTINUOUS
 62
     3
  5
3D9
 10
-14.910723
 20
1.182519
 30
0.0
  0
VERTEX
  8
LY_1
  6
CONTINUOUS
 62
     3
  5
3DA
 10
-14.902161
 20
1.136982
 30
0.0
  0
VERTEX
  8
LY_1
  6
CONTINUOUS
 62
     3
  5
3DB
 10
-14.893492
 20
1.091262
 30
0.0
  0
VERTEX
  8
LY_1
  6
CONTINUOUS
 62
     3
  5
3DC
 10
-14.884767
 20
1.045277
 30
0.0
  0
VERTEX
  8
LY_1
  6
CONTINUOUS
 62
     3
  5
3DD
 10
-14.876036
 20
0.998943
 30
0.0
  0
VERTEX
  8
LY_1
  6
CONTINUOUS
 62
     3
  5
3DE
 10
-14.867348
 20
0.952179
 30
0.0
  0
VERTEX
  8
LY_1
  6
CONTINUOUS
 62
     3
  5
3DF
 10
-14.858754
 20
0.9049
 30
0.0
  0
VERTEX
  8
LY_1
  6
CONTINUOUS
 62
     3
  5
3E0
 10
-14.850304
 20
0.857025
 30
0.0
  0
VERTEX
  8
LY_1
  6
CONTINUOUS
 62
     3
  5
3E1
 10
-14.842049
 20
0.80847
 30
0.0
  0
VERTEX
  8
LY_1
  6
CONTINUOUS
 62
     3
  5
3E2
 10
-14.834037
 20
0.759152
 30
0.0
  0
VERTEX
  8
LY_1
  6
CONTINUOUS
 62
     3
  5
3E3
 10
-14.826319
 20
0.708989
 30
0.0
  0
VERTEX
  8
LY_1
  6
CONTINUOUS
 62
     3
  5
3E4
 10
-14.818946
 20
0.657898
 30
0.0
  0
VERTEX
  8
LY_1
  6
CONTINUOUS
 62
     3
  5
3E5
 10
-14.814151
 20
0.622831
 30
0.0
  0
VERTEX
  8
LY_1
  6
CONTINUOUS
 62
     3
  5
3E6
 10
-14.809365
 20
0.587492
 30
0.0
  0
VERTEX
  8
LY_1
  6
CONTINUOUS
 62
     3
  5
3E7
 10
-14.804415
 20
0.552073
 30
0.0
  0
VERTEX
  8
LY_1
  6
CONTINUOUS
 62
     3
  5
3E8
 10
-14.799131
 20
0.516763
 30
0.0
  0
VERTEX
  8
LY_1
  6
CONTINUOUS
 62
     3
  5
3E9
 10
-14.793341
 20
0.481754
 30
0.0
  0
VERTEX
  8
LY_1
  6
CONTINUOUS
 62
     3
  5
3EA
 10
-14.786873
 20
0.447236
 30
0.0
  0
VERTEX
  8
LY_1
  6
CONTINUOUS
 62
     3
  5
3EB
 10
-14.779555
 20
0.4134
 30
0.0
  0
VERTEX
  8
LY_1
  6
CONTINUOUS
 62
     3
  5
3EC
 10
-14.771215
 20
0.380436
 30
0.0
  0
VERTEX
  8
LY_1
  6
CONTINUOUS
 62
     3
  5
3ED
 10
-14.761683
 20
0.348535
 30
0.0
  0
VERTEX
  8
LY_1
  6
CONTINUOUS
 62
     3
  5
3EE
 10
-14.750787
 20
0.317887
 30
0.0
  0
VERTEX
  8
LY_1
  6
CONTINUOUS
 62
     3
  5
3EF
 10
-14.738354
 20
0.288684
 30
0.0
  0
VERTEX
  8
LY_1
  6
CONTINUOUS
 62
     3
  5
3F0
 10
-14.724214
 20
0.261116
 30
0.0
  0
VERTEX
  8
LY_1
  6
CONTINUOUS
 62
     3
  5
3F1
 10
-14.708194
 20
0.235373
 30
0.0
  0
VERTEX
  8
LY_1
  6
CONTINUOUS
 62
     3
  5
3F2
 10
-14.690124
 20
0.211645
 30
0.0
  0
VERTEX
  8
LY_1
  6
CONTINUOUS
 62
     3
  5
3F3
 10
-14.66983
 20
0.190125
 30
0.0
  0
VERTEX
  8
LY_1
  6
CONTINUOUS
 62
     3
  5
3F4
 10
-14.647142
 20
0.171002
 30
0.0
  0
VERTEX
  8
LY_1
  6
CONTINUOUS
 62
     3
  5
3F5
 10
-14.627961
 20
0.158001
 30
0.0
  0
VERTEX
  8
LY_1
  6
CONTINUOUS
 62
     3
  5
3F6
 10
-14.607398
 20
0.14648
 30
0.0
  0
VERTEX
  8
LY_1
  6
CONTINUOUS
 62
     3
  5
3F7
 10
-14.585598
 20
0.136382
 30
0.0
  0
VERTEX
  8
LY_1
  6
CONTINUOUS
 62
     3
  5
3F8
 10
-14.562701
 20
0.12765
 30
0.0
  0
VERTEX
  8
LY_1
  6
CONTINUOUS
 62
     3
  5
3F9
 10
-14.538851
 20
0.12023
 30
0.0
  0
VERTEX
  8
LY_1
  6
CONTINUOUS
 62
     3
  5
3FA
 10
-14.51419
 20
0.114063
 30
0.0
  0
VERTEX
  8
LY_1
  6
CONTINUOUS
 62
     3
  5
3FB
 10
-14.488859
 20
0.109095
 30
0.0
  0
VERTEX
  8
LY_1
  6
CONTINUOUS
 62
     3
  5
3FC
 10
-14.463002
 20
0.105268
 30
0.0
  0
VERTEX
  8
LY_1
  6
CONTINUOUS
 62
     3
  5
3FD
 10
-14.43676
 20
0.102527
 30
0.0
  0
VERTEX
  8
LY_1
  6
CONTINUOUS
 62
     3
  5
3FE
 10
-14.410276
 20
0.100814
 30
0.0
  0
VERTEX
  8
LY_1
  6
CONTINUOUS
 62
     3
  5
3FF
 10
-14.383691
 20
0.100075
 30
0.0
  0
VERTEX
  8
LY_1
  6
CONTINUOUS
 62
     3
  5
400
 10
-14.35715
 20
0.100252
 30
0.0
  0
VERTEX
  8
LY_1
  6
CONTINUOUS
 62
     3
  5
401
 10
-14.330792
 20
0.101289
 30
0.0
  0
VERTEX
  8
LY_1
  6
CONTINUOUS
 62
     3
  5
402
 10
-14.304762
 20
0.10313
 30
0.0
  0
VERTEX
  8
LY_1
  6
CONTINUOUS
 62
     3
  5
403
 10
-14.279201
 20
0.105718
 30
0.0
  0
VERTEX
  8
LY_1
  6
CONTINUOUS
 62
     3
  5
404
 10
-14.254251
 20
0.108998
 30
0.0
  0
SEQEND
  8
LY_1
  6
CONTINUOUS
 62
     3
  5
405
  0
POLYLINE
  8
LY_1
  6
CONTINUOUS
 62
     3
  5
84
 66
     1
 10
0.0
 20
0.0
 30
0.0
  0
VERTEX
  8
LY_1
  6
CONTINUOUS
 62
     3
  5
406
 10
-5.218441
 20
2.311751
 30
0.0
  0
VERTEX
  8
LY_1
  6
CONTINUOUS
 62
     3
  5
407
 10
-5.216265
 20
2.255163
 30
0.0
  0
VERTEX
  8
LY_1
  6
CONTINUOUS
 62
     3
  5
408
 10
-5.213847
 20
2.198425
 30
0.0
  0
VERTEX
  8
LY_1
  6
CONTINUOUS
 62
     3
  5
409
 10
-5.211165
 20
2.141575
 30
0.0
  0
VERTEX
  8
LY_1
  6
CONTINUOUS
 62
     3
  5
40A
 10
-5.208198
 20
2.084654
 30
0.0
  0
VERTEX
  8
LY_1
  6
CONTINUOUS
 62
     3
  5
40B
 10
-5.204924
 20
2.0277
 30
0.0
  0
VERTEX
  8
LY_1
  6
CONTINUOUS
 62
     3
  5
40C
 10
-5.20132
 20
1.970754
 30
0.0
  0
VERTEX
  8
LY_1
  6
CONTINUOUS
 62
     3
  5
40D
 10
-5.197365
 20
1.913854
 30
0.0
  0
VERTEX
  8
LY_1
  6
CONTINUOUS
 62
     3
  5
40E
 10
-5.193036
 20
1.857041
 30
0.0
  0
VERTEX
  8
LY_1
  6
CONTINUOUS
 62
     3
  5
40F
 10
-5.188312
 20
1.800353
 30
0.0
  0
VERTEX
  8
LY_1
  6
CONTINUOUS
 62
     3
  5
410
 10
-5.18317
 20
1.74383
 30
0.0
  0
VERTEX
  8
LY_1
  6
CONTINUOUS
 62
     3
  5
411
 10
-5.17759
 20
1.687511
 30
0.0
  0
VERTEX
  8
LY_1
  6
CONTINUOUS
 62
     3
  5
412
 10
-5.171548
 20
1.631437
 30
0.0
  0
VERTEX
  8
LY_1
  6
CONTINUOUS
 62
     3
  5
413
 10
-5.165023
 20
1.575646
 30
0.0
  0
VERTEX
  8
LY_1
  6
CONTINUOUS
 62
     3
  5
414
 10
-5.157993
 20
1.520178
 30
0.0
  0
VERTEX
  8
LY_1
  6
CONTINUOUS
 62
     3
  5
415
 10
-5.150436
 20
1.465072
 30
0.0
  0
VERTEX
  8
LY_1
  6
CONTINUOUS
 62
     3
  5
416
 10
-5.14233
 20
1.410368
 30
0.0
  0
VERTEX
  8
LY_1
  6
CONTINUOUS
 62
     3
  5
417
 10
-5.135052
 20
1.3645
 30
0.0
  0
VERTEX
  8
LY_1
  6
CONTINUOUS
 62
     3
  5
418
 10
-5.127417
 20
1.318864
 30
0.0
  0
VERTEX
  8
LY_1
  6
CONTINUOUS
 62
     3
  5
419
 10
-5.119475
 20
1.273378
 30
0.0
  0
VERTEX
  8
LY_1
  6
CONTINUOUS
 62
     3
  5
41A
 10
-5.111276
 20
1.227957
 30
0.0
  0
VERTEX
  8
LY_1
  6
CONTINUOUS
 62
     3
  5
41B
 10
-5.10287
 20
1.182519
 30
0.0
  0
VERTEX
  8
LY_1
  6
CONTINUOUS
 62
     3
  5
41C
 10
-5.094308
 20
1.136982
 30
0.0
  0
VERTEX
  8
LY_1
  6
CONTINUOUS
 62
     3
  5
41D
 10
-5.08564
 20
1.091262
 30
0.0
  0
VERTEX
  8
LY_1
  6
CONTINUOUS
 62
     3
  5
41E
 10
-5.076915
 20
1.045277
 30
0.0
  0
VERTEX
  8
LY_1
  6
CONTINUOUS
 62
     3
  5
41F
 10
-5.068183
 20
0.998943
 30
0.0
  0
VERTEX
  8
LY_1
  6
CONTINUOUS
 62
     3
  5
420
 10
-5.059495
 20
0.952179
 30
0.0
  0
VERTEX
  8
LY_1
  6
CONTINUOUS
 62
     3
  5
421
 10
-5.050902
 20
0.9049
 30
0.0
  0
VERTEX
  8
LY_1
  6
CONTINUOUS
 62
     3
  5
422
 10
-5.042452
 20
0.857025
 30
0.0
  0
VERTEX
  8
LY_1
  6
CONTINUOUS
 62
     3
  5
423
 10
-5.034196
 20
0.80847
 30
0.0
  0
VERTEX
  8
LY_1
  6
CONTINUOUS
 62
     3
  5
424
 10
-5.026184
 20
0.759152
 30
0.0
  0
VERTEX
  8
LY_1
  6
CONTINUOUS
 62
     3
  5
425
 10
-5.018466
 20
0.708989
 30
0.0
  0
VERTEX
  8
LY_1
  6
CONTINUOUS
 62
     3
  5
426
 10
-5.011093
 20
0.657898
 30
0.0
  0
VERTEX
  8
LY_1
  6
CONTINUOUS
 62
     3
  5
427
 10
-5.006298
 20
0.622831
 30
0.0
  0
VERTEX
  8
LY_1
  6
CONTINUOUS
 62
     3
  5
428
 10
-5.001512
 20
0.587492
 30
0.0
  0
VERTEX
  8
LY_1
  6
CONTINUOUS
 62
     3
  5
429
 10
-4.996562
 20
0.552073
 30
0.0
  0
VERTEX
  8
LY_1
  6
CONTINUOUS
 62
     3
  5
42A
 10
-4.991278
 20
0.516763
 30
0.0
  0
VERTEX
  8
LY_1
  6
CONTINUOUS
 62
     3
  5
42B
 10
-4.985488
 20
0.481754
 30
0.0
  0
VERTEX
  8
LY_1
  6
CONTINUOUS
 62
     3
  5
42C
 10
-4.97902
 20
0.447236
 30
0.0
  0
VERTEX
  8
LY_1
  6
CONTINUOUS
 62
     3
  5
42D
 10
-4.971702
 20
0.4134
 30
0.0
  0
VERTEX
  8
LY_1
  6
CONTINUOUS
 62
     3
  5
42E
 10
-4.963363
 20
0.380436
 30
0.0
  0
VERTEX
  8
LY_1
  6
CONTINUOUS
 62
     3
  5
42F
 10
-4.953831
 20
0.348535
 30
0.0
  0
VERTEX
  8
LY_1
  6
CONTINUOUS
 62
     3
  5
430
 10
-4.942934
 20
0.317887
 30
0.0
  0
VERTEX
  8
LY_1
  6
CONTINUOUS
 62
     3
  5
431
 10
-4.930502
 20
0.288684
 30
0.0
  0
VERTEX
  8
LY_1
  6
CONTINUOUS
 62
     3
  5
432
 10
-4.916361
 20
0.261116
 30
0.0
  0
VERTEX
  8
LY_1
  6
CONTINUOUS
 62
     3
  5
433
 10
-4.900342
 20
0.235373
 30
0.0
  0
VERTEX
  8
LY_1
  6
CONTINUOUS
 62
     3
  5
434
 10
-4.882271
 20
0.211645
 30
0.0
  0
VERTEX
  8
LY_1
  6
CONTINUOUS
 62
     3
  5
435
 10
-4.861977
 20
0.190125
 30
0.0
  0
VERTEX
  8
LY_1
  6
CONTINUOUS
 62
     3
  5
436
 10
-4.83929
 20
0.171002
 30
0.0
  0
VERTEX
  8
LY_1
  6
CONTINUOUS
 62
     3
  5
437
 10
-4.820108
 20
0.158001
 30
0.0
  0
VERTEX
  8
LY_1
  6
CONTINUOUS
 62
     3
  5
438
 10
-4.799546
 20
0.14648
 30
0.0
  0
VERTEX
  8
LY_1
  6
CONTINUOUS
 62
     3
  5
439
 10
-4.777745
 20
0.136382
 30
0.0
  0
VERTEX
  8
LY_1
  6
CONTINUOUS
 62
     3
  5
43A
 10
-4.754849
 20
0.12765
 30
0.0
  0
VERTEX
  8
LY_1
  6
CONTINUOUS
 62
     3
  5
43B
 10
-4.730998
 20
0.12023
 30
0.0
  0
VERTEX
  8
LY_1
  6
CONTINUOUS
 62
     3
  5
43C
 10
-4.706337
 20
0.114063
 30
0.0
  0
VERTEX
  8
LY_1
  6
CONTINUOUS
 62
     3
  5
43D
 10
-4.681006
 20
0.109095
 30
0.0
  0
VERTEX
  8
LY_1
  6
CONTINUOUS
 62
     3
  5
43E
 10
-4.655149
 20
0.105268
 30
0.0
  0
VERTEX
  8
LY_1
  6
CONTINUOUS
 62
     3
  5
43F
 10
-4.628907
 20
0.102527
 30
0.0
  0
VERTEX
  8
LY_1
  6
CONTINUOUS
 62
     3
  5
440
 10
-4.602423
 20
0.100814
 30
0.0
  0
VERTEX
  8
LY_1
  6
CONTINUOUS
 62
     3
  5
441
 10
-4.575839
 20
0.100075
 30
0.0
  0
VERTEX
  8
LY_1
  6
CONTINUOUS
 62
     3
  5
442
 10
-4.549297
 20
0.100252
 30
0.0
  0
VERTEX
  8
LY_1
  6
CONTINUOUS
 62
     3
  5
443
 10
-4.52294
 20
0.101289
 30
0.0
  0
VERTEX
  8
LY_1
  6
CONTINUOUS
 62
     3
  5
444
 10
-4.496909
 20
0.10313
 30
0.0
  0
VERTEX
  8
LY_1
  6
CONTINUOUS
 62
     3
  5
445
 10
-4.471348
 20
0.105718
 30
0.0
  0
VERTEX
  8
LY_1
  6
CONTINUOUS
 62
     3
  5
446
 10
-4.446398
 20
0.108998
 30
0.0
  0
SEQEND
  8
LY_1
  6
CONTINUOUS
 62
     3
  5
447
  0
POLYLINE
  8
LY_1
  6
CONTINUOUS
 62
     3
  5
85
 66
     1
 10
0.0
 20
0.0
 30
0.0
  0
VERTEX
  8
LY_1
  6
CONTINUOUS
 62
     3
  5
448
 10
-54.592503
 20
43.0
 30
0.0
  0
VERTEX
  8
LY_1
  6
CONTINUOUS
 62
     3
  5
449
 10
-54.577434
 20
42.327596
 30
0.0
  0
VERTEX
  8
LY_1
  6
CONTINUOUS
 62
     3
  5
44A
 10
-54.561365
 20
41.655209
 30
0.0
  0
VERTEX
  8
LY_1
  6
CONTINUOUS
 62
     3
  5
44B
 10
-54.544298
 20
40.982841
 30
0.0
  0
VERTEX
  8
LY_1
  6
CONTINUOUS
 62
     3
  5
44C
 10
-54.526231
 20
40.310492
 30
0.0
  0
VERTEX
  8
LY_1
  6
CONTINUOUS
 62
     3
  5
44D
 10
-54.507166
 20
39.638166
 30
0.0
  0
VERTEX
  8
LY_1
  6
CONTINUOUS
 62
     3
  5
44E
 10
-54.487102
 20
38.965863
 30
0.0
  0
VERTEX
  8
LY_1
  6
CONTINUOUS
 62
     3
  5
44F
 10
-54.466039
 20
38.293586
 30
0.0
  0
VERTEX
  8
LY_1
  6
CONTINUOUS
 62
     3
  5
450
 10
-54.443977
 20
37.621336
 30
0.0
  0
VERTEX
  8
LY_1
  6
CONTINUOUS
 62
     3
  5
451
 10
-54.420915
 20
36.949114
 30
0.0
  0
VERTEX
  8
LY_1
  6
CONTINUOUS
 62
     3
  5
452
 10
-54.396855
 20
36.276924
 30
0.0
  0
VERTEX
  8
LY_1
  6
CONTINUOUS
 62
     3
  5
453
 10
-54.371796
 20
35.604766
 30
0.0
  0
VERTEX
  8
LY_1
  6
CONTINUOUS
 62
     3
  5
454
 10
-54.345738
 20
34.932642
 30
0.0
  0
VERTEX
  8
LY_1
  6
CONTINUOUS
 62
     3
  5
455
 10
-54.31868
 20
34.260554
 30
0.0
  0
VERTEX
  8
LY_1
  6
CONTINUOUS
 62
     3
  5
456
 10
-54.290623
 20
33.588503
 30
0.0
  0
VERTEX
  8
LY_1
  6
CONTINUOUS
 62
     3
  5
457
 10
-54.261567
 20
32.916492
 30
0.0
  0
VERTEX
  8
LY_1
  6
CONTINUOUS
 62
     3
  5
458
 10
-54.231512
 20
32.244521
 30
0.0
  0
VERTEX
  8
LY_1
  6
CONTINUOUS
 62
     3
  5
459
 10
-54.200458
 20
31.572594
 30
0.0
  0
VERTEX
  8
LY_1
  6
CONTINUOUS
 62
     3
  5
45A
 10
-54.168404
 20
30.900711
 30
0.0
  0
VERTEX
  8
LY_1
  6
CONTINUOUS
 62
     3
  5
45B
 10
-54.135351
 20
30.228875
 30
0.0
  0
VERTEX
  8
LY_1
  6
CONTINUOUS
 62
     3
  5
45C
 10
-54.101298
 20
29.557086
 30
0.0
  0
VERTEX
  8
LY_1
  6
CONTINUOUS
 62
     3
  5
45D
 10
-54.066247
 20
28.885347
 30
0.0
  0
VERTEX
  8
LY_1
  6
CONTINUOUS
 62
     3
  5
45E
 10
-54.030195
 20
28.21366
 30
0.0
  0
VERTEX
  8
LY_1
  6
CONTINUOUS
 62
     3
  5
45F
 10
-53.993145
 20
27.542026
 30
0.0
  0
VERTEX
  8
LY_1
  6
CONTINUOUS
 62
     3
  5
460
 10
-53.955095
 20
26.870446
 30
0.0
  0
VERTEX
  8
LY_1
  6
CONTINUOUS
 62
     3
  5
461
 10
-53.916045
 20
26.198924
 30
0.0
  0
VERTEX
  8
LY_1
  6
CONTINUOUS
 62
     3
  5
462
 10
-53.875996
 20
25.52746
 30
0.0
  0
VERTEX
  8
LY_1
  6
CONTINUOUS
 62
     3
  5
463
 10
-53.834948
 20
24.856056
 30
0.0
  0
VERTEX
  8
LY_1
  6
CONTINUOUS
 62
     3
  5
464
 10
-53.792899
 20
24.184714
 30
0.0
  0
VERTEX
  8
LY_1
  6
CONTINUOUS
 62
     3
  5
465
 10
-53.749852
 20
23.513436
 30
0.0
  0
VERTEX
  8
LY_1
  6
CONTINUOUS
 62
     3
  5
466
 10
-53.705804
 20
22.842223
 30
0.0
  0
VERTEX
  8
LY_1
  6
CONTINUOUS
 62
     3
  5
467
 10
-53.660757
 20
22.171077
 30
0.0
  0
VERTEX
  8
LY_1
  6
CONTINUOUS
 62
     3
  5
468
 10
-53.61471
 20
21.5
 30
0.0
  0
VERTEX
  8
LY_1
  6
CONTINUOUS
 62
     3
  5
469
 10
-53.57264
 20
20.899295
 30
0.0
  0
VERTEX
  8
LY_1
  6
CONTINUOUS
 62
     3
  5
46A
 10
-53.529769
 20
20.298649
 30
0.0
  0
VERTEX
  8
LY_1
  6
CONTINUOUS
 62
     3
  5
46B
 10
-53.486097
 20
19.698061
 30
0.0
  0
VERTEX
  8
LY_1
  6
CONTINUOUS
 62
     3
  5
46C
 10
-53.441624
 20
19.097533
 30
0.0
  0
VERTEX
  8
LY_1
  6
CONTINUOUS
 62
     3
  5
46D
 10
-53.396351
 20
18.497066
 30
0.0
  0
VERTEX
  8
LY_1
  6
CONTINUOUS
 62
     3
  5
46E
 10
-53.350277
 20
17.896661
 30
0.0
  0
VERTEX
  8
LY_1
  6
CONTINUOUS
 62
     3
  5
46F
 10
-53.303404
 20
17.29632
 30
0.0
  0
VERTEX
  8
LY_1
  6
CONTINUOUS
 62
     3
  5
470
 10
-53.255731
 20
16.696044
 30
0.0
  0
VERTEX
  8
LY_1
  6
CONTINUOUS
 62
     3
  5
471
 10
-53.207258
 20
16.095833
 30
0.0
  0
VERTEX
  8
LY_1
  6
CONTINUOUS
 62
     3
  5
472
 10
-53.157985
 20
15.495689
 30
0.0
  0
VERTEX
  8
LY_1
  6
CONTINUOUS
 62
     3
  5
473
 10
-53.107913
 20
14.895613
 30
0.0
  0
VERTEX
  8
LY_1
  6
CONTINUOUS
 62
     3
  5
474
 10
-53.057042
 20
14.295606
 30
0.0
  0
VERTEX
  8
LY_1
  6
CONTINUOUS
 62
     3
  5
475
 10
-53.005373
 20
13.695669
 30
0.0
  0
VERTEX
  8
LY_1
  6
CONTINUOUS
 62
     3
  5
476
 10
-52.952904
 20
13.095804
 30
0.0
  0
VERTEX
  8
LY_1
  6
CONTINUOUS
 62
     3
  5
477
 10
-52.899637
 20
12.496012
 30
0.0
  0
VERTEX
  8
LY_1
  6
CONTINUOUS
 62
     3
  5
478
 10
-52.845572
 20
11.896293
 30
0.0
  0
VERTEX
  8
LY_1
  6
CONTINUOUS
 62
     3
  5
479
 10
-52.790708
 20
11.296649
 30
0.0
  0
VERTEX
  8
LY_1
  6
CONTINUOUS
 62
     3
  5
47A
 10
-52.735046
 20
10.697081
 30
0.0
  0
VERTEX
  8
LY_1
  6
CONTINUOUS
 62
     3
  5
47B
 10
-52.678587
 20
10.09759
 30
0.0
  0
VERTEX
  8
LY_1
  6
CONTINUOUS
 62
     3
  5
47C
 10
-52.62133
 20
9.498178
 30
0.0
  0
VERTEX
  8
LY_1
  6
CONTINUOUS
 62
     3
  5
47D
 10
-52.563276
 20
8.898845
 30
0.0
  0
VERTEX
  8
LY_1
  6
CONTINUOUS
 62
     3
  5
47E
 10
-52.504424
 20
8.299592
 30
0.0
  0
VERTEX
  8
LY_1
  6
CONTINUOUS
 62
     3
  5
47F
 10
-52.444776
 20
7.700422
 30
0.0
  0
VERTEX
  8
LY_1
  6
CONTINUOUS
 62
     3
  5
480
 10
-52.384331
 20
7.101334
 30
0.0
  0
VERTEX
  8
LY_1
  6
CONTINUOUS
 62
     3
  5
481
 10
-52.323089
 20
6.50233
 30
0.0
  0
VERTEX
  8
LY_1
  6
CONTINUOUS
 62
     3
  5
482
 10
-52.26105
 20
5.903411
 30
0.0
  0
VERTEX
  8
LY_1
  6
CONTINUOUS
 62
     3
  5
483
 10
-52.198216
 20
5.304579
 30
0.0
  0
VERTEX
  8
LY_1
  6
CONTINUOUS
 62
     3
  5
484
 10
-52.134585
 20
4.705834
 30
0.0
  0
VERTEX
  8
LY_1
  6
CONTINUOUS
 62
     3
  5
485
 10
-52.070158
 20
4.107177
 30
0.0
  0
VERTEX
  8
LY_1
  6
CONTINUOUS
 62
     3
  5
486
 10
-52.004936
 20
3.50861
 30
0.0
  0
VERTEX
  8
LY_1
  6
CONTINUOUS
 62
     3
  5
487
 10
-51.938918
 20
2.910135
 30
0.0
  0
VERTEX
  8
LY_1
  6
CONTINUOUS
 62
     3
  5
488
 10
-51.872105
 20
2.311751
 30
0.0
  0
SEQEND
  8
LY_1
  6
CONTINUOUS
 62
     3
  5
489
  0
POLYLINE
  8
LY_1
  6
CONTINUOUS
 62
     3
  5
86
 66
     1
 10
0.0
 20
0.0
 30
0.0
  0
VERTEX
  8
LY_1
  6
CONTINUOUS
 62
     3
  5
48A
 10
-52.6416
 20
43.0
 30
0.0
  0
VERTEX
  8
LY_1
  6
CONTINUOUS
 62
     3
  5
48B
 10
-52.62653
 20
42.327596
 30
0.0
  0
VERTEX
  8
LY_1
  6
CONTINUOUS
 62
     3
  5
48C
 10
-52.610462
 20
41.655209
 30
0.0
  0
VERTEX
  8
LY_1
  6
CONTINUOUS
 62
     3
  5
48D
 10
-52.593394
 20
40.982841
 30
0.0
  0
VERTEX
  8
LY_1
  6
CONTINUOUS
 62
     3
  5
48E
 10
-52.575328
 20
40.310492
 30
0.0
  0
VERTEX
  8
LY_1
  6
CONTINUOUS
 62
     3
  5
48F
 10
-52.556263
 20
39.638166
 30
0.0
  0
VERTEX
  8
LY_1
  6
CONTINUOUS
 62
     3
  5
490
 10
-52.536199
 20
38.965863
 30
0.0
  0
VERTEX
  8
LY_1
  6
CONTINUOUS
 62
     3
  5
491
 10
-52.515136
 20
38.293586
 30
0.0
  0
VERTEX
  8
LY_1
  6
CONTINUOUS
 62
     3
  5
492
 10
-52.493073
 20
37.621336
 30
0.0
  0
VERTEX
  8
LY_1
  6
CONTINUOUS
 62
     3
  5
493
 10
-52.470012
 20
36.949114
 30
0.0
  0
VERTEX
  8
LY_1
  6
CONTINUOUS
 62
     3
  5
494
 10
-52.445952
 20
36.276924
 30
0.0
  0
VERTEX
  8
LY_1
  6
CONTINUOUS
 62
     3
  5
495
 10
-52.420893
 20
35.604766
 30
0.0
  0
VERTEX
  8
LY_1
  6
CONTINUOUS
 62
     3
  5
496
 10
-52.394834
 20
34.932642
 30
0.0
  0
VERTEX
  8
LY_1
  6
CONTINUOUS
 62
     3
  5
497
 10
-52.367777
 20
34.260554
 30
0.0
  0
VERTEX
  8
LY_1
  6
CONTINUOUS
 62
     3
  5
498
 10
-52.33972
 20
33.588503
 30
0.0
  0
VERTEX
  8
LY_1
  6
CONTINUOUS
 62
     3
  5
499
 10
-52.310664
 20
32.916492
 30
0.0
  0
VERTEX
  8
LY_1
  6
CONTINUOUS
 62
     3
  5
49A
 10
-52.280609
 20
32.244521
 30
0.0
  0
VERTEX
  8
LY_1
  6
CONTINUOUS
 62
     3
  5
49B
 10
-52.249554
 20
31.572594
 30
0.0
  0
VERTEX
  8
LY_1
  6
CONTINUOUS
 62
     3
  5
49C
 10
-52.217501
 20
30.900711
 30
0.0
  0
VERTEX
  8
LY_1
  6
CONTINUOUS
 62
     3
  5
49D
 10
-52.184448
 20
30.228875
 30
0.0
  0
VERTEX
  8
LY_1
  6
CONTINUOUS
 62
     3
  5
49E
 10
-52.150395
 20
29.557086
 30
0.0
  0
VERTEX
  8
LY_1
  6
CONTINUOUS
 62
     3
  5
49F
 10
-52.115343
 20
28.885347
 30
0.0
  0
VERTEX
  8
LY_1
  6
CONTINUOUS
 62
     3
  5
4A0
 10
-52.079292
 20
28.21366
 30
0.0
  0
VERTEX
  8
LY_1
  6
CONTINUOUS
 62
     3
  5
4A1
 10
-52.042242
 20
27.542026
 30
0.0
  0
VERTEX
  8
LY_1
  6
CONTINUOUS
 62
     3
  5
4A2
 10
-52.004192
 20
26.870446
 30
0.0
  0
VERTEX
  8
LY_1
  6
CONTINUOUS
 62
     3
  5
4A3
 10
-51.965142
 20
26.198924
 30
0.0
  0
VERTEX
  8
LY_1
  6
CONTINUOUS
 62
     3
  5
4A4
 10
-51.925093
 20
25.52746
 30
0.0
  0
VERTEX
  8
LY_1
  6
CONTINUOUS
 62
     3
  5
4A5
 10
-51.884044
 20
24.856056
 30
0.0
  0
VERTEX
  8
LY_1
  6
CONTINUOUS
 62
     3
  5
4A6
 10
-51.841996
 20
24.184714
 30
0.0
  0
VERTEX
  8
LY_1
  6
CONTINUOUS
 62
     3
  5
4A7
 10
-51.798948
 20
23.513436
 30
0.0
  0
VERTEX
  8
LY_1
  6
CONTINUOUS
 62
     3
  5
4A8
 10
-51.754901
 20
22.842223
 30
0.0
  0
VERTEX
  8
LY_1
  6
CONTINUOUS
 62
     3
  5
4A9
 10
-51.709854
 20
22.171077
 30
0.0
  0
VERTEX
  8
LY_1
  6
CONTINUOUS
 62
     3
  5
4AA
 10
-51.663807
 20
21.5
 30
0.0
  0
VERTEX
  8
LY_1
  6
CONTINUOUS
 62
     3
  5
4AB
 10
-51.621737
 20
20.899295
 30
0.0
  0
VERTEX
  8
LY_1
  6
CONTINUOUS
 62
     3
  5
4AC
 10
-51.578866
 20
20.298649
 30
0.0
  0
VERTEX
  8
LY_1
  6
CONTINUOUS
 62
     3
  5
4AD
 10
-51.535193
 20
19.698061
 30
0.0
  0
VERTEX
  8
LY_1
  6
CONTINUOUS
 62
     3
  5
4AE
 10
-51.490721
 20
19.097533
 30
0.0
  0
VERTEX
  8
LY_1
  6
CONTINUOUS
 62
     3
  5
4AF
 10
-51.445448
 20
18.497066
 30
0.0
  0
VERTEX
  8
LY_1
  6
CONTINUOUS
 62
     3
  5
4B0
 10
-51.399374
 20
17.896661
 30
0.0
  0
VERTEX
  8
LY_1
  6
CONTINUOUS
 62
     3
  5
4B1
 10
-51.352501
 20
17.29632
 30
0.0
  0
VERTEX
  8
LY_1
  6
CONTINUOUS
 62
     3
  5
4B2
 10
-51.304827
 20
16.696044
 30
0.0
  0
VERTEX
  8
LY_1
  6
CONTINUOUS
 62
     3
  5
4B3
 10
-51.256354
 20
16.095833
 30
0.0
  0
VERTEX
  8
LY_1
  6
CONTINUOUS
 62
     3
  5
4B4
 10
-51.207082
 20
15.495689
 30
0.0
  0
VERTEX
  8
LY_1
  6
CONTINUOUS
 62
     3
  5
4B5
 10
-51.15701
 20
14.895613
 30
0.0
  0
VERTEX
  8
LY_1
  6
CONTINUOUS
 62
     3
  5
4B6
 10
-51.106139
 20
14.295606
 30
0.0
  0
VERTEX
  8
LY_1
  6
CONTINUOUS
 62
     3
  5
4B7
 10
-51.054469
 20
13.695669
 30
0.0
  0
VERTEX
  8
LY_1
  6
CONTINUOUS
 62
     3
  5
4B8
 10
-51.002001
 20
13.095804
 30
0.0
  0
VERTEX
  8
LY_1
  6
CONTINUOUS
 62
     3
  5
4B9
 10
-50.948734
 20
12.496012
 30
0.0
  0
VERTEX
  8
LY_1
  6
CONTINUOUS
 62
     3
  5
4BA
 10
-50.894668
 20
11.896293
 30
0.0
  0
VERTEX
  8
LY_1
  6
CONTINUOUS
 62
     3
  5
4BB
 10
-50.839805
 20
11.296649
 30
0.0
  0
VERTEX
  8
LY_1
  6
CONTINUOUS
 62
     3
  5
4BC
 10
-50.784143
 20
10.697081
 30
0.0
  0
VERTEX
  8
LY_1
  6
CONTINUOUS
 62
     3
  5
4BD
 10
-50.727684
 20
10.09759
 30
0.0
  0
VERTEX
  8
LY_1
  6
CONTINUOUS
 62
     3
  5
4BE
 10
-50.670427
 20
9.498178
 30
0.0
  0
VERTEX
  8
LY_1
  6
CONTINUOUS
 62
     3
  5
4BF
 10
-50.612373
 20
8.898845
 30
0.0
  0
VERTEX
  8
LY_1
  6
CONTINUOUS
 62
     3
  5
4C0
 10
-50.553521
 20
8.299592
 30
0.0
  0
VERTEX
  8
LY_1
  6
CONTINUOUS
 62
     3
  5
4C1
 10
-50.493873
 20
7.700422
 30
0.0
  0
VERTEX
  8
LY_1
  6
CONTINUOUS
 62
     3
  5
4C2
 10
-50.433427
 20
7.101334
 30
0.0
  0
VERTEX
  8
LY_1
  6
CONTINUOUS
 62
     3
  5
4C3
 10
-50.372185
 20
6.50233
 30
0.0
  0
VERTEX
  8
LY_1
  6
CONTINUOUS
 62
     3
  5
4C4
 10
-50.310147
 20
5.903411
 30
0.0
  0
VERTEX
  8
LY_1
  6
CONTINUOUS
 62
     3
  5
4C5
 10
-50.247312
 20
5.304579
 30
0.0
  0
VERTEX
  8
LY_1
  6
CONTINUOUS
 62
     3
  5
4C6
 10
-50.183682
 20
4.705834
 30
0.0
  0
VERTEX
  8
LY_1
  6
CONTINUOUS
 62
     3
  5
4C7
 10
-50.119255
 20
4.107177
 30
0.0
  0
VERTEX
  8
LY_1
  6
CONTINUOUS
 62
     3
  5
4C8
 10
-50.054033
 20
3.50861
 30
0.0
  0
VERTEX
  8
LY_1
  6
CONTINUOUS
 62
     3
  5
4C9
 10
-49.988015
 20
2.910135
 30
0.0
  0
VERTEX
  8
LY_1
  6
CONTINUOUS
 62
     3
  5
4CA
 10
-49.921202
 20
2.311751
 30
0.0
  0
SEQEND
  8
LY_1
  6
CONTINUOUS
 62
     3
  5
4CB
  0
POLYLINE
  8
LY_1
  6
CONTINUOUS
 62
     3
  5
87
 66
     1
 10
0.0
 20
0.0
 30
0.0
  0
VERTEX
  8
LY_1
  6
CONTINUOUS
 62
     3
  5
4CC
 10
-48.231887
 20
43.0
 30
0.0
  0
VERTEX
  8
LY_1
  6
CONTINUOUS
 62
     3
  5
4CD
 10
-48.219137
 20
42.327744
 30
0.0
  0
VERTEX
  8
LY_1
  6
CONTINUOUS
 62
     3
  5
4CE
 10
-48.205539
 20
41.655501
 30
0.0
  0
VERTEX
  8
LY_1
  6
CONTINUOUS
 62
     3
  5
4CF
 10
-48.191091
 20
40.983271
 30
0.0
  0
VERTEX
  8
LY_1
  6
CONTINUOUS
 62
     3
  5
4D0
 10
-48.175796
 20
40.311055
 30
0.0
  0
VERTEX
  8
LY_1
  6
CONTINUOUS
 62
     3
  5
4D1
 10
-48.159652
 20
39.638855
 30
0.0
  0
VERTEX
  8
LY_1
  6
CONTINUOUS
 62
     3
  5
4D2
 10
-48.142659
 20
38.966672
 30
0.0
  0
VERTEX
  8
LY_1
  6
CONTINUOUS
 62
     3
  5
4D3
 10
-48.124818
 20
38.294507
 30
0.0
  0
VERTEX
  8
LY_1
  6
CONTINUOUS
 62
     3
  5
4D4
 10
-48.106128
 20
37.622362
 30
0.0
  0
VERTEX
  8
LY_1
  6
CONTINUOUS
 62
     3
  5
4D5
 10
-48.086589
 20
36.950238
 30
0.0
  0
VERTEX
  8
LY_1
  6
CONTINUOUS
 62
     3
  5
4D6
 10
-48.066202
 20
36.278136
 30
0.0
  0
VERTEX
  8
LY_1
  6
CONTINUOUS
 62
     3
  5
4D7
 10
-48.044967
 20
35.606057
 30
0.0
  0
VERTEX
  8
LY_1
  6
CONTINUOUS
 62
     3
  5
4D8
 10
-48.022882
 20
34.934003
 30
0.0
  0
VERTEX
  8
LY_1
  6
CONTINUOUS
 62
     3
  5
4D9
 10
-47.999949
 20
34.261974
 30
0.0
  0
VERTEX
  8
LY_1
  6
CONTINUOUS
 62
     3
  5
4DA
 10
-47.976168
 20
33.589973
 30
0.0
  0
VERTEX
  8
LY_1
  6
CONTINUOUS
 62
     3
  5
4DB
 10
-47.951537
 20
32.917999
 30
0.0
  0
VERTEX
  8
LY_1
  6
CONTINUOUS
 62
     3
  5
4DC
 10
-47.926058
 20
32.246056
 30
0.0
  0
VERTEX
  8
LY_1
  6
CONTINUOUS
 62
     3
  5
4DD
 10
-47.899731
 20
31.574143
 30
0.0
  0
VERTEX
  8
LY_1
  6
CONTINUOUS
 62
     3
  5
4DE
 10
-47.872554
 20
30.902262
 30
0.0
  0
VERTEX
  8
LY_1
  6
CONTINUOUS
 62
     3
  5
4DF
 10
-47.844529
 20
30.230415
 30
0.0
  0
VERTEX
  8
LY_1
  6
CONTINUOUS
 62
     3
  5
4E0
 10
-47.815655
 20
29.558602
 30
0.0
  0
VERTEX
  8
LY_1
  6
CONTINUOUS
 62
     3
  5
4E1
 10
-47.785932
 20
28.886825
 30
0.0
  0
VERTEX
  8
LY_1
  6
CONTINUOUS
 62
     3
  5
4E2
 10
-47.75536
 20
28.215085
 30
0.0
  0
VERTEX
  8
LY_1
  6
CONTINUOUS
 62
     3
  5
4E3
 10
-47.72394
 20
27.543383
 30
0.0
  0
VERTEX
  8
LY_1
  6
CONTINUOUS
 62
     3
  5
4E4
 10
-47.69167
 20
26.871721
 30
0.0
  0
VERTEX
  8
LY_1
  6
CONTINUOUS
 62
     3
  5
4E5
 10
-47.658552
 20
26.2001
 30
0.0
  0
VERTEX
  8
LY_1
  6
CONTINUOUS
 62
     3
  5
4E6
 10
-47.624585
 20
25.528521
 30
0.0
  0
VERTEX
  8
LY_1
  6
CONTINUOUS
 62
     3
  5
4E7
 10
-47.589769
 20
24.856985
 30
0.0
  0
VERTEX
  8
LY_1
  6
CONTINUOUS
 62
     3
  5
4E8
 10
-47.554104
 20
24.185494
 30
0.0
  0
VERTEX
  8
LY_1
  6
CONTINUOUS
 62
     3
  5
4E9
 10
-47.51759
 20
23.514049
 30
0.0
  0
VERTEX
  8
LY_1
  6
CONTINUOUS
 62
     3
  5
4EA
 10
-47.480227
 20
22.84265
 30
0.0
  0
VERTEX
  8
LY_1
  6
CONTINUOUS
 62
     3
  5
4EB
 10
-47.442015
 20
22.1713
 30
0.0
  0
VERTEX
  8
LY_1
  6
CONTINUOUS
 62
     3
  5
4EC
 10
-47.402955
 20
21.5
 30
0.0
  0
VERTEX
  8
LY_1
  6
CONTINUOUS
 62
     3
  5
4ED
 10
-47.367297
 20
20.899596
 30
0.0
  0
VERTEX
  8
LY_1
  6
CONTINUOUS
 62
     3
  5
4EE
 10
-47.330961
 20
20.299234
 30
0.0
  0
VERTEX
  8
LY_1
  6
CONTINUOUS
 62
     3
  5
4EF
 10
-47.293945
 20
19.698914
 30
0.0
  0
VERTEX
  8
LY_1
  6
CONTINUOUS
 62
     3
  5
4F0
 10
-47.256251
 20
19.098637
 30
0.0
  0
VERTEX
  8
LY_1
  6
CONTINUOUS
 62
     3
  5
4F1
 10
-47.217877
 20
18.498404
 30
0.0
  0
VERTEX
  8
LY_1
  6
CONTINUOUS
 62
     3
  5
4F2
 10
-47.178826
 20
17.898216
 30
0.0
  0
VERTEX
  8
LY_1
  6
CONTINUOUS
 62
     3
  5
4F3
 10
-47.139095
 20
17.298074
 30
0.0
  0
VERTEX
  8
LY_1
  6
CONTINUOUS
 62
     3
  5
4F4
 10
-47.098686
 20
16.697978
 30
0.0
  0
VERTEX
  8
LY_1
  6
CONTINUOUS
 62
     3
  5
4F5
 10
-47.057599
 20
16.097929
 30
0.0
  0
VERTEX
  8
LY_1
  6
CONTINUOUS
 62
     3
  5
4F6
 10
-47.015834
 20
15.497928
 30
0.0
  0
VERTEX
  8
LY_1
  6
CONTINUOUS
 62
     3
  5
4F7
 10
-46.97339
 20
14.897977
 30
0.0
  0
VERTEX
  8
LY_1
  6
CONTINUOUS
 62
     3
  5
4F8
 10
-46.930269
 20
14.298075
 30
0.0
  0
VERTEX
  8
LY_1
  6
CONTINUOUS
 62
     3
  5
4F9
 10
-46.886469
 20
13.698223
 30
0.0
  0
VERTEX
  8
LY_1
  6
CONTINUOUS
 62
     3
  5
4FA
 10
-46.841992
 20
13.098423
 30
0.0
  0
VERTEX
  8
LY_1
  6
CONTINUOUS
 62
     3
  5
4FB
 10
-46.796838
 20
12.498675
 30
0.0
  0
VERTEX
  8
LY_1
  6
CONTINUOUS
 62
     3
  5
4FC
 10
-46.751006
 20
11.898981
 30
0.0
  0
VERTEX
  8
LY_1
  6
CONTINUOUS
 62
     3
  5
4FD
 10
-46.704496
 20
11.29934
 30
0.0
  0
VERTEX
  8
LY_1
  6
CONTINUOUS
 62
     3
  5
4FE
 10
-46.657309
 20
10.699754
 30
0.0
  0
VERTEX
  8
LY_1
  6
CONTINUOUS
 62
     3
  5
4FF
 10
-46.609445
 20
10.100223
 30
0.0
  0
VERTEX
  8
LY_1
  6
CONTINUOUS
 62
     3
  5
500
 10
-46.560904
 20
9.500749
 30
0.0
  0
VERTEX
  8
LY_1
  6
CONTINUOUS
 62
     3
  5
501
 10
-46.511686
 20
8.901331
 30
0.0
  0
VERTEX
  8
LY_1
  6
CONTINUOUS
 62
     3
  5
502
 10
-46.461791
 20
8.301972
 30
0.0
  0
VERTEX
  8
LY_1
  6
CONTINUOUS
 62
     3
  5
503
 10
-46.41122
 20
7.702672
 30
0.0
  0
VERTEX
  8
LY_1
  6
CONTINUOUS
 62
     3
  5
504
 10
-46.359972
 20
7.103431
 30
0.0
  0
VERTEX
  8
LY_1
  6
CONTINUOUS
 62
     3
  5
505
 10
-46.308048
 20
6.504251
 30
0.0
  0
VERTEX
  8
LY_1
  6
CONTINUOUS
 62
     3
  5
506
 10
-46.255447
 20
5.905132
 30
0.0
  0
VERTEX
  8
LY_1
  6
CONTINUOUS
 62
     3
  5
507
 10
-46.20217
 20
5.306075
 30
0.0
  0
VERTEX
  8
LY_1
  6
CONTINUOUS
 62
     3
  5
508
 10
-46.148217
 20
4.707081
 30
0.0
  0
VERTEX
  8
LY_1
  6
CONTINUOUS
 62
     3
  5
509
 10
-46.093587
 20
4.108151
 30
0.0
  0
VERTEX
  8
LY_1
  6
CONTINUOUS
 62
     3
  5
50A
 10
-46.038282
 20
3.509285
 30
0.0
  0
VERTEX
  8
LY_1
  6
CONTINUOUS
 62
     3
  5
50B
 10
-45.982302
 20
2.910485
 30
0.0
  0
VERTEX
  8
LY_1
  6
CONTINUOUS
 62
     3
  5
50C
 10
-45.925645
 20
2.311751
 30
0.0
  0
SEQEND
  8
LY_1
  6
CONTINUOUS
 62
     3
  5
50D
  0
POLYLINE
  8
LY_1
  6
CONTINUOUS
 62
     3
  5
88
 66
     1
 10
0.0
 20
0.0
 30
0.0
  0
VERTEX
  8
LY_1
  6
CONTINUOUS
 62
     3
  5
50E
 10
-42.676185
 20
43.0
 30
0.0
  0
VERTEX
  8
LY_1
  6
CONTINUOUS
 62
     3
  5
50F
 10
-42.663435
 20
42.327744
 30
0.0
  0
VERTEX
  8
LY_1
  6
CONTINUOUS
 62
     3
  5
510
 10
-42.649836
 20
41.655501
 30
0.0
  0
VERTEX
  8
LY_1
  6
CONTINUOUS
 62
     3
  5
511
 10
-42.635389
 20
40.983271
 30
0.0
  0
VERTEX
  8
LY_1
  6
CONTINUOUS
 62
     3
  5
512
 10
-42.620093
 20
40.311055
 30
0.0
  0
VERTEX
  8
LY_1
  6
CONTINUOUS
 62
     3
  5
513
 10
-42.603949
 20
39.638855
 30
0.0
  0
VERTEX
  8
LY_1
  6
CONTINUOUS
 62
     3
  5
514
 10
-42.586956
 20
38.966672
 30
0.0
  0
VERTEX
  8
LY_1
  6
CONTINUOUS
 62
     3
  5
515
 10
-42.569115
 20
38.294507
 30
0.0
  0
VERTEX
  8
LY_1
  6
CONTINUOUS
 62
     3
  5
516
 10
-42.550425
 20
37.622362
 30
0.0
  0
VERTEX
  8
LY_1
  6
CONTINUOUS
 62
     3
  5
517
 10
-42.530887
 20
36.950238
 30
0.0
  0
VERTEX
  8
LY_1
  6
CONTINUOUS
 62
     3
  5
518
 10
-42.5105
 20
36.278136
 30
0.0
  0
VERTEX
  8
LY_1
  6
CONTINUOUS
 62
     3
  5
519
 10
-42.489264
 20
35.606057
 30
0.0
  0
VERTEX
  8
LY_1
  6
CONTINUOUS
 62
     3
  5
51A
 10
-42.46718
 20
34.934003
 30
0.0
  0
VERTEX
  8
LY_1
  6
CONTINUOUS
 62
     3
  5
51B
 10
-42.444247
 20
34.261974
 30
0.0
  0
VERTEX
  8
LY_1
  6
CONTINUOUS
 62
     3
  5
51C
 10
-42.420465
 20
33.589973
 30
0.0
  0
VERTEX
  8
LY_1
  6
CONTINUOUS
 62
     3
  5
51D
 10
-42.395835
 20
32.917999
 30
0.0
  0
VERTEX
  8
LY_1
  6
CONTINUOUS
 62
     3
  5
51E
 10
-42.370356
 20
32.246056
 30
0.0
  0
VERTEX
  8
LY_1
  6
CONTINUOUS
 62
     3
  5
51F
 10
-42.344028
 20
31.574143
 30
0.0
  0
VERTEX
  8
LY_1
  6
CONTINUOUS
 62
     3
  5
520
 10
-42.316852
 20
30.902262
 30
0.0
  0
VERTEX
  8
LY_1
  6
CONTINUOUS
 62
     3
  5
521
 10
-42.288826
 20
30.230415
 30
0.0
  0
VERTEX
  8
LY_1
  6
CONTINUOUS
 62
     3
  5
522
 10
-42.259952
 20
29.558602
 30
0.0
  0
VERTEX
  8
LY_1
  6
CONTINUOUS
 62
     3
  5
523
 10
-42.23023
 20
28.886825
 30
0.0
  0
VERTEX
  8
LY_1
  6
CONTINUOUS
 62
     3
  5
524
 10
-42.199658
 20
28.215085
 30
0.0
  0
VERTEX
  8
LY_1
  6
CONTINUOUS
 62
     3
  5
525
 10
-42.168237
 20
27.543383
 30
0.0
  0
VERTEX
  8
LY_1
  6
CONTINUOUS
 62
     3
  5
526
 10
-42.135968
 20
26.871721
 30
0.0
  0
VERTEX
  8
LY_1
  6
CONTINUOUS
 62
     3
  5
527
 10
-42.10285
 20
26.2001
 30
0.0
  0
VERTEX
  8
LY_1
  6
CONTINUOUS
 62
     3
  5
528
 10
-42.068883
 20
25.528521
 30
0.0
  0
VERTEX
  8
LY_1
  6
CONTINUOUS
 62
     3
  5
529
 10
-42.034067
 20
24.856985
 30
0.0
  0
VERTEX
  8
LY_1
  6
CONTINUOUS
 62
     3
  5
52A
 10
-41.998402
 20
24.185494
 30
0.0
  0
VERTEX
  8
LY_1
  6
CONTINUOUS
 62
     3
  5
52B
 10
-41.961888
 20
23.514049
 30
0.0
  0
VERTEX
  8
LY_1
  6
CONTINUOUS
 62
     3
  5
52C
 10
-41.924525
 20
22.84265
 30
0.0
  0
VERTEX
  8
LY_1
  6
CONTINUOUS
 62
     3
  5
52D
 10
-41.886313
 20
22.1713
 30
0.0
  0
VERTEX
  8
LY_1
  6
CONTINUOUS
 62
     3
  5
52E
 10
-41.847252
 20
21.5
 30
0.0
  0
VERTEX
  8
LY_1
  6
CONTINUOUS
 62
     3
  5
52F
 10
-41.811595
 20
20.899596
 30
0.0
  0
VERTEX
  8
LY_1
  6
CONTINUOUS
 62
     3
  5
530
 10
-41.775258
 20
20.299234
 30
0.0
  0
VERTEX
  8
LY_1
  6
CONTINUOUS
 62
     3
  5
531
 10
-41.738243
 20
19.698914
 30
0.0
  0
VERTEX
  8
LY_1
  6
CONTINUOUS
 62
     3
  5
532
 10
-41.700548
 20
19.098637
 30
0.0
  0
VERTEX
  8
LY_1
  6
CONTINUOUS
 62
     3
  5
533
 10
-41.662175
 20
18.498404
 30
0.0
  0
VERTEX
  8
LY_1
  6
CONTINUOUS
 62
     3
  5
534
 10
-41.623123
 20
17.898216
 30
0.0
  0
VERTEX
  8
LY_1
  6
CONTINUOUS
 62
     3
  5
535
 10
-41.583393
 20
17.298074
 30
0.0
  0
VERTEX
  8
LY_1
  6
CONTINUOUS
 62
     3
  5
536
 10
-41.542984
 20
16.697978
 30
0.0
  0
VERTEX
  8
LY_1
  6
CONTINUOUS
 62
     3
  5
537
 10
-41.501897
 20
16.097929
 30
0.0
  0
VERTEX
  8
LY_1
  6
CONTINUOUS
 62
     3
  5
538
 10
-41.460131
 20
15.497928
 30
0.0
  0
VERTEX
  8
LY_1
  6
CONTINUOUS
 62
     3
  5
539
 10
-41.417688
 20
14.897977
 30
0.0
  0
VERTEX
  8
LY_1
  6
CONTINUOUS
 62
     3
  5
53A
 10
-41.374566
 20
14.298075
 30
0.0
  0
VERTEX
  8
LY_1
  6
CONTINUOUS
 62
     3
  5
53B
 10
-41.330767
 20
13.698223
 30
0.0
  0
VERTEX
  8
LY_1
  6
CONTINUOUS
 62
     3
  5
53C
 10
-41.28629
 20
13.098423
 30
0.0
  0
VERTEX
  8
LY_1
  6
CONTINUOUS
 62
     3
  5
53D
 10
-41.241135
 20
12.498675
 30
0.0
  0
VERTEX
  8
LY_1
  6
CONTINUOUS
 62
     3
  5
53E
 10
-41.195303
 20
11.898981
 30
0.0
  0
VERTEX
  8
LY_1
  6
CONTINUOUS
 62
     3
  5
53F
 10
-41.148794
 20
11.29934
 30
0.0
  0
VERTEX
  8
LY_1
  6
CONTINUOUS
 62
     3
  5
540
 10
-41.101607
 20
10.699754
 30
0.0
  0
VERTEX
  8
LY_1
  6
CONTINUOUS
 62
     3
  5
541
 10
-41.053743
 20
10.100223
 30
0.0
  0
VERTEX
  8
LY_1
  6
CONTINUOUS
 62
     3
  5
542
 10
-41.005202
 20
9.500749
 30
0.0
  0
VERTEX
  8
LY_1
  6
CONTINUOUS
 62
     3
  5
543
 10
-40.955984
 20
8.901331
 30
0.0
  0
VERTEX
  8
LY_1
  6
CONTINUOUS
 62
     3
  5
544
 10
-40.906089
 20
8.301972
 30
0.0
  0
VERTEX
  8
LY_1
  6
CONTINUOUS
 62
     3
  5
545
 10
-40.855518
 20
7.702672
 30
0.0
  0
VERTEX
  8
LY_1
  6
CONTINUOUS
 62
     3
  5
546
 10
-40.80427
 20
7.103431
 30
0.0
  0
VERTEX
  8
LY_1
  6
CONTINUOUS
 62
     3
  5
547
 10
-40.752345
 20
6.504251
 30
0.0
  0
VERTEX
  8
LY_1
  6
CONTINUOUS
 62
     3
  5
548
 10
-40.699744
 20
5.905132
 30
0.0
  0
VERTEX
  8
LY_1
  6
CONTINUOUS
 62
     3
  5
549
 10
-40.646467
 20
5.306075
 30
0.0
  0
VERTEX
  8
LY_1
  6
CONTINUOUS
 62
     3
  5
54A
 10
-40.592514
 20
4.707081
 30
0.0
  0
VERTEX
  8
LY_1
  6
CONTINUOUS
 62
     3
  5
54B
 10
-40.537885
 20
4.108151
 30
0.0
  0
VERTEX
  8
LY_1
  6
CONTINUOUS
 62
     3
  5
54C
 10
-40.48258
 20
3.509285
 30
0.0
  0
VERTEX
  8
LY_1
  6
CONTINUOUS
 62
     3
  5
54D
 10
-40.426599
 20
2.910485
 30
0.0
  0
VERTEX
  8
LY_1
  6
CONTINUOUS
 62
     3
  5
54E
 10
-40.369943
 20
2.311751
 30
0.0
  0
SEQEND
  8
LY_1
  6
CONTINUOUS
 62
     3
  5
54F
  0
POLYLINE
  8
LY_1
  6
CONTINUOUS
 62
     3
  5
89
 66
     1
 10
0.0
 20
0.0
 30
0.0
  0
VERTEX
  8
LY_1
  6
CONTINUOUS
 62
     3
  5
550
 10
-34.528099
 20
43.0
 30
0.0
  0
VERTEX
  8
LY_1
  6
CONTINUOUS
 62
     3
  5
551
 10
-34.519603
 20
42.327955
 30
0.0
  0
VERTEX
  8
LY_1
  6
CONTINUOUS
 62
     3
  5
552
 10
-34.510539
 20
41.655915
 30
0.0
  0
VERTEX
  8
LY_1
  6
CONTINUOUS
 62
     3
  5
553
 10
-34.500907
 20
40.983881
 30
0.0
  0
VERTEX
  8
LY_1
  6
CONTINUOUS
 62
     3
  5
554
 10
-34.490706
 20
40.311853
 30
0.0
  0
VERTEX
  8
LY_1
  6
CONTINUOUS
 62
     3
  5
555
 10
-34.479936
 20
39.639833
 30
0.0
  0
VERTEX
  8
LY_1
  6
CONTINUOUS
 62
     3
  5
556
 10
-34.468598
 20
38.96782
 30
0.0
  0
VERTEX
  8
LY_1
  6
CONTINUOUS
 62
     3
  5
557
 10
-34.456691
 20
38.295816
 30
0.0
  0
VERTEX
  8
LY_1
  6
CONTINUOUS
 62
     3
  5
558
 10
-34.444216
 20
37.62382
 30
0.0
  0
VERTEX
  8
LY_1
  6
CONTINUOUS
 62
     3
  5
559
 10
-34.431172
 20
36.951833
 30
0.0
  0
VERTEX
  8
LY_1
  6
CONTINUOUS
 62
     3
  5
55A
 10
-34.41756
 20
36.279857
 30
0.0
  0
VERTEX
  8
LY_1
  6
CONTINUOUS
 62
     3
  5
55B
 10
-34.403379
 20
35.60789
 30
0.0
  0
VERTEX
  8
LY_1
  6
CONTINUOUS
 62
     3
  5
55C
 10
-34.388629
 20
34.935935
 30
0.0
  0
VERTEX
  8
LY_1
  6
CONTINUOUS
 62
     3
  5
55D
 10
-34.373311
 20
34.263991
 30
0.0
  0
VERTEX
  8
LY_1
  6
CONTINUOUS
 62
     3
  5
55E
 10
-34.357424
 20
33.59206
 30
0.0
  0
VERTEX
  8
LY_1
  6
CONTINUOUS
 62
     3
  5
55F
 10
-34.340968
 20
32.920141
 30
0.0
  0
VERTEX
  8
LY_1
  6
CONTINUOUS
 62
     3
  5
560
 10
-34.323944
 20
32.248235
 30
0.0
  0
VERTEX
  8
LY_1
  6
CONTINUOUS
 62
     3
  5
561
 10
-34.306352
 20
31.576343
 30
0.0
  0
VERTEX
  8
LY_1
  6
CONTINUOUS
 62
     3
  5
562
 10
-34.28819
 20
30.904465
 30
0.0
  0
VERTEX
  8
LY_1
  6
CONTINUOUS
 62
     3
  5
563
 10
-34.26946
 20
30.232603
 30
0.0
  0
VERTEX
  8
LY_1
  6
CONTINUOUS
 62
     3
  5
564
 10
-34.250162
 20
29.560755
 30
0.0
  0
VERTEX
  8
LY_1
  6
CONTINUOUS
 62
     3
  5
565
 10
-34.230295
 20
28.888924
 30
0.0
  0
VERTEX
  8
LY_1
  6
CONTINUOUS
 62
     3
  5
566
 10
-34.209859
 20
28.21711
 30
0.0
  0
VERTEX
  8
LY_1
  6
CONTINUOUS
 62
     3
  5
567
 10
-34.188854
 20
27.545312
 30
0.0
  0
VERTEX
  8
LY_1
  6
CONTINUOUS
 62
     3
  5
568
 10
-34.167281
 20
26.873532
 30
0.0
  0
VERTEX
  8
LY_1
  6
CONTINUOUS
 62
     3
  5
569
 10
-34.145139
 20
26.201771
 30
0.0
  0
VERTEX
  8
LY_1
  6
CONTINUOUS
 62
     3
  5
56A
 10
-34.122429
 20
25.530028
 30
0.0
  0
VERTEX
  8
LY_1
  6
CONTINUOUS
 62
     3
  5
56B
 10
-34.09915
 20
24.858305
 30
0.0
  0
VERTEX
  8
LY_1
  6
CONTINUOUS
 62
     3
  5
56C
 10
-34.075302
 20
24.186602
 30
0.0
  0
VERTEX
  8
LY_1
  6
CONTINUOUS
 62
     3
  5
56D
 10
-34.050885
 20
23.514919
 30
0.0
  0
VERTEX
  8
LY_1
  6
CONTINUOUS
 62
     3
  5
56E
 10
-34.0259
 20
22.843258
 30
0.0
  0
VERTEX
  8
LY_1
  6
CONTINUOUS
 62
     3
  5
56F
 10
-34.000346
 20
22.171618
 30
0.0
  0
VERTEX
  8
LY_1
  6
CONTINUOUS
 62
     3
  5
570
 10
-33.974223
 20
21.5
 30
0.0
  0
VERTEX
  8
LY_1
  6
CONTINUOUS
 62
     3
  5
571
 10
-33.950405
 20
20.900022
 30
0.0
  0
VERTEX
  8
LY_1
  6
CONTINUOUS
 62
     3
  5
572
 10
-33.926134
 20
20.300064
 30
0.0
  0
VERTEX
  8
LY_1
  6
CONTINUOUS
 62
     3
  5
573
 10
-33.901408
 20
19.700123
 30
0.0
  0
VERTEX
  8
LY_1
  6
CONTINUOUS
 62
     3
  5
574
 10
-33.876229
 20
19.100203
 30
0.0
  0
VERTEX
  8
LY_1
  6
CONTINUOUS
 62
     3
  5
575
 10
-33.850596
 20
18.500302
 30
0.0
  0
VERTEX
  8
LY_1
  6
CONTINUOUS
 62
     3
  5
576
 10
-33.824509
 20
17.900421
 30
0.0
  0
VERTEX
  8
LY_1
  6
CONTINUOUS
 62
     3
  5
577
 10
-33.797969
 20
17.30056
 30
0.0
  0
VERTEX
  8
LY_1
  6
CONTINUOUS
 62
     3
  5
578
 10
-33.770975
 20
16.70072
 30
0.0
  0
VERTEX
  8
LY_1
  6
CONTINUOUS
 62
     3
  5
579
 10
-33.743527
 20
16.100901
 30
0.0
  0
VERTEX
  8
LY_1
  6
CONTINUOUS
 62
     3
  5
57A
 10
-33.715626
 20
15.501104
 30
0.0
  0
VERTEX
  8
LY_1
  6
CONTINUOUS
 62
     3
  5
57B
 10
-33.687271
 20
14.901328
 30
0.0
  0
VERTEX
  8
LY_1
  6
CONTINUOUS
 62
     3
  5
57C
 10
-33.658463
 20
14.301575
 30
0.0
  0
VERTEX
  8
LY_1
  6
CONTINUOUS
 62
     3
  5
57D
 10
-33.629201
 20
13.701845
 30
0.0
  0
VERTEX
  8
LY_1
  6
CONTINUOUS
 62
     3
  5
57E
 10
-33.599486
 20
13.102137
 30
0.0
  0
VERTEX
  8
LY_1
  6
CONTINUOUS
 62
     3
  5
57F
 10
-33.569317
 20
12.502453
 30
0.0
  0
VERTEX
  8
LY_1
  6
CONTINUOUS
 62
     3
  5
580
 10
-33.538695
 20
11.902792
 30
0.0
  0
VERTEX
  8
LY_1
  6
CONTINUOUS
 62
     3
  5
581
 10
-33.50762
 20
11.303156
 30
0.0
  0
VERTEX
  8
LY_1
  6
CONTINUOUS
 62
     3
  5
582
 10
-33.476092
 20
10.703544
 30
0.0
  0
VERTEX
  8
LY_1
  6
CONTINUOUS
 62
     3
  5
583
 10
-33.44411
 20
10.103956
 30
0.0
  0
VERTEX
  8
LY_1
  6
CONTINUOUS
 62
     3
  5
584
 10
-33.411675
 20
9.504395
 30
0.0
  0
VERTEX
  8
LY_1
  6
CONTINUOUS
 62
     3
  5
585
 10
-33.378787
 20
8.904858
 30
0.0
  0
VERTEX
  8
LY_1
  6
CONTINUOUS
 62
     3
  5
586
 10
-33.345445
 20
8.305348
 30
0.0
  0
VERTEX
  8
LY_1
  6
CONTINUOUS
 62
     3
  5
587
 10
-33.311651
 20
7.705863
 30
0.0
  0
VERTEX
  8
LY_1
  6
CONTINUOUS
 62
     3
  5
588
 10
-33.277403
 20
7.106406
 30
0.0
  0
VERTEX
  8
LY_1
  6
CONTINUOUS
 62
     3
  5
589
 10
-33.242703
 20
6.506976
 30
0.0
  0
VERTEX
  8
LY_1
  6
CONTINUOUS
 62
     3
  5
58A
 10
-33.207549
 20
5.907573
 30
0.0
  0
VERTEX
  8
LY_1
  6
CONTINUOUS
 62
     3
  5
58B
 10
-33.171943
 20
5.308197
 30
0.0
  0
VERTEX
  8
LY_1
  6
CONTINUOUS
 62
     3
  5
58C
 10
-33.135883
 20
4.70885
 30
0.0
  0
VERTEX
  8
LY_1
  6
CONTINUOUS
 62
     3
  5
58D
 10
-33.099371
 20
4.109532
 30
0.0
  0
VERTEX
  8
LY_1
  6
CONTINUOUS
 62
     3
  5
58E
 10
-33.062406
 20
3.510242
 30
0.0
  0
VERTEX
  8
LY_1
  6
CONTINUOUS
 62
     3
  5
58F
 10
-33.024988
 20
2.910982
 30
0.0
  0
VERTEX
  8
LY_1
  6
CONTINUOUS
 62
     3
  5
590
 10
-32.987117
 20
2.311751
 30
0.0
  0
SEQEND
  8
LY_1
  6
CONTINUOUS
 62
     3
  5
591
  0
POLYLINE
  8
LY_1
  6
CONTINUOUS
 62
     3
  5
8A
 66
     1
 10
0.0
 20
0.0
 30
0.0
  0
VERTEX
  8
LY_1
  6
CONTINUOUS
 62
     3
  5
592
 10
-26.213402
 20
43.0
 30
0.0
  0
VERTEX
  8
LY_1
  6
CONTINUOUS
 62
     3
  5
593
 10
-26.204907
 20
42.327955
 30
0.0
  0
VERTEX
  8
LY_1
  6
CONTINUOUS
 62
     3
  5
594
 10
-26.195843
 20
41.655915
 30
0.0
  0
VERTEX
  8
LY_1
  6
CONTINUOUS
 62
     3
  5
595
 10
-26.186211
 20
40.983881
 30
0.0
  0
VERTEX
  8
LY_1
  6
CONTINUOUS
 62
     3
  5
596
 10
-26.17601
 20
40.311853
 30
0.0
  0
VERTEX
  8
LY_1
  6
CONTINUOUS
 62
     3
  5
597
 10
-26.16524
 20
39.639833
 30
0.0
  0
VERTEX
  8
LY_1
  6
CONTINUOUS
 62
     3
  5
598
 10
-26.153902
 20
38.96782
 30
0.0
  0
VERTEX
  8
LY_1
  6
CONTINUOUS
 62
     3
  5
599
 10
-26.141995
 20
38.295816
 30
0.0
  0
VERTEX
  8
LY_1
  6
CONTINUOUS
 62
     3
  5
59A
 10
-26.12952
 20
37.62382
 30
0.0
  0
VERTEX
  8
LY_1
  6
CONTINUOUS
 62
     3
  5
59B
 10
-26.116476
 20
36.951833
 30
0.0
  0
VERTEX
  8
LY_1
  6
CONTINUOUS
 62
     3
  5
59C
 10
-26.102864
 20
36.279857
 30
0.0
  0
VERTEX
  8
LY_1
  6
CONTINUOUS
 62
     3
  5
59D
 10
-26.088682
 20
35.60789
 30
0.0
  0
VERTEX
  8
LY_1
  6
CONTINUOUS
 62
     3
  5
59E
 10
-26.073933
 20
34.935935
 30
0.0
  0
VERTEX
  8
LY_1
  6
CONTINUOUS
 62
     3
  5
59F
 10
-26.058615
 20
34.263991
 30
0.0
  0
VERTEX
  8
LY_1
  6
CONTINUOUS
 62
     3
  5
5A0
 10
-26.042728
 20
33.59206
 30
0.0
  0
VERTEX
  8
LY_1
  6
CONTINUOUS
 62
     3
  5
5A1
 10
-26.026272
 20
32.920141
 30
0.0
  0
VERTEX
  8
LY_1
  6
CONTINUOUS
 62
     3
  5
5A2
 10
-26.009248
 20
32.248235
 30
0.0
  0
VERTEX
  8
LY_1
  6
CONTINUOUS
 62
     3
  5
5A3
 10
-25.991656
 20
31.576343
 30
0.0
  0
VERTEX
  8
LY_1
  6
CONTINUOUS
 62
     3
  5
5A4
 10
-25.973494
 20
30.904465
 30
0.0
  0
VERTEX
  8
LY_1
  6
CONTINUOUS
 62
     3
  5
5A5
 10
-25.954764
 20
30.232603
 30
0.0
  0
VERTEX
  8
LY_1
  6
CONTINUOUS
 62
     3
  5
5A6
 10
-25.935466
 20
29.560755
 30
0.0
  0
VERTEX
  8
LY_1
  6
CONTINUOUS
 62
     3
  5
5A7
 10
-25.915598
 20
28.888924
 30
0.0
  0
VERTEX
  8
LY_1
  6
CONTINUOUS
 62
     3
  5
5A8
 10
-25.895163
 20
28.21711
 30
0.0
  0
VERTEX
  8
LY_1
  6
CONTINUOUS
 62
     3
  5
5A9
 10
-25.874158
 20
27.545312
 30
0.0
  0
VERTEX
  8
LY_1
  6
CONTINUOUS
 62
     3
  5
5AA
 10
-25.852585
 20
26.873532
 30
0.0
  0
VERTEX
  8
LY_1
  6
CONTINUOUS
 62
     3
  5
5AB
 10
-25.830443
 20
26.201771
 30
0.0
  0
VERTEX
  8
LY_1
  6
CONTINUOUS
 62
     3
  5
5AC
 10
-25.807733
 20
25.530028
 30
0.0
  0
VERTEX
  8
LY_1
  6
CONTINUOUS
 62
     3
  5
5AD
 10
-25.784453
 20
24.858305
 30
0.0
  0
VERTEX
  8
LY_1
  6
CONTINUOUS
 62
     3
  5
5AE
 10
-25.760606
 20
24.186602
 30
0.0
  0
VERTEX
  8
LY_1
  6
CONTINUOUS
 62
     3
  5
5AF
 10
-25.736189
 20
23.514919
 30
0.0
  0
VERTEX
  8
LY_1
  6
CONTINUOUS
 62
     3
  5
5B0
 10
-25.711204
 20
22.843258
 30
0.0
  0
VERTEX
  8
LY_1
  6
CONTINUOUS
 62
     3
  5
5B1
 10
-25.68565
 20
22.171618
 30
0.0
  0
VERTEX
  8
LY_1
  6
CONTINUOUS
 62
     3
  5
5B2
 10
-25.659527
 20
21.5
 30
0.0
  0
VERTEX
  8
LY_1
  6
CONTINUOUS
 62
     3
  5
5B3
 10
-25.635709
 20
20.900022
 30
0.0
  0
VERTEX
  8
LY_1
  6
CONTINUOUS
 62
     3
  5
5B4
 10
-25.611438
 20
20.300064
 30
0.0
  0
VERTEX
  8
LY_1
  6
CONTINUOUS
 62
     3
  5
5B5
 10
-25.586712
 20
19.700123
 30
0.0
  0
VERTEX
  8
LY_1
  6
CONTINUOUS
 62
     3
  5
5B6
 10
-25.561533
 20
19.100203
 30
0.0
  0
VERTEX
  8
LY_1
  6
CONTINUOUS
 62
     3
  5
5B7
 10
-25.5359
 20
18.500302
 30
0.0
  0
VERTEX
  8
LY_1
  6
CONTINUOUS
 62
     3
  5
5B8
 10
-25.509813
 20
17.900421
 30
0.0
  0
VERTEX
  8
LY_1
  6
CONTINUOUS
 62
     3
  5
5B9
 10
-25.483273
 20
17.30056
 30
0.0
  0
VERTEX
  8
LY_1
  6
CONTINUOUS
 62
     3
  5
5BA
 10
-25.456278
 20
16.70072
 30
0.0
  0
VERTEX
  8
LY_1
  6
CONTINUOUS
 62
     3
  5
5BB
 10
-25.428831
 20
16.100901
 30
0.0
  0
VERTEX
  8
LY_1
  6
CONTINUOUS
 62
     3
  5
5BC
 10
-25.40093
 20
15.501104
 30
0.0
  0
VERTEX
  8
LY_1
  6
CONTINUOUS
 62
     3
  5
5BD
 10
-25.372575
 20
14.901328
 30
0.0
  0
VERTEX
  8
LY_1
  6
CONTINUOUS
 62
     3
  5
5BE
 10
-25.343767
 20
14.301575
 30
0.0
  0
VERTEX
  8
LY_1
  6
CONTINUOUS
 62
     3
  5
5BF
 10
-25.314505
 20
13.701845
 30
0.0
  0
VERTEX
  8
LY_1
  6
CONTINUOUS
 62
     3
  5
5C0
 10
-25.28479
 20
13.102137
 30
0.0
  0
VERTEX
  8
LY_1
  6
CONTINUOUS
 62
     3
  5
5C1
 10
-25.254621
 20
12.502453
 30
0.0
  0
VERTEX
  8
LY_1
  6
CONTINUOUS
 62
     3
  5
5C2
 10
-25.223999
 20
11.902792
 30
0.0
  0
VERTEX
  8
LY_1
  6
CONTINUOUS
 62
     3
  5
5C3
 10
-25.192924
 20
11.303156
 30
0.0
  0
VERTEX
  8
LY_1
  6
CONTINUOUS
 62
     3
  5
5C4
 10
-25.161396
 20
10.703544
 30
0.0
  0
VERTEX
  8
LY_1
  6
CONTINUOUS
 62
     3
  5
5C5
 10
-25.129414
 20
10.103956
 30
0.0
  0
VERTEX
  8
LY_1
  6
CONTINUOUS
 62
     3
  5
5C6
 10
-25.096979
 20
9.504395
 30
0.0
  0
VERTEX
  8
LY_1
  6
CONTINUOUS
 62
     3
  5
5C7
 10
-25.064091
 20
8.904858
 30
0.0
  0
VERTEX
  8
LY_1
  6
CONTINUOUS
 62
     3
  5
5C8
 10
-25.030749
 20
8.305348
 30
0.0
  0
VERTEX
  8
LY_1
  6
CONTINUOUS
 62
     3
  5
5C9
 10
-24.996955
 20
7.705863
 30
0.0
  0
VERTEX
  8
LY_1
  6
CONTINUOUS
 62
     3
  5
5CA
 10
-24.962707
 20
7.106406
 30
0.0
  0
VERTEX
  8
LY_1
  6
CONTINUOUS
 62
     3
  5
5CB
 10
-24.928007
 20
6.506976
 30
0.0
  0
VERTEX
  8
LY_1
  6
CONTINUOUS
 62
     3
  5
5CC
 10
-24.892853
 20
5.907573
 30
0.0
  0
VERTEX
  8
LY_1
  6
CONTINUOUS
 62
     3
  5
5CD
 10
-24.857247
 20
5.308197
 30
0.0
  0
VERTEX
  8
LY_1
  6
CONTINUOUS
 62
     3
  5
5CE
 10
-24.821187
 20
4.70885
 30
0.0
  0
VERTEX
  8
LY_1
  6
CONTINUOUS
 62
     3
  5
5CF
 10
-24.784675
 20
4.109532
 30
0.0
  0
VERTEX
  8
LY_1
  6
CONTINUOUS
 62
     3
  5
5D0
 10
-24.74771
 20
3.510242
 30
0.0
  0
VERTEX
  8
LY_1
  6
CONTINUOUS
 62
     3
  5
5D1
 10
-24.710292
 20
2.910982
 30
0.0
  0
VERTEX
  8
LY_1
  6
CONTINUOUS
 62
     3
  5
5D2
 10
-24.672421
 20
2.311751
 30
0.0
  0
SEQEND
  8
LY_1
  6
CONTINUOUS
 62
     3
  5
5D3
  0
POLYLINE
  8
LY_1
  6
CONTINUOUS
 62
     3
  5
8B
 66
     1
 10
0.0
 20
0.0
 30
0.0
  0
VERTEX
  8
LY_1
  6
CONTINUOUS
 62
     3
  5
5D4
 10
-15.194171
 20
10.499693
 30
0.0
  0
VERTEX
  8
LY_1
  6
CONTINUOUS
 62
     3
  5
5D5
 10
-15.18455
 20
9.987928
 30
0.0
  0
VERTEX
  8
LY_1
  6
CONTINUOUS
 62
     3
  5
5D6
 10
-15.174812
 20
9.476166
 30
0.0
  0
VERTEX
  8
LY_1
  6
CONTINUOUS
 62
     3
  5
5D7
 10
-15.164958
 20
8.964406
 30
0.0
  0
VERTEX
  8
LY_1
  6
CONTINUOUS
 62
     3
  5
5D8
 10
-15.154988
 20
8.452649
 30
0.0
  0
VERTEX
  8
LY_1
  6
CONTINUOUS
 62
     3
  5
5D9
 10
-15.144902
 20
7.940894
 30
0.0
  0
VERTEX
  8
LY_1
  6
CONTINUOUS
 62
     3
  5
5DA
 10
-15.134699
 20
7.429141
 30
0.0
  0
VERTEX
  8
LY_1
  6
CONTINUOUS
 62
     3
  5
5DB
 10
-15.124381
 20
6.91739
 30
0.0
  0
VERTEX
  8
LY_1
  6
CONTINUOUS
 62
     3
  5
5DC
 10
-15.113947
 20
6.405643
 30
0.0
  0
VERTEX
  8
LY_1
  6
CONTINUOUS
 62
     3
  5
5DD
 10
-15.103396
 20
5.893897
 30
0.0
  0
VERTEX
  8
LY_1
  6
CONTINUOUS
 62
     3
  5
5DE
 10
-15.09273
 20
5.382154
 30
0.0
  0
VERTEX
  8
LY_1
  6
CONTINUOUS
 62
     3
  5
5DF
 10
-15.081947
 20
4.870414
 30
0.0
  0
VERTEX
  8
LY_1
  6
CONTINUOUS
 62
     3
  5
5E0
 10
-15.071049
 20
4.358676
 30
0.0
  0
VERTEX
  8
LY_1
  6
CONTINUOUS
 62
     3
  5
5E1
 10
-15.060034
 20
3.846941
 30
0.0
  0
VERTEX
  8
LY_1
  6
CONTINUOUS
 62
     3
  5
5E2
 10
-15.048903
 20
3.335208
 30
0.0
  0
VERTEX
  8
LY_1
  6
CONTINUOUS
 62
     3
  5
5E3
 10
-15.037656
 20
2.823478
 30
0.0
  0
VERTEX
  8
LY_1
  6
CONTINUOUS
 62
     3
  5
5E4
 10
-15.026294
 20
2.311751
 30
0.0
  0
SEQEND
  8
LY_1
  6
CONTINUOUS
 62
     3
  5
5E5
  0
POLYLINE
  8
LY_1
  6
CONTINUOUS
 62
     3
  5
8C
 66
     1
 10
0.0
 20
0.0
 30
0.0
  0
VERTEX
  8
LY_1
  6
CONTINUOUS
 62
     3
  5
5E6
 10
-5.386319
 20
10.499693
 30
0.0
  0
VERTEX
  8
LY_1
  6
CONTINUOUS
 62
     3
  5
5E7
 10
-5.376697
 20
9.987928
 30
0.0
  0
VERTEX
  8
LY_1
  6
CONTINUOUS
 62
     3
  5
5E8
 10
-5.366959
 20
9.476166
 30
0.0
  0
VERTEX
  8
LY_1
  6
CONTINUOUS
 62
     3
  5
5E9
 10
-5.357105
 20
8.964406
 30
0.0
  0
VERTEX
  8
LY_1
  6
CONTINUOUS
 62
     3
  5
5EA
 10
-5.347135
 20
8.452649
 30
0.0
  0
VERTEX
  8
LY_1
  6
CONTINUOUS
 62
     3
  5
5EB
 10
-5.337049
 20
7.940894
 30
0.0
  0
VERTEX
  8
LY_1
  6
CONTINUOUS
 62
     3
  5
5EC
 10
-5.326847
 20
7.429141
 30
0.0
  0
VERTEX
  8
LY_1
  6
CONTINUOUS
 62
     3
  5
5ED
 10
-5.316528
 20
6.91739
 30
0.0
  0
VERTEX
  8
LY_1
  6
CONTINUOUS
 62
     3
  5
5EE
 10
-5.306094
 20
6.405643
 30
0.0
  0
VERTEX
  8
LY_1
  6
CONTINUOUS
 62
     3
  5
5EF
 10
-5.295544
 20
5.893897
 30
0.0
  0
VERTEX
  8
LY_1
  6
CONTINUOUS
 62
     3
  5
5F0
 10
-5.284877
 20
5.382154
 30
0.0
  0
VERTEX
  8
LY_1
  6
CONTINUOUS
 62
     3
  5
5F1
 10
-5.274095
 20
4.870414
 30
0.0
  0
VERTEX
  8
LY_1
  6
CONTINUOUS
 62
     3
  5
5F2
 10
-5.263196
 20
4.358676
 30
0.0
  0
VERTEX
  8
LY_1
  6
CONTINUOUS
 62
     3
  5
5F3
 10
-5.252181
 20
3.846941
 30
0.0
  0
VERTEX
  8
LY_1
  6
CONTINUOUS
 62
     3
  5
5F4
 10
-5.241051
 20
3.335208
 30
0.0
  0
VERTEX
  8
LY_1
  6
CONTINUOUS
 62
     3
  5
5F5
 10
-5.229804
 20
2.823478
 30
0.0
  0
VERTEX
  8
LY_1
  6
CONTINUOUS
 62
     3
  5
5F6
 10
-5.218441
 20
2.311751
 30
0.0
  0
SEQEND
  8
LY_1
  6
CONTINUOUS
 62
     3
  5
5F7
  0
POLYLINE
  8
LY_1
  6
CONTINUOUS
 62
     3
  5
8D
 66
     1
 10
0.0
 20
0.0
 30
0.0
  0
VERTEX
  8
LY_1
  6
CONTINUOUS
 62
     3
  5
5F8
 10
-14.254251
 20
0.108998
 30
0.0
  0
VERTEX
  8
LY_1
  6
CONTINUOUS
 62
     3
  5
5F9
 10
-13.951129
 20
0.095938
 30
0.0
  0
VERTEX
  8
LY_1
  6
CONTINUOUS
 62
     3
  5
5FA
 10
-13.647968
 20
0.083711
 30
0.0
  0
VERTEX
  8
LY_1
  6
CONTINUOUS
 62
     3
  5
5FB
 10
-13.344771
 20
0.072315
 30
0.0
  0
VERTEX
  8
LY_1
  6
CONTINUOUS
 62
     3
  5
5FC
 10
-13.041539
 20
0.061752
 30
0.0
  0
VERTEX
  8
LY_1
  6
CONTINUOUS
 62
     3
  5
5FD
 10
-12.738277
 20
0.052021
 30
0.0
  0
VERTEX
  8
LY_1
  6
CONTINUOUS
 62
     3
  5
5FE
 10
-12.434986
 20
0.043123
 30
0.0
  0
VERTEX
  8
LY_1
  6
CONTINUOUS
 62
     3
  5
5FF
 10
-12.131668
 20
0.035058
 30
0.0
  0
VERTEX
  8
LY_1
  6
CONTINUOUS
 62
     3
  5
600
 10
-11.828327
 20
0.027827
 30
0.0
  0
VERTEX
  8
LY_1
  6
CONTINUOUS
 62
     3
  5
601
 10
-11.524965
 20
0.021429
 30
0.0
  0
VERTEX
  8
LY_1
  6
CONTINUOUS
 62
     3
  5
602
 10
-11.221585
 20
0.015865
 30
0.0
  0
VERTEX
  8
LY_1
  6
CONTINUOUS
 62
     3
  5
603
 10
-10.918189
 20
0.011134
 30
0.0
  0
VERTEX
  8
LY_1
  6
CONTINUOUS
 62
     3
  5
604
 10
-10.614779
 20
0.007238
 30
0.0
  0
VERTEX
  8
LY_1
  6
CONTINUOUS
 62
     3
  5
605
 10
-10.311358
 20
0.004176
 30
0.0
  0
VERTEX
  8
LY_1
  6
CONTINUOUS
 62
     3
  5
606
 10
-10.007929
 20
0.001949
 30
0.0
  0
VERTEX
  8
LY_1
  6
CONTINUOUS
 62
     3
  5
607
 10
-9.704495
 20
0.000557
 30
0.0
  0
VERTEX
  8
LY_1
  6
CONTINUOUS
 62
     3
  5
608
 10
-9.401057
 20
0.0
 30
0.0
  0
VERTEX
  8
LY_1
  6
CONTINUOUS
 62
     3
  5
609
 10
-9.091278
 20
0.000293
 30
0.0
  0
VERTEX
  8
LY_1
  6
CONTINUOUS
 62
     3
  5
60A
 10
-8.781501
 20
0.001456
 30
0.0
  0
VERTEX
  8
LY_1
  6
CONTINUOUS
 62
     3
  5
60B
 10
-8.471729
 20
0.00349
 30
0.0
  0
VERTEX
  8
LY_1
  6
CONTINUOUS
 62
     3
  5
60C
 10
-8.161965
 20
0.006393
 30
0.0
  0
VERTEX
  8
LY_1
  6
CONTINUOUS
 62
     3
  5
60D
 10
-7.852211
 20
0.010166
 30
0.0
  0
VERTEX
  8
LY_1
  6
CONTINUOUS
 62
     3
  5
60E
 10
-7.542471
 20
0.014809
 30
0.0
  0
VERTEX
  8
LY_1
  6
CONTINUOUS
 62
     3
  5
60F
 10
-7.232746
 20
0.02032
 30
0.0
  0
VERTEX
  8
LY_1
  6
CONTINUOUS
 62
     3
  5
610
 10
-6.92304
 20
0.026701
 30
0.0
  0
VERTEX
  8
LY_1
  6
CONTINUOUS
 62
     3
  5
611
 10
-6.613356
 20
0.03395
 30
0.0
  0
VERTEX
  8
LY_1
  6
CONTINUOUS
 62
     3
  5
612
 10
-6.303696
 20
0.042068
 30
0.0
  0
VERTEX
  8
LY_1
  6
CONTINUOUS
 62
     3
  5
613
 10
-5.994063
 20
0.051054
 30
0.0
  0
VERTEX
  8
LY_1
  6
CONTINUOUS
 62
     3
  5
614
 10
-5.684459
 20
0.060908
 30
0.0
  0
VERTEX
  8
LY_1
  6
CONTINUOUS
 62
     3
  5
615
 10
-5.374888
 20
0.071629
 30
0.0
  0
VERTEX
  8
LY_1
  6
CONTINUOUS
 62
     3
  5
616
 10
-5.065353
 20
0.083218
 30
0.0
  0
VERTEX
  8
LY_1
  6
CONTINUOUS
 62
     3
  5
617
 10
-4.755855
 20
0.095675
 30
0.0
  0
VERTEX
  8
LY_1
  6
CONTINUOUS
 62
     3
  5
618
 10
-4.446398
 20
0.108998
 30
0.0
  0
SEQEND
  8
LY_1
  6
CONTINUOUS
 62
     3
  5
619
  0
POLYLINE
  8
LY_1
  6
CONTINUOUS
 62
     3
  5
8E
 66
     1
 10
0.0
 20
0.0
 30
0.0
  0
VERTEX
  8
LY_1
  6
CONTINUOUS
 62
     3
  5
61A
 10
-49.921202
 20
2.311751
 30
0.0
  0
VERTEX
  8
LY_1
  6
CONTINUOUS
 62
     3
  5
61B
 10
-49.905419
 20
2.252592
 30
0.0
  0
VERTEX
  8
LY_1
  6
CONTINUOUS
 62
     3
  5
61C
 10
-49.888534
 20
2.193686
 30
0.0
  0
VERTEX
  8
LY_1
  6
CONTINUOUS
 62
     3
  5
61D
 10
-49.870551
 20
2.135059
 30
0.0
  0
VERTEX
  8
LY_1
  6
CONTINUOUS
 62
     3
  5
61E
 10
-49.851474
 20
2.076738
 30
0.0
  0
VERTEX
  8
LY_1
  6
CONTINUOUS
 62
     3
  5
61F
 10
-49.831307
 20
2.01875
 30
0.0
  0
VERTEX
  8
LY_1
  6
CONTINUOUS
 62
     3
  5
620
 10
-49.810053
 20
1.96112
 30
0.0
  0
VERTEX
  8
LY_1
  6
CONTINUOUS
 62
     3
  5
621
 10
-49.787716
 20
1.903876
 30
0.0
  0
VERTEX
  8
LY_1
  6
CONTINUOUS
 62
     3
  5
622
 10
-49.7643
 20
1.847043
 30
0.0
  0
VERTEX
  8
LY_1
  6
CONTINUOUS
 62
     3
  5
623
 10
-49.739809
 20
1.790648
 30
0.0
  0
VERTEX
  8
LY_1
  6
CONTINUOUS
 62
     3
  5
624
 10
-49.714245
 20
1.734717
 30
0.0
  0
VERTEX
  8
LY_1
  6
CONTINUOUS
 62
     3
  5
625
 10
-49.687614
 20
1.679277
 30
0.0
  0
VERTEX
  8
LY_1
  6
CONTINUOUS
 62
     3
  5
626
 10
-49.659918
 20
1.624355
 30
0.0
  0
VERTEX
  8
LY_1
  6
CONTINUOUS
 62
     3
  5
627
 10
-49.631161
 20
1.569977
 30
0.0
  0
VERTEX
  8
LY_1
  6
CONTINUOUS
 62
     3
  5
628
 10
-49.601348
 20
1.516168
 30
0.0
  0
VERTEX
  8
LY_1
  6
CONTINUOUS
 62
     3
  5
629
 10
-49.570481
 20
1.462956
 30
0.0
  0
VERTEX
  8
LY_1
  6
CONTINUOUS
 62
     3
  5
62A
 10
-49.538565
 20
1.410368
 30
0.0
  0
VERTEX
  8
LY_1
  6
CONTINUOUS
 62
     3
  5
62B
 10
-49.504868
 20
1.357293
 30
0.0
  0
VERTEX
  8
LY_1
  6
CONTINUOUS
 62
     3
  5
62C
 10
-49.470095
 20
1.30492
 30
0.0
  0
VERTEX
  8
LY_1
  6
CONTINUOUS
 62
     3
  5
62D
 10
-49.43426
 20
1.253271
 30
0.0
  0
VERTEX
  8
LY_1
  6
CONTINUOUS
 62
     3
  5
62E
 10
-49.397379
 20
1.202367
 30
0.0
  0
VERTEX
  8
LY_1
  6
CONTINUOUS
 62
     3
  5
62F
 10
-49.359467
 20
1.152231
 30
0.0
  0
VERTEX
  8
LY_1
  6
CONTINUOUS
 62
     3
  5
630
 10
-49.32054
 20
1.102887
 30
0.0
  0
VERTEX
  8
LY_1
  6
CONTINUOUS
 62
     3
  5
631
 10
-49.280613
 20
1.054356
 30
0.0
  0
VERTEX
  8
LY_1
  6
CONTINUOUS
 62
     3
  5
632
 10
-49.2397
 20
1.00666
 30
0.0
  0
VERTEX
  8
LY_1
  6
CONTINUOUS
 62
     3
  5
633
 10
-49.197819
 20
0.959824
 30
0.0
  0
VERTEX
  8
LY_1
  6
CONTINUOUS
 62
     3
  5
634
 10
-49.154983
 20
0.913868
 30
0.0
  0
VERTEX
  8
LY_1
  6
CONTINUOUS
 62
     3
  5
635
 10
-49.111209
 20
0.868816
 30
0.0
  0
VERTEX
  8
LY_1
  6
CONTINUOUS
 62
     3
  5
636
 10
-49.066511
 20
0.82469
 30
0.0
  0
VERTEX
  8
LY_1
  6
CONTINUOUS
 62
     3
  5
637
 10
-49.020905
 20
0.781513
 30
0.0
  0
VERTEX
  8
LY_1
  6
CONTINUOUS
 62
     3
  5
638
 10
-48.974407
 20
0.739307
 30
0.0
  0
VERTEX
  8
LY_1
  6
CONTINUOUS
 62
     3
  5
639
 10
-48.927032
 20
0.698094
 30
0.0
  0
VERTEX
  8
LY_1
  6
CONTINUOUS
 62
     3
  5
63A
 10
-48.878794
 20
0.657898
 30
0.0
  0
VERTEX
  8
LY_1
  6
CONTINUOUS
 62
     3
  5
63B
 10
-48.830169
 20
0.619097
 30
0.0
  0
VERTEX
  8
LY_1
  6
CONTINUOUS
 62
     3
  5
63C
 10
-48.780734
 20
0.581332
 30
0.0
  0
VERTEX
  8
LY_1
  6
CONTINUOUS
 62
     3
  5
63D
 10
-48.730508
 20
0.544621
 30
0.0
  0
VERTEX
  8
LY_1
  6
CONTINUOUS
 62
     3
  5
63E
 10
-48.679514
 20
0.508981
 30
0.0
  0
VERTEX
  8
LY_1
  6
CONTINUOUS
 62
     3
  5
63F
 10
-48.627771
 20
0.474428
 30
0.0
  0
VERTEX
  8
LY_1
  6
CONTINUOUS
 62
     3
  5
640
 10
-48.5753
 20
0.44098
 30
0.0
  0
VERTEX
  8
LY_1
  6
CONTINUOUS
 62
     3
  5
641
 10
-48.522122
 20
0.408654
 30
0.0
  0
VERTEX
  8
LY_1
  6
CONTINUOUS
 62
     3
  5
642
 10
-48.468256
 20
0.377466
 30
0.0
  0
VERTEX
  8
LY_1
  6
CONTINUOUS
 62
     3
  5
643
 10
-48.413725
 20
0.347434
 30
0.0
  0
VERTEX
  8
LY_1
  6
CONTINUOUS
 62
     3
  5
644
 10
-48.358548
 20
0.318575
 30
0.0
  0
VERTEX
  8
LY_1
  6
CONTINUOUS
 62
     3
  5
645
 10
-48.302746
 20
0.290906
 30
0.0
  0
VERTEX
  8
LY_1
  6
CONTINUOUS
 62
     3
  5
646
 10
-48.246339
 20
0.264443
 30
0.0
  0
VERTEX
  8
LY_1
  6
CONTINUOUS
 62
     3
  5
647
 10
-48.189349
 20
0.239205
 30
0.0
  0
VERTEX
  8
LY_1
  6
CONTINUOUS
 62
     3
  5
648
 10
-48.131795
 20
0.215207
 30
0.0
  0
VERTEX
  8
LY_1
  6
CONTINUOUS
 62
     3
  5
649
 10
-48.073699
 20
0.192467
 30
0.0
  0
VERTEX
  8
LY_1
  6
CONTINUOUS
 62
     3
  5
64A
 10
-48.01508
 20
0.171002
 30
0.0
  0
VERTEX
  8
LY_1
  6
CONTINUOUS
 62
     3
  5
64B
 10
-47.96183
 20
0.152763
 30
0.0
  0
VERTEX
  8
LY_1
  6
CONTINUOUS
 62
     3
  5
64C
 10
-47.908194
 20
0.135565
 30
0.0
  0
VERTEX
  8
LY_1
  6
CONTINUOUS
 62
     3
  5
64D
 10
-47.854193
 20
0.119401
 30
0.0
  0
VERTEX
  8
LY_1
  6
CONTINUOUS
 62
     3
  5
64E
 10
-47.799849
 20
0.104264
 30
0.0
  0
VERTEX
  8
LY_1
  6
CONTINUOUS
 62
     3
  5
64F
 10
-47.745183
 20
0.090147
 30
0.0
  0
VERTEX
  8
LY_1
  6
CONTINUOUS
 62
     3
  5
650
 10
-47.690216
 20
0.077041
 30
0.0
  0
VERTEX
  8
LY_1
  6
CONTINUOUS
 62
     3
  5
651
 10
-47.634969
 20
0.06494
 30
0.0
  0
VERTEX
  8
LY_1
  6
CONTINUOUS
 62
     3
  5
652
 10
-47.579464
 20
0.053835
 30
0.0
  0
VERTEX
  8
LY_1
  6
CONTINUOUS
 62
     3
  5
653
 10
-47.523723
 20
0.043721
 30
0.0
  0
VERTEX
  8
LY_1
  6
CONTINUOUS
 62
     3
  5
654
 10
-47.467765
 20
0.034588
 30
0.0
  0
VERTEX
  8
LY_1
  6
CONTINUOUS
 62
     3
  5
655
 10
-47.411614
 20
0.02643
 30
0.0
  0
VERTEX
  8
LY_1
  6
CONTINUOUS
 62
     3
  5
656
 10
-47.355289
 20
0.019239
 30
0.0
  0
VERTEX
  8
LY_1
  6
CONTINUOUS
 62
     3
  5
657
 10
-47.298813
 20
0.013008
 30
0.0
  0
VERTEX
  8
LY_1
  6
CONTINUOUS
 62
     3
  5
658
 10
-47.242206
 20
0.00773
 30
0.0
  0
VERTEX
  8
LY_1
  6
CONTINUOUS
 62
     3
  5
659
 10
-47.185489
 20
0.003396
 30
0.0
  0
VERTEX
  8
LY_1
  6
CONTINUOUS
 62
     3
  5
65A
 10
-47.128685
 20
0.0
 30
0.0
  0
SEQEND
  8
LY_1
  6
CONTINUOUS
 62
     3
  5
65B
  0
POLYLINE
  8
LY_1
  6
CONTINUOUS
 62
     3
  5
8F
 66
     1
 10
0.0
 20
0.0
 30
0.0
  0
VERTEX
  8
LY_1
  6
CONTINUOUS
 62
     3
  5
65C
 10
-51.872105
 20
2.311751
 30
0.0
  0
VERTEX
  8
LY_1
  6
CONTINUOUS
 62
     3
  5
65D
 10
-51.856322
 20
2.252592
 30
0.0
  0
VERTEX
  8
LY_1
  6
CONTINUOUS
 62
     3
  5
65E
 10
-51.839437
 20
2.193686
 30
0.0
  0
VERTEX
  8
LY_1
  6
CONTINUOUS
 62
     3
  5
65F
 10
-51.821454
 20
2.135059
 30
0.0
  0
VERTEX
  8
LY_1
  6
CONTINUOUS
 62
     3
  5
660
 10
-51.802378
 20
2.076738
 30
0.0
  0
VERTEX
  8
LY_1
  6
CONTINUOUS
 62
     3
  5
661
 10
-51.78221
 20
2.01875
 30
0.0
  0
VERTEX
  8
LY_1
  6
CONTINUOUS
 62
     3
  5
662
 10
-51.760957
 20
1.96112
 30
0.0
  0
VERTEX
  8
LY_1
  6
CONTINUOUS
 62
     3
  5
663
 10
-51.73862
 20
1.903876
 30
0.0
  0
VERTEX
  8
LY_1
  6
CONTINUOUS
 62
     3
  5
664
 10
-51.715204
 20
1.847043
 30
0.0
  0
VERTEX
  8
LY_1
  6
CONTINUOUS
 62
     3
  5
665
 10
-51.690712
 20
1.790648
 30
0.0
  0
VERTEX
  8
LY_1
  6
CONTINUOUS
 62
     3
  5
666
 10
-51.665149
 20
1.734717
 30
0.0
  0
VERTEX
  8
LY_1
  6
CONTINUOUS
 62
     3
  5
667
 10
-51.638517
 20
1.679277
 30
0.0
  0
VERTEX
  8
LY_1
  6
CONTINUOUS
 62
     3
  5
668
 10
-51.610821
 20
1.624355
 30
0.0
  0
VERTEX
  8
LY_1
  6
CONTINUOUS
 62
     3
  5
669
 10
-51.582065
 20
1.569977
 30
0.0
  0
VERTEX
  8
LY_1
  6
CONTINUOUS
 62
     3
  5
66A
 10
-51.552251
 20
1.516168
 30
0.0
  0
VERTEX
  8
LY_1
  6
CONTINUOUS
 62
     3
  5
66B
 10
-51.521384
 20
1.462956
 30
0.0
  0
VERTEX
  8
LY_1
  6
CONTINUOUS
 62
     3
  5
66C
 10
-51.489468
 20
1.410368
 30
0.0
  0
VERTEX
  8
LY_1
  6
CONTINUOUS
 62
     3
  5
66D
 10
-51.455771
 20
1.357293
 30
0.0
  0
VERTEX
  8
LY_1
  6
CONTINUOUS
 62
     3
  5
66E
 10
-51.420998
 20
1.30492
 30
0.0
  0
VERTEX
  8
LY_1
  6
CONTINUOUS
 62
     3
  5
66F
 10
-51.385163
 20
1.253271
 30
0.0
  0
VERTEX
  8
LY_1
  6
CONTINUOUS
 62
     3
  5
670
 10
-51.348282
 20
1.202367
 30
0.0
  0
VERTEX
  8
LY_1
  6
CONTINUOUS
 62
     3
  5
671
 10
-51.310371
 20
1.152231
 30
0.0
  0
VERTEX
  8
LY_1
  6
CONTINUOUS
 62
     3
  5
672
 10
-51.271443
 20
1.102887
 30
0.0
  0
VERTEX
  8
LY_1
  6
CONTINUOUS
 62
     3
  5
673
 10
-51.231516
 20
1.054356
 30
0.0
  0
VERTEX
  8
LY_1
  6
CONTINUOUS
 62
     3
  5
674
 10
-51.190604
 20
1.00666
 30
0.0
  0
VERTEX
  8
LY_1
  6
CONTINUOUS
 62
     3
  5
675
 10
-51.148722
 20
0.959824
 30
0.0
  0
VERTEX
  8
LY_1
  6
CONTINUOUS
 62
     3
  5
676
 10
-51.105886
 20
0.913868
 30
0.0
  0
VERTEX
  8
LY_1
  6
CONTINUOUS
 62
     3
  5
677
 10
-51.062112
 20
0.868816
 30
0.0
  0
VERTEX
  8
LY_1
  6
CONTINUOUS
 62
     3
  5
678
 10
-51.017414
 20
0.82469
 30
0.0
  0
VERTEX
  8
LY_1
  6
CONTINUOUS
 62
     3
  5
679
 10
-50.971809
 20
0.781513
 30
0.0
  0
VERTEX
  8
LY_1
  6
CONTINUOUS
 62
     3
  5
67A
 10
-50.92531
 20
0.739307
 30
0.0
  0
VERTEX
  8
LY_1
  6
CONTINUOUS
 62
     3
  5
67B
 10
-50.877935
 20
0.698094
 30
0.0
  0
VERTEX
  8
LY_1
  6
CONTINUOUS
 62
     3
  5
67C
 10
-50.829698
 20
0.657898
 30
0.0
  0
VERTEX
  8
LY_1
  6
CONTINUOUS
 62
     3
  5
67D
 10
-50.781072
 20
0.619097
 30
0.0
  0
VERTEX
  8
LY_1
  6
CONTINUOUS
 62
     3
  5
67E
 10
-50.731637
 20
0.581332
 30
0.0
  0
VERTEX
  8
LY_1
  6
CONTINUOUS
 62
     3
  5
67F
 10
-50.681412
 20
0.544621
 30
0.0
  0
VERTEX
  8
LY_1
  6
CONTINUOUS
 62
     3
  5
680
 10
-50.630417
 20
0.508981
 30
0.0
  0
VERTEX
  8
LY_1
  6
CONTINUOUS
 62
     3
  5
681
 10
-50.578674
 20
0.474428
 30
0.0
  0
VERTEX
  8
LY_1
  6
CONTINUOUS
 62
     3
  5
682
 10
-50.526203
 20
0.44098
 30
0.0
  0
VERTEX
  8
LY_1
  6
CONTINUOUS
 62
     3
  5
683
 10
-50.473025
 20
0.408654
 30
0.0
  0
VERTEX
  8
LY_1
  6
CONTINUOUS
 62
     3
  5
684
 10
-50.41916
 20
0.377466
 30
0.0
  0
VERTEX
  8
LY_1
  6
CONTINUOUS
 62
     3
  5
685
 10
-50.364628
 20
0.347434
 30
0.0
  0
VERTEX
  8
LY_1
  6
CONTINUOUS
 62
     3
  5
686
 10
-50.309451
 20
0.318575
 30
0.0
  0
VERTEX
  8
LY_1
  6
CONTINUOUS
 62
     3
  5
687
 10
-50.253649
 20
0.290906
 30
0.0
  0
VERTEX
  8
LY_1
  6
CONTINUOUS
 62
     3
  5
688
 10
-50.197243
 20
0.264443
 30
0.0
  0
VERTEX
  8
LY_1
  6
CONTINUOUS
 62
     3
  5
689
 10
-50.140252
 20
0.239205
 30
0.0
  0
VERTEX
  8
LY_1
  6
CONTINUOUS
 62
     3
  5
68A
 10
-50.082699
 20
0.215207
 30
0.0
  0
VERTEX
  8
LY_1
  6
CONTINUOUS
 62
     3
  5
68B
 10
-50.024602
 20
0.192467
 30
0.0
  0
VERTEX
  8
LY_1
  6
CONTINUOUS
 62
     3
  5
68C
 10
-49.965984
 20
0.171002
 30
0.0
  0
VERTEX
  8
LY_1
  6
CONTINUOUS
 62
     3
  5
68D
 10
-49.912733
 20
0.152763
 30
0.0
  0
VERTEX
  8
LY_1
  6
CONTINUOUS
 62
     3
  5
68E
 10
-49.859097
 20
0.135565
 30
0.0
  0
VERTEX
  8
LY_1
  6
CONTINUOUS
 62
     3
  5
68F
 10
-49.805096
 20
0.119401
 30
0.0
  0
VERTEX
  8
LY_1
  6
CONTINUOUS
 62
     3
  5
690
 10
-49.750752
 20
0.104264
 30
0.0
  0
VERTEX
  8
LY_1
  6
CONTINUOUS
 62
     3
  5
691
 10
-49.696086
 20
0.090147
 30
0.0
  0
VERTEX
  8
LY_1
  6
CONTINUOUS
 62
     3
  5
692
 10
-49.641119
 20
0.077041
 30
0.0
  0
VERTEX
  8
LY_1
  6
CONTINUOUS
 62
     3
  5
693
 10
-49.585872
 20
0.06494
 30
0.0
  0
VERTEX
  8
LY_1
  6
CONTINUOUS
 62
     3
  5
694
 10
-49.530368
 20
0.053835
 30
0.0
  0
VERTEX
  8
LY_1
  6
CONTINUOUS
 62
     3
  5
695
 10
-49.474626
 20
0.043721
 30
0.0
  0
VERTEX
  8
LY_1
  6
CONTINUOUS
 62
     3
  5
696
 10
-49.418669
 20
0.034588
 30
0.0
  0
VERTEX
  8
LY_1
  6
CONTINUOUS
 62
     3
  5
697
 10
-49.362517
 20
0.02643
 30
0.0
  0
VERTEX
  8
LY_1
  6
CONTINUOUS
 62
     3
  5
698
 10
-49.306192
 20
0.019239
 30
0.0
  0
VERTEX
  8
LY_1
  6
CONTINUOUS
 62
     3
  5
699
 10
-49.249716
 20
0.013008
 30
0.0
  0
VERTEX
  8
LY_1
  6
CONTINUOUS
 62
     3
  5
69A
 10
-49.193109
 20
0.00773
 30
0.0
  0
VERTEX
  8
LY_1
  6
CONTINUOUS
 62
     3
  5
69B
 10
-49.136393
 20
0.003396
 30
0.0
  0
VERTEX
  8
LY_1
  6
CONTINUOUS
 62
     3
  5
69C
 10
-49.079588
 20
0.0
 30
0.0
  0
SEQEND
  8
LY_1
  6
CONTINUOUS
 62
     3
  5
69D
  0
POLYLINE
  8
LY_1
  6
CONTINUOUS
 62
     3
  5
90
 66
     1
 10
0.0
 20
0.0
 30
0.0
  0
VERTEX
  8
LY_1
  6
CONTINUOUS
 62
     3
  5
69E
 10
-24.672421
 20
2.311751
 30
0.0
  0
VERTEX
  8
LY_1
  6
CONTINUOUS
 62
     3
  5
69F
 10
-24.664991
 20
2.254269
 30
0.0
  0
VERTEX
  8
LY_1
  6
CONTINUOUS
 62
     3
  5
6A0
 10
-24.656693
 20
2.196871
 30
0.0
  0
VERTEX
  8
LY_1
  6
CONTINUOUS
 62
     3
  5
6A1
 10
-24.647538
 20
2.139572
 30
0.0
  0
VERTEX
  8
LY_1
  6
CONTINUOUS
 62
     3
  5
6A2
 10
-24.637539
 20
2.082386
 30
0.0
  0
VERTEX
  8
LY_1
  6
CONTINUOUS
 62
     3
  5
6A3
 10
-24.626705
 20
2.025328
 30
0.0
  0
VERTEX
  8
LY_1
  6
CONTINUOUS
 62
     3
  5
6A4
 10
-24.615049
 20
1.968414
 30
0.0
  0
VERTEX
  8
LY_1
  6
CONTINUOUS
 62
     3
  5
6A5
 10
-24.60258
 20
1.911656
 30
0.0
  0
VERTEX
  8
LY_1
  6
CONTINUOUS
 62
     3
  5
6A6
 10
-24.589311
 20
1.855072
 30
0.0
  0
VERTEX
  8
LY_1
  6
CONTINUOUS
 62
     3
  5
6A7
 10
-24.575252
 20
1.798674
 30
0.0
  0
VERTEX
  8
LY_1
  6
CONTINUOUS
 62
     3
  5
6A8
 10
-24.560415
 20
1.742478
 30
0.0
  0
VERTEX
  8
LY_1
  6
CONTINUOUS
 62
     3
  5
6A9
 10
-24.544811
 20
1.686499
 30
0.0
  0
VERTEX
  8
LY_1
  6
CONTINUOUS
 62
     3
  5
6AA
 10
-24.528451
 20
1.630751
 30
0.0
  0
VERTEX
  8
LY_1
  6
CONTINUOUS
 62
     3
  5
6AB
 10
-24.511346
 20
1.575249
 30
0.0
  0
VERTEX
  8
LY_1
  6
CONTINUOUS
 62
     3
  5
6AC
 10
-24.493508
 20
1.520008
 30
0.0
  0
VERTEX
  8
LY_1
  6
CONTINUOUS
 62
     3
  5
6AD
 10
-24.474946
 20
1.465043
 30
0.0
  0
VERTEX
  8
LY_1
  6
CONTINUOUS
 62
     3
  5
6AE
 10
-24.455674
 20
1.410368
 30
0.0
  0
VERTEX
  8
LY_1
  6
CONTINUOUS
 62
     3
  5
6AF
 10
-24.437598
 20
1.361081
 30
0.0
  0
VERTEX
  8
LY_1
  6
CONTINUOUS
 62
     3
  5
6B0
 10
-24.418924
 20
1.312053
 30
0.0
  0
VERTEX
  8
LY_1
  6
CONTINUOUS
 62
     3
  5
6B1
 10
-24.39963
 20
1.263294
 30
0.0
  0
VERTEX
  8
LY_1
  6
CONTINUOUS
 62
     3
  5
6B2
 10
-24.379692
 20
1.214812
 30
0.0
  0
VERTEX
  8
LY_1
  6
CONTINUOUS
 62
     3
  5
6B3
 10
-24.359087
 20
1.166616
 30
0.0
  0
VERTEX
  8
LY_1
  6
CONTINUOUS
 62
     3
  5
6B4
 10
-24.337794
 20
1.118716
 30
0.0
  0
VERTEX
  8
LY_1
  6
CONTINUOUS
 62
     3
  5
6B5
 10
-24.315789
 20
1.071119
 30
0.0
  0
VERTEX
  8
LY_1
  6
CONTINUOUS
 62
     3
  5
6B6
 10
-24.293049
 20
1.023835
 30
0.0
  0
VERTEX
  8
LY_1
  6
CONTINUOUS
 62
     3
  5
6B7
 10
-24.269551
 20
0.976873
 30
0.0
  0
VERTEX
  8
LY_1
  6
CONTINUOUS
 62
     3
  5
6B8
 10
-24.245274
 20
0.930242
 30
0.0
  0
VERTEX
  8
LY_1
  6
CONTINUOUS
 62
     3
  5
6B9
 10
-24.220193
 20
0.88395
 30
0.0
  0
VERTEX
  8
LY_1
  6
CONTINUOUS
 62
     3
  5
6BA
 10
-24.194286
 20
0.838007
 30
0.0
  0
VERTEX
  8
LY_1
  6
CONTINUOUS
 62
     3
  5
6BB
 10
-24.167531
 20
0.792422
 30
0.0
  0
VERTEX
  8
LY_1
  6
CONTINUOUS
 62
     3
  5
6BC
 10
-24.139904
 20
0.747202
 30
0.0
  0
VERTEX
  8
LY_1
  6
CONTINUOUS
 62
     3
  5
6BD
 10
-24.111383
 20
0.702358
 30
0.0
  0
VERTEX
  8
LY_1
  6
CONTINUOUS
 62
     3
  5
6BE
 10
-24.081944
 20
0.657898
 30
0.0
  0
VERTEX
  8
LY_1
  6
CONTINUOUS
 62
     3
  5
6BF
 10
-24.057055
 20
0.62168
 30
0.0
  0
VERTEX
  8
LY_1
  6
CONTINUOUS
 62
     3
  5
6C0
 10
-24.03151
 20
0.585816
 30
0.0
  0
VERTEX
  8
LY_1
  6
CONTINUOUS
 62
     3
  5
6C1
 10
-24.005286
 20
0.550396
 30
0.0
  0
VERTEX
  8
LY_1
  6
CONTINUOUS
 62
     3
  5
6C2
 10
-23.978363
 20
0.515509
 30
0.0
  0
VERTEX
  8
LY_1
  6
CONTINUOUS
 62
     3
  5
6C3
 10
-23.950717
 20
0.481246
 30
0.0
  0
VERTEX
  8
LY_1
  6
CONTINUOUS
 62
     3
  5
6C4
 10
-23.922327
 20
0.447694
 30
0.0
  0
VERTEX
  8
LY_1
  6
CONTINUOUS
 62
     3
  5
6C5
 10
-23.893171
 20
0.414944
 30
0.0
  0
VERTEX
  8
LY_1
  6
CONTINUOUS
 62
     3
  5
6C6
 10
-23.863228
 20
0.383084
 30
0.0
  0
VERTEX
  8
LY_1
  6
CONTINUOUS
 62
     3
  5
6C7
 10
-23.832475
 20
0.352205
 30
0.0
  0
VERTEX
  8
LY_1
  6
CONTINUOUS
 62
     3
  5
6C8
 10
-23.80089
 20
0.322396
 30
0.0
  0
VERTEX
  8
LY_1
  6
CONTINUOUS
 62
     3
  5
6C9
 10
-23.768452
 20
0.293745
 30
0.0
  0
VERTEX
  8
LY_1
  6
CONTINUOUS
 62
     3
  5
6CA
 10
-23.735138
 20
0.266342
 30
0.0
  0
VERTEX
  8
LY_1
  6
CONTINUOUS
 62
     3
  5
6CB
 10
-23.700927
 20
0.240277
 30
0.0
  0
VERTEX
  8
LY_1
  6
CONTINUOUS
 62
     3
  5
6CC
 10
-23.665796
 20
0.21564
 30
0.0
  0
VERTEX
  8
LY_1
  6
CONTINUOUS
 62
     3
  5
6CD
 10
-23.629724
 20
0.192518
 30
0.0
  0
VERTEX
  8
LY_1
  6
CONTINUOUS
 62
     3
  5
6CE
 10
-23.59269
 20
0.171002
 30
0.0
  0
VERTEX
  8
LY_1
  6
CONTINUOUS
 62
     3
  5
6CF
 10
-23.53052
 20
0.139634
 30
0.0
  0
VERTEX
  8
LY_1
  6
CONTINUOUS
 62
     3
  5
6D0
 10
-23.466029
 20
0.112592
 30
0.0
  0
VERTEX
  8
LY_1
  6
CONTINUOUS
 62
     3
  5
6D1
 10
-23.399494
 20
0.089734
 30
0.0
  0
VERTEX
  8
LY_1
  6
CONTINUOUS
 62
     3
  5
6D2
 10
-23.331189
 20
0.07092
 30
0.0
  0
VERTEX
  8
LY_1
  6
CONTINUOUS
 62
     3
  5
6D3
 10
-23.26139
 20
0.056007
 30
0.0
  0
VERTEX
  8
LY_1
  6
CONTINUOUS
 62
     3
  5
6D4
 10
-23.190374
 20
0.044854
 30
0.0
  0
VERTEX
  8
LY_1
  6
CONTINUOUS
 62
     3
  5
6D5
 10
-23.118414
 20
0.037319
 30
0.0
  0
VERTEX
  8
LY_1
  6
CONTINUOUS
 62
     3
  5
6D6
 10
-23.045787
 20
0.033262
 30
0.0
  0
VERTEX
  8
LY_1
  6
CONTINUOUS
 62
     3
  5
6D7
 10
-22.972769
 20
0.03254
 30
0.0
  0
VERTEX
  8
LY_1
  6
CONTINUOUS
 62
     3
  5
6D8
 10
-22.899635
 20
0.035012
 30
0.0
  0
VERTEX
  8
LY_1
  6
CONTINUOUS
 62
     3
  5
6D9
 10
-22.826661
 20
0.040537
 30
0.0
  0
VERTEX
  8
LY_1
  6
CONTINUOUS
 62
     3
  5
6DA
 10
-22.754122
 20
0.048973
 30
0.0
  0
VERTEX
  8
LY_1
  6
CONTINUOUS
 62
     3
  5
6DB
 10
-22.682294
 20
0.060178
 30
0.0
  0
VERTEX
  8
LY_1
  6
CONTINUOUS
 62
     3
  5
6DC
 10
-22.611452
 20
0.074012
 30
0.0
  0
VERTEX
  8
LY_1
  6
CONTINUOUS
 62
     3
  5
6DD
 10
-22.541872
 20
0.090332
 30
0.0
  0
VERTEX
  8
LY_1
  6
CONTINUOUS
 62
     3
  5
6DE
 10
-22.47383
 20
0.108998
 30
0.0
  0
SEQEND
  8
LY_1
  6
CONTINUOUS
 62
     3
  5
6DF
  0
POLYLINE
  8
LY_1
  6
CONTINUOUS
 62
     3
  5
91
 66
     1
 10
0.0
 20
0.0
 30
0.0
  0
VERTEX
  8
LY_1
  6
CONTINUOUS
 62
     3
  5
6E0
 10
-45.925645
 20
2.311751
 30
0.0
  0
VERTEX
  8
LY_1
  6
CONTINUOUS
 62
     3
  5
6E1
 10
-45.913036
 20
2.253202
 30
0.0
  0
VERTEX
  8
LY_1
  6
CONTINUOUS
 62
     3
  5
6E2
 10
-45.899374
 20
2.194852
 30
0.0
  0
VERTEX
  8
LY_1
  6
CONTINUOUS
 62
     3
  5
6E3
 10
-45.884666
 20
2.136722
 30
0.0
  0
VERTEX
  8
LY_1
  6
CONTINUOUS
 62
     3
  5
6E4
 10
-45.868919
 20
2.078833
 30
0.0
  0
VERTEX
  8
LY_1
  6
CONTINUOUS
 62
     3
  5
6E5
 10
-45.852139
 20
2.021204
 30
0.0
  0
VERTEX
  8
LY_1
  6
CONTINUOUS
 62
     3
  5
6E6
 10
-45.834333
 20
1.963857
 30
0.0
  0
VERTEX
  8
LY_1
  6
CONTINUOUS
 62
     3
  5
6E7
 10
-45.815507
 20
1.906812
 30
0.0
  0
VERTEX
  8
LY_1
  6
CONTINUOUS
 62
     3
  5
6E8
 10
-45.795667
 20
1.850089
 30
0.0
  0
VERTEX
  8
LY_1
  6
CONTINUOUS
 62
     3
  5
6E9
 10
-45.774822
 20
1.793708
 30
0.0
  0
VERTEX
  8
LY_1
  6
CONTINUOUS
 62
     3
  5
6EA
 10
-45.752976
 20
1.737692
 30
0.0
  0
VERTEX
  8
LY_1
  6
CONTINUOUS
 62
     3
  5
6EB
 10
-45.730136
 20
1.682058
 30
0.0
  0
VERTEX
  8
LY_1
  6
CONTINUOUS
 62
     3
  5
6EC
 10
-45.706309
 20
1.62683
 30
0.0
  0
VERTEX
  8
LY_1
  6
CONTINUOUS
 62
     3
  5
6ED
 10
-45.681502
 20
1.572026
 30
0.0
  0
VERTEX
  8
LY_1
  6
CONTINUOUS
 62
     3
  5
6EE
 10
-45.65572
 20
1.517667
 30
0.0
  0
VERTEX
  8
LY_1
  6
CONTINUOUS
 62
     3
  5
6EF
 10
-45.628971
 20
1.463774
 30
0.0
  0
VERTEX
  8
LY_1
  6
CONTINUOUS
 62
     3
  5
6F0
 10
-45.601261
 20
1.410368
 30
0.0
  0
VERTEX
  8
LY_1
  6
CONTINUOUS
 62
     3
  5
6F1
 10
-45.573215
 20
1.35859
 30
0.0
  0
VERTEX
  8
LY_1
  6
CONTINUOUS
 62
     3
  5
6F2
 10
-45.544254
 20
1.307323
 30
0.0
  0
VERTEX
  8
LY_1
  6
CONTINUOUS
 62
     3
  5
6F3
 10
-45.514376
 20
1.256594
 30
0.0
  0
VERTEX
  8
LY_1
  6
CONTINUOUS
 62
     3
  5
6F4
 10
-45.48358
 20
1.206429
 30
0.0
  0
VERTEX
  8
LY_1
  6
CONTINUOUS
 62
     3
  5
6F5
 10
-45.451864
 20
1.156854
 30
0.0
  0
VERTEX
  8
LY_1
  6
CONTINUOUS
 62
     3
  5
6F6
 10
-45.419227
 20
1.107894
 30
0.0
  0
VERTEX
  8
LY_1
  6
CONTINUOUS
 62
     3
  5
6F7
 10
-45.385669
 20
1.059576
 30
0.0
  0
VERTEX
  8
LY_1
  6
CONTINUOUS
 62
     3
  5
6F8
 10
-45.351187
 20
1.011926
 30
0.0
  0
VERTEX
  8
LY_1
  6
CONTINUOUS
 62
     3
  5
6F9
 10
-45.31578
 20
0.96497
 30
0.0
  0
VERTEX
  8
LY_1
  6
CONTINUOUS
 62
     3
  5
6FA
 10
-45.279448
 20
0.918734
 30
0.0
  0
VERTEX
  8
LY_1
  6
CONTINUOUS
 62
     3
  5
6FB
 10
-45.242188
 20
0.873244
 30
0.0
  0
VERTEX
  8
LY_1
  6
CONTINUOUS
 62
     3
  5
6FC
 10
-45.203999
 20
0.828526
 30
0.0
  0
VERTEX
  8
LY_1
  6
CONTINUOUS
 62
     3
  5
6FD
 10
-45.164881
 20
0.784606
 30
0.0
  0
VERTEX
  8
LY_1
  6
CONTINUOUS
 62
     3
  5
6FE
 10
-45.124832
 20
0.741511
 30
0.0
  0
VERTEX
  8
LY_1
  6
CONTINUOUS
 62
     3
  5
6FF
 10
-45.08385
 20
0.699266
 30
0.0
  0
VERTEX
  8
LY_1
  6
CONTINUOUS
 62
     3
  5
700
 10
-45.041935
 20
0.657898
 30
0.0
  0
VERTEX
  8
LY_1
  6
CONTINUOUS
 62
     3
  5
701
 10
-45.001776
 20
0.619922
 30
0.0
  0
VERTEX
  8
LY_1
  6
CONTINUOUS
 62
     3
  5
702
 10
-44.960809
 20
0.582778
 30
0.0
  0
VERTEX
  8
LY_1
  6
CONTINUOUS
 62
     3
  5
703
 10
-44.919045
 20
0.546502
 30
0.0
  0
VERTEX
  8
LY_1
  6
CONTINUOUS
 62
     3
  5
704
 10
-44.876499
 20
0.511133
 30
0.0
  0
VERTEX
  8
LY_1
  6
CONTINUOUS
 62
     3
  5
705
 10
-44.833183
 20
0.476707
 30
0.0
  0
VERTEX
  8
LY_1
  6
CONTINUOUS
 62
     3
  5
706
 10
-44.789111
 20
0.443262
 30
0.0
  0
VERTEX
  8
LY_1
  6
CONTINUOUS
 62
     3
  5
707
 10
-44.744296
 20
0.410835
 30
0.0
  0
VERTEX
  8
LY_1
  6
CONTINUOUS
 62
     3
  5
708
 10
-44.698752
 20
0.379465
 30
0.0
  0
VERTEX
  8
LY_1
  6
CONTINUOUS
 62
     3
  5
709
 10
-44.652491
 20
0.349187
 30
0.0
  0
VERTEX
  8
LY_1
  6
CONTINUOUS
 62
     3
  5
70A
 10
-44.605526
 20
0.320041
 30
0.0
  0
VERTEX
  8
LY_1
  6
CONTINUOUS
 62
     3
  5
70B
 10
-44.557872
 20
0.292062
 30
0.0
  0
VERTEX
  8
LY_1
  6
CONTINUOUS
 62
     3
  5
70C
 10
-44.509541
 20
0.265289
 30
0.0
  0
VERTEX
  8
LY_1
  6
CONTINUOUS
 62
     3
  5
70D
 10
-44.460546
 20
0.239759
 30
0.0
  0
VERTEX
  8
LY_1
  6
CONTINUOUS
 62
     3
  5
70E
 10
-44.410901
 20
0.21551
 30
0.0
  0
VERTEX
  8
LY_1
  6
CONTINUOUS
 62
     3
  5
70F
 10
-44.360619
 20
0.192578
 30
0.0
  0
VERTEX
  8
LY_1
  6
CONTINUOUS
 62
     3
  5
710
 10
-44.309714
 20
0.171002
 30
0.0
  0
VERTEX
  8
LY_1
  6
CONTINUOUS
 62
     3
  5
711
 10
-44.25896
 20
0.151096
 30
0.0
  0
VERTEX
  8
LY_1
  6
CONTINUOUS
 62
     3
  5
712
 10
-44.207648
 20
0.132527
 30
0.0
  0
VERTEX
  8
LY_1
  6
CONTINUOUS
 62
     3
  5
713
 10
-44.155813
 20
0.11528
 30
0.0
  0
VERTEX
  8
LY_1
  6
CONTINUOUS
 62
     3
  5
714
 10
-44.103489
 20
0.099342
 30
0.0
  0
VERTEX
  8
LY_1
  6
CONTINUOUS
 62
     3
  5
715
 10
-44.05071
 20
0.084698
 30
0.0
  0
VERTEX
  8
LY_1
  6
CONTINUOUS
 62
     3
  5
716
 10
-43.997511
 20
0.071332
 30
0.0
  0
VERTEX
  8
LY_1
  6
CONTINUOUS
 62
     3
  5
717
 10
-43.943927
 20
0.05923
 30
0.0
  0
VERTEX
  8
LY_1
  6
CONTINUOUS
 62
     3
  5
718
 10
-43.889992
 20
0.048378
 30
0.0
  0
VERTEX
  8
LY_1
  6
CONTINUOUS
 62
     3
  5
719
 10
-43.835742
 20
0.03876
 30
0.0
  0
VERTEX
  8
LY_1
  6
CONTINUOUS
 62
     3
  5
71A
 10
-43.781209
 20
0.030363
 30
0.0
  0
VERTEX
  8
LY_1
  6
CONTINUOUS
 62
     3
  5
71B
 10
-43.72643
 20
0.023171
 30
0.0
  0
VERTEX
  8
LY_1
  6
CONTINUOUS
 62
     3
  5
71C
 10
-43.671438
 20
0.017169
 30
0.0
  0
VERTEX
  8
LY_1
  6
CONTINUOUS
 62
     3
  5
71D
 10
-43.616269
 20
0.012343
 30
0.0
  0
VERTEX
  8
LY_1
  6
CONTINUOUS
 62
     3
  5
71E
 10
-43.560956
 20
0.008678
 30
0.0
  0
VERTEX
  8
LY_1
  6
CONTINUOUS
 62
     3
  5
71F
 10
-43.505534
 20
0.00616
 30
0.0
  0
VERTEX
  8
LY_1
  6
CONTINUOUS
 62
     3
  5
720
 10
-43.450039
 20
0.004774
 30
0.0
  0
SEQEND
  8
LY_1
  6
CONTINUOUS
 62
     3
  5
721
  0
POLYLINE
  8
LY_1
  6
CONTINUOUS
 62
     3
  5
92
 66
     1
 10
0.0
 20
0.0
 30
0.0
  0
VERTEX
  8
LY_1
  6
CONTINUOUS
 62
     3
  5
722
 10
-40.369943
 20
2.311751
 30
0.0
  0
VERTEX
  8
LY_1
  6
CONTINUOUS
 62
     3
  5
723
 10
-40.357333
 20
2.253202
 30
0.0
  0
VERTEX
  8
LY_1
  6
CONTINUOUS
 62
     3
  5
724
 10
-40.343671
 20
2.194852
 30
0.0
  0
VERTEX
  8
LY_1
  6
CONTINUOUS
 62
     3
  5
725
 10
-40.328964
 20
2.136722
 30
0.0
  0
VERTEX
  8
LY_1
  6
CONTINUOUS
 62
     3
  5
726
 10
-40.313216
 20
2.078833
 30
0.0
  0
VERTEX
  8
LY_1
  6
CONTINUOUS
 62
     3
  5
727
 10
-40.296436
 20
2.021204
 30
0.0
  0
VERTEX
  8
LY_1
  6
CONTINUOUS
 62
     3
  5
728
 10
-40.27863
 20
1.963857
 30
0.0
  0
VERTEX
  8
LY_1
  6
CONTINUOUS
 62
     3
  5
729
 10
-40.259804
 20
1.906812
 30
0.0
  0
VERTEX
  8
LY_1
  6
CONTINUOUS
 62
     3
  5
72A
 10
-40.239965
 20
1.850089
 30
0.0
  0
VERTEX
  8
LY_1
  6
CONTINUOUS
 62
     3
  5
72B
 10
-40.219119
 20
1.793708
 30
0.0
  0
VERTEX
  8
LY_1
  6
CONTINUOUS
 62
     3
  5
72C
 10
-40.197273
 20
1.737692
 30
0.0
  0
VERTEX
  8
LY_1
  6
CONTINUOUS
 62
     3
  5
72D
 10
-40.174434
 20
1.682058
 30
0.0
  0
VERTEX
  8
LY_1
  6
CONTINUOUS
 62
     3
  5
72E
 10
-40.150607
 20
1.62683
 30
0.0
  0
VERTEX
  8
LY_1
  6
CONTINUOUS
 62
     3
  5
72F
 10
-40.125799
 20
1.572026
 30
0.0
  0
VERTEX
  8
LY_1
  6
CONTINUOUS
 62
     3
  5
730
 10
-40.100018
 20
1.517667
 30
0.0
  0
VERTEX
  8
LY_1
  6
CONTINUOUS
 62
     3
  5
731
 10
-40.073269
 20
1.463774
 30
0.0
  0
VERTEX
  8
LY_1
  6
CONTINUOUS
 62
     3
  5
732
 10
-40.045559
 20
1.410368
 30
0.0
  0
VERTEX
  8
LY_1
  6
CONTINUOUS
 62
     3
  5
733
 10
-40.017513
 20
1.35859
 30
0.0
  0
VERTEX
  8
LY_1
  6
CONTINUOUS
 62
     3
  5
734
 10
-39.988552
 20
1.307323
 30
0.0
  0
VERTEX
  8
LY_1
  6
CONTINUOUS
 62
     3
  5
735
 10
-39.958674
 20
1.256594
 30
0.0
  0
VERTEX
  8
LY_1
  6
CONTINUOUS
 62
     3
  5
736
 10
-39.927877
 20
1.206429
 30
0.0
  0
VERTEX
  8
LY_1
  6
CONTINUOUS
 62
     3
  5
737
 10
-39.896162
 20
1.156854
 30
0.0
  0
VERTEX
  8
LY_1
  6
CONTINUOUS
 62
     3
  5
738
 10
-39.863525
 20
1.107894
 30
0.0
  0
VERTEX
  8
LY_1
  6
CONTINUOUS
 62
     3
  5
739
 10
-39.829966
 20
1.059576
 30
0.0
  0
VERTEX
  8
LY_1
  6
CONTINUOUS
 62
     3
  5
73A
 10
-39.795484
 20
1.011926
 30
0.0
  0
VERTEX
  8
LY_1
  6
CONTINUOUS
 62
     3
  5
73B
 10
-39.760078
 20
0.96497
 30
0.0
  0
VERTEX
  8
LY_1
  6
CONTINUOUS
 62
     3
  5
73C
 10
-39.723745
 20
0.918734
 30
0.0
  0
VERTEX
  8
LY_1
  6
CONTINUOUS
 62
     3
  5
73D
 10
-39.686485
 20
0.873244
 30
0.0
  0
VERTEX
  8
LY_1
  6
CONTINUOUS
 62
     3
  5
73E
 10
-39.648297
 20
0.828526
 30
0.0
  0
VERTEX
  8
LY_1
  6
CONTINUOUS
 62
     3
  5
73F
 10
-39.609179
 20
0.784606
 30
0.0
  0
VERTEX
  8
LY_1
  6
CONTINUOUS
 62
     3
  5
740
 10
-39.56913
 20
0.741511
 30
0.0
  0
VERTEX
  8
LY_1
  6
CONTINUOUS
 62
     3
  5
741
 10
-39.528148
 20
0.699266
 30
0.0
  0
VERTEX
  8
LY_1
  6
CONTINUOUS
 62
     3
  5
742
 10
-39.486233
 20
0.657898
 30
0.0
  0
VERTEX
  8
LY_1
  6
CONTINUOUS
 62
     3
  5
743
 10
-39.446074
 20
0.619922
 30
0.0
  0
VERTEX
  8
LY_1
  6
CONTINUOUS
 62
     3
  5
744
 10
-39.405106
 20
0.582778
 30
0.0
  0
VERTEX
  8
LY_1
  6
CONTINUOUS
 62
     3
  5
745
 10
-39.363343
 20
0.546502
 30
0.0
  0
VERTEX
  8
LY_1
  6
CONTINUOUS
 62
     3
  5
746
 10
-39.320797
 20
0.511133
 30
0.0
  0
VERTEX
  8
LY_1
  6
CONTINUOUS
 62
     3
  5
747
 10
-39.277481
 20
0.476707
 30
0.0
  0
VERTEX
  8
LY_1
  6
CONTINUOUS
 62
     3
  5
748
 10
-39.233409
 20
0.443262
 30
0.0
  0
VERTEX
  8
LY_1
  6
CONTINUOUS
 62
     3
  5
749
 10
-39.188594
 20
0.410835
 30
0.0
  0
VERTEX
  8
LY_1
  6
CONTINUOUS
 62
     3
  5
74A
 10
-39.143049
 20
0.379465
 30
0.0
  0
VERTEX
  8
LY_1
  6
CONTINUOUS
 62
     3
  5
74B
 10
-39.096788
 20
0.349187
 30
0.0
  0
VERTEX
  8
LY_1
  6
CONTINUOUS
 62
     3
  5
74C
 10
-39.049824
 20
0.320041
 30
0.0
  0
VERTEX
  8
LY_1
  6
CONTINUOUS
 62
     3
  5
74D
 10
-39.002169
 20
0.292062
 30
0.0
  0
VERTEX
  8
LY_1
  6
CONTINUOUS
 62
     3
  5
74E
 10
-38.953838
 20
0.265289
 30
0.0
  0
VERTEX
  8
LY_1
  6
CONTINUOUS
 62
     3
  5
74F
 10
-38.904844
 20
0.239759
 30
0.0
  0
VERTEX
  8
LY_1
  6
CONTINUOUS
 62
     3
  5
750
 10
-38.855199
 20
0.21551
 30
0.0
  0
VERTEX
  8
LY_1
  6
CONTINUOUS
 62
     3
  5
751
 10
-38.804917
 20
0.192578
 30
0.0
  0
VERTEX
  8
LY_1
  6
CONTINUOUS
 62
     3
  5
752
 10
-38.754011
 20
0.171002
 30
0.0
  0
VERTEX
  8
LY_1
  6
CONTINUOUS
 62
     3
  5
753
 10
-38.655353
 20
0.133713
 30
0.0
  0
VERTEX
  8
LY_1
  6
CONTINUOUS
 62
     3
  5
754
 10
-38.554728
 20
0.101374
 30
0.0
  0
VERTEX
  8
LY_1
  6
CONTINUOUS
 62
     3
  5
755
 10
-38.452386
 20
0.073881
 30
0.0
  0
VERTEX
  8
LY_1
  6
CONTINUOUS
 62
     3
  5
756
 10
-38.348577
 20
0.051126
 30
0.0
  0
VERTEX
  8
LY_1
  6
CONTINUOUS
 62
     3
  5
757
 10
-38.243552
 20
0.033003
 30
0.0
  0
VERTEX
  8
LY_1
  6
CONTINUOUS
 62
     3
  5
758
 10
-38.13756
 20
0.019407
 30
0.0
  0
VERTEX
  8
LY_1
  6
CONTINUOUS
 62
     3
  5
759
 10
-38.030852
 20
0.01023
 30
0.0
  0
VERTEX
  8
LY_1
  6
CONTINUOUS
 62
     3
  5
75A
 10
-37.923678
 20
0.005367
 30
0.0
  0
VERTEX
  8
LY_1
  6
CONTINUOUS
 62
     3
  5
75B
 10
-37.816288
 20
0.004711
 30
0.0
  0
VERTEX
  8
LY_1
  6
CONTINUOUS
 62
     3
  5
75C
 10
-37.708932
 20
0.008156
 30
0.0
  0
VERTEX
  8
LY_1
  6
CONTINUOUS
 62
     3
  5
75D
 10
-37.60186
 20
0.015596
 30
0.0
  0
VERTEX
  8
LY_1
  6
CONTINUOUS
 62
     3
  5
75E
 10
-37.495323
 20
0.026925
 30
0.0
  0
VERTEX
  8
LY_1
  6
CONTINUOUS
 62
     3
  5
75F
 10
-37.38957
 20
0.042035
 30
0.0
  0
VERTEX
  8
LY_1
  6
CONTINUOUS
 62
     3
  5
760
 10
-37.284852
 20
0.060822
 30
0.0
  0
VERTEX
  8
LY_1
  6
CONTINUOUS
 62
     3
  5
761
 10
-37.181418
 20
0.083178
 30
0.0
  0
VERTEX
  8
LY_1
  6
CONTINUOUS
 62
     3
  5
762
 10
-37.079519
 20
0.108998
 30
0.0
  0
SEQEND
  8
LY_1
  6
CONTINUOUS
 62
     3
  5
763
  0
POLYLINE
  8
LY_1
  6
CONTINUOUS
 62
     3
  5
93
 66
     1
 10
0.0
 20
0.0
 30
0.0
  0
VERTEX
  8
LY_1
  6
CONTINUOUS
 62
     3
  5
764
 10
-32.987117
 20
2.311751
 30
0.0
  0
VERTEX
  8
LY_1
  6
CONTINUOUS
 62
     3
  5
765
 10
-32.979687
 20
2.254269
 30
0.0
  0
VERTEX
  8
LY_1
  6
CONTINUOUS
 62
     3
  5
766
 10
-32.971389
 20
2.196871
 30
0.0
  0
VERTEX
  8
LY_1
  6
CONTINUOUS
 62
     3
  5
767
 10
-32.962235
 20
2.139572
 30
0.0
  0
VERTEX
  8
LY_1
  6
CONTINUOUS
 62
     3
  5
768
 10
-32.952235
 20
2.082386
 30
0.0
  0
VERTEX
  8
LY_1
  6
CONTINUOUS
 62
     3
  5
769
 10
-32.941401
 20
2.025328
 30
0.0
  0
VERTEX
  8
LY_1
  6
CONTINUOUS
 62
     3
  5
76A
 10
-32.929745
 20
1.968414
 30
0.0
  0
VERTEX
  8
LY_1
  6
CONTINUOUS
 62
     3
  5
76B
 10
-32.917276
 20
1.911656
 30
0.0
  0
VERTEX
  8
LY_1
  6
CONTINUOUS
 62
     3
  5
76C
 10
-32.904007
 20
1.855072
 30
0.0
  0
VERTEX
  8
LY_1
  6
CONTINUOUS
 62
     3
  5
76D
 10
-32.889948
 20
1.798674
 30
0.0
  0
VERTEX
  8
LY_1
  6
CONTINUOUS
 62
     3
  5
76E
 10
-32.875111
 20
1.742478
 30
0.0
  0
VERTEX
  8
LY_1
  6
CONTINUOUS
 62
     3
  5
76F
 10
-32.859507
 20
1.686499
 30
0.0
  0
VERTEX
  8
LY_1
  6
CONTINUOUS
 62
     3
  5
770
 10
-32.843147
 20
1.630751
 30
0.0
  0
VERTEX
  8
LY_1
  6
CONTINUOUS
 62
     3
  5
771
 10
-32.826042
 20
1.575249
 30
0.0
  0
VERTEX
  8
LY_1
  6
CONTINUOUS
 62
     3
  5
772
 10
-32.808204
 20
1.520008
 30
0.0
  0
VERTEX
  8
LY_1
  6
CONTINUOUS
 62
     3
  5
773
 10
-32.789643
 20
1.465043
 30
0.0
  0
VERTEX
  8
LY_1
  6
CONTINUOUS
 62
     3
  5
774
 10
-32.77037
 20
1.410368
 30
0.0
  0
VERTEX
  8
LY_1
  6
CONTINUOUS
 62
     3
  5
775
 10
-32.752294
 20
1.361081
 30
0.0
  0
VERTEX
  8
LY_1
  6
CONTINUOUS
 62
     3
  5
776
 10
-32.73362
 20
1.312053
 30
0.0
  0
VERTEX
  8
LY_1
  6
CONTINUOUS
 62
     3
  5
777
 10
-32.714326
 20
1.263294
 30
0.0
  0
VERTEX
  8
LY_1
  6
CONTINUOUS
 62
     3
  5
778
 10
-32.694388
 20
1.214812
 30
0.0
  0
VERTEX
  8
LY_1
  6
CONTINUOUS
 62
     3
  5
779
 10
-32.673783
 20
1.166616
 30
0.0
  0
VERTEX
  8
LY_1
  6
CONTINUOUS
 62
     3
  5
77A
 10
-32.65249
 20
1.118716
 30
0.0
  0
VERTEX
  8
LY_1
  6
CONTINUOUS
 62
     3
  5
77B
 10
-32.630485
 20
1.071119
 30
0.0
  0
VERTEX
  8
LY_1
  6
CONTINUOUS
 62
     3
  5
77C
 10
-32.607745
 20
1.023835
 30
0.0
  0
VERTEX
  8
LY_1
  6
CONTINUOUS
 62
     3
  5
77D
 10
-32.584247
 20
0.976873
 30
0.0
  0
VERTEX
  8
LY_1
  6
CONTINUOUS
 62
     3
  5
77E
 10
-32.55997
 20
0.930242
 30
0.0
  0
VERTEX
  8
LY_1
  6
CONTINUOUS
 62
     3
  5
77F
 10
-32.534889
 20
0.88395
 30
0.0
  0
VERTEX
  8
LY_1
  6
CONTINUOUS
 62
     3
  5
780
 10
-32.508982
 20
0.838007
 30
0.0
  0
VERTEX
  8
LY_1
  6
CONTINUOUS
 62
     3
  5
781
 10
-32.482227
 20
0.792422
 30
0.0
  0
VERTEX
  8
LY_1
  6
CONTINUOUS
 62
     3
  5
782
 10
-32.4546
 20
0.747202
 30
0.0
  0
VERTEX
  8
LY_1
  6
CONTINUOUS
 62
     3
  5
783
 10
-32.426079
 20
0.702358
 30
0.0
  0
VERTEX
  8
LY_1
  6
CONTINUOUS
 62
     3
  5
784
 10
-32.39664
 20
0.657898
 30
0.0
  0
VERTEX
  8
LY_1
  6
CONTINUOUS
 62
     3
  5
785
 10
-32.371751
 20
0.62168
 30
0.0
  0
VERTEX
  8
LY_1
  6
CONTINUOUS
 62
     3
  5
786
 10
-32.346206
 20
0.585816
 30
0.0
  0
VERTEX
  8
LY_1
  6
CONTINUOUS
 62
     3
  5
787
 10
-32.319982
 20
0.550396
 30
0.0
  0
VERTEX
  8
LY_1
  6
CONTINUOUS
 62
     3
  5
788
 10
-32.293059
 20
0.515509
 30
0.0
  0
VERTEX
  8
LY_1
  6
CONTINUOUS
 62
     3
  5
789
 10
-32.265413
 20
0.481246
 30
0.0
  0
VERTEX
  8
LY_1
  6
CONTINUOUS
 62
     3
  5
78A
 10
-32.237023
 20
0.447694
 30
0.0
  0
VERTEX
  8
LY_1
  6
CONTINUOUS
 62
     3
  5
78B
 10
-32.207868
 20
0.414944
 30
0.0
  0
VERTEX
  8
LY_1
  6
CONTINUOUS
 62
     3
  5
78C
 10
-32.177924
 20
0.383084
 30
0.0
  0
VERTEX
  8
LY_1
  6
CONTINUOUS
 62
     3
  5
78D
 10
-32.147171
 20
0.352205
 30
0.0
  0
VERTEX
  8
LY_1
  6
CONTINUOUS
 62
     3
  5
78E
 10
-32.115586
 20
0.322396
 30
0.0
  0
VERTEX
  8
LY_1
  6
CONTINUOUS
 62
     3
  5
78F
 10
-32.083148
 20
0.293745
 30
0.0
  0
VERTEX
  8
LY_1
  6
CONTINUOUS
 62
     3
  5
790
 10
-32.049834
 20
0.266342
 30
0.0
  0
VERTEX
  8
LY_1
  6
CONTINUOUS
 62
     3
  5
791
 10
-32.015623
 20
0.240277
 30
0.0
  0
VERTEX
  8
LY_1
  6
CONTINUOUS
 62
     3
  5
792
 10
-31.980492
 20
0.21564
 30
0.0
  0
VERTEX
  8
LY_1
  6
CONTINUOUS
 62
     3
  5
793
 10
-31.944421
 20
0.192518
 30
0.0
  0
VERTEX
  8
LY_1
  6
CONTINUOUS
 62
     3
  5
794
 10
-31.907386
 20
0.171002
 30
0.0
  0
VERTEX
  8
LY_1
  6
CONTINUOUS
 62
     3
  5
795
 10
-31.845216
 20
0.139634
 30
0.0
  0
VERTEX
  8
LY_1
  6
CONTINUOUS
 62
     3
  5
796
 10
-31.780725
 20
0.112592
 30
0.0
  0
VERTEX
  8
LY_1
  6
CONTINUOUS
 62
     3
  5
797
 10
-31.71419
 20
0.089734
 30
0.0
  0
VERTEX
  8
LY_1
  6
CONTINUOUS
 62
     3
  5
798
 10
-31.645885
 20
0.07092
 30
0.0
  0
VERTEX
  8
LY_1
  6
CONTINUOUS
 62
     3
  5
799
 10
-31.576087
 20
0.056007
 30
0.0
  0
VERTEX
  8
LY_1
  6
CONTINUOUS
 62
     3
  5
79A
 10
-31.50507
 20
0.044854
 30
0.0
  0
VERTEX
  8
LY_1
  6
CONTINUOUS
 62
     3
  5
79B
 10
-31.43311
 20
0.037319
 30
0.0
  0
VERTEX
  8
LY_1
  6
CONTINUOUS
 62
     3
  5
79C
 10
-31.360483
 20
0.033262
 30
0.0
  0
VERTEX
  8
LY_1
  6
CONTINUOUS
 62
     3
  5
79D
 10
-31.287465
 20
0.03254
 30
0.0
  0
VERTEX
  8
LY_1
  6
CONTINUOUS
 62
     3
  5
79E
 10
-31.214331
 20
0.035012
 30
0.0
  0
VERTEX
  8
LY_1
  6
CONTINUOUS
 62
     3
  5
79F
 10
-31.141357
 20
0.040537
 30
0.0
  0
VERTEX
  8
LY_1
  6
CONTINUOUS
 62
     3
  5
7A0
 10
-31.068818
 20
0.048973
 30
0.0
  0
VERTEX
  8
LY_1
  6
CONTINUOUS
 62
     3
  5
7A1
 10
-30.99699
 20
0.060178
 30
0.0
  0
VERTEX
  8
LY_1
  6
CONTINUOUS
 62
     3
  5
7A2
 10
-30.926148
 20
0.074012
 30
0.0
  0
VERTEX
  8
LY_1
  6
CONTINUOUS
 62
     3
  5
7A3
 10
-30.856568
 20
0.090332
 30
0.0
  0
VERTEX
  8
LY_1
  6
CONTINUOUS
 62
     3
  5
7A4
 10
-30.788526
 20
0.108998
 30
0.0
  0
SEQEND
  8
LY_1
  6
CONTINUOUS
 62
     3
  5
7A5
  0
POLYLINE
  8
LY_1
  6
CONTINUOUS
 62
     3
  5
94
 66
     1
 10
0.0
 20
0.0
 30
0.0
  0
VERTEX
  8
LY_1
  6
CONTINUOUS
 62
     3
  5
7A6
 10
51.876116
 20
2.311751
 30
0.0
  0
VERTEX
  8
LY_1
  6
CONTINUOUS
 62
     3
  5
7A7
 10
51.860333
 20
2.252592
 30
0.0
  0
VERTEX
  8
LY_1
  6
CONTINUOUS
 62
     3
  5
7A8
 10
51.843448
 20
2.193686
 30
0.0
  0
VERTEX
  8
LY_1
  6
CONTINUOUS
 62
     3
  5
7A9
 10
51.825465
 20
2.135059
 30
0.0
  0
VERTEX
  8
LY_1
  6
CONTINUOUS
 62
     3
  5
7AA
 10
51.806389
 20
2.076738
 30
0.0
  0
VERTEX
  8
LY_1
  6
CONTINUOUS
 62
     3
  5
7AB
 10
51.786221
 20
2.01875
 30
0.0
  0
VERTEX
  8
LY_1
  6
CONTINUOUS
 62
     3
  5
7AC
 10
51.764968
 20
1.96112
 30
0.0
  0
VERTEX
  8
LY_1
  6
CONTINUOUS
 62
     3
  5
7AD
 10
51.742631
 20
1.903876
 30
0.0
  0
VERTEX
  8
LY_1
  6
CONTINUOUS
 62
     3
  5
7AE
 10
51.719215
 20
1.847043
 30
0.0
  0
VERTEX
  8
LY_1
  6
CONTINUOUS
 62
     3
  5
7AF
 10
51.694723
 20
1.790648
 30
0.0
  0
VERTEX
  8
LY_1
  6
CONTINUOUS
 62
     3
  5
7B0
 10
51.66916
 20
1.734717
 30
0.0
  0
VERTEX
  8
LY_1
  6
CONTINUOUS
 62
     3
  5
7B1
 10
51.642528
 20
1.679277
 30
0.0
  0
VERTEX
  8
LY_1
  6
CONTINUOUS
 62
     3
  5
7B2
 10
51.614832
 20
1.624355
 30
0.0
  0
VERTEX
  8
LY_1
  6
CONTINUOUS
 62
     3
  5
7B3
 10
51.586076
 20
1.569977
 30
0.0
  0
VERTEX
  8
LY_1
  6
CONTINUOUS
 62
     3
  5
7B4
 10
51.556262
 20
1.516168
 30
0.0
  0
VERTEX
  8
LY_1
  6
CONTINUOUS
 62
     3
  5
7B5
 10
51.525395
 20
1.462956
 30
0.0
  0
VERTEX
  8
LY_1
  6
CONTINUOUS
 62
     3
  5
7B6
 10
51.493479
 20
1.410368
 30
0.0
  0
VERTEX
  8
LY_1
  6
CONTINUOUS
 62
     3
  5
7B7
 10
51.459783
 20
1.357293
 30
0.0
  0
VERTEX
  8
LY_1
  6
CONTINUOUS
 62
     3
  5
7B8
 10
51.425009
 20
1.30492
 30
0.0
  0
VERTEX
  8
LY_1
  6
CONTINUOUS
 62
     3
  5
7B9
 10
51.389175
 20
1.253271
 30
0.0
  0
VERTEX
  8
LY_1
  6
CONTINUOUS
 62
     3
  5
7BA
 10
51.352294
 20
1.202367
 30
0.0
  0
VERTEX
  8
LY_1
  6
CONTINUOUS
 62
     3
  5
7BB
 10
51.314382
 20
1.152231
 30
0.0
  0
VERTEX
  8
LY_1
  6
CONTINUOUS
 62
     3
  5
7BC
 10
51.275454
 20
1.102887
 30
0.0
  0
VERTEX
  8
LY_1
  6
CONTINUOUS
 62
     3
  5
7BD
 10
51.235527
 20
1.054356
 30
0.0
  0
VERTEX
  8
LY_1
  6
CONTINUOUS
 62
     3
  5
7BE
 10
51.194615
 20
1.00666
 30
0.0
  0
VERTEX
  8
LY_1
  6
CONTINUOUS
 62
     3
  5
7BF
 10
51.152733
 20
0.959824
 30
0.0
  0
VERTEX
  8
LY_1
  6
CONTINUOUS
 62
     3
  5
7C0
 10
51.109897
 20
0.913868
 30
0.0
  0
VERTEX
  8
LY_1
  6
CONTINUOUS
 62
     3
  5
7C1
 10
51.066123
 20
0.868816
 30
0.0
  0
VERTEX
  8
LY_1
  6
CONTINUOUS
 62
     3
  5
7C2
 10
51.021425
 20
0.82469
 30
0.0
  0
VERTEX
  8
LY_1
  6
CONTINUOUS
 62
     3
  5
7C3
 10
50.97582
 20
0.781513
 30
0.0
  0
VERTEX
  8
LY_1
  6
CONTINUOUS
 62
     3
  5
7C4
 10
50.929322
 20
0.739307
 30
0.0
  0
VERTEX
  8
LY_1
  6
CONTINUOUS
 62
     3
  5
7C5
 10
50.881946
 20
0.698094
 30
0.0
  0
VERTEX
  8
LY_1
  6
CONTINUOUS
 62
     3
  5
7C6
 10
50.833709
 20
0.657898
 30
0.0
  0
VERTEX
  8
LY_1
  6
CONTINUOUS
 62
     3
  5
7C7
 10
50.785084
 20
0.619097
 30
0.0
  0
VERTEX
  8
LY_1
  6
CONTINUOUS
 62
     3
  5
7C8
 10
50.735648
 20
0.581332
 30
0.0
  0
VERTEX
  8
LY_1
  6
CONTINUOUS
 62
     3
  5
7C9
 10
50.685423
 20
0.544621
 30
0.0
  0
VERTEX
  8
LY_1
  6
CONTINUOUS
 62
     3
  5
7CA
 10
50.634428
 20
0.508981
 30
0.0
  0
VERTEX
  8
LY_1
  6
CONTINUOUS
 62
     3
  5
7CB
 10
50.582685
 20
0.474428
 30
0.0
  0
VERTEX
  8
LY_1
  6
CONTINUOUS
 62
     3
  5
7CC
 10
50.530214
 20
0.44098
 30
0.0
  0
VERTEX
  8
LY_1
  6
CONTINUOUS
 62
     3
  5
7CD
 10
50.477036
 20
0.408654
 30
0.0
  0
VERTEX
  8
LY_1
  6
CONTINUOUS
 62
     3
  5
7CE
 10
50.423171
 20
0.377466
 30
0.0
  0
VERTEX
  8
LY_1
  6
CONTINUOUS
 62
     3
  5
7CF
 10
50.368639
 20
0.347434
 30
0.0
  0
VERTEX
  8
LY_1
  6
CONTINUOUS
 62
     3
  5
7D0
 10
50.313462
 20
0.318575
 30
0.0
  0
VERTEX
  8
LY_1
  6
CONTINUOUS
 62
     3
  5
7D1
 10
50.25766
 20
0.290906
 30
0.0
  0
VERTEX
  8
LY_1
  6
CONTINUOUS
 62
     3
  5
7D2
 10
50.201254
 20
0.264443
 30
0.0
  0
VERTEX
  8
LY_1
  6
CONTINUOUS
 62
     3
  5
7D3
 10
50.144263
 20
0.239205
 30
0.0
  0
VERTEX
  8
LY_1
  6
CONTINUOUS
 62
     3
  5
7D4
 10
50.08671
 20
0.215207
 30
0.0
  0
VERTEX
  8
LY_1
  6
CONTINUOUS
 62
     3
  5
7D5
 10
50.028613
 20
0.192467
 30
0.0
  0
VERTEX
  8
LY_1
  6
CONTINUOUS
 62
     3
  5
7D6
 10
49.969995
 20
0.171002
 30
0.0
  0
VERTEX
  8
LY_1
  6
CONTINUOUS
 62
     3
  5
7D7
 10
49.916745
 20
0.152763
 30
0.0
  0
VERTEX
  8
LY_1
  6
CONTINUOUS
 62
     3
  5
7D8
 10
49.863108
 20
0.135565
 30
0.0
  0
VERTEX
  8
LY_1
  6
CONTINUOUS
 62
     3
  5
7D9
 10
49.809108
 20
0.119401
 30
0.0
  0
VERTEX
  8
LY_1
  6
CONTINUOUS
 62
     3
  5
7DA
 10
49.754763
 20
0.104264
 30
0.0
  0
VERTEX
  8
LY_1
  6
CONTINUOUS
 62
     3
  5
7DB
 10
49.700097
 20
0.090147
 30
0.0
  0
VERTEX
  8
LY_1
  6
CONTINUOUS
 62
     3
  5
7DC
 10
49.64513
 20
0.077041
 30
0.0
  0
VERTEX
  8
LY_1
  6
CONTINUOUS
 62
     3
  5
7DD
 10
49.589884
 20
0.06494
 30
0.0
  0
VERTEX
  8
LY_1
  6
CONTINUOUS
 62
     3
  5
7DE
 10
49.534379
 20
0.053835
 30
0.0
  0
VERTEX
  8
LY_1
  6
CONTINUOUS
 62
     3
  5
7DF
 10
49.478637
 20
0.043721
 30
0.0
  0
VERTEX
  8
LY_1
  6
CONTINUOUS
 62
     3
  5
7E0
 10
49.42268
 20
0.034588
 30
0.0
  0
VERTEX
  8
LY_1
  6
CONTINUOUS
 62
     3
  5
7E1
 10
49.366528
 20
0.02643
 30
0.0
  0
VERTEX
  8
LY_1
  6
CONTINUOUS
 62
     3
  5
7E2
 10
49.310203
 20
0.019239
 30
0.0
  0
VERTEX
  8
LY_1
  6
CONTINUOUS
 62
     3
  5
7E3
 10
49.253727
 20
0.013008
 30
0.0
  0
VERTEX
  8
LY_1
  6
CONTINUOUS
 62
     3
  5
7E4
 10
49.19712
 20
0.00773
 30
0.0
  0
VERTEX
  8
LY_1
  6
CONTINUOUS
 62
     3
  5
7E5
 10
49.140404
 20
0.003396
 30
0.0
  0
VERTEX
  8
LY_1
  6
CONTINUOUS
 62
     3
  5
7E6
 10
49.0836
 20
0.0
 30
0.0
  0
SEQEND
  8
LY_1
  6
CONTINUOUS
 62
     3
  5
7E7
  0
POLYLINE
  8
LY_1
  6
CONTINUOUS
 62
     3
  5
95
 66
     1
 10
0.0
 20
0.0
 30
0.0
  0
VERTEX
  8
LY_1
  6
CONTINUOUS
 62
     3
  5
7E8
 10
49.925213
 20
2.311751
 30
0.0
  0
VERTEX
  8
LY_1
  6
CONTINUOUS
 62
     3
  5
7E9
 10
49.90943
 20
2.252592
 30
0.0
  0
VERTEX
  8
LY_1
  6
CONTINUOUS
 62
     3
  5
7EA
 10
49.892545
 20
2.193686
 30
0.0
  0
VERTEX
  8
LY_1
  6
CONTINUOUS
 62
     3
  5
7EB
 10
49.874562
 20
2.135059
 30
0.0
  0
VERTEX
  8
LY_1
  6
CONTINUOUS
 62
     3
  5
7EC
 10
49.855485
 20
2.076738
 30
0.0
  0
VERTEX
  8
LY_1
  6
CONTINUOUS
 62
     3
  5
7ED
 10
49.835318
 20
2.01875
 30
0.0
  0
VERTEX
  8
LY_1
  6
CONTINUOUS
 62
     3
  5
7EE
 10
49.814064
 20
1.96112
 30
0.0
  0
VERTEX
  8
LY_1
  6
CONTINUOUS
 62
     3
  5
7EF
 10
49.791728
 20
1.903876
 30
0.0
  0
VERTEX
  8
LY_1
  6
CONTINUOUS
 62
     3
  5
7F0
 10
49.768312
 20
1.847043
 30
0.0
  0
VERTEX
  8
LY_1
  6
CONTINUOUS
 62
     3
  5
7F1
 10
49.74382
 20
1.790648
 30
0.0
  0
VERTEX
  8
LY_1
  6
CONTINUOUS
 62
     3
  5
7F2
 10
49.718257
 20
1.734717
 30
0.0
  0
VERTEX
  8
LY_1
  6
CONTINUOUS
 62
     3
  5
7F3
 10
49.691625
 20
1.679277
 30
0.0
  0
VERTEX
  8
LY_1
  6
CONTINUOUS
 62
     3
  5
7F4
 10
49.663929
 20
1.624355
 30
0.0
  0
VERTEX
  8
LY_1
  6
CONTINUOUS
 62
     3
  5
7F5
 10
49.635172
 20
1.569977
 30
0.0
  0
VERTEX
  8
LY_1
  6
CONTINUOUS
 62
     3
  5
7F6
 10
49.605359
 20
1.516168
 30
0.0
  0
VERTEX
  8
LY_1
  6
CONTINUOUS
 62
     3
  5
7F7
 10
49.574492
 20
1.462956
 30
0.0
  0
VERTEX
  8
LY_1
  6
CONTINUOUS
 62
     3
  5
7F8
 10
49.542576
 20
1.410368
 30
0.0
  0
VERTEX
  8
LY_1
  6
CONTINUOUS
 62
     3
  5
7F9
 10
49.508879
 20
1.357293
 30
0.0
  0
VERTEX
  8
LY_1
  6
CONTINUOUS
 62
     3
  5
7FA
 10
49.474106
 20
1.30492
 30
0.0
  0
VERTEX
  8
LY_1
  6
CONTINUOUS
 62
     3
  5
7FB
 10
49.438271
 20
1.253271
 30
0.0
  0
VERTEX
  8
LY_1
  6
CONTINUOUS
 62
     3
  5
7FC
 10
49.40139
 20
1.202367
 30
0.0
  0
VERTEX
  8
LY_1
  6
CONTINUOUS
 62
     3
  5
7FD
 10
49.363478
 20
1.152231
 30
0.0
  0
VERTEX
  8
LY_1
  6
CONTINUOUS
 62
     3
  5
7FE
 10
49.324551
 20
1.102887
 30
0.0
  0
VERTEX
  8
LY_1
  6
CONTINUOUS
 62
     3
  5
7FF
 10
49.284624
 20
1.054356
 30
0.0
  0
VERTEX
  8
LY_1
  6
CONTINUOUS
 62
     3
  5
800
 10
49.243711
 20
1.00666
 30
0.0
  0
VERTEX
  8
LY_1
  6
CONTINUOUS
 62
     3
  5
801
 10
49.20183
 20
0.959824
 30
0.0
  0
VERTEX
  8
LY_1
  6
CONTINUOUS
 62
     3
  5
802
 10
49.158994
 20
0.913868
 30
0.0
  0
VERTEX
  8
LY_1
  6
CONTINUOUS
 62
     3
  5
803
 10
49.11522
 20
0.868816
 30
0.0
  0
VERTEX
  8
LY_1
  6
CONTINUOUS
 62
     3
  5
804
 10
49.070522
 20
0.82469
 30
0.0
  0
VERTEX
  8
LY_1
  6
CONTINUOUS
 62
     3
  5
805
 10
49.024917
 20
0.781513
 30
0.0
  0
VERTEX
  8
LY_1
  6
CONTINUOUS
 62
     3
  5
806
 10
48.978418
 20
0.739307
 30
0.0
  0
VERTEX
  8
LY_1
  6
CONTINUOUS
 62
     3
  5
807
 10
48.931043
 20
0.698094
 30
0.0
  0
VERTEX
  8
LY_1
  6
CONTINUOUS
 62
     3
  5
808
 10
48.882806
 20
0.657898
 30
0.0
  0
VERTEX
  8
LY_1
  6
CONTINUOUS
 62
     3
  5
809
 10
48.83418
 20
0.619097
 30
0.0
  0
VERTEX
  8
LY_1
  6
CONTINUOUS
 62
     3
  5
80A
 10
48.784745
 20
0.581332
 30
0.0
  0
VERTEX
  8
LY_1
  6
CONTINUOUS
 62
     3
  5
80B
 10
48.73452
 20
0.544621
 30
0.0
  0
VERTEX
  8
LY_1
  6
CONTINUOUS
 62
     3
  5
80C
 10
48.683525
 20
0.508981
 30
0.0
  0
VERTEX
  8
LY_1
  6
CONTINUOUS
 62
     3
  5
80D
 10
48.631782
 20
0.474428
 30
0.0
  0
VERTEX
  8
LY_1
  6
CONTINUOUS
 62
     3
  5
80E
 10
48.579311
 20
0.44098
 30
0.0
  0
VERTEX
  8
LY_1
  6
CONTINUOUS
 62
     3
  5
80F
 10
48.526133
 20
0.408654
 30
0.0
  0
VERTEX
  8
LY_1
  6
CONTINUOUS
 62
     3
  5
810
 10
48.472268
 20
0.377466
 30
0.0
  0
VERTEX
  8
LY_1
  6
CONTINUOUS
 62
     3
  5
811
 10
48.417736
 20
0.347434
 30
0.0
  0
VERTEX
  8
LY_1
  6
CONTINUOUS
 62
     3
  5
812
 10
48.362559
 20
0.318575
 30
0.0
  0
VERTEX
  8
LY_1
  6
CONTINUOUS
 62
     3
  5
813
 10
48.306757
 20
0.290906
 30
0.0
  0
VERTEX
  8
LY_1
  6
CONTINUOUS
 62
     3
  5
814
 10
48.25035
 20
0.264443
 30
0.0
  0
VERTEX
  8
LY_1
  6
CONTINUOUS
 62
     3
  5
815
 10
48.19336
 20
0.239205
 30
0.0
  0
VERTEX
  8
LY_1
  6
CONTINUOUS
 62
     3
  5
816
 10
48.135806
 20
0.215207
 30
0.0
  0
VERTEX
  8
LY_1
  6
CONTINUOUS
 62
     3
  5
817
 10
48.07771
 20
0.192467
 30
0.0
  0
VERTEX
  8
LY_1
  6
CONTINUOUS
 62
     3
  5
818
 10
48.019092
 20
0.171002
 30
0.0
  0
VERTEX
  8
LY_1
  6
CONTINUOUS
 62
     3
  5
819
 10
47.900794
 20
0.132054
 30
0.0
  0
VERTEX
  8
LY_1
  6
CONTINUOUS
 62
     3
  5
81A
 10
47.780734
 20
0.098158
 30
0.0
  0
VERTEX
  8
LY_1
  6
CONTINUOUS
 62
     3
  5
81B
 10
47.659143
 20
0.069234
 30
0.0
  0
VERTEX
  8
LY_1
  6
CONTINUOUS
 62
     3
  5
81C
 10
47.536251
 20
0.0452
 30
0.0
  0
VERTEX
  8
LY_1
  6
CONTINUOUS
 62
     3
  5
81D
 10
47.412288
 20
0.025976
 30
0.0
  0
VERTEX
  8
LY_1
  6
CONTINUOUS
 62
     3
  5
81E
 10
47.287484
 20
0.011483
 30
0.0
  0
VERTEX
  8
LY_1
  6
CONTINUOUS
 62
     3
  5
81F
 10
47.16207
 20
0.001639
 30
0.0
  0
VERTEX
  8
LY_1
  6
CONTINUOUS
 62
     3
  5
820
 10
47.036277
 20
-0.003636
 30
0.0
  0
VERTEX
  8
LY_1
  6
CONTINUOUS
 62
     3
  5
821
 10
46.910333
 20
-0.004422
 30
0.0
  0
VERTEX
  8
LY_1
  6
CONTINUOUS
 62
     3
  5
822
 10
46.784471
 20
-0.0008
 30
0.0
  0
VERTEX
  8
LY_1
  6
CONTINUOUS
 62
     3
  5
823
 10
46.65892
 20
0.007149
 30
0.0
  0
VERTEX
  8
LY_1
  6
CONTINUOUS
 62
     3
  5
824
 10
46.53391
 20
0.019346
 30
0.0
  0
VERTEX
  8
LY_1
  6
CONTINUOUS
 62
     3
  5
825
 10
46.409672
 20
0.03571
 30
0.0
  0
VERTEX
  8
LY_1
  6
CONTINUOUS
 62
     3
  5
826
 10
46.286437
 20
0.05616
 30
0.0
  0
VERTEX
  8
LY_1
  6
CONTINUOUS
 62
     3
  5
827
 10
46.164434
 20
0.080616
 30
0.0
  0
VERTEX
  8
LY_1
  6
CONTINUOUS
 62
     3
  5
828
 10
46.043893
 20
0.108998
 30
0.0
  0
SEQEND
  8
LY_1
  6
CONTINUOUS
 62
     3
  5
829
  0
POLYLINE
  8
LY_1
  6
CONTINUOUS
 62
     3
  5
96
 66
     1
 10
0.0
 20
0.0
 30
0.0
  0
VERTEX
  8
LY_1
  6
CONTINUOUS
 62
     3
  5
82A
 10
45.929656
 20
2.311751
 30
0.0
  0
VERTEX
  8
LY_1
  6
CONTINUOUS
 62
     3
  5
82B
 10
45.917047
 20
2.253202
 30
0.0
  0
VERTEX
  8
LY_1
  6
CONTINUOUS
 62
     3
  5
82C
 10
45.903385
 20
2.194852
 30
0.0
  0
VERTEX
  8
LY_1
  6
CONTINUOUS
 62
     3
  5
82D
 10
45.888677
 20
2.136722
 30
0.0
  0
VERTEX
  8
LY_1
  6
CONTINUOUS
 62
     3
  5
82E
 10
45.87293
 20
2.078833
 30
0.0
  0
VERTEX
  8
LY_1
  6
CONTINUOUS
 62
     3
  5
82F
 10
45.85615
 20
2.021204
 30
0.0
  0
VERTEX
  8
LY_1
  6
CONTINUOUS
 62
     3
  5
830
 10
45.838344
 20
1.963857
 30
0.0
  0
VERTEX
  8
LY_1
  6
CONTINUOUS
 62
     3
  5
831
 10
45.819518
 20
1.906812
 30
0.0
  0
VERTEX
  8
LY_1
  6
CONTINUOUS
 62
     3
  5
832
 10
45.799679
 20
1.850089
 30
0.0
  0
VERTEX
  8
LY_1
  6
CONTINUOUS
 62
     3
  5
833
 10
45.778833
 20
1.793708
 30
0.0
  0
VERTEX
  8
LY_1
  6
CONTINUOUS
 62
     3
  5
834
 10
45.756987
 20
1.737692
 30
0.0
  0
VERTEX
  8
LY_1
  6
CONTINUOUS
 62
     3
  5
835
 10
45.734147
 20
1.682058
 30
0.0
  0
VERTEX
  8
LY_1
  6
CONTINUOUS
 62
     3
  5
836
 10
45.71032
 20
1.62683
 30
0.0
  0
VERTEX
  8
LY_1
  6
CONTINUOUS
 62
     3
  5
837
 10
45.685513
 20
1.572026
 30
0.0
  0
VERTEX
  8
LY_1
  6
CONTINUOUS
 62
     3
  5
838
 10
45.659731
 20
1.517667
 30
0.0
  0
VERTEX
  8
LY_1
  6
CONTINUOUS
 62
     3
  5
839
 10
45.632982
 20
1.463774
 30
0.0
  0
VERTEX
  8
LY_1
  6
CONTINUOUS
 62
     3
  5
83A
 10
45.605272
 20
1.410368
 30
0.0
  0
VERTEX
  8
LY_1
  6
CONTINUOUS
 62
     3
  5
83B
 10
45.577226
 20
1.35859
 30
0.0
  0
VERTEX
  8
LY_1
  6
CONTINUOUS
 62
     3
  5
83C
 10
45.548265
 20
1.307323
 30
0.0
  0
VERTEX
  8
LY_1
  6
CONTINUOUS
 62
     3
  5
83D
 10
45.518387
 20
1.256594
 30
0.0
  0
VERTEX
  8
LY_1
  6
CONTINUOUS
 62
     3
  5
83E
 10
45.487591
 20
1.206429
 30
0.0
  0
VERTEX
  8
LY_1
  6
CONTINUOUS
 62
     3
  5
83F
 10
45.455875
 20
1.156854
 30
0.0
  0
VERTEX
  8
LY_1
  6
CONTINUOUS
 62
     3
  5
840
 10
45.423238
 20
1.107894
 30
0.0
  0
VERTEX
  8
LY_1
  6
CONTINUOUS
 62
     3
  5
841
 10
45.38968
 20
1.059576
 30
0.0
  0
VERTEX
  8
LY_1
  6
CONTINUOUS
 62
     3
  5
842
 10
45.355198
 20
1.011926
 30
0.0
  0
VERTEX
  8
LY_1
  6
CONTINUOUS
 62
     3
  5
843
 10
45.319791
 20
0.96497
 30
0.0
  0
VERTEX
  8
LY_1
  6
CONTINUOUS
 62
     3
  5
844
 10
45.283459
 20
0.918734
 30
0.0
  0
VERTEX
  8
LY_1
  6
CONTINUOUS
 62
     3
  5
845
 10
45.246199
 20
0.873244
 30
0.0
  0
VERTEX
  8
LY_1
  6
CONTINUOUS
 62
     3
  5
846
 10
45.208011
 20
0.828526
 30
0.0
  0
VERTEX
  8
LY_1
  6
CONTINUOUS
 62
     3
  5
847
 10
45.168892
 20
0.784606
 30
0.0
  0
VERTEX
  8
LY_1
  6
CONTINUOUS
 62
     3
  5
848
 10
45.128843
 20
0.741511
 30
0.0
  0
VERTEX
  8
LY_1
  6
CONTINUOUS
 62
     3
  5
849
 10
45.087861
 20
0.699266
 30
0.0
  0
VERTEX
  8
LY_1
  6
CONTINUOUS
 62
     3
  5
84A
 10
45.045946
 20
0.657898
 30
0.0
  0
VERTEX
  8
LY_1
  6
CONTINUOUS
 62
     3
  5
84B
 10
45.005788
 20
0.619922
 30
0.0
  0
VERTEX
  8
LY_1
  6
CONTINUOUS
 62
     3
  5
84C
 10
44.96482
 20
0.582778
 30
0.0
  0
VERTEX
  8
LY_1
  6
CONTINUOUS
 62
     3
  5
84D
 10
44.923056
 20
0.546502
 30
0.0
  0
VERTEX
  8
LY_1
  6
CONTINUOUS
 62
     3
  5
84E
 10
44.88051
 20
0.511133
 30
0.0
  0
VERTEX
  8
LY_1
  6
CONTINUOUS
 62
     3
  5
84F
 10
44.837194
 20
0.476707
 30
0.0
  0
VERTEX
  8
LY_1
  6
CONTINUOUS
 62
     3
  5
850
 10
44.793122
 20
0.443262
 30
0.0
  0
VERTEX
  8
LY_1
  6
CONTINUOUS
 62
     3
  5
851
 10
44.748307
 20
0.410835
 30
0.0
  0
VERTEX
  8
LY_1
  6
CONTINUOUS
 62
     3
  5
852
 10
44.702763
 20
0.379465
 30
0.0
  0
VERTEX
  8
LY_1
  6
CONTINUOUS
 62
     3
  5
853
 10
44.656502
 20
0.349187
 30
0.0
  0
VERTEX
  8
LY_1
  6
CONTINUOUS
 62
     3
  5
854
 10
44.609537
 20
0.320041
 30
0.0
  0
VERTEX
  8
LY_1
  6
CONTINUOUS
 62
     3
  5
855
 10
44.561883
 20
0.292062
 30
0.0
  0
VERTEX
  8
LY_1
  6
CONTINUOUS
 62
     3
  5
856
 10
44.513552
 20
0.265289
 30
0.0
  0
VERTEX
  8
LY_1
  6
CONTINUOUS
 62
     3
  5
857
 10
44.464557
 20
0.239759
 30
0.0
  0
VERTEX
  8
LY_1
  6
CONTINUOUS
 62
     3
  5
858
 10
44.414912
 20
0.21551
 30
0.0
  0
VERTEX
  8
LY_1
  6
CONTINUOUS
 62
     3
  5
859
 10
44.36463
 20
0.192578
 30
0.0
  0
VERTEX
  8
LY_1
  6
CONTINUOUS
 62
     3
  5
85A
 10
44.313725
 20
0.171002
 30
0.0
  0
VERTEX
  8
LY_1
  6
CONTINUOUS
 62
     3
  5
85B
 10
44.215066
 20
0.133713
 30
0.0
  0
VERTEX
  8
LY_1
  6
CONTINUOUS
 62
     3
  5
85C
 10
44.114441
 20
0.101374
 30
0.0
  0
VERTEX
  8
LY_1
  6
CONTINUOUS
 62
     3
  5
85D
 10
44.012099
 20
0.073881
 30
0.0
  0
VERTEX
  8
LY_1
  6
CONTINUOUS
 62
     3
  5
85E
 10
43.90829
 20
0.051126
 30
0.0
  0
VERTEX
  8
LY_1
  6
CONTINUOUS
 62
     3
  5
85F
 10
43.803265
 20
0.033003
 30
0.0
  0
VERTEX
  8
LY_1
  6
CONTINUOUS
 62
     3
  5
860
 10
43.697274
 20
0.019407
 30
0.0
  0
VERTEX
  8
LY_1
  6
CONTINUOUS
 62
     3
  5
861
 10
43.590566
 20
0.01023
 30
0.0
  0
VERTEX
  8
LY_1
  6
CONTINUOUS
 62
     3
  5
862
 10
43.483392
 20
0.005367
 30
0.0
  0
VERTEX
  8
LY_1
  6
CONTINUOUS
 62
     3
  5
863
 10
43.376002
 20
0.004711
 30
0.0
  0
VERTEX
  8
LY_1
  6
CONTINUOUS
 62
     3
  5
864
 10
43.268646
 20
0.008156
 30
0.0
  0
VERTEX
  8
LY_1
  6
CONTINUOUS
 62
     3
  5
865
 10
43.161574
 20
0.015596
 30
0.0
  0
VERTEX
  8
LY_1
  6
CONTINUOUS
 62
     3
  5
866
 10
43.055036
 20
0.026925
 30
0.0
  0
VERTEX
  8
LY_1
  6
CONTINUOUS
 62
     3
  5
867
 10
42.949283
 20
0.042035
 30
0.0
  0
VERTEX
  8
LY_1
  6
CONTINUOUS
 62
     3
  5
868
 10
42.844565
 20
0.060822
 30
0.0
  0
VERTEX
  8
LY_1
  6
CONTINUOUS
 62
     3
  5
869
 10
42.741131
 20
0.083178
 30
0.0
  0
VERTEX
  8
LY_1
  6
CONTINUOUS
 62
     3
  5
86A
 10
42.639232
 20
0.108998
 30
0.0
  0
SEQEND
  8
LY_1
  6
CONTINUOUS
 62
     3
  5
86B
  0
POLYLINE
  8
LY_1
  6
CONTINUOUS
 62
     3
  5
97
 66
     1
 10
0.0
 20
0.0
 30
0.0
  0
VERTEX
  8
LY_1
  6
CONTINUOUS
 62
     3
  5
86C
 10
40.373954
 20
2.311751
 30
0.0
  0
VERTEX
  8
LY_1
  6
CONTINUOUS
 62
     3
  5
86D
 10
40.361344
 20
2.253202
 30
0.0
  0
VERTEX
  8
LY_1
  6
CONTINUOUS
 62
     3
  5
86E
 10
40.347682
 20
2.194852
 30
0.0
  0
VERTEX
  8
LY_1
  6
CONTINUOUS
 62
     3
  5
86F
 10
40.332975
 20
2.136722
 30
0.0
  0
VERTEX
  8
LY_1
  6
CONTINUOUS
 62
     3
  5
870
 10
40.317228
 20
2.078833
 30
0.0
  0
VERTEX
  8
LY_1
  6
CONTINUOUS
 62
     3
  5
871
 10
40.300448
 20
2.021204
 30
0.0
  0
VERTEX
  8
LY_1
  6
CONTINUOUS
 62
     3
  5
872
 10
40.282641
 20
1.963857
 30
0.0
  0
VERTEX
  8
LY_1
  6
CONTINUOUS
 62
     3
  5
873
 10
40.263815
 20
1.906812
 30
0.0
  0
VERTEX
  8
LY_1
  6
CONTINUOUS
 62
     3
  5
874
 10
40.243976
 20
1.850089
 30
0.0
  0
VERTEX
  8
LY_1
  6
CONTINUOUS
 62
     3
  5
875
 10
40.22313
 20
1.793708
 30
0.0
  0
VERTEX
  8
LY_1
  6
CONTINUOUS
 62
     3
  5
876
 10
40.201284
 20
1.737692
 30
0.0
  0
VERTEX
  8
LY_1
  6
CONTINUOUS
 62
     3
  5
877
 10
40.178445
 20
1.682058
 30
0.0
  0
VERTEX
  8
LY_1
  6
CONTINUOUS
 62
     3
  5
878
 10
40.154618
 20
1.62683
 30
0.0
  0
VERTEX
  8
LY_1
  6
CONTINUOUS
 62
     3
  5
879
 10
40.12981
 20
1.572026
 30
0.0
  0
VERTEX
  8
LY_1
  6
CONTINUOUS
 62
     3
  5
87A
 10
40.104029
 20
1.517667
 30
0.0
  0
VERTEX
  8
LY_1
  6
CONTINUOUS
 62
     3
  5
87B
 10
40.07728
 20
1.463774
 30
0.0
  0
VERTEX
  8
LY_1
  6
CONTINUOUS
 62
     3
  5
87C
 10
40.04957
 20
1.410368
 30
0.0
  0
VERTEX
  8
LY_1
  6
CONTINUOUS
 62
     3
  5
87D
 10
40.021524
 20
1.35859
 30
0.0
  0
VERTEX
  8
LY_1
  6
CONTINUOUS
 62
     3
  5
87E
 10
39.992563
 20
1.307323
 30
0.0
  0
VERTEX
  8
LY_1
  6
CONTINUOUS
 62
     3
  5
87F
 10
39.962685
 20
1.256594
 30
0.0
  0
VERTEX
  8
LY_1
  6
CONTINUOUS
 62
     3
  5
880
 10
39.931888
 20
1.206429
 30
0.0
  0
VERTEX
  8
LY_1
  6
CONTINUOUS
 62
     3
  5
881
 10
39.900173
 20
1.156854
 30
0.0
  0
VERTEX
  8
LY_1
  6
CONTINUOUS
 62
     3
  5
882
 10
39.867536
 20
1.107894
 30
0.0
  0
VERTEX
  8
LY_1
  6
CONTINUOUS
 62
     3
  5
883
 10
39.833978
 20
1.059576
 30
0.0
  0
VERTEX
  8
LY_1
  6
CONTINUOUS
 62
     3
  5
884
 10
39.799496
 20
1.011926
 30
0.0
  0
VERTEX
  8
LY_1
  6
CONTINUOUS
 62
     3
  5
885
 10
39.764089
 20
0.96497
 30
0.0
  0
VERTEX
  8
LY_1
  6
CONTINUOUS
 62
     3
  5
886
 10
39.727756
 20
0.918734
 30
0.0
  0
VERTEX
  8
LY_1
  6
CONTINUOUS
 62
     3
  5
887
 10
39.690497
 20
0.873244
 30
0.0
  0
VERTEX
  8
LY_1
  6
CONTINUOUS
 62
     3
  5
888
 10
39.652308
 20
0.828526
 30
0.0
  0
VERTEX
  8
LY_1
  6
CONTINUOUS
 62
     3
  5
889
 10
39.61319
 20
0.784606
 30
0.0
  0
VERTEX
  8
LY_1
  6
CONTINUOUS
 62
     3
  5
88A
 10
39.573141
 20
0.741511
 30
0.0
  0
VERTEX
  8
LY_1
  6
CONTINUOUS
 62
     3
  5
88B
 10
39.532159
 20
0.699266
 30
0.0
  0
VERTEX
  8
LY_1
  6
CONTINUOUS
 62
     3
  5
88C
 10
39.490244
 20
0.657898
 30
0.0
  0
VERTEX
  8
LY_1
  6
CONTINUOUS
 62
     3
  5
88D
 10
39.450085
 20
0.619922
 30
0.0
  0
VERTEX
  8
LY_1
  6
CONTINUOUS
 62
     3
  5
88E
 10
39.409118
 20
0.582778
 30
0.0
  0
VERTEX
  8
LY_1
  6
CONTINUOUS
 62
     3
  5
88F
 10
39.367354
 20
0.546502
 30
0.0
  0
VERTEX
  8
LY_1
  6
CONTINUOUS
 62
     3
  5
890
 10
39.324808
 20
0.511133
 30
0.0
  0
VERTEX
  8
LY_1
  6
CONTINUOUS
 62
     3
  5
891
 10
39.281492
 20
0.476707
 30
0.0
  0
VERTEX
  8
LY_1
  6
CONTINUOUS
 62
     3
  5
892
 10
39.23742
 20
0.443262
 30
0.0
  0
VERTEX
  8
LY_1
  6
CONTINUOUS
 62
     3
  5
893
 10
39.192605
 20
0.410835
 30
0.0
  0
VERTEX
  8
LY_1
  6
CONTINUOUS
 62
     3
  5
894
 10
39.14706
 20
0.379465
 30
0.0
  0
VERTEX
  8
LY_1
  6
CONTINUOUS
 62
     3
  5
895
 10
39.100799
 20
0.349187
 30
0.0
  0
VERTEX
  8
LY_1
  6
CONTINUOUS
 62
     3
  5
896
 10
39.053835
 20
0.320041
 30
0.0
  0
VERTEX
  8
LY_1
  6
CONTINUOUS
 62
     3
  5
897
 10
39.006181
 20
0.292062
 30
0.0
  0
VERTEX
  8
LY_1
  6
CONTINUOUS
 62
     3
  5
898
 10
38.957849
 20
0.265289
 30
0.0
  0
VERTEX
  8
LY_1
  6
CONTINUOUS
 62
     3
  5
899
 10
38.908855
 20
0.239759
 30
0.0
  0
VERTEX
  8
LY_1
  6
CONTINUOUS
 62
     3
  5
89A
 10
38.85921
 20
0.21551
 30
0.0
  0
VERTEX
  8
LY_1
  6
CONTINUOUS
 62
     3
  5
89B
 10
38.808928
 20
0.192578
 30
0.0
  0
VERTEX
  8
LY_1
  6
CONTINUOUS
 62
     3
  5
89C
 10
38.758022
 20
0.171002
 30
0.0
  0
VERTEX
  8
LY_1
  6
CONTINUOUS
 62
     3
  5
89D
 10
38.659364
 20
0.133713
 30
0.0
  0
VERTEX
  8
LY_1
  6
CONTINUOUS
 62
     3
  5
89E
 10
38.558739
 20
0.101374
 30
0.0
  0
VERTEX
  8
LY_1
  6
CONTINUOUS
 62
     3
  5
89F
 10
38.456397
 20
0.073881
 30
0.0
  0
VERTEX
  8
LY_1
  6
CONTINUOUS
 62
     3
  5
8A0
 10
38.352588
 20
0.051126
 30
0.0
  0
VERTEX
  8
LY_1
  6
CONTINUOUS
 62
     3
  5
8A1
 10
38.247563
 20
0.033003
 30
0.0
  0
VERTEX
  8
LY_1
  6
CONTINUOUS
 62
     3
  5
8A2
 10
38.141571
 20
0.019407
 30
0.0
  0
VERTEX
  8
LY_1
  6
CONTINUOUS
 62
     3
  5
8A3
 10
38.034863
 20
0.01023
 30
0.0
  0
VERTEX
  8
LY_1
  6
CONTINUOUS
 62
     3
  5
8A4
 10
37.927689
 20
0.005367
 30
0.0
  0
VERTEX
  8
LY_1
  6
CONTINUOUS
 62
     3
  5
8A5
 10
37.820299
 20
0.004711
 30
0.0
  0
VERTEX
  8
LY_1
  6
CONTINUOUS
 62
     3
  5
8A6
 10
37.712943
 20
0.008156
 30
0.0
  0
VERTEX
  8
LY_1
  6
CONTINUOUS
 62
     3
  5
8A7
 10
37.605872
 20
0.015596
 30
0.0
  0
VERTEX
  8
LY_1
  6
CONTINUOUS
 62
     3
  5
8A8
 10
37.499334
 20
0.026925
 30
0.0
  0
VERTEX
  8
LY_1
  6
CONTINUOUS
 62
     3
  5
8A9
 10
37.393581
 20
0.042035
 30
0.0
  0
VERTEX
  8
LY_1
  6
CONTINUOUS
 62
     3
  5
8AA
 10
37.288863
 20
0.060822
 30
0.0
  0
VERTEX
  8
LY_1
  6
CONTINUOUS
 62
     3
  5
8AB
 10
37.185429
 20
0.083178
 30
0.0
  0
VERTEX
  8
LY_1
  6
CONTINUOUS
 62
     3
  5
8AC
 10
37.08353
 20
0.108998
 30
0.0
  0
SEQEND
  8
LY_1
  6
CONTINUOUS
 62
     3
  5
8AD
  0
POLYLINE
  8
LY_1
  6
CONTINUOUS
 62
     3
  5
98
 66
     1
 10
0.0
 20
0.0
 30
0.0
  0
VERTEX
  8
LY_1
  6
CONTINUOUS
 62
     3
  5
8AE
 10
32.991128
 20
2.311751
 30
0.0
  0
VERTEX
  8
LY_1
  6
CONTINUOUS
 62
     3
  5
8AF
 10
32.983698
 20
2.254269
 30
0.0
  0
VERTEX
  8
LY_1
  6
CONTINUOUS
 62
     3
  5
8B0
 10
32.9754
 20
2.196871
 30
0.0
  0
VERTEX
  8
LY_1
  6
CONTINUOUS
 62
     3
  5
8B1
 10
32.966246
 20
2.139572
 30
0.0
  0
VERTEX
  8
LY_1
  6
CONTINUOUS
 62
     3
  5
8B2
 10
32.956246
 20
2.082386
 30
0.0
  0
VERTEX
  8
LY_1
  6
CONTINUOUS
 62
     3
  5
8B3
 10
32.945412
 20
2.025328
 30
0.0
  0
VERTEX
  8
LY_1
  6
CONTINUOUS
 62
     3
  5
8B4
 10
32.933756
 20
1.968414
 30
0.0
  0
VERTEX
  8
LY_1
  6
CONTINUOUS
 62
     3
  5
8B5
 10
32.921287
 20
1.911656
 30
0.0
  0
VERTEX
  8
LY_1
  6
CONTINUOUS
 62
     3
  5
8B6
 10
32.908018
 20
1.855072
 30
0.0
  0
VERTEX
  8
LY_1
  6
CONTINUOUS
 62
     3
  5
8B7
 10
32.893959
 20
1.798674
 30
0.0
  0
VERTEX
  8
LY_1
  6
CONTINUOUS
 62
     3
  5
8B8
 10
32.879123
 20
1.742478
 30
0.0
  0
VERTEX
  8
LY_1
  6
CONTINUOUS
 62
     3
  5
8B9
 10
32.863518
 20
1.686499
 30
0.0
  0
VERTEX
  8
LY_1
  6
CONTINUOUS
 62
     3
  5
8BA
 10
32.847158
 20
1.630751
 30
0.0
  0
VERTEX
  8
LY_1
  6
CONTINUOUS
 62
     3
  5
8BB
 10
32.830053
 20
1.575249
 30
0.0
  0
VERTEX
  8
LY_1
  6
CONTINUOUS
 62
     3
  5
8BC
 10
32.812215
 20
1.520008
 30
0.0
  0
VERTEX
  8
LY_1
  6
CONTINUOUS
 62
     3
  5
8BD
 10
32.793654
 20
1.465043
 30
0.0
  0
VERTEX
  8
LY_1
  6
CONTINUOUS
 62
     3
  5
8BE
 10
32.774381
 20
1.410368
 30
0.0
  0
VERTEX
  8
LY_1
  6
CONTINUOUS
 62
     3
  5
8BF
 10
32.756305
 20
1.361081
 30
0.0
  0
VERTEX
  8
LY_1
  6
CONTINUOUS
 62
     3
  5
8C0
 10
32.737631
 20
1.312053
 30
0.0
  0
VERTEX
  8
LY_1
  6
CONTINUOUS
 62
     3
  5
8C1
 10
32.718337
 20
1.263294
 30
0.0
  0
VERTEX
  8
LY_1
  6
CONTINUOUS
 62
     3
  5
8C2
 10
32.698399
 20
1.214812
 30
0.0
  0
VERTEX
  8
LY_1
  6
CONTINUOUS
 62
     3
  5
8C3
 10
32.677795
 20
1.166616
 30
0.0
  0
VERTEX
  8
LY_1
  6
CONTINUOUS
 62
     3
  5
8C4
 10
32.656501
 20
1.118716
 30
0.0
  0
VERTEX
  8
LY_1
  6
CONTINUOUS
 62
     3
  5
8C5
 10
32.634496
 20
1.071119
 30
0.0
  0
VERTEX
  8
LY_1
  6
CONTINUOUS
 62
     3
  5
8C6
 10
32.611756
 20
1.023835
 30
0.0
  0
VERTEX
  8
LY_1
  6
CONTINUOUS
 62
     3
  5
8C7
 10
32.588259
 20
0.976873
 30
0.0
  0
VERTEX
  8
LY_1
  6
CONTINUOUS
 62
     3
  5
8C8
 10
32.563981
 20
0.930242
 30
0.0
  0
VERTEX
  8
LY_1
  6
CONTINUOUS
 62
     3
  5
8C9
 10
32.5389
 20
0.88395
 30
0.0
  0
VERTEX
  8
LY_1
  6
CONTINUOUS
 62
     3
  5
8CA
 10
32.512993
 20
0.838007
 30
0.0
  0
VERTEX
  8
LY_1
  6
CONTINUOUS
 62
     3
  5
8CB
 10
32.486238
 20
0.792422
 30
0.0
  0
VERTEX
  8
LY_1
  6
CONTINUOUS
 62
     3
  5
8CC
 10
32.458611
 20
0.747202
 30
0.0
  0
VERTEX
  8
LY_1
  6
CONTINUOUS
 62
     3
  5
8CD
 10
32.43009
 20
0.702358
 30
0.0
  0
VERTEX
  8
LY_1
  6
CONTINUOUS
 62
     3
  5
8CE
 10
32.400652
 20
0.657898
 30
0.0
  0
VERTEX
  8
LY_1
  6
CONTINUOUS
 62
     3
  5
8CF
 10
32.375763
 20
0.62168
 30
0.0
  0
VERTEX
  8
LY_1
  6
CONTINUOUS
 62
     3
  5
8D0
 10
32.350217
 20
0.585816
 30
0.0
  0
VERTEX
  8
LY_1
  6
CONTINUOUS
 62
     3
  5
8D1
 10
32.323994
 20
0.550396
 30
0.0
  0
VERTEX
  8
LY_1
  6
CONTINUOUS
 62
     3
  5
8D2
 10
32.29707
 20
0.515509
 30
0.0
  0
VERTEX
  8
LY_1
  6
CONTINUOUS
 62
     3
  5
8D3
 10
32.269424
 20
0.481246
 30
0.0
  0
VERTEX
  8
LY_1
  6
CONTINUOUS
 62
     3
  5
8D4
 10
32.241034
 20
0.447694
 30
0.0
  0
VERTEX
  8
LY_1
  6
CONTINUOUS
 62
     3
  5
8D5
 10
32.211879
 20
0.414944
 30
0.0
  0
VERTEX
  8
LY_1
  6
CONTINUOUS
 62
     3
  5
8D6
 10
32.181935
 20
0.383084
 30
0.0
  0
VERTEX
  8
LY_1
  6
CONTINUOUS
 62
     3
  5
8D7
 10
32.151182
 20
0.352205
 30
0.0
  0
VERTEX
  8
LY_1
  6
CONTINUOUS
 62
     3
  5
8D8
 10
32.119597
 20
0.322396
 30
0.0
  0
VERTEX
  8
LY_1
  6
CONTINUOUS
 62
     3
  5
8D9
 10
32.087159
 20
0.293745
 30
0.0
  0
VERTEX
  8
LY_1
  6
CONTINUOUS
 62
     3
  5
8DA
 10
32.053845
 20
0.266342
 30
0.0
  0
VERTEX
  8
LY_1
  6
CONTINUOUS
 62
     3
  5
8DB
 10
32.019634
 20
0.240277
 30
0.0
  0
VERTEX
  8
LY_1
  6
CONTINUOUS
 62
     3
  5
8DC
 10
31.984503
 20
0.21564
 30
0.0
  0
VERTEX
  8
LY_1
  6
CONTINUOUS
 62
     3
  5
8DD
 10
31.948432
 20
0.192518
 30
0.0
  0
VERTEX
  8
LY_1
  6
CONTINUOUS
 62
     3
  5
8DE
 10
31.911397
 20
0.171002
 30
0.0
  0
VERTEX
  8
LY_1
  6
CONTINUOUS
 62
     3
  5
8DF
 10
31.849227
 20
0.139634
 30
0.0
  0
VERTEX
  8
LY_1
  6
CONTINUOUS
 62
     3
  5
8E0
 10
31.784737
 20
0.112592
 30
0.0
  0
VERTEX
  8
LY_1
  6
CONTINUOUS
 62
     3
  5
8E1
 10
31.718201
 20
0.089734
 30
0.0
  0
VERTEX
  8
LY_1
  6
CONTINUOUS
 62
     3
  5
8E2
 10
31.649896
 20
0.07092
 30
0.0
  0
VERTEX
  8
LY_1
  6
CONTINUOUS
 62
     3
  5
8E3
 10
31.580098
 20
0.056007
 30
0.0
  0
VERTEX
  8
LY_1
  6
CONTINUOUS
 62
     3
  5
8E4
 10
31.509081
 20
0.044854
 30
0.0
  0
VERTEX
  8
LY_1
  6
CONTINUOUS
 62
     3
  5
8E5
 10
31.437121
 20
0.037319
 30
0.0
  0
VERTEX
  8
LY_1
  6
CONTINUOUS
 62
     3
  5
8E6
 10
31.364495
 20
0.033262
 30
0.0
  0
VERTEX
  8
LY_1
  6
CONTINUOUS
 62
     3
  5
8E7
 10
31.291477
 20
0.03254
 30
0.0
  0
VERTEX
  8
LY_1
  6
CONTINUOUS
 62
     3
  5
8E8
 10
31.218343
 20
0.035012
 30
0.0
  0
VERTEX
  8
LY_1
  6
CONTINUOUS
 62
     3
  5
8E9
 10
31.145368
 20
0.040537
 30
0.0
  0
VERTEX
  8
LY_1
  6
CONTINUOUS
 62
     3
  5
8EA
 10
31.072829
 20
0.048973
 30
0.0
  0
VERTEX
  8
LY_1
  6
CONTINUOUS
 62
     3
  5
8EB
 10
31.001001
 20
0.060178
 30
0.0
  0
VERTEX
  8
LY_1
  6
CONTINUOUS
 62
     3
  5
8EC
 10
30.930159
 20
0.074012
 30
0.0
  0
VERTEX
  8
LY_1
  6
CONTINUOUS
 62
     3
  5
8ED
 10
30.860579
 20
0.090332
 30
0.0
  0
VERTEX
  8
LY_1
  6
CONTINUOUS
 62
     3
  5
8EE
 10
30.792537
 20
0.108998
 30
0.0
  0
SEQEND
  8
LY_1
  6
CONTINUOUS
 62
     3
  5
8EF
  0
POLYLINE
  8
LY_1
  6
CONTINUOUS
 62
     3
  5
99
 66
     1
 10
0.0
 20
0.0
 30
0.0
  0
VERTEX
  8
LY_1
  6
CONTINUOUS
 62
     3
  5
8F0
 10
24.676432
 20
2.311751
 30
0.0
  0
VERTEX
  8
LY_1
  6
CONTINUOUS
 62
     3
  5
8F1
 10
24.669002
 20
2.254269
 30
0.0
  0
VERTEX
  8
LY_1
  6
CONTINUOUS
 62
     3
  5
8F2
 10
24.660704
 20
2.196871
 30
0.0
  0
VERTEX
  8
LY_1
  6
CONTINUOUS
 62
     3
  5
8F3
 10
24.65155
 20
2.139572
 30
0.0
  0
VERTEX
  8
LY_1
  6
CONTINUOUS
 62
     3
  5
8F4
 10
24.64155
 20
2.082386
 30
0.0
  0
VERTEX
  8
LY_1
  6
CONTINUOUS
 62
     3
  5
8F5
 10
24.630716
 20
2.025328
 30
0.0
  0
VERTEX
  8
LY_1
  6
CONTINUOUS
 62
     3
  5
8F6
 10
24.61906
 20
1.968414
 30
0.0
  0
VERTEX
  8
LY_1
  6
CONTINUOUS
 62
     3
  5
8F7
 10
24.606591
 20
1.911656
 30
0.0
  0
VERTEX
  8
LY_1
  6
CONTINUOUS
 62
     3
  5
8F8
 10
24.593322
 20
1.855072
 30
0.0
  0
VERTEX
  8
LY_1
  6
CONTINUOUS
 62
     3
  5
8F9
 10
24.579263
 20
1.798674
 30
0.0
  0
VERTEX
  8
LY_1
  6
CONTINUOUS
 62
     3
  5
8FA
 10
24.564426
 20
1.742478
 30
0.0
  0
VERTEX
  8
LY_1
  6
CONTINUOUS
 62
     3
  5
8FB
 10
24.548822
 20
1.686499
 30
0.0
  0
VERTEX
  8
LY_1
  6
CONTINUOUS
 62
     3
  5
8FC
 10
24.532462
 20
1.630751
 30
0.0
  0
VERTEX
  8
LY_1
  6
CONTINUOUS
 62
     3
  5
8FD
 10
24.515357
 20
1.575249
 30
0.0
  0
VERTEX
  8
LY_1
  6
CONTINUOUS
 62
     3
  5
8FE
 10
24.497519
 20
1.520008
 30
0.0
  0
VERTEX
  8
LY_1
  6
CONTINUOUS
 62
     3
  5
8FF
 10
24.478958
 20
1.465043
 30
0.0
  0
VERTEX
  8
LY_1
  6
CONTINUOUS
 62
     3
  5
900
 10
24.459685
 20
1.410368
 30
0.0
  0
VERTEX
  8
LY_1
  6
CONTINUOUS
 62
     3
  5
901
 10
24.441609
 20
1.361081
 30
0.0
  0
VERTEX
  8
LY_1
  6
CONTINUOUS
 62
     3
  5
902
 10
24.422935
 20
1.312053
 30
0.0
  0
VERTEX
  8
LY_1
  6
CONTINUOUS
 62
     3
  5
903
 10
24.403641
 20
1.263294
 30
0.0
  0
VERTEX
  8
LY_1
  6
CONTINUOUS
 62
     3
  5
904
 10
24.383703
 20
1.214812
 30
0.0
  0
VERTEX
  8
LY_1
  6
CONTINUOUS
 62
     3
  5
905
 10
24.363098
 20
1.166616
 30
0.0
  0
VERTEX
  8
LY_1
  6
CONTINUOUS
 62
     3
  5
906
 10
24.341805
 20
1.118716
 30
0.0
  0
VERTEX
  8
LY_1
  6
CONTINUOUS
 62
     3
  5
907
 10
24.3198
 20
1.071119
 30
0.0
  0
VERTEX
  8
LY_1
  6
CONTINUOUS
 62
     3
  5
908
 10
24.29706
 20
1.023835
 30
0.0
  0
VERTEX
  8
LY_1
  6
CONTINUOUS
 62
     3
  5
909
 10
24.273562
 20
0.976873
 30
0.0
  0
VERTEX
  8
LY_1
  6
CONTINUOUS
 62
     3
  5
90A
 10
24.249285
 20
0.930242
 30
0.0
  0
VERTEX
  8
LY_1
  6
CONTINUOUS
 62
     3
  5
90B
 10
24.224204
 20
0.88395
 30
0.0
  0
VERTEX
  8
LY_1
  6
CONTINUOUS
 62
     3
  5
90C
 10
24.198297
 20
0.838007
 30
0.0
  0
VERTEX
  8
LY_1
  6
CONTINUOUS
 62
     3
  5
90D
 10
24.171542
 20
0.792422
 30
0.0
  0
VERTEX
  8
LY_1
  6
CONTINUOUS
 62
     3
  5
90E
 10
24.143915
 20
0.747202
 30
0.0
  0
VERTEX
  8
LY_1
  6
CONTINUOUS
 62
     3
  5
90F
 10
24.115394
 20
0.702358
 30
0.0
  0
VERTEX
  8
LY_1
  6
CONTINUOUS
 62
     3
  5
910
 10
24.085955
 20
0.657898
 30
0.0
  0
VERTEX
  8
LY_1
  6
CONTINUOUS
 62
     3
  5
911
 10
24.061066
 20
0.62168
 30
0.0
  0
VERTEX
  8
LY_1
  6
CONTINUOUS
 62
     3
  5
912
 10
24.035521
 20
0.585816
 30
0.0
  0
VERTEX
  8
LY_1
  6
CONTINUOUS
 62
     3
  5
913
 10
24.009297
 20
0.550396
 30
0.0
  0
VERTEX
  8
LY_1
  6
CONTINUOUS
 62
     3
  5
914
 10
23.982374
 20
0.515509
 30
0.0
  0
VERTEX
  8
LY_1
  6
CONTINUOUS
 62
     3
  5
915
 10
23.954728
 20
0.481246
 30
0.0
  0
VERTEX
  8
LY_1
  6
CONTINUOUS
 62
     3
  5
916
 10
23.926338
 20
0.447694
 30
0.0
  0
VERTEX
  8
LY_1
  6
CONTINUOUS
 62
     3
  5
917
 10
23.897183
 20
0.414944
 30
0.0
  0
VERTEX
  8
LY_1
  6
CONTINUOUS
 62
     3
  5
918
 10
23.867239
 20
0.383084
 30
0.0
  0
VERTEX
  8
LY_1
  6
CONTINUOUS
 62
     3
  5
919
 10
23.836486
 20
0.352205
 30
0.0
  0
VERTEX
  8
LY_1
  6
CONTINUOUS
 62
     3
  5
91A
 10
23.804901
 20
0.322396
 30
0.0
  0
VERTEX
  8
LY_1
  6
CONTINUOUS
 62
     3
  5
91B
 10
23.772463
 20
0.293745
 30
0.0
  0
VERTEX
  8
LY_1
  6
CONTINUOUS
 62
     3
  5
91C
 10
23.739149
 20
0.266342
 30
0.0
  0
VERTEX
  8
LY_1
  6
CONTINUOUS
 62
     3
  5
91D
 10
23.704938
 20
0.240277
 30
0.0
  0
VERTEX
  8
LY_1
  6
CONTINUOUS
 62
     3
  5
91E
 10
23.669807
 20
0.21564
 30
0.0
  0
VERTEX
  8
LY_1
  6
CONTINUOUS
 62
     3
  5
91F
 10
23.633736
 20
0.192518
 30
0.0
  0
VERTEX
  8
LY_1
  6
CONTINUOUS
 62
     3
  5
920
 10
23.596701
 20
0.171002
 30
0.0
  0
VERTEX
  8
LY_1
  6
CONTINUOUS
 62
     3
  5
921
 10
23.534531
 20
0.139634
 30
0.0
  0
VERTEX
  8
LY_1
  6
CONTINUOUS
 62
     3
  5
922
 10
23.47004
 20
0.112592
 30
0.0
  0
VERTEX
  8
LY_1
  6
CONTINUOUS
 62
     3
  5
923
 10
23.403505
 20
0.089734
 30
0.0
  0
VERTEX
  8
LY_1
  6
CONTINUOUS
 62
     3
  5
924
 10
23.3352
 20
0.07092
 30
0.0
  0
VERTEX
  8
LY_1
  6
CONTINUOUS
 62
     3
  5
925
 10
23.265402
 20
0.056007
 30
0.0
  0
VERTEX
  8
LY_1
  6
CONTINUOUS
 62
     3
  5
926
 10
23.194385
 20
0.044854
 30
0.0
  0
VERTEX
  8
LY_1
  6
CONTINUOUS
 62
     3
  5
927
 10
23.122425
 20
0.037319
 30
0.0
  0
VERTEX
  8
LY_1
  6
CONTINUOUS
 62
     3
  5
928
 10
23.049798
 20
0.033262
 30
0.0
  0
VERTEX
  8
LY_1
  6
CONTINUOUS
 62
     3
  5
929
 10
22.97678
 20
0.03254
 30
0.0
  0
VERTEX
  8
LY_1
  6
CONTINUOUS
 62
     3
  5
92A
 10
22.903646
 20
0.035012
 30
0.0
  0
VERTEX
  8
LY_1
  6
CONTINUOUS
 62
     3
  5
92B
 10
22.830672
 20
0.040537
 30
0.0
  0
VERTEX
  8
LY_1
  6
CONTINUOUS
 62
     3
  5
92C
 10
22.758133
 20
0.048973
 30
0.0
  0
VERTEX
  8
LY_1
  6
CONTINUOUS
 62
     3
  5
92D
 10
22.686305
 20
0.060178
 30
0.0
  0
VERTEX
  8
LY_1
  6
CONTINUOUS
 62
     3
  5
92E
 10
22.615463
 20
0.074012
 30
0.0
  0
VERTEX
  8
LY_1
  6
CONTINUOUS
 62
     3
  5
92F
 10
22.545883
 20
0.090332
 30
0.0
  0
VERTEX
  8
LY_1
  6
CONTINUOUS
 62
     3
  5
930
 10
22.477841
 20
0.108998
 30
0.0
  0
SEQEND
  8
LY_1
  6
CONTINUOUS
 62
     3
  5
931
  0
POLYLINE
  8
LY_1
  6
CONTINUOUS
 62
     3
  5
9A
 66
     1
 10
0.0
 20
0.0
 30
0.0
  0
VERTEX
  8
LY_1
  6
CONTINUOUS
 62
     3
  5
932
 10
15.030305
 20
2.311751
 30
0.0
  0
VERTEX
  8
LY_1
  6
CONTINUOUS
 62
     3
  5
933
 10
15.028129
 20
2.255163
 30
0.0
  0
VERTEX
  8
LY_1
  6
CONTINUOUS
 62
     3
  5
934
 10
15.025711
 20
2.198425
 30
0.0
  0
VERTEX
  8
LY_1
  6
CONTINUOUS
 62
     3
  5
935
 10
15.023029
 20
2.141575
 30
0.0
  0
VERTEX
  8
LY_1
  6
CONTINUOUS
 62
     3
  5
936
 10
15.020062
 20
2.084654
 30
0.0
  0
VERTEX
  8
LY_1
  6
CONTINUOUS
 62
     3
  5
937
 10
15.016788
 20
2.0277
 30
0.0
  0
VERTEX
  8
LY_1
  6
CONTINUOUS
 62
     3
  5
938
 10
15.013184
 20
1.970754
 30
0.0
  0
VERTEX
  8
LY_1
  6
CONTINUOUS
 62
     3
  5
939
 10
15.009229
 20
1.913854
 30
0.0
  0
VERTEX
  8
LY_1
  6
CONTINUOUS
 62
     3
  5
93A
 10
15.0049
 20
1.857041
 30
0.0
  0
VERTEX
  8
LY_1
  6
CONTINUOUS
 62
     3
  5
93B
 10
15.000176
 20
1.800353
 30
0.0
  0
VERTEX
  8
LY_1
  6
CONTINUOUS
 62
     3
  5
93C
 10
14.995034
 20
1.74383
 30
0.0
  0
VERTEX
  8
LY_1
  6
CONTINUOUS
 62
     3
  5
93D
 10
14.989454
 20
1.687511
 30
0.0
  0
VERTEX
  8
LY_1
  6
CONTINUOUS
 62
     3
  5
93E
 10
14.983412
 20
1.631437
 30
0.0
  0
VERTEX
  8
LY_1
  6
CONTINUOUS
 62
     3
  5
93F
 10
14.976887
 20
1.575646
 30
0.0
  0
VERTEX
  8
LY_1
  6
CONTINUOUS
 62
     3
  5
940
 10
14.969857
 20
1.520178
 30
0.0
  0
VERTEX
  8
LY_1
  6
CONTINUOUS
 62
     3
  5
941
 10
14.9623
 20
1.465072
 30
0.0
  0
VERTEX
  8
LY_1
  6
CONTINUOUS
 62
     3
  5
942
 10
14.954193
 20
1.410368
 30
0.0
  0
VERTEX
  8
LY_1
  6
CONTINUOUS
 62
     3
  5
943
 10
14.946915
 20
1.3645
 30
0.0
  0
VERTEX
  8
LY_1
  6
CONTINUOUS
 62
     3
  5
944
 10
14.93928
 20
1.318864
 30
0.0
  0
VERTEX
  8
LY_1
  6
CONTINUOUS
 62
     3
  5
945
 10
14.931339
 20
1.273378
 30
0.0
  0
VERTEX
  8
LY_1
  6
CONTINUOUS
 62
     3
  5
946
 10
14.92314
 20
1.227957
 30
0.0
  0
VERTEX
  8
LY_1
  6
CONTINUOUS
 62
     3
  5
947
 10
14.914734
 20
1.182519
 30
0.0
  0
VERTEX
  8
LY_1
  6
CONTINUOUS
 62
     3
  5
948
 10
14.906172
 20
1.136982
 30
0.0
  0
VERTEX
  8
LY_1
  6
CONTINUOUS
 62
     3
  5
949
 10
14.897504
 20
1.091262
 30
0.0
  0
VERTEX
  8
LY_1
  6
CONTINUOUS
 62
     3
  5
94A
 10
14.888779
 20
1.045277
 30
0.0
  0
VERTEX
  8
LY_1
  6
CONTINUOUS
 62
     3
  5
94B
 10
14.880047
 20
0.998943
 30
0.0
  0
VERTEX
  8
LY_1
  6
CONTINUOUS
 62
     3
  5
94C
 10
14.871359
 20
0.952179
 30
0.0
  0
VERTEX
  8
LY_1
  6
CONTINUOUS
 62
     3
  5
94D
 10
14.862766
 20
0.9049
 30
0.0
  0
VERTEX
  8
LY_1
  6
CONTINUOUS
 62
     3
  5
94E
 10
14.854316
 20
0.857025
 30
0.0
  0
VERTEX
  8
LY_1
  6
CONTINUOUS
 62
     3
  5
94F
 10
14.84606
 20
0.80847
 30
0.0
  0
VERTEX
  8
LY_1
  6
CONTINUOUS
 62
     3
  5
950
 10
14.838048
 20
0.759152
 30
0.0
  0
VERTEX
  8
LY_1
  6
CONTINUOUS
 62
     3
  5
951
 10
14.83033
 20
0.708989
 30
0.0
  0
VERTEX
  8
LY_1
  6
CONTINUOUS
 62
     3
  5
952
 10
14.822957
 20
0.657898
 30
0.0
  0
VERTEX
  8
LY_1
  6
CONTINUOUS
 62
     3
  5
953
 10
14.818162
 20
0.622831
 30
0.0
  0
VERTEX
  8
LY_1
  6
CONTINUOUS
 62
     3
  5
954
 10
14.813376
 20
0.587492
 30
0.0
  0
VERTEX
  8
LY_1
  6
CONTINUOUS
 62
     3
  5
955
 10
14.808426
 20
0.552073
 30
0.0
  0
VERTEX
  8
LY_1
  6
CONTINUOUS
 62
     3
  5
956
 10
14.803142
 20
0.516763
 30
0.0
  0
VERTEX
  8
LY_1
  6
CONTINUOUS
 62
     3
  5
957
 10
14.797352
 20
0.481754
 30
0.0
  0
VERTEX
  8
LY_1
  6
CONTINUOUS
 62
     3
  5
958
 10
14.790884
 20
0.447236
 30
0.0
  0
VERTEX
  8
LY_1
  6
CONTINUOUS
 62
     3
  5
959
 10
14.783566
 20
0.4134
 30
0.0
  0
VERTEX
  8
LY_1
  6
CONTINUOUS
 62
     3
  5
95A
 10
14.775227
 20
0.380436
 30
0.0
  0
VERTEX
  8
LY_1
  6
CONTINUOUS
 62
     3
  5
95B
 10
14.765695
 20
0.348535
 30
0.0
  0
VERTEX
  8
LY_1
  6
CONTINUOUS
 62
     3
  5
95C
 10
14.754798
 20
0.317887
 30
0.0
  0
VERTEX
  8
LY_1
  6
CONTINUOUS
 62
     3
  5
95D
 10
14.742366
 20
0.288684
 30
0.0
  0
VERTEX
  8
LY_1
  6
CONTINUOUS
 62
     3
  5
95E
 10
14.728225
 20
0.261116
 30
0.0
  0
VERTEX
  8
LY_1
  6
CONTINUOUS
 62
     3
  5
95F
 10
14.712205
 20
0.235373
 30
0.0
  0
VERTEX
  8
LY_1
  6
CONTINUOUS
 62
     3
  5
960
 10
14.694135
 20
0.211645
 30
0.0
  0
VERTEX
  8
LY_1
  6
CONTINUOUS
 62
     3
  5
961
 10
14.673841
 20
0.190125
 30
0.0
  0
VERTEX
  8
LY_1
  6
CONTINUOUS
 62
     3
  5
962
 10
14.651154
 20
0.171002
 30
0.0
  0
VERTEX
  8
LY_1
  6
CONTINUOUS
 62
     3
  5
963
 10
14.631972
 20
0.158001
 30
0.0
  0
VERTEX
  8
LY_1
  6
CONTINUOUS
 62
     3
  5
964
 10
14.611409
 20
0.14648
 30
0.0
  0
VERTEX
  8
LY_1
  6
CONTINUOUS
 62
     3
  5
965
 10
14.589609
 20
0.136382
 30
0.0
  0
VERTEX
  8
LY_1
  6
CONTINUOUS
 62
     3
  5
966
 10
14.566712
 20
0.12765
 30
0.0
  0
VERTEX
  8
LY_1
  6
CONTINUOUS
 62
     3
  5
967
 10
14.542862
 20
0.12023
 30
0.0
  0
VERTEX
  8
LY_1
  6
CONTINUOUS
 62
     3
  5
968
 10
14.518201
 20
0.114063
 30
0.0
  0
VERTEX
  8
LY_1
  6
CONTINUOUS
 62
     3
  5
969
 10
14.49287
 20
0.109095
 30
0.0
  0
VERTEX
  8
LY_1
  6
CONTINUOUS
 62
     3
  5
96A
 10
14.467013
 20
0.105268
 30
0.0
  0
VERTEX
  8
LY_1
  6
CONTINUOUS
 62
     3
  5
96B
 10
14.440771
 20
0.102527
 30
0.0
  0
VERTEX
  8
LY_1
  6
CONTINUOUS
 62
     3
  5
96C
 10
14.414287
 20
0.100814
 30
0.0
  0
VERTEX
  8
LY_1
  6
CONTINUOUS
 62
     3
  5
96D
 10
14.387703
 20
0.100075
 30
0.0
  0
VERTEX
  8
LY_1
  6
CONTINUOUS
 62
     3
  5
96E
 10
14.361161
 20
0.100252
 30
0.0
  0
VERTEX
  8
LY_1
  6
CONTINUOUS
 62
     3
  5
96F
 10
14.334804
 20
0.101289
 30
0.0
  0
VERTEX
  8
LY_1
  6
CONTINUOUS
 62
     3
  5
970
 10
14.308773
 20
0.10313
 30
0.0
  0
VERTEX
  8
LY_1
  6
CONTINUOUS
 62
     3
  5
971
 10
14.283212
 20
0.105718
 30
0.0
  0
VERTEX
  8
LY_1
  6
CONTINUOUS
 62
     3
  5
972
 10
14.258262
 20
0.108998
 30
0.0
  0
SEQEND
  8
LY_1
  6
CONTINUOUS
 62
     3
  5
973
  0
POLYLINE
  8
LY_1
  6
CONTINUOUS
 62
     3
  5
9B
 66
     1
 10
0.0
 20
0.0
 30
0.0
  0
VERTEX
  8
LY_1
  6
CONTINUOUS
 62
     3
  5
974
 10
5.222452
 20
2.311751
 30
0.0
  0
VERTEX
  8
LY_1
  6
CONTINUOUS
 62
     3
  5
975
 10
5.220276
 20
2.255163
 30
0.0
  0
VERTEX
  8
LY_1
  6
CONTINUOUS
 62
     3
  5
976
 10
5.217858
 20
2.198425
 30
0.0
  0
VERTEX
  8
LY_1
  6
CONTINUOUS
 62
     3
  5
977
 10
5.215176
 20
2.141575
 30
0.0
  0
VERTEX
  8
LY_1
  6
CONTINUOUS
 62
     3
  5
978
 10
5.21221
 20
2.084654
 30
0.0
  0
VERTEX
  8
LY_1
  6
CONTINUOUS
 62
     3
  5
979
 10
5.208935
 20
2.0277
 30
0.0
  0
VERTEX
  8
LY_1
  6
CONTINUOUS
 62
     3
  5
97A
 10
5.205331
 20
1.970754
 30
0.0
  0
VERTEX
  8
LY_1
  6
CONTINUOUS
 62
     3
  5
97B
 10
5.201376
 20
1.913854
 30
0.0
  0
VERTEX
  8
LY_1
  6
CONTINUOUS
 62
     3
  5
97C
 10
5.197047
 20
1.857041
 30
0.0
  0
VERTEX
  8
LY_1
  6
CONTINUOUS
 62
     3
  5
97D
 10
5.192323
 20
1.800353
 30
0.0
  0
VERTEX
  8
LY_1
  6
CONTINUOUS
 62
     3
  5
97E
 10
5.187182
 20
1.74383
 30
0.0
  0
VERTEX
  8
LY_1
  6
CONTINUOUS
 62
     3
  5
97F
 10
5.181601
 20
1.687511
 30
0.0
  0
VERTEX
  8
LY_1
  6
CONTINUOUS
 62
     3
  5
980
 10
5.175559
 20
1.631437
 30
0.0
  0
VERTEX
  8
LY_1
  6
CONTINUOUS
 62
     3
  5
981
 10
5.169034
 20
1.575646
 30
0.0
  0
VERTEX
  8
LY_1
  6
CONTINUOUS
 62
     3
  5
982
 10
5.162004
 20
1.520178
 30
0.0
  0
VERTEX
  8
LY_1
  6
CONTINUOUS
 62
     3
  5
983
 10
5.154447
 20
1.465072
 30
0.0
  0
VERTEX
  8
LY_1
  6
CONTINUOUS
 62
     3
  5
984
 10
5.146341
 20
1.410368
 30
0.0
  0
VERTEX
  8
LY_1
  6
CONTINUOUS
 62
     3
  5
985
 10
5.139063
 20
1.3645
 30
0.0
  0
VERTEX
  8
LY_1
  6
CONTINUOUS
 62
     3
  5
986
 10
5.131428
 20
1.318864
 30
0.0
  0
VERTEX
  8
LY_1
  6
CONTINUOUS
 62
     3
  5
987
 10
5.123486
 20
1.273378
 30
0.0
  0
VERTEX
  8
LY_1
  6
CONTINUOUS
 62
     3
  5
988
 10
5.115287
 20
1.227957
 30
0.0
  0
VERTEX
  8
LY_1
  6
CONTINUOUS
 62
     3
  5
989
 10
5.106882
 20
1.182519
 30
0.0
  0
VERTEX
  8
LY_1
  6
CONTINUOUS
 62
     3
  5
98A
 10
5.098319
 20
1.136982
 30
0.0
  0
VERTEX
  8
LY_1
  6
CONTINUOUS
 62
     3
  5
98B
 10
5.089651
 20
1.091262
 30
0.0
  0
VERTEX
  8
LY_1
  6
CONTINUOUS
 62
     3
  5
98C
 10
5.080926
 20
1.045277
 30
0.0
  0
VERTEX
  8
LY_1
  6
CONTINUOUS
 62
     3
  5
98D
 10
5.072194
 20
0.998943
 30
0.0
  0
VERTEX
  8
LY_1
  6
CONTINUOUS
 62
     3
  5
98E
 10
5.063507
 20
0.952179
 30
0.0
  0
VERTEX
  8
LY_1
  6
CONTINUOUS
 62
     3
  5
98F
 10
5.054913
 20
0.9049
 30
0.0
  0
VERTEX
  8
LY_1
  6
CONTINUOUS
 62
     3
  5
990
 10
5.046463
 20
0.857025
 30
0.0
  0
VERTEX
  8
LY_1
  6
CONTINUOUS
 62
     3
  5
991
 10
5.038207
 20
0.80847
 30
0.0
  0
VERTEX
  8
LY_1
  6
CONTINUOUS
 62
     3
  5
992
 10
5.030195
 20
0.759152
 30
0.0
  0
VERTEX
  8
LY_1
  6
CONTINUOUS
 62
     3
  5
993
 10
5.022477
 20
0.708989
 30
0.0
  0
VERTEX
  8
LY_1
  6
CONTINUOUS
 62
     3
  5
994
 10
5.015104
 20
0.657898
 30
0.0
  0
VERTEX
  8
LY_1
  6
CONTINUOUS
 62
     3
  5
995
 10
5.010309
 20
0.622831
 30
0.0
  0
VERTEX
  8
LY_1
  6
CONTINUOUS
 62
     3
  5
996
 10
5.005523
 20
0.587492
 30
0.0
  0
VERTEX
  8
LY_1
  6
CONTINUOUS
 62
     3
  5
997
 10
5.000574
 20
0.552073
 30
0.0
  0
VERTEX
  8
LY_1
  6
CONTINUOUS
 62
     3
  5
998
 10
4.99529
 20
0.516763
 30
0.0
  0
VERTEX
  8
LY_1
  6
CONTINUOUS
 62
     3
  5
999
 10
4.989499
 20
0.481754
 30
0.0
  0
VERTEX
  8
LY_1
  6
CONTINUOUS
 62
     3
  5
99A
 10
4.983031
 20
0.447236
 30
0.0
  0
VERTEX
  8
LY_1
  6
CONTINUOUS
 62
     3
  5
99B
 10
4.975713
 20
0.4134
 30
0.0
  0
VERTEX
  8
LY_1
  6
CONTINUOUS
 62
     3
  5
99C
 10
4.967374
 20
0.380436
 30
0.0
  0
VERTEX
  8
LY_1
  6
CONTINUOUS
 62
     3
  5
99D
 10
4.957842
 20
0.348535
 30
0.0
  0
VERTEX
  8
LY_1
  6
CONTINUOUS
 62
     3
  5
99E
 10
4.946945
 20
0.317887
 30
0.0
  0
VERTEX
  8
LY_1
  6
CONTINUOUS
 62
     3
  5
99F
 10
4.934513
 20
0.288684
 30
0.0
  0
VERTEX
  8
LY_1
  6
CONTINUOUS
 62
     3
  5
9A0
 10
4.920372
 20
0.261116
 30
0.0
  0
VERTEX
  8
LY_1
  6
CONTINUOUS
 62
     3
  5
9A1
 10
4.904353
 20
0.235373
 30
0.0
  0
VERTEX
  8
LY_1
  6
CONTINUOUS
 62
     3
  5
9A2
 10
4.886282
 20
0.211645
 30
0.0
  0
VERTEX
  8
LY_1
  6
CONTINUOUS
 62
     3
  5
9A3
 10
4.865989
 20
0.190125
 30
0.0
  0
VERTEX
  8
LY_1
  6
CONTINUOUS
 62
     3
  5
9A4
 10
4.843301
 20
0.171002
 30
0.0
  0
VERTEX
  8
LY_1
  6
CONTINUOUS
 62
     3
  5
9A5
 10
4.824119
 20
0.158001
 30
0.0
  0
VERTEX
  8
LY_1
  6
CONTINUOUS
 62
     3
  5
9A6
 10
4.803557
 20
0.14648
 30
0.0
  0
VERTEX
  8
LY_1
  6
CONTINUOUS
 62
     3
  5
9A7
 10
4.781756
 20
0.136382
 30
0.0
  0
VERTEX
  8
LY_1
  6
CONTINUOUS
 62
     3
  5
9A8
 10
4.75886
 20
0.12765
 30
0.0
  0
VERTEX
  8
LY_1
  6
CONTINUOUS
 62
     3
  5
9A9
 10
4.73501
 20
0.12023
 30
0.0
  0
VERTEX
  8
LY_1
  6
CONTINUOUS
 62
     3
  5
9AA
 10
4.710348
 20
0.114063
 30
0.0
  0
VERTEX
  8
LY_1
  6
CONTINUOUS
 62
     3
  5
9AB
 10
4.685017
 20
0.109095
 30
0.0
  0
VERTEX
  8
LY_1
  6
CONTINUOUS
 62
     3
  5
9AC
 10
4.65916
 20
0.105268
 30
0.0
  0
VERTEX
  8
LY_1
  6
CONTINUOUS
 62
     3
  5
9AD
 10
4.632918
 20
0.102527
 30
0.0
  0
VERTEX
  8
LY_1
  6
CONTINUOUS
 62
     3
  5
9AE
 10
4.606434
 20
0.100814
 30
0.0
  0
VERTEX
  8
LY_1
  6
CONTINUOUS
 62
     3
  5
9AF
 10
4.57985
 20
0.100075
 30
0.0
  0
VERTEX
  8
LY_1
  6
CONTINUOUS
 62
     3
  5
9B0
 10
4.553308
 20
0.100252
 30
0.0
  0
VERTEX
  8
LY_1
  6
CONTINUOUS
 62
     3
  5
9B1
 10
4.526951
 20
0.101289
 30
0.0
  0
VERTEX
  8
LY_1
  6
CONTINUOUS
 62
     3
  5
9B2
 10
4.50092
 20
0.10313
 30
0.0
  0
VERTEX
  8
LY_1
  6
CONTINUOUS
 62
     3
  5
9B3
 10
4.475359
 20
0.105718
 30
0.0
  0
VERTEX
  8
LY_1
  6
CONTINUOUS
 62
     3
  5
9B4
 10
4.450409
 20
0.108998
 30
0.0
  0
SEQEND
  8
LY_1
  6
CONTINUOUS
 62
     3
  5
9B5
  0
POLYLINE
  8
LY_1
  6
CONTINUOUS
 62
     3
  5
9C
 66
     1
 10
0.0
 20
0.0
 30
0.0
  0
VERTEX
  8
LY_1
  6
CONTINUOUS
 62
     3
  5
9B6
 10
52.645611
 20
43.0
 30
0.0
  0
VERTEX
  8
LY_1
  6
CONTINUOUS
 62
     3
  5
9B7
 10
52.630541
 20
42.327596
 30
0.0
  0
VERTEX
  8
LY_1
  6
CONTINUOUS
 62
     3
  5
9B8
 10
52.614473
 20
41.655209
 30
0.0
  0
VERTEX
  8
LY_1
  6
CONTINUOUS
 62
     3
  5
9B9
 10
52.597406
 20
40.982841
 30
0.0
  0
VERTEX
  8
LY_1
  6
CONTINUOUS
 62
     3
  5
9BA
 10
52.579339
 20
40.310492
 30
0.0
  0
VERTEX
  8
LY_1
  6
CONTINUOUS
 62
     3
  5
9BB
 10
52.560274
 20
39.638166
 30
0.0
  0
VERTEX
  8
LY_1
  6
CONTINUOUS
 62
     3
  5
9BC
 10
52.54021
 20
38.965863
 30
0.0
  0
VERTEX
  8
LY_1
  6
CONTINUOUS
 62
     3
  5
9BD
 10
52.519147
 20
38.293586
 30
0.0
  0
VERTEX
  8
LY_1
  6
CONTINUOUS
 62
     3
  5
9BE
 10
52.497085
 20
37.621336
 30
0.0
  0
VERTEX
  8
LY_1
  6
CONTINUOUS
 62
     3
  5
9BF
 10
52.474023
 20
36.949114
 30
0.0
  0
VERTEX
  8
LY_1
  6
CONTINUOUS
 62
     3
  5
9C0
 10
52.449963
 20
36.276924
 30
0.0
  0
VERTEX
  8
LY_1
  6
CONTINUOUS
 62
     3
  5
9C1
 10
52.424904
 20
35.604766
 30
0.0
  0
VERTEX
  8
LY_1
  6
CONTINUOUS
 62
     3
  5
9C2
 10
52.398845
 20
34.932642
 30
0.0
  0
VERTEX
  8
LY_1
  6
CONTINUOUS
 62
     3
  5
9C3
 10
52.371788
 20
34.260554
 30
0.0
  0
VERTEX
  8
LY_1
  6
CONTINUOUS
 62
     3
  5
9C4
 10
52.343731
 20
33.588503
 30
0.0
  0
VERTEX
  8
LY_1
  6
CONTINUOUS
 62
     3
  5
9C5
 10
52.314675
 20
32.916492
 30
0.0
  0
VERTEX
  8
LY_1
  6
CONTINUOUS
 62
     3
  5
9C6
 10
52.28462
 20
32.244521
 30
0.0
  0
VERTEX
  8
LY_1
  6
CONTINUOUS
 62
     3
  5
9C7
 10
52.253566
 20
31.572594
 30
0.0
  0
VERTEX
  8
LY_1
  6
CONTINUOUS
 62
     3
  5
9C8
 10
52.221512
 20
30.900711
 30
0.0
  0
VERTEX
  8
LY_1
  6
CONTINUOUS
 62
     3
  5
9C9
 10
52.188459
 20
30.228875
 30
0.0
  0
VERTEX
  8
LY_1
  6
CONTINUOUS
 62
     3
  5
9CA
 10
52.154406
 20
29.557086
 30
0.0
  0
VERTEX
  8
LY_1
  6
CONTINUOUS
 62
     3
  5
9CB
 10
52.119355
 20
28.885347
 30
0.0
  0
VERTEX
  8
LY_1
  6
CONTINUOUS
 62
     3
  5
9CC
 10
52.083303
 20
28.21366
 30
0.0
  0
VERTEX
  8
LY_1
  6
CONTINUOUS
 62
     3
  5
9CD
 10
52.046253
 20
27.542026
 30
0.0
  0
VERTEX
  8
LY_1
  6
CONTINUOUS
 62
     3
  5
9CE
 10
52.008203
 20
26.870446
 30
0.0
  0
VERTEX
  8
LY_1
  6
CONTINUOUS
 62
     3
  5
9CF
 10
51.969153
 20
26.198924
 30
0.0
  0
VERTEX
  8
LY_1
  6
CONTINUOUS
 62
     3
  5
9D0
 10
51.929104
 20
25.52746
 30
0.0
  0
VERTEX
  8
LY_1
  6
CONTINUOUS
 62
     3
  5
9D1
 10
51.888055
 20
24.856056
 30
0.0
  0
VERTEX
  8
LY_1
  6
CONTINUOUS
 62
     3
  5
9D2
 10
51.846007
 20
24.184714
 30
0.0
  0
VERTEX
  8
LY_1
  6
CONTINUOUS
 62
     3
  5
9D3
 10
51.802959
 20
23.513436
 30
0.0
  0
VERTEX
  8
LY_1
  6
CONTINUOUS
 62
     3
  5
9D4
 10
51.758912
 20
22.842223
 30
0.0
  0
VERTEX
  8
LY_1
  6
CONTINUOUS
 62
     3
  5
9D5
 10
51.713865
 20
22.171077
 30
0.0
  0
VERTEX
  8
LY_1
  6
CONTINUOUS
 62
     3
  5
9D6
 10
51.667818
 20
21.5
 30
0.0
  0
VERTEX
  8
LY_1
  6
CONTINUOUS
 62
     3
  5
9D7
 10
51.625748
 20
20.899295
 30
0.0
  0
VERTEX
  8
LY_1
  6
CONTINUOUS
 62
     3
  5
9D8
 10
51.582877
 20
20.298649
 30
0.0
  0
VERTEX
  8
LY_1
  6
CONTINUOUS
 62
     3
  5
9D9
 10
51.539205
 20
19.698061
 30
0.0
  0
VERTEX
  8
LY_1
  6
CONTINUOUS
 62
     3
  5
9DA
 10
51.494732
 20
19.097533
 30
0.0
  0
VERTEX
  8
LY_1
  6
CONTINUOUS
 62
     3
  5
9DB
 10
51.449459
 20
18.497066
 30
0.0
  0
VERTEX
  8
LY_1
  6
CONTINUOUS
 62
     3
  5
9DC
 10
51.403385
 20
17.896661
 30
0.0
  0
VERTEX
  8
LY_1
  6
CONTINUOUS
 62
     3
  5
9DD
 10
51.356512
 20
17.29632
 30
0.0
  0
VERTEX
  8
LY_1
  6
CONTINUOUS
 62
     3
  5
9DE
 10
51.308839
 20
16.696044
 30
0.0
  0
VERTEX
  8
LY_1
  6
CONTINUOUS
 62
     3
  5
9DF
 10
51.260366
 20
16.095833
 30
0.0
  0
VERTEX
  8
LY_1
  6
CONTINUOUS
 62
     3
  5
9E0
 10
51.211093
 20
15.495689
 30
0.0
  0
VERTEX
  8
LY_1
  6
CONTINUOUS
 62
     3
  5
9E1
 10
51.161021
 20
14.895613
 30
0.0
  0
VERTEX
  8
LY_1
  6
CONTINUOUS
 62
     3
  5
9E2
 10
51.11015
 20
14.295606
 30
0.0
  0
VERTEX
  8
LY_1
  6
CONTINUOUS
 62
     3
  5
9E3
 10
51.058481
 20
13.695669
 30
0.0
  0
VERTEX
  8
LY_1
  6
CONTINUOUS
 62
     3
  5
9E4
 10
51.006012
 20
13.095804
 30
0.0
  0
VERTEX
  8
LY_1
  6
CONTINUOUS
 62
     3
  5
9E5
 10
50.952745
 20
12.496012
 30
0.0
  0
VERTEX
  8
LY_1
  6
CONTINUOUS
 62
     3
  5
9E6
 10
50.898679
 20
11.896293
 30
0.0
  0
VERTEX
  8
LY_1
  6
CONTINUOUS
 62
     3
  5
9E7
 10
50.843816
 20
11.296649
 30
0.0
  0
VERTEX
  8
LY_1
  6
CONTINUOUS
 62
     3
  5
9E8
 10
50.788154
 20
10.697081
 30
0.0
  0
VERTEX
  8
LY_1
  6
CONTINUOUS
 62
     3
  5
9E9
 10
50.731695
 20
10.09759
 30
0.0
  0
VERTEX
  8
LY_1
  6
CONTINUOUS
 62
     3
  5
9EA
 10
50.674438
 20
9.498178
 30
0.0
  0
VERTEX
  8
LY_1
  6
CONTINUOUS
 62
     3
  5
9EB
 10
50.616384
 20
8.898845
 30
0.0
  0
VERTEX
  8
LY_1
  6
CONTINUOUS
 62
     3
  5
9EC
 10
50.557532
 20
8.299592
 30
0.0
  0
VERTEX
  8
LY_1
  6
CONTINUOUS
 62
     3
  5
9ED
 10
50.497884
 20
7.700422
 30
0.0
  0
VERTEX
  8
LY_1
  6
CONTINUOUS
 62
     3
  5
9EE
 10
50.437438
 20
7.101334
 30
0.0
  0
VERTEX
  8
LY_1
  6
CONTINUOUS
 62
     3
  5
9EF
 10
50.376196
 20
6.50233
 30
0.0
  0
VERTEX
  8
LY_1
  6
CONTINUOUS
 62
     3
  5
9F0
 10
50.314158
 20
5.903411
 30
0.0
  0
VERTEX
  8
LY_1
  6
CONTINUOUS
 62
     3
  5
9F1
 10
50.251323
 20
5.304579
 30
0.0
  0
VERTEX
  8
LY_1
  6
CONTINUOUS
 62
     3
  5
9F2
 10
50.187693
 20
4.705834
 30
0.0
  0
VERTEX
  8
LY_1
  6
CONTINUOUS
 62
     3
  5
9F3
 10
50.123266
 20
4.107177
 30
0.0
  0
VERTEX
  8
LY_1
  6
CONTINUOUS
 62
     3
  5
9F4
 10
50.058044
 20
3.50861
 30
0.0
  0
VERTEX
  8
LY_1
  6
CONTINUOUS
 62
     3
  5
9F5
 10
49.992026
 20
2.910135
 30
0.0
  0
VERTEX
  8
LY_1
  6
CONTINUOUS
 62
     3
  5
9F6
 10
49.925213
 20
2.311751
 30
0.0
  0
SEQEND
  8
LY_1
  6
CONTINUOUS
 62
     3
  5
9F7
  0
POLYLINE
  8
LY_1
  6
CONTINUOUS
 62
     3
  5
9D
 66
     1
 10
0.0
 20
0.0
 30
0.0
  0
VERTEX
  8
LY_1
  6
CONTINUOUS
 62
     3
  5
9F8
 10
48.235899
 20
43.0
 30
0.0
  0
VERTEX
  8
LY_1
  6
CONTINUOUS
 62
     3
  5
9F9
 10
48.223148
 20
42.327744
 30
0.0
  0
VERTEX
  8
LY_1
  6
CONTINUOUS
 62
     3
  5
9FA
 10
48.20955
 20
41.655501
 30
0.0
  0
VERTEX
  8
LY_1
  6
CONTINUOUS
 62
     3
  5
9FB
 10
48.195103
 20
40.983271
 30
0.0
  0
VERTEX
  8
LY_1
  6
CONTINUOUS
 62
     3
  5
9FC
 10
48.179807
 20
40.311055
 30
0.0
  0
VERTEX
  8
LY_1
  6
CONTINUOUS
 62
     3
  5
9FD
 10
48.163663
 20
39.638855
 30
0.0
  0
VERTEX
  8
LY_1
  6
CONTINUOUS
 62
     3
  5
9FE
 10
48.14667
 20
38.966672
 30
0.0
  0
VERTEX
  8
LY_1
  6
CONTINUOUS
 62
     3
  5
9FF
 10
48.128829
 20
38.294507
 30
0.0
  0
VERTEX
  8
LY_1
  6
CONTINUOUS
 62
     3
  5
A00
 10
48.110139
 20
37.622362
 30
0.0
  0
VERTEX
  8
LY_1
  6
CONTINUOUS
 62
     3
  5
A01
 10
48.0906
 20
36.950238
 30
0.0
  0
VERTEX
  8
LY_1
  6
CONTINUOUS
 62
     3
  5
A02
 10
48.070213
 20
36.278136
 30
0.0
  0
VERTEX
  8
LY_1
  6
CONTINUOUS
 62
     3
  5
A03
 10
48.048978
 20
35.606057
 30
0.0
  0
VERTEX
  8
LY_1
  6
CONTINUOUS
 62
     3
  5
A04
 10
48.026893
 20
34.934003
 30
0.0
  0
VERTEX
  8
LY_1
  6
CONTINUOUS
 62
     3
  5
A05
 10
48.00396
 20
34.261974
 30
0.0
  0
VERTEX
  8
LY_1
  6
CONTINUOUS
 62
     3
  5
A06
 10
47.980179
 20
33.589973
 30
0.0
  0
VERTEX
  8
LY_1
  6
CONTINUOUS
 62
     3
  5
A07
 10
47.955549
 20
32.917999
 30
0.0
  0
VERTEX
  8
LY_1
  6
CONTINUOUS
 62
     3
  5
A08
 10
47.930069
 20
32.246056
 30
0.0
  0
VERTEX
  8
LY_1
  6
CONTINUOUS
 62
     3
  5
A09
 10
47.903742
 20
31.574143
 30
0.0
  0
VERTEX
  8
LY_1
  6
CONTINUOUS
 62
     3
  5
A0A
 10
47.876565
 20
30.902262
 30
0.0
  0
VERTEX
  8
LY_1
  6
CONTINUOUS
 62
     3
  5
A0B
 10
47.84854
 20
30.230415
 30
0.0
  0
VERTEX
  8
LY_1
  6
CONTINUOUS
 62
     3
  5
A0C
 10
47.819666
 20
29.558602
 30
0.0
  0
VERTEX
  8
LY_1
  6
CONTINUOUS
 62
     3
  5
A0D
 10
47.789943
 20
28.886825
 30
0.0
  0
VERTEX
  8
LY_1
  6
CONTINUOUS
 62
     3
  5
A0E
 10
47.759371
 20
28.215085
 30
0.0
  0
VERTEX
  8
LY_1
  6
CONTINUOUS
 62
     3
  5
A0F
 10
47.727951
 20
27.543383
 30
0.0
  0
VERTEX
  8
LY_1
  6
CONTINUOUS
 62
     3
  5
A10
 10
47.695681
 20
26.871721
 30
0.0
  0
VERTEX
  8
LY_1
  6
CONTINUOUS
 62
     3
  5
A11
 10
47.662563
 20
26.2001
 30
0.0
  0
VERTEX
  8
LY_1
  6
CONTINUOUS
 62
     3
  5
A12
 10
47.628596
 20
25.528521
 30
0.0
  0
VERTEX
  8
LY_1
  6
CONTINUOUS
 62
     3
  5
A13
 10
47.59378
 20
24.856985
 30
0.0
  0
VERTEX
  8
LY_1
  6
CONTINUOUS
 62
     3
  5
A14
 10
47.558115
 20
24.185494
 30
0.0
  0
VERTEX
  8
LY_1
  6
CONTINUOUS
 62
     3
  5
A15
 10
47.521601
 20
23.514049
 30
0.0
  0
VERTEX
  8
LY_1
  6
CONTINUOUS
 62
     3
  5
A16
 10
47.484238
 20
22.84265
 30
0.0
  0
VERTEX
  8
LY_1
  6
CONTINUOUS
 62
     3
  5
A17
 10
47.446026
 20
22.1713
 30
0.0
  0
VERTEX
  8
LY_1
  6
CONTINUOUS
 62
     3
  5
A18
 10
47.406966
 20
21.5
 30
0.0
  0
VERTEX
  8
LY_1
  6
CONTINUOUS
 62
     3
  5
A19
 10
47.371308
 20
20.899596
 30
0.0
  0
VERTEX
  8
LY_1
  6
CONTINUOUS
 62
     3
  5
A1A
 10
47.334972
 20
20.299234
 30
0.0
  0
VERTEX
  8
LY_1
  6
CONTINUOUS
 62
     3
  5
A1B
 10
47.297956
 20
19.698914
 30
0.0
  0
VERTEX
  8
LY_1
  6
CONTINUOUS
 62
     3
  5
A1C
 10
47.260262
 20
19.098637
 30
0.0
  0
VERTEX
  8
LY_1
  6
CONTINUOUS
 62
     3
  5
A1D
 10
47.221889
 20
18.498404
 30
0.0
  0
VERTEX
  8
LY_1
  6
CONTINUOUS
 62
     3
  5
A1E
 10
47.182837
 20
17.898216
 30
0.0
  0
VERTEX
  8
LY_1
  6
CONTINUOUS
 62
     3
  5
A1F
 10
47.143106
 20
17.298074
 30
0.0
  0
VERTEX
  8
LY_1
  6
CONTINUOUS
 62
     3
  5
A20
 10
47.102697
 20
16.697978
 30
0.0
  0
VERTEX
  8
LY_1
  6
CONTINUOUS
 62
     3
  5
A21
 10
47.06161
 20
16.097929
 30
0.0
  0
VERTEX
  8
LY_1
  6
CONTINUOUS
 62
     3
  5
A22
 10
47.019845
 20
15.497928
 30
0.0
  0
VERTEX
  8
LY_1
  6
CONTINUOUS
 62
     3
  5
A23
 10
46.977401
 20
14.897977
 30
0.0
  0
VERTEX
  8
LY_1
  6
CONTINUOUS
 62
     3
  5
A24
 10
46.93428
 20
14.298075
 30
0.0
  0
VERTEX
  8
LY_1
  6
CONTINUOUS
 62
     3
  5
A25
 10
46.890481
 20
13.698223
 30
0.0
  0
VERTEX
  8
LY_1
  6
CONTINUOUS
 62
     3
  5
A26
 10
46.846003
 20
13.098423
 30
0.0
  0
VERTEX
  8
LY_1
  6
CONTINUOUS
 62
     3
  5
A27
 10
46.800849
 20
12.498675
 30
0.0
  0
VERTEX
  8
LY_1
  6
CONTINUOUS
 62
     3
  5
A28
 10
46.755017
 20
11.898981
 30
0.0
  0
VERTEX
  8
LY_1
  6
CONTINUOUS
 62
     3
  5
A29
 10
46.708507
 20
11.29934
 30
0.0
  0
VERTEX
  8
LY_1
  6
CONTINUOUS
 62
     3
  5
A2A
 10
46.66132
 20
10.699754
 30
0.0
  0
VERTEX
  8
LY_1
  6
CONTINUOUS
 62
     3
  5
A2B
 10
46.613456
 20
10.100223
 30
0.0
  0
VERTEX
  8
LY_1
  6
CONTINUOUS
 62
     3
  5
A2C
 10
46.564915
 20
9.500749
 30
0.0
  0
VERTEX
  8
LY_1
  6
CONTINUOUS
 62
     3
  5
A2D
 10
46.515697
 20
8.901331
 30
0.0
  0
VERTEX
  8
LY_1
  6
CONTINUOUS
 62
     3
  5
A2E
 10
46.465803
 20
8.301972
 30
0.0
  0
VERTEX
  8
LY_1
  6
CONTINUOUS
 62
     3
  5
A2F
 10
46.415231
 20
7.702672
 30
0.0
  0
VERTEX
  8
LY_1
  6
CONTINUOUS
 62
     3
  5
A30
 10
46.363983
 20
7.103431
 30
0.0
  0
VERTEX
  8
LY_1
  6
CONTINUOUS
 62
     3
  5
A31
 10
46.312059
 20
6.504251
 30
0.0
  0
VERTEX
  8
LY_1
  6
CONTINUOUS
 62
     3
  5
A32
 10
46.259458
 20
5.905132
 30
0.0
  0
VERTEX
  8
LY_1
  6
CONTINUOUS
 62
     3
  5
A33
 10
46.206181
 20
5.306075
 30
0.0
  0
VERTEX
  8
LY_1
  6
CONTINUOUS
 62
     3
  5
A34
 10
46.152228
 20
4.707081
 30
0.0
  0
VERTEX
  8
LY_1
  6
CONTINUOUS
 62
     3
  5
A35
 10
46.097599
 20
4.108151
 30
0.0
  0
VERTEX
  8
LY_1
  6
CONTINUOUS
 62
     3
  5
A36
 10
46.042294
 20
3.509285
 30
0.0
  0
VERTEX
  8
LY_1
  6
CONTINUOUS
 62
     3
  5
A37
 10
45.986313
 20
2.910485
 30
0.0
  0
VERTEX
  8
LY_1
  6
CONTINUOUS
 62
     3
  5
A38
 10
45.929656
 20
2.311751
 30
0.0
  0
SEQEND
  8
LY_1
  6
CONTINUOUS
 62
     3
  5
A39
  0
POLYLINE
  8
LY_1
  6
CONTINUOUS
 62
     3
  5
9E
 66
     1
 10
0.0
 20
0.0
 30
0.0
  0
VERTEX
  8
LY_1
  6
CONTINUOUS
 62
     3
  5
A3A
 10
42.680196
 20
43.0
 30
0.0
  0
VERTEX
  8
LY_1
  6
CONTINUOUS
 62
     3
  5
A3B
 10
42.667446
 20
42.327744
 30
0.0
  0
VERTEX
  8
LY_1
  6
CONTINUOUS
 62
     3
  5
A3C
 10
42.653847
 20
41.655501
 30
0.0
  0
VERTEX
  8
LY_1
  6
CONTINUOUS
 62
     3
  5
A3D
 10
42.6394
 20
40.983271
 30
0.0
  0
VERTEX
  8
LY_1
  6
CONTINUOUS
 62
     3
  5
A3E
 10
42.624105
 20
40.311055
 30
0.0
  0
VERTEX
  8
LY_1
  6
CONTINUOUS
 62
     3
  5
A3F
 10
42.60796
 20
39.638855
 30
0.0
  0
VERTEX
  8
LY_1
  6
CONTINUOUS
 62
     3
  5
A40
 10
42.590968
 20
38.966672
 30
0.0
  0
VERTEX
  8
LY_1
  6
CONTINUOUS
 62
     3
  5
A41
 10
42.573126
 20
38.294507
 30
0.0
  0
VERTEX
  8
LY_1
  6
CONTINUOUS
 62
     3
  5
A42
 10
42.554437
 20
37.622362
 30
0.0
  0
VERTEX
  8
LY_1
  6
CONTINUOUS
 62
     3
  5
A43
 10
42.534898
 20
36.950238
 30
0.0
  0
VERTEX
  8
LY_1
  6
CONTINUOUS
 62
     3
  5
A44
 10
42.514511
 20
36.278136
 30
0.0
  0
VERTEX
  8
LY_1
  6
CONTINUOUS
 62
     3
  5
A45
 10
42.493275
 20
35.606057
 30
0.0
  0
VERTEX
  8
LY_1
  6
CONTINUOUS
 62
     3
  5
A46
 10
42.471191
 20
34.934003
 30
0.0
  0
VERTEX
  8
LY_1
  6
CONTINUOUS
 62
     3
  5
A47
 10
42.448258
 20
34.261974
 30
0.0
  0
VERTEX
  8
LY_1
  6
CONTINUOUS
 62
     3
  5
A48
 10
42.424477
 20
33.589973
 30
0.0
  0
VERTEX
  8
LY_1
  6
CONTINUOUS
 62
     3
  5
A49
 10
42.399846
 20
32.917999
 30
0.0
  0
VERTEX
  8
LY_1
  6
CONTINUOUS
 62
     3
  5
A4A
 10
42.374367
 20
32.246056
 30
0.0
  0
VERTEX
  8
LY_1
  6
CONTINUOUS
 62
     3
  5
A4B
 10
42.348039
 20
31.574143
 30
0.0
  0
VERTEX
  8
LY_1
  6
CONTINUOUS
 62
     3
  5
A4C
 10
42.320863
 20
30.902262
 30
0.0
  0
VERTEX
  8
LY_1
  6
CONTINUOUS
 62
     3
  5
A4D
 10
42.292838
 20
30.230415
 30
0.0
  0
VERTEX
  8
LY_1
  6
CONTINUOUS
 62
     3
  5
A4E
 10
42.263964
 20
29.558602
 30
0.0
  0
VERTEX
  8
LY_1
  6
CONTINUOUS
 62
     3
  5
A4F
 10
42.234241
 20
28.886825
 30
0.0
  0
VERTEX
  8
LY_1
  6
CONTINUOUS
 62
     3
  5
A50
 10
42.203669
 20
28.215085
 30
0.0
  0
VERTEX
  8
LY_1
  6
CONTINUOUS
 62
     3
  5
A51
 10
42.172248
 20
27.543383
 30
0.0
  0
VERTEX
  8
LY_1
  6
CONTINUOUS
 62
     3
  5
A52
 10
42.139979
 20
26.871721
 30
0.0
  0
VERTEX
  8
LY_1
  6
CONTINUOUS
 62
     3
  5
A53
 10
42.106861
 20
26.2001
 30
0.0
  0
VERTEX
  8
LY_1
  6
CONTINUOUS
 62
     3
  5
A54
 10
42.072894
 20
25.528521
 30
0.0
  0
VERTEX
  8
LY_1
  6
CONTINUOUS
 62
     3
  5
A55
 10
42.038078
 20
24.856985
 30
0.0
  0
VERTEX
  8
LY_1
  6
CONTINUOUS
 62
     3
  5
A56
 10
42.002413
 20
24.185494
 30
0.0
  0
VERTEX
  8
LY_1
  6
CONTINUOUS
 62
     3
  5
A57
 10
41.965899
 20
23.514049
 30
0.0
  0
VERTEX
  8
LY_1
  6
CONTINUOUS
 62
     3
  5
A58
 10
41.928536
 20
22.84265
 30
0.0
  0
VERTEX
  8
LY_1
  6
CONTINUOUS
 62
     3
  5
A59
 10
41.890324
 20
22.1713
 30
0.0
  0
VERTEX
  8
LY_1
  6
CONTINUOUS
 62
     3
  5
A5A
 10
41.851263
 20
21.5
 30
0.0
  0
VERTEX
  8
LY_1
  6
CONTINUOUS
 62
     3
  5
A5B
 10
41.815606
 20
20.899596
 30
0.0
  0
VERTEX
  8
LY_1
  6
CONTINUOUS
 62
     3
  5
A5C
 10
41.779269
 20
20.299234
 30
0.0
  0
VERTEX
  8
LY_1
  6
CONTINUOUS
 62
     3
  5
A5D
 10
41.742254
 20
19.698914
 30
0.0
  0
VERTEX
  8
LY_1
  6
CONTINUOUS
 62
     3
  5
A5E
 10
41.704559
 20
19.098637
 30
0.0
  0
VERTEX
  8
LY_1
  6
CONTINUOUS
 62
     3
  5
A5F
 10
41.666186
 20
18.498404
 30
0.0
  0
VERTEX
  8
LY_1
  6
CONTINUOUS
 62
     3
  5
A60
 10
41.627134
 20
17.898216
 30
0.0
  0
VERTEX
  8
LY_1
  6
CONTINUOUS
 62
     3
  5
A61
 10
41.587404
 20
17.298074
 30
0.0
  0
VERTEX
  8
LY_1
  6
CONTINUOUS
 62
     3
  5
A62
 10
41.546995
 20
16.697978
 30
0.0
  0
VERTEX
  8
LY_1
  6
CONTINUOUS
 62
     3
  5
A63
 10
41.505908
 20
16.097929
 30
0.0
  0
VERTEX
  8
LY_1
  6
CONTINUOUS
 62
     3
  5
A64
 10
41.464142
 20
15.497928
 30
0.0
  0
VERTEX
  8
LY_1
  6
CONTINUOUS
 62
     3
  5
A65
 10
41.421699
 20
14.897977
 30
0.0
  0
VERTEX
  8
LY_1
  6
CONTINUOUS
 62
     3
  5
A66
 10
41.378578
 20
14.298075
 30
0.0
  0
VERTEX
  8
LY_1
  6
CONTINUOUS
 62
     3
  5
A67
 10
41.334778
 20
13.698223
 30
0.0
  0
VERTEX
  8
LY_1
  6
CONTINUOUS
 62
     3
  5
A68
 10
41.290301
 20
13.098423
 30
0.0
  0
VERTEX
  8
LY_1
  6
CONTINUOUS
 62
     3
  5
A69
 10
41.245147
 20
12.498675
 30
0.0
  0
VERTEX
  8
LY_1
  6
CONTINUOUS
 62
     3
  5
A6A
 10
41.199314
 20
11.898981
 30
0.0
  0
VERTEX
  8
LY_1
  6
CONTINUOUS
 62
     3
  5
A6B
 10
41.152805
 20
11.29934
 30
0.0
  0
VERTEX
  8
LY_1
  6
CONTINUOUS
 62
     3
  5
A6C
 10
41.105618
 20
10.699754
 30
0.0
  0
VERTEX
  8
LY_1
  6
CONTINUOUS
 62
     3
  5
A6D
 10
41.057754
 20
10.100223
 30
0.0
  0
VERTEX
  8
LY_1
  6
CONTINUOUS
 62
     3
  5
A6E
 10
41.009213
 20
9.500749
 30
0.0
  0
VERTEX
  8
LY_1
  6
CONTINUOUS
 62
     3
  5
A6F
 10
40.959995
 20
8.901331
 30
0.0
  0
VERTEX
  8
LY_1
  6
CONTINUOUS
 62
     3
  5
A70
 10
40.9101
 20
8.301972
 30
0.0
  0
VERTEX
  8
LY_1
  6
CONTINUOUS
 62
     3
  5
A71
 10
40.859529
 20
7.702672
 30
0.0
  0
VERTEX
  8
LY_1
  6
CONTINUOUS
 62
     3
  5
A72
 10
40.808281
 20
7.103431
 30
0.0
  0
VERTEX
  8
LY_1
  6
CONTINUOUS
 62
     3
  5
A73
 10
40.756356
 20
6.504251
 30
0.0
  0
VERTEX
  8
LY_1
  6
CONTINUOUS
 62
     3
  5
A74
 10
40.703756
 20
5.905132
 30
0.0
  0
VERTEX
  8
LY_1
  6
CONTINUOUS
 62
     3
  5
A75
 10
40.650478
 20
5.306075
 30
0.0
  0
VERTEX
  8
LY_1
  6
CONTINUOUS
 62
     3
  5
A76
 10
40.596525
 20
4.707081
 30
0.0
  0
VERTEX
  8
LY_1
  6
CONTINUOUS
 62
     3
  5
A77
 10
40.541896
 20
4.108151
 30
0.0
  0
VERTEX
  8
LY_1
  6
CONTINUOUS
 62
     3
  5
A78
 10
40.486591
 20
3.509285
 30
0.0
  0
VERTEX
  8
LY_1
  6
CONTINUOUS
 62
     3
  5
A79
 10
40.43061
 20
2.910485
 30
0.0
  0
VERTEX
  8
LY_1
  6
CONTINUOUS
 62
     3
  5
A7A
 10
40.373954
 20
2.311751
 30
0.0
  0
SEQEND
  8
LY_1
  6
CONTINUOUS
 62
     3
  5
A7B
  0
POLYLINE
  8
LY_1
  6
CONTINUOUS
 62
     3
  5
9F
 66
     1
 10
0.0
 20
0.0
 30
0.0
  0
VERTEX
  8
LY_1
  6
CONTINUOUS
 62
     3
  5
A7C
 10
34.53211
 20
43.0
 30
0.0
  0
VERTEX
  8
LY_1
  6
CONTINUOUS
 62
     3
  5
A7D
 10
34.523614
 20
42.327955
 30
0.0
  0
VERTEX
  8
LY_1
  6
CONTINUOUS
 62
     3
  5
A7E
 10
34.51455
 20
41.655915
 30
0.0
  0
VERTEX
  8
LY_1
  6
CONTINUOUS
 62
     3
  5
A7F
 10
34.504918
 20
40.983881
 30
0.0
  0
VERTEX
  8
LY_1
  6
CONTINUOUS
 62
     3
  5
A80
 10
34.494717
 20
40.311853
 30
0.0
  0
VERTEX
  8
LY_1
  6
CONTINUOUS
 62
     3
  5
A81
 10
34.483947
 20
39.639833
 30
0.0
  0
VERTEX
  8
LY_1
  6
CONTINUOUS
 62
     3
  5
A82
 10
34.472609
 20
38.96782
 30
0.0
  0
VERTEX
  8
LY_1
  6
CONTINUOUS
 62
     3
  5
A83
 10
34.460702
 20
38.295816
 30
0.0
  0
VERTEX
  8
LY_1
  6
CONTINUOUS
 62
     3
  5
A84
 10
34.448227
 20
37.62382
 30
0.0
  0
VERTEX
  8
LY_1
  6
CONTINUOUS
 62
     3
  5
A85
 10
34.435183
 20
36.951833
 30
0.0
  0
VERTEX
  8
LY_1
  6
CONTINUOUS
 62
     3
  5
A86
 10
34.421571
 20
36.279857
 30
0.0
  0
VERTEX
  8
LY_1
  6
CONTINUOUS
 62
     3
  5
A87
 10
34.40739
 20
35.60789
 30
0.0
  0
VERTEX
  8
LY_1
  6
CONTINUOUS
 62
     3
  5
A88
 10
34.39264
 20
34.935935
 30
0.0
  0
VERTEX
  8
LY_1
  6
CONTINUOUS
 62
     3
  5
A89
 10
34.377322
 20
34.263991
 30
0.0
  0
VERTEX
  8
LY_1
  6
CONTINUOUS
 62
     3
  5
A8A
 10
34.361435
 20
33.59206
 30
0.0
  0
VERTEX
  8
LY_1
  6
CONTINUOUS
 62
     3
  5
A8B
 10
34.34498
 20
32.920141
 30
0.0
  0
VERTEX
  8
LY_1
  6
CONTINUOUS
 62
     3
  5
A8C
 10
34.327955
 20
32.248235
 30
0.0
  0
VERTEX
  8
LY_1
  6
CONTINUOUS
 62
     3
  5
A8D
 10
34.310363
 20
31.576343
 30
0.0
  0
VERTEX
  8
LY_1
  6
CONTINUOUS
 62
     3
  5
A8E
 10
34.292201
 20
30.904465
 30
0.0
  0
VERTEX
  8
LY_1
  6
CONTINUOUS
 62
     3
  5
A8F
 10
34.273472
 20
30.232603
 30
0.0
  0
VERTEX
  8
LY_1
  6
CONTINUOUS
 62
     3
  5
A90
 10
34.254173
 20
29.560755
 30
0.0
  0
VERTEX
  8
LY_1
  6
CONTINUOUS
 62
     3
  5
A91
 10
34.234306
 20
28.888924
 30
0.0
  0
VERTEX
  8
LY_1
  6
CONTINUOUS
 62
     3
  5
A92
 10
34.21387
 20
28.21711
 30
0.0
  0
VERTEX
  8
LY_1
  6
CONTINUOUS
 62
     3
  5
A93
 10
34.192865
 20
27.545312
 30
0.0
  0
VERTEX
  8
LY_1
  6
CONTINUOUS
 62
     3
  5
A94
 10
34.171292
 20
26.873532
 30
0.0
  0
VERTEX
  8
LY_1
  6
CONTINUOUS
 62
     3
  5
A95
 10
34.14915
 20
26.201771
 30
0.0
  0
VERTEX
  8
LY_1
  6
CONTINUOUS
 62
     3
  5
A96
 10
34.12644
 20
25.530028
 30
0.0
  0
VERTEX
  8
LY_1
  6
CONTINUOUS
 62
     3
  5
A97
 10
34.103161
 20
24.858305
 30
0.0
  0
VERTEX
  8
LY_1
  6
CONTINUOUS
 62
     3
  5
A98
 10
34.079313
 20
24.186602
 30
0.0
  0
VERTEX
  8
LY_1
  6
CONTINUOUS
 62
     3
  5
A99
 10
34.054896
 20
23.514919
 30
0.0
  0
VERTEX
  8
LY_1
  6
CONTINUOUS
 62
     3
  5
A9A
 10
34.029911
 20
22.843258
 30
0.0
  0
VERTEX
  8
LY_1
  6
CONTINUOUS
 62
     3
  5
A9B
 10
34.004357
 20
22.171618
 30
0.0
  0
VERTEX
  8
LY_1
  6
CONTINUOUS
 62
     3
  5
A9C
 10
33.978234
 20
21.5
 30
0.0
  0
VERTEX
  8
LY_1
  6
CONTINUOUS
 62
     3
  5
A9D
 10
33.954417
 20
20.900022
 30
0.0
  0
VERTEX
  8
LY_1
  6
CONTINUOUS
 62
     3
  5
A9E
 10
33.930145
 20
20.300064
 30
0.0
  0
VERTEX
  8
LY_1
  6
CONTINUOUS
 62
     3
  5
A9F
 10
33.905419
 20
19.700123
 30
0.0
  0
VERTEX
  8
LY_1
  6
CONTINUOUS
 62
     3
  5
AA0
 10
33.88024
 20
19.100203
 30
0.0
  0
VERTEX
  8
LY_1
  6
CONTINUOUS
 62
     3
  5
AA1
 10
33.854607
 20
18.500302
 30
0.0
  0
VERTEX
  8
LY_1
  6
CONTINUOUS
 62
     3
  5
AA2
 10
33.82852
 20
17.900421
 30
0.0
  0
VERTEX
  8
LY_1
  6
CONTINUOUS
 62
     3
  5
AA3
 10
33.80198
 20
17.30056
 30
0.0
  0
VERTEX
  8
LY_1
  6
CONTINUOUS
 62
     3
  5
AA4
 10
33.774986
 20
16.70072
 30
0.0
  0
VERTEX
  8
LY_1
  6
CONTINUOUS
 62
     3
  5
AA5
 10
33.747538
 20
16.100901
 30
0.0
  0
VERTEX
  8
LY_1
  6
CONTINUOUS
 62
     3
  5
AA6
 10
33.719637
 20
15.501104
 30
0.0
  0
VERTEX
  8
LY_1
  6
CONTINUOUS
 62
     3
  5
AA7
 10
33.691282
 20
14.901328
 30
0.0
  0
VERTEX
  8
LY_1
  6
CONTINUOUS
 62
     3
  5
AA8
 10
33.662474
 20
14.301575
 30
0.0
  0
VERTEX
  8
LY_1
  6
CONTINUOUS
 62
     3
  5
AA9
 10
33.633212
 20
13.701845
 30
0.0
  0
VERTEX
  8
LY_1
  6
CONTINUOUS
 62
     3
  5
AAA
 10
33.603497
 20
13.102137
 30
0.0
  0
VERTEX
  8
LY_1
  6
CONTINUOUS
 62
     3
  5
AAB
 10
33.573328
 20
12.502453
 30
0.0
  0
VERTEX
  8
LY_1
  6
CONTINUOUS
 62
     3
  5
AAC
 10
33.542706
 20
11.902792
 30
0.0
  0
VERTEX
  8
LY_1
  6
CONTINUOUS
 62
     3
  5
AAD
 10
33.511631
 20
11.303156
 30
0.0
  0
VERTEX
  8
LY_1
  6
CONTINUOUS
 62
     3
  5
AAE
 10
33.480103
 20
10.703544
 30
0.0
  0
VERTEX
  8
LY_1
  6
CONTINUOUS
 62
     3
  5
AAF
 10
33.448121
 20
10.103956
 30
0.0
  0
VERTEX
  8
LY_1
  6
CONTINUOUS
 62
     3
  5
AB0
 10
33.415686
 20
9.504395
 30
0.0
  0
VERTEX
  8
LY_1
  6
CONTINUOUS
 62
     3
  5
AB1
 10
33.382798
 20
8.904858
 30
0.0
  0
VERTEX
  8
LY_1
  6
CONTINUOUS
 62
     3
  5
AB2
 10
33.349457
 20
8.305348
 30
0.0
  0
VERTEX
  8
LY_1
  6
CONTINUOUS
 62
     3
  5
AB3
 10
33.315662
 20
7.705863
 30
0.0
  0
VERTEX
  8
LY_1
  6
CONTINUOUS
 62
     3
  5
AB4
 10
33.281415
 20
7.106406
 30
0.0
  0
VERTEX
  8
LY_1
  6
CONTINUOUS
 62
     3
  5
AB5
 10
33.246714
 20
6.506976
 30
0.0
  0
VERTEX
  8
LY_1
  6
CONTINUOUS
 62
     3
  5
AB6
 10
33.211561
 20
5.907573
 30
0.0
  0
VERTEX
  8
LY_1
  6
CONTINUOUS
 62
     3
  5
AB7
 10
33.175954
 20
5.308197
 30
0.0
  0
VERTEX
  8
LY_1
  6
CONTINUOUS
 62
     3
  5
AB8
 10
33.139895
 20
4.70885
 30
0.0
  0
VERTEX
  8
LY_1
  6
CONTINUOUS
 62
     3
  5
AB9
 10
33.103382
 20
4.109532
 30
0.0
  0
VERTEX
  8
LY_1
  6
CONTINUOUS
 62
     3
  5
ABA
 10
33.066417
 20
3.510242
 30
0.0
  0
VERTEX
  8
LY_1
  6
CONTINUOUS
 62
     3
  5
ABB
 10
33.028999
 20
2.910982
 30
0.0
  0
VERTEX
  8
LY_1
  6
CONTINUOUS
 62
     3
  5
ABC
 10
32.991128
 20
2.311751
 30
0.0
  0
SEQEND
  8
LY_1
  6
CONTINUOUS
 62
     3
  5
ABD
  0
POLYLINE
  8
LY_1
  6
CONTINUOUS
 62
     3
  5
A0
 66
     1
 10
0.0
 20
0.0
 30
0.0
  0
VERTEX
  8
LY_1
  6
CONTINUOUS
 62
     3
  5
ABE
 10
26.217414
 20
43.0
 30
0.0
  0
VERTEX
  8
LY_1
  6
CONTINUOUS
 62
     3
  5
ABF
 10
26.208918
 20
42.327955
 30
0.0
  0
VERTEX
  8
LY_1
  6
CONTINUOUS
 62
     3
  5
AC0
 10
26.199854
 20
41.655915
 30
0.0
  0
VERTEX
  8
LY_1
  6
CONTINUOUS
 62
     3
  5
AC1
 10
26.190222
 20
40.983881
 30
0.0
  0
VERTEX
  8
LY_1
  6
CONTINUOUS
 62
     3
  5
AC2
 10
26.180021
 20
40.311853
 30
0.0
  0
VERTEX
  8
LY_1
  6
CONTINUOUS
 62
     3
  5
AC3
 10
26.169251
 20
39.639833
 30
0.0
  0
VERTEX
  8
LY_1
  6
CONTINUOUS
 62
     3
  5
AC4
 10
26.157913
 20
38.96782
 30
0.0
  0
VERTEX
  8
LY_1
  6
CONTINUOUS
 62
     3
  5
AC5
 10
26.146006
 20
38.295816
 30
0.0
  0
VERTEX
  8
LY_1
  6
CONTINUOUS
 62
     3
  5
AC6
 10
26.133531
 20
37.62382
 30
0.0
  0
VERTEX
  8
LY_1
  6
CONTINUOUS
 62
     3
  5
AC7
 10
26.120487
 20
36.951833
 30
0.0
  0
VERTEX
  8
LY_1
  6
CONTINUOUS
 62
     3
  5
AC8
 10
26.106875
 20
36.279857
 30
0.0
  0
VERTEX
  8
LY_1
  6
CONTINUOUS
 62
     3
  5
AC9
 10
26.092694
 20
35.60789
 30
0.0
  0
VERTEX
  8
LY_1
  6
CONTINUOUS
 62
     3
  5
ACA
 10
26.077944
 20
34.935935
 30
0.0
  0
VERTEX
  8
LY_1
  6
CONTINUOUS
 62
     3
  5
ACB
 10
26.062626
 20
34.263991
 30
0.0
  0
VERTEX
  8
LY_1
  6
CONTINUOUS
 62
     3
  5
ACC
 10
26.046739
 20
33.59206
 30
0.0
  0
VERTEX
  8
LY_1
  6
CONTINUOUS
 62
     3
  5
ACD
 10
26.030283
 20
32.920141
 30
0.0
  0
VERTEX
  8
LY_1
  6
CONTINUOUS
 62
     3
  5
ACE
 10
26.013259
 20
32.248235
 30
0.0
  0
VERTEX
  8
LY_1
  6
CONTINUOUS
 62
     3
  5
ACF
 10
25.995667
 20
31.576343
 30
0.0
  0
VERTEX
  8
LY_1
  6
CONTINUOUS
 62
     3
  5
AD0
 10
25.977505
 20
30.904465
 30
0.0
  0
VERTEX
  8
LY_1
  6
CONTINUOUS
 62
     3
  5
AD1
 10
25.958775
 20
30.232603
 30
0.0
  0
VERTEX
  8
LY_1
  6
CONTINUOUS
 62
     3
  5
AD2
 10
25.939477
 20
29.560755
 30
0.0
  0
VERTEX
  8
LY_1
  6
CONTINUOUS
 62
     3
  5
AD3
 10
25.91961
 20
28.888924
 30
0.0
  0
VERTEX
  8
LY_1
  6
CONTINUOUS
 62
     3
  5
AD4
 10
25.899174
 20
28.21711
 30
0.0
  0
VERTEX
  8
LY_1
  6
CONTINUOUS
 62
     3
  5
AD5
 10
25.878169
 20
27.545312
 30
0.0
  0
VERTEX
  8
LY_1
  6
CONTINUOUS
 62
     3
  5
AD6
 10
25.856596
 20
26.873532
 30
0.0
  0
VERTEX
  8
LY_1
  6
CONTINUOUS
 62
     3
  5
AD7
 10
25.834454
 20
26.201771
 30
0.0
  0
VERTEX
  8
LY_1
  6
CONTINUOUS
 62
     3
  5
AD8
 10
25.811744
 20
25.530028
 30
0.0
  0
VERTEX
  8
LY_1
  6
CONTINUOUS
 62
     3
  5
AD9
 10
25.788465
 20
24.858305
 30
0.0
  0
VERTEX
  8
LY_1
  6
CONTINUOUS
 62
     3
  5
ADA
 10
25.764617
 20
24.186602
 30
0.0
  0
VERTEX
  8
LY_1
  6
CONTINUOUS
 62
     3
  5
ADB
 10
25.7402
 20
23.514919
 30
0.0
  0
VERTEX
  8
LY_1
  6
CONTINUOUS
 62
     3
  5
ADC
 10
25.715215
 20
22.843258
 30
0.0
  0
VERTEX
  8
LY_1
  6
CONTINUOUS
 62
     3
  5
ADD
 10
25.689661
 20
22.171618
 30
0.0
  0
VERTEX
  8
LY_1
  6
CONTINUOUS
 62
     3
  5
ADE
 10
25.663538
 20
21.5
 30
0.0
  0
VERTEX
  8
LY_1
  6
CONTINUOUS
 62
     3
  5
ADF
 10
25.63972
 20
20.900022
 30
0.0
  0
VERTEX
  8
LY_1
  6
CONTINUOUS
 62
     3
  5
AE0
 10
25.615449
 20
20.300064
 30
0.0
  0
VERTEX
  8
LY_1
  6
CONTINUOUS
 62
     3
  5
AE1
 10
25.590723
 20
19.700123
 30
0.0
  0
VERTEX
  8
LY_1
  6
CONTINUOUS
 62
     3
  5
AE2
 10
25.565544
 20
19.100203
 30
0.0
  0
VERTEX
  8
LY_1
  6
CONTINUOUS
 62
     3
  5
AE3
 10
25.539911
 20
18.500302
 30
0.0
  0
VERTEX
  8
LY_1
  6
CONTINUOUS
 62
     3
  5
AE4
 10
25.513824
 20
17.900421
 30
0.0
  0
VERTEX
  8
LY_1
  6
CONTINUOUS
 62
     3
  5
AE5
 10
25.487284
 20
17.30056
 30
0.0
  0
VERTEX
  8
LY_1
  6
CONTINUOUS
 62
     3
  5
AE6
 10
25.46029
 20
16.70072
 30
0.0
  0
VERTEX
  8
LY_1
  6
CONTINUOUS
 62
     3
  5
AE7
 10
25.432842
 20
16.100901
 30
0.0
  0
VERTEX
  8
LY_1
  6
CONTINUOUS
 62
     3
  5
AE8
 10
25.404941
 20
15.501104
 30
0.0
  0
VERTEX
  8
LY_1
  6
CONTINUOUS
 62
     3
  5
AE9
 10
25.376586
 20
14.901328
 30
0.0
  0
VERTEX
  8
LY_1
  6
CONTINUOUS
 62
     3
  5
AEA
 10
25.347778
 20
14.301575
 30
0.0
  0
VERTEX
  8
LY_1
  6
CONTINUOUS
 62
     3
  5
AEB
 10
25.318516
 20
13.701845
 30
0.0
  0
VERTEX
  8
LY_1
  6
CONTINUOUS
 62
     3
  5
AEC
 10
25.288801
 20
13.102137
 30
0.0
  0
VERTEX
  8
LY_1
  6
CONTINUOUS
 62
     3
  5
AED
 10
25.258632
 20
12.502453
 30
0.0
  0
VERTEX
  8
LY_1
  6
CONTINUOUS
 62
     3
  5
AEE
 10
25.22801
 20
11.902792
 30
0.0
  0
VERTEX
  8
LY_1
  6
CONTINUOUS
 62
     3
  5
AEF
 10
25.196935
 20
11.303156
 30
0.0
  0
VERTEX
  8
LY_1
  6
CONTINUOUS
 62
     3
  5
AF0
 10
25.165407
 20
10.703544
 30
0.0
  0
VERTEX
  8
LY_1
  6
CONTINUOUS
 62
     3
  5
AF1
 10
25.133425
 20
10.103956
 30
0.0
  0
VERTEX
  8
LY_1
  6
CONTINUOUS
 62
     3
  5
AF2
 10
25.10099
 20
9.504395
 30
0.0
  0
VERTEX
  8
LY_1
  6
CONTINUOUS
 62
     3
  5
AF3
 10
25.068102
 20
8.904858
 30
0.0
  0
VERTEX
  8
LY_1
  6
CONTINUOUS
 62
     3
  5
AF4
 10
25.03476
 20
8.305348
 30
0.0
  0
VERTEX
  8
LY_1
  6
CONTINUOUS
 62
     3
  5
AF5
 10
25.000966
 20
7.705863
 30
0.0
  0
VERTEX
  8
LY_1
  6
CONTINUOUS
 62
     3
  5
AF6
 10
24.966718
 20
7.106406
 30
0.0
  0
VERTEX
  8
LY_1
  6
CONTINUOUS
 62
     3
  5
AF7
 10
24.932018
 20
6.506976
 30
0.0
  0
VERTEX
  8
LY_1
  6
CONTINUOUS
 62
     3
  5
AF8
 10
24.896864
 20
5.907573
 30
0.0
  0
VERTEX
  8
LY_1
  6
CONTINUOUS
 62
     3
  5
AF9
 10
24.861258
 20
5.308197
 30
0.0
  0
VERTEX
  8
LY_1
  6
CONTINUOUS
 62
     3
  5
AFA
 10
24.825198
 20
4.70885
 30
0.0
  0
VERTEX
  8
LY_1
  6
CONTINUOUS
 62
     3
  5
AFB
 10
24.788686
 20
4.109532
 30
0.0
  0
VERTEX
  8
LY_1
  6
CONTINUOUS
 62
     3
  5
AFC
 10
24.751721
 20
3.510242
 30
0.0
  0
VERTEX
  8
LY_1
  6
CONTINUOUS
 62
     3
  5
AFD
 10
24.714303
 20
2.910982
 30
0.0
  0
VERTEX
  8
LY_1
  6
CONTINUOUS
 62
     3
  5
AFE
 10
24.676432
 20
2.311751
 30
0.0
  0
SEQEND
  8
LY_1
  6
CONTINUOUS
 62
     3
  5
AFF
  0
POLYLINE
  8
LY_1
  6
CONTINUOUS
 62
     3
  5
A1
 66
     1
 10
0.0
 20
0.0
 30
0.0
  0
VERTEX
  8
LY_1
  6
CONTINUOUS
 62
     3
  5
B00
 10
15.198183
 20
10.499693
 30
0.0
  0
VERTEX
  8
LY_1
  6
CONTINUOUS
 62
     3
  5
B01
 10
15.188561
 20
9.987928
 30
0.0
  0
VERTEX
  8
LY_1
  6
CONTINUOUS
 62
     3
  5
B02
 10
15.178823
 20
9.476166
 30
0.0
  0
VERTEX
  8
LY_1
  6
CONTINUOUS
 62
     3
  5
B03
 10
15.168969
 20
8.964406
 30
0.0
  0
VERTEX
  8
LY_1
  6
CONTINUOUS
 62
     3
  5
B04
 10
15.158999
 20
8.452649
 30
0.0
  0
VERTEX
  8
LY_1
  6
CONTINUOUS
 62
     3
  5
B05
 10
15.148913
 20
7.940894
 30
0.0
  0
VERTEX
  8
LY_1
  6
CONTINUOUS
 62
     3
  5
B06
 10
15.138711
 20
7.429141
 30
0.0
  0
VERTEX
  8
LY_1
  6
CONTINUOUS
 62
     3
  5
B07
 10
15.128392
 20
6.91739
 30
0.0
  0
VERTEX
  8
LY_1
  6
CONTINUOUS
 62
     3
  5
B08
 10
15.117958
 20
6.405643
 30
0.0
  0
VERTEX
  8
LY_1
  6
CONTINUOUS
 62
     3
  5
B09
 10
15.107408
 20
5.893897
 30
0.0
  0
VERTEX
  8
LY_1
  6
CONTINUOUS
 62
     3
  5
B0A
 10
15.096741
 20
5.382154
 30
0.0
  0
VERTEX
  8
LY_1
  6
CONTINUOUS
 62
     3
  5
B0B
 10
15.085959
 20
4.870414
 30
0.0
  0
VERTEX
  8
LY_1
  6
CONTINUOUS
 62
     3
  5
B0C
 10
15.07506
 20
4.358676
 30
0.0
  0
VERTEX
  8
LY_1
  6
CONTINUOUS
 62
     3
  5
B0D
 10
15.064045
 20
3.846941
 30
0.0
  0
VERTEX
  8
LY_1
  6
CONTINUOUS
 62
     3
  5
B0E
 10
15.052914
 20
3.335208
 30
0.0
  0
VERTEX
  8
LY_1
  6
CONTINUOUS
 62
     3
  5
B0F
 10
15.041668
 20
2.823478
 30
0.0
  0
VERTEX
  8
LY_1
  6
CONTINUOUS
 62
     3
  5
B10
 10
15.030305
 20
2.311751
 30
0.0
  0
SEQEND
  8
LY_1
  6
CONTINUOUS
 62
     3
  5
B11
  0
POLYLINE
  8
LY_1
  6
CONTINUOUS
 62
     3
  5
A2
 66
     1
 10
0.0
 20
0.0
 30
0.0
  0
VERTEX
  8
LY_1
  6
CONTINUOUS
 62
     3
  5
B12
 10
5.39033
 20
10.499693
 30
0.0
  0
VERTEX
  8
LY_1
  6
CONTINUOUS
 62
     3
  5
B13
 10
5.380708
 20
9.987928
 30
0.0
  0
VERTEX
  8
LY_1
  6
CONTINUOUS
 62
     3
  5
B14
 10
5.37097
 20
9.476166
 30
0.0
  0
VERTEX
  8
LY_1
  6
CONTINUOUS
 62
     3
  5
B15
 10
5.361116
 20
8.964406
 30
0.0
  0
VERTEX
  8
LY_1
  6
CONTINUOUS
 62
     3
  5
B16
 10
5.351146
 20
8.452649
 30
0.0
  0
VERTEX
  8
LY_1
  6
CONTINUOUS
 62
     3
  5
B17
 10
5.34106
 20
7.940894
 30
0.0
  0
VERTEX
  8
LY_1
  6
CONTINUOUS
 62
     3
  5
B18
 10
5.330858
 20
7.429141
 30
0.0
  0
VERTEX
  8
LY_1
  6
CONTINUOUS
 62
     3
  5
B19
 10
5.320539
 20
6.91739
 30
0.0
  0
VERTEX
  8
LY_1
  6
CONTINUOUS
 62
     3
  5
B1A
 10
5.310105
 20
6.405643
 30
0.0
  0
VERTEX
  8
LY_1
  6
CONTINUOUS
 62
     3
  5
B1B
 10
5.299555
 20
5.893897
 30
0.0
  0
VERTEX
  8
LY_1
  6
CONTINUOUS
 62
     3
  5
B1C
 10
5.288888
 20
5.382154
 30
0.0
  0
VERTEX
  8
LY_1
  6
CONTINUOUS
 62
     3
  5
B1D
 10
5.278106
 20
4.870414
 30
0.0
  0
VERTEX
  8
LY_1
  6
CONTINUOUS
 62
     3
  5
B1E
 10
5.267207
 20
4.358676
 30
0.0
  0
VERTEX
  8
LY_1
  6
CONTINUOUS
 62
     3
  5
B1F
 10
5.256192
 20
3.846941
 30
0.0
  0
VERTEX
  8
LY_1
  6
CONTINUOUS
 62
     3
  5
B20
 10
5.245062
 20
3.335208
 30
0.0
  0
VERTEX
  8
LY_1
  6
CONTINUOUS
 62
     3
  5
B21
 10
5.233815
 20
2.823478
 30
0.0
  0
VERTEX
  8
LY_1
  6
CONTINUOUS
 62
     3
  5
B22
 10
5.222452
 20
2.311751
 30
0.0
  0
SEQEND
  8
LY_1
  6
CONTINUOUS
 62
     3
  5
B23
  0
POLYLINE
  8
LY_1
  6
CONTINUOUS
 62
     3
  5
A3
 66
     1
 10
0.0
 20
0.0
 30
0.0
  0
VERTEX
  8
LY_1
  6
CONTINUOUS
 62
     3
  5
B24
 10
14.258262
 20
0.108998
 30
0.0
  0
VERTEX
  8
LY_1
  6
CONTINUOUS
 62
     3
  5
B25
 10
13.95514
 20
0.095938
 30
0.0
  0
VERTEX
  8
LY_1
  6
CONTINUOUS
 62
     3
  5
B26
 10
13.651979
 20
0.083711
 30
0.0
  0
VERTEX
  8
LY_1
  6
CONTINUOUS
 62
     3
  5
B27
 10
13.348782
 20
0.072315
 30
0.0
  0
VERTEX
  8
LY_1
  6
CONTINUOUS
 62
     3
  5
B28
 10
13.045551
 20
0.061752
 30
0.0
  0
VERTEX
  8
LY_1
  6
CONTINUOUS
 62
     3
  5
B29
 10
12.742288
 20
0.052021
 30
0.0
  0
VERTEX
  8
LY_1
  6
CONTINUOUS
 62
     3
  5
B2A
 10
12.438997
 20
0.043123
 30
0.0
  0
VERTEX
  8
LY_1
  6
CONTINUOUS
 62
     3
  5
B2B
 10
12.13568
 20
0.035058
 30
0.0
  0
VERTEX
  8
LY_1
  6
CONTINUOUS
 62
     3
  5
B2C
 10
11.832339
 20
0.027827
 30
0.0
  0
VERTEX
  8
LY_1
  6
CONTINUOUS
 62
     3
  5
B2D
 10
11.528977
 20
0.021429
 30
0.0
  0
VERTEX
  8
LY_1
  6
CONTINUOUS
 62
     3
  5
B2E
 10
11.225596
 20
0.015865
 30
0.0
  0
VERTEX
  8
LY_1
  6
CONTINUOUS
 62
     3
  5
B2F
 10
10.9222
 20
0.011134
 30
0.0
  0
VERTEX
  8
LY_1
  6
CONTINUOUS
 62
     3
  5
B30
 10
10.61879
 20
0.007238
 30
0.0
  0
VERTEX
  8
LY_1
  6
CONTINUOUS
 62
     3
  5
B31
 10
10.315369
 20
0.004176
 30
0.0
  0
VERTEX
  8
LY_1
  6
CONTINUOUS
 62
     3
  5
B32
 10
10.01194
 20
0.001949
 30
0.0
  0
VERTEX
  8
LY_1
  6
CONTINUOUS
 62
     3
  5
B33
 10
9.708506
 20
0.000557
 30
0.0
  0
VERTEX
  8
LY_1
  6
CONTINUOUS
 62
     3
  5
B34
 10
9.405068
 20
0.0
 30
0.0
  0
VERTEX
  8
LY_1
  6
CONTINUOUS
 62
     3
  5
B35
 10
9.095289
 20
0.000293
 30
0.0
  0
VERTEX
  8
LY_1
  6
CONTINUOUS
 62
     3
  5
B36
 10
8.785512
 20
0.001456
 30
0.0
  0
VERTEX
  8
LY_1
  6
CONTINUOUS
 62
     3
  5
B37
 10
8.475741
 20
0.00349
 30
0.0
  0
VERTEX
  8
LY_1
  6
CONTINUOUS
 62
     3
  5
B38
 10
8.165976
 20
0.006393
 30
0.0
  0
VERTEX
  8
LY_1
  6
CONTINUOUS
 62
     3
  5
B39
 10
7.856223
 20
0.010166
 30
0.0
  0
VERTEX
  8
LY_1
  6
CONTINUOUS
 62
     3
  5
B3A
 10
7.546482
 20
0.014809
 30
0.0
  0
VERTEX
  8
LY_1
  6
CONTINUOUS
 62
     3
  5
B3B
 10
7.236757
 20
0.02032
 30
0.0
  0
VERTEX
  8
LY_1
  6
CONTINUOUS
 62
     3
  5
B3C
 10
6.927051
 20
0.026701
 30
0.0
  0
VERTEX
  8
LY_1
  6
CONTINUOUS
 62
     3
  5
B3D
 10
6.617367
 20
0.03395
 30
0.0
  0
VERTEX
  8
LY_1
  6
CONTINUOUS
 62
     3
  5
B3E
 10
6.307707
 20
0.042068
 30
0.0
  0
VERTEX
  8
LY_1
  6
CONTINUOUS
 62
     3
  5
B3F
 10
5.998074
 20
0.051054
 30
0.0
  0
VERTEX
  8
LY_1
  6
CONTINUOUS
 62
     3
  5
B40
 10
5.68847
 20
0.060908
 30
0.0
  0
VERTEX
  8
LY_1
  6
CONTINUOUS
 62
     3
  5
B41
 10
5.378899
 20
0.071629
 30
0.0
  0
VERTEX
  8
LY_1
  6
CONTINUOUS
 62
     3
  5
B42
 10
5.069364
 20
0.083218
 30
0.0
  0
VERTEX
  8
LY_1
  6
CONTINUOUS
 62
     3
  5
B43
 10
4.759866
 20
0.095675
 30
0.0
  0
VERTEX
  8
LY_1
  6
CONTINUOUS
 62
     3
  5
B44
 10
4.450409
 20
0.108998
 30
0.0
  0
SEQEND
  8
LY_1
  6
CONTINUOUS
 62
     3
  5
B45
  0
POLYLINE
  8
LY_1
  6
CONTINUOUS
 62
     3
  5
A4
 66
     1
 10
0.0
 20
0.0
 30
0.0
  0
VERTEX
  8
LY_1
  6
CONTINUOUS
 62
     3
  5
B46
 10
25.001967
 20
43.0
 30
0.0
  0
VERTEX
  8
LY_1
  6
CONTINUOUS
 62
     3
  5
B47
 10
24.974911
 20
41.984375
 30
0.0
  0
VERTEX
  8
LY_1
  6
CONTINUOUS
 62
     3
  5
B48
 10
24.947854
 20
40.96875
 30
0.0
  0
VERTEX
  8
LY_1
  6
CONTINUOUS
 62
     3
  5
B49
 10
24.920797
 20
39.953125
 30
0.0
  0
VERTEX
  8
LY_1
  6
CONTINUOUS
 62
     3
  5
B4A
 10
24.89374
 20
38.9375
 30
0.0
  0
VERTEX
  8
LY_1
  6
CONTINUOUS
 62
     3
  5
B4B
 10
24.866683
 20
37.921875
 30
0.0
  0
VERTEX
  8
LY_1
  6
CONTINUOUS
 62
     3
  5
B4C
 10
24.839626
 20
36.90625
 30
0.0
  0
VERTEX
  8
LY_1
  6
CONTINUOUS
 62
     3
  5
B4D
 10
24.812569
 20
35.890625
 30
0.0
  0
VERTEX
  8
LY_1
  6
CONTINUOUS
 62
     3
  5
B4E
 10
24.785512
 20
34.875
 30
0.0
  0
VERTEX
  8
LY_1
  6
CONTINUOUS
 62
     3
  5
B4F
 10
24.758455
 20
33.859375
 30
0.0
  0
VERTEX
  8
LY_1
  6
CONTINUOUS
 62
     3
  5
B50
 10
24.731398
 20
32.84375
 30
0.0
  0
VERTEX
  8
LY_1
  6
CONTINUOUS
 62
     3
  5
B51
 10
24.704342
 20
31.828125
 30
0.0
  0
VERTEX
  8
LY_1
  6
CONTINUOUS
 62
     3
  5
B52
 10
24.677285
 20
30.8125
 30
0.0
  0
VERTEX
  8
LY_1
  6
CONTINUOUS
 62
     3
  5
B53
 10
24.650228
 20
29.796875
 30
0.0
  0
VERTEX
  8
LY_1
  6
CONTINUOUS
 62
     3
  5
B54
 10
24.623171
 20
28.78125
 30
0.0
  0
VERTEX
  8
LY_1
  6
CONTINUOUS
 62
     3
  5
B55
 10
24.596114
 20
27.765625
 30
0.0
  0
VERTEX
  8
LY_1
  6
CONTINUOUS
 62
     3
  5
B56
 10
24.569057
 20
26.75
 30
0.0
  0
VERTEX
  8
LY_1
  6
CONTINUOUS
 62
     3
  5
B57
 10
24.542
 20
25.734375
 30
0.0
  0
VERTEX
  8
LY_1
  6
CONTINUOUS
 62
     3
  5
B58
 10
24.514943
 20
24.71875
 30
0.0
  0
VERTEX
  8
LY_1
  6
CONTINUOUS
 62
     3
  5
B59
 10
24.487886
 20
23.703125
 30
0.0
  0
VERTEX
  8
LY_1
  6
CONTINUOUS
 62
     3
  5
B5A
 10
24.46083
 20
22.6875
 30
0.0
  0
VERTEX
  8
LY_1
  6
CONTINUOUS
 62
     3
  5
B5B
 10
24.433773
 20
21.671875
 30
0.0
  0
VERTEX
  8
LY_1
  6
CONTINUOUS
 62
     3
  5
B5C
 10
24.406716
 20
20.65625
 30
0.0
  0
VERTEX
  8
LY_1
  6
CONTINUOUS
 62
     3
  5
B5D
 10
24.379659
 20
19.640625
 30
0.0
  0
VERTEX
  8
LY_1
  6
CONTINUOUS
 62
     3
  5
B5E
 10
24.352602
 20
18.625
 30
0.0
  0
VERTEX
  8
LY_1
  6
CONTINUOUS
 62
     3
  5
B5F
 10
24.325545
 20
17.609375
 30
0.0
  0
VERTEX
  8
LY_1
  6
CONTINUOUS
 62
     3
  5
B60
 10
24.298488
 20
16.59375
 30
0.0
  0
VERTEX
  8
LY_1
  6
CONTINUOUS
 62
     3
  5
B61
 10
24.271431
 20
15.578125
 30
0.0
  0
VERTEX
  8
LY_1
  6
CONTINUOUS
 62
     3
  5
B62
 10
24.244374
 20
14.5625
 30
0.0
  0
VERTEX
  8
LY_1
  6
CONTINUOUS
 62
     3
  5
B63
 10
24.217317
 20
13.546875
 30
0.0
  0
VERTEX
  8
LY_1
  6
CONTINUOUS
 62
     3
  5
B64
 10
24.190261
 20
12.53125
 30
0.0
  0
VERTEX
  8
LY_1
  6
CONTINUOUS
 62
     3
  5
B65
 10
24.163204
 20
11.515625
 30
0.0
  0
VERTEX
  8
LY_1
  6
CONTINUOUS
 62
     3
  5
B66
 10
24.136147
 20
10.5
 30
0.0
  0
SEQEND
  8
LY_1
  6
CONTINUOUS
 62
     3
  5
B67
  0
POLYLINE
  8
LY_1
  6
CONTINUOUS
 62
     3
  5
A5
 66
     1
 10
0.0
 20
0.0
 30
0.0
  0
VERTEX
  8
LY_1
  6
CONTINUOUS
 62
     3
  5
B68
 10
-24.998033
 20
43.0
 30
0.0
  0
VERTEX
  8
LY_1
  6
CONTINUOUS
 62
     3
  5
B69
 10
-24.970976
 20
41.984375
 30
0.0
  0
VERTEX
  8
LY_1
  6
CONTINUOUS
 62
     3
  5
B6A
 10
-24.943919
 20
40.96875
 30
0.0
  0
VERTEX
  8
LY_1
  6
CONTINUOUS
 62
     3
  5
B6B
 10
-24.916862
 20
39.953125
 30
0.0
  0
VERTEX
  8
LY_1
  6
CONTINUOUS
 62
     3
  5
B6C
 10
-24.889805
 20
38.9375
 30
0.0
  0
VERTEX
  8
LY_1
  6
CONTINUOUS
 62
     3
  5
B6D
 10
-24.862748
 20
37.921875
 30
0.0
  0
VERTEX
  8
LY_1
  6
CONTINUOUS
 62
     3
  5
B6E
 10
-24.835691
 20
36.90625
 30
0.0
  0
VERTEX
  8
LY_1
  6
CONTINUOUS
 62
     3
  5
B6F
 10
-24.808634
 20
35.890625
 30
0.0
  0
VERTEX
  8
LY_1
  6
CONTINUOUS
 62
     3
  5
B70
 10
-24.781577
 20
34.875
 30
0.0
  0
VERTEX
  8
LY_1
  6
CONTINUOUS
 62
     3
  5
B71
 10
-24.754521
 20
33.859375
 30
0.0
  0
VERTEX
  8
LY_1
  6
CONTINUOUS
 62
     3
  5
B72
 10
-24.727464
 20
32.84375
 30
0.0
  0
VERTEX
  8
LY_1
  6
CONTINUOUS
 62
     3
  5
B73
 10
-24.700407
 20
31.828125
 30
0.0
  0
VERTEX
  8
LY_1
  6
CONTINUOUS
 62
     3
  5
B74
 10
-24.67335
 20
30.8125
 30
0.0
  0
VERTEX
  8
LY_1
  6
CONTINUOUS
 62
     3
  5
B75
 10
-24.646293
 20
29.796875
 30
0.0
  0
VERTEX
  8
LY_1
  6
CONTINUOUS
 62
     3
  5
B76
 10
-24.619236
 20
28.78125
 30
0.0
  0
VERTEX
  8
LY_1
  6
CONTINUOUS
 62
     3
  5
B77
 10
-24.592179
 20
27.765625
 30
0.0
  0
VERTEX
  8
LY_1
  6
CONTINUOUS
 62
     3
  5
B78
 10
-24.565122
 20
26.75
 30
0.0
  0
VERTEX
  8
LY_1
  6
CONTINUOUS
 62
     3
  5
B79
 10
-24.538065
 20
25.734375
 30
0.0
  0
VERTEX
  8
LY_1
  6
CONTINUOUS
 62
     3
  5
B7A
 10
-24.511008
 20
24.71875
 30
0.0
  0
VERTEX
  8
LY_1
  6
CONTINUOUS
 62
     3
  5
B7B
 10
-24.483952
 20
23.703125
 30
0.0
  0
VERTEX
  8
LY_1
  6
CONTINUOUS
 62
     3
  5
B7C
 10
-24.456895
 20
22.6875
 30
0.0
  0
VERTEX
  8
LY_1
  6
CONTINUOUS
 62
     3
  5
B7D
 10
-24.429838
 20
21.671875
 30
0.0
  0
VERTEX
  8
LY_1
  6
CONTINUOUS
 62
     3
  5
B7E
 10
-24.402781
 20
20.65625
 30
0.0
  0
VERTEX
  8
LY_1
  6
CONTINUOUS
 62
     3
  5
B7F
 10
-24.375724
 20
19.640625
 30
0.0
  0
VERTEX
  8
LY_1
  6
CONTINUOUS
 62
     3
  5
B80
 10
-24.348667
 20
18.625
 30
0.0
  0
VERTEX
  8
LY_1
  6
CONTINUOUS
 62
     3
  5
B81
 10
-24.32161
 20
17.609375
 30
0.0
  0
VERTEX
  8
LY_1
  6
CONTINUOUS
 62
     3
  5
B82
 10
-24.294553
 20
16.59375
 30
0.0
  0
VERTEX
  8
LY_1
  6
CONTINUOUS
 62
     3
  5
B83
 10
-24.267496
 20
15.578125
 30
0.0
  0
VERTEX
  8
LY_1
  6
CONTINUOUS
 62
     3
  5
B84
 10
-24.24044
 20
14.5625
 30
0.0
  0
VERTEX
  8
LY_1
  6
CONTINUOUS
 62
     3
  5
B85
 10
-24.213383
 20
13.546875
 30
0.0
  0
VERTEX
  8
LY_1
  6
CONTINUOUS
 62
     3
  5
B86
 10
-24.186326
 20
12.53125
 30
0.0
  0
VERTEX
  8
LY_1
  6
CONTINUOUS
 62
     3
  5
B87
 10
-24.159269
 20
11.515625
 30
0.0
  0
VERTEX
  8
LY_1
  6
CONTINUOUS
 62
     3
  5
B88
 10
-24.132212
 20
10.5
 30
0.0
  0
SEQEND
  8
LY_1
  6
CONTINUOUS
 62
     3
  5
B89
  0
ARC
  8
LY_1
  6
CONTINUOUS
 62
     3
  5
A6
 10
-49.18399
 20
3.0
 30
0.0
 40
3.0
 50
186.422364
 51
270.0
  0
ARC
  8
LY_1
  6
CONTINUOUS
 62
     3
  5
A7
 10
49.205595
 20
3.0
 30
0.0
 40
3.0
 50
270.0
 51
353.577636
  0
LINE
  8
LY_1
  6
CONTINUOUS
 62
     3
  5
A8
 10
31.813272
 20
-20.0
 30
0.0
 11
32.313272
 21
-19.5
 31
0.0
  0
LINE
  8
LY_1
  6
CONTINUOUS
 62
     3
  5
A9
 10
28.813272
 20
-20.0
 30
0.0
 11
28.313272
 21
-19.5
 31
0.0
  0
LINE
  8
LY_1
  6
CONTINUOUS
 62
    80
  5
AA
 10
31.813272
 20
-12.2
 30
0.0
 11
31.813272
 21
-20.0
 31
0.0
  0
LINE
  8
LY_1
  6
CONTINUOUS
 62
    80
  5
AB
 10
28.813272
 20
-12.2
 30
0.0
 11
28.813272
 21
-20.0
 31
0.0
  0
LINE
  8
LY_1
  6
CONTINUOUS
 62
    80
  5
AC
 10
28.313272
 20
-19.5
 30
0.0
 11
32.313272
 21
-19.5
 31
0.0
  0
LINE
  8
LY_1
  6
CONTINUOUS
 62
     3
  5
AD
 10
28.313272
 20
-12.2
 30
0.0
 11
28.313272
 21
-19.5
 31
0.0
  0
LINE
  8
LY_1
  6
CONTINUOUS
 62
     3
  5
AE
 10
32.313272
 20
-12.2
 30
0.0
 11
32.313272
 21
-19.5
 31
0.0
  0
LINE
  8
LY_1
  6
CONTINUOUS
 62
     3
  5
AF
 10
28.813272
 20
-20.0
 30
0.0
 11
31.813272
 21
-20.0
 31
0.0
  0
LINE
  8
LY_1
  6
CONTINUOUS
 62
     3
  5
B0
 10
5.390318
 20
10.5
 30
0.0
 11
15.198171
 21
10.5
 31
0.0
  0
LINE
  8
LY_1
  6
CONTINUOUS
 62
     3
  5
B1
 10
-6.498034
 20
-8.0
 30
0.0
 11
6.501966
 21
-8.0
 31
0.0
  0
LINE
  8
LY_1
  6
CONTINUOUS
 62
     3
  5
B2
 10
6.501946
 20
-8.000082
 30
0.0
 11
7.001947
 21
-0.000067
 31
0.0
  0
LINE
  8
LY_1
  6
CONTINUOUS
 62
     3
  5
B3
 10
-6.49801
 20
-8.000094
 30
0.0
 11
-6.998011
 21
-0.000079
 31
0.0
  0
LINE
  8
LY_1
  6
CONTINUOUS
 62
     3
  5
B4
 10
-36.80934
 20
-8.0
 30
0.0
 11
-23.80934
 21
-8.0
 31
0.0
  0
LINE
  8
LY_1
  6
CONTINUOUS
 62
     3
  5
B5
 10
-23.80936
 20
-8.000082
 30
0.0
 11
-23.309359
 21
-0.000067
 31
0.0
  0
LINE
  8
LY_1
  6
CONTINUOUS
 62
     3
  5
B6
 10
-36.809316
 20
-8.000094
 30
0.0
 11
-37.309317
 21
-0.000079
 31
0.0
  0
LINE
  8
LY_1
  6
CONTINUOUS
 62
     3
  5
B7
 10
-24.998033
 20
43.0
 30
0.0
 11
25.001967
 21
43.0
 31
0.0
  0
LINE
  8
LY_1
  6
CONTINUOUS
 62
     3
  5
B8
 10
-15.19416
 20
10.5
 30
0.0
 11
-5.386307
 21
10.5
 31
0.0
  0
LINE
  8
LY_1
  6
CONTINUOUS
 62
     3
  5
B9
 10
-49.18399
 20
0.0
 30
0.0
 11
49.205595
 21
0.0
 31
0.0
  0
LINE
  8
LY_1
  6
CONTINUOUS
 62
     3
  5
BA
 10
23.813272
 20
-8.0
 30
0.0
 11
36.813272
 21
-8.0
 31
0.0
  0
LINE
  8
LY_1
  6
CONTINUOUS
 62
     3
  5
BB
 10
36.813252
 20
-8.000082
 30
0.0
 11
37.313253
 21
-0.000067
 31
0.0
  0
LINE
  8
LY_1
  6
CONTINUOUS
 62
     3
  5
BC
 10
23.813296
 20
-8.000094
 30
0.0
 11
23.313295
 21
-0.000079
 31
0.0
  0
ARC
  8
LY_1
  6
CONTINUOUS
 62
     3
  5
BD
 10
-394.989182
 20
53.0
 30
0.0
 40
450.0
 50
353.577636
 51
359.999997
  0
ARC
  8
LY_1
  6
CONTINUOUS
 62
     3
  5
BE
 10
395.010787
 20
53.0
 30
0.0
 40
450.0
 50
180.000003
 51
186.422364
  0
POLYLINE
  8
LY_1
  6
CONTINUOUS
 62
     3
  5
BF
 66
     1
 10
0.0
 20
0.0
 30
0.0
  0
VERTEX
  8
LY_1
  6
CONTINUOUS
 62
     3
  5
B8A
 10
54.596514
 20
43.0
 30
0.0
  0
VERTEX
  8
LY_1
  6
CONTINUOUS
 62
     3
  5
B8B
 10
54.581445
 20
42.327596
 30
0.0
  0
VERTEX
  8
LY_1
  6
CONTINUOUS
 62
     3
  5
B8C
 10
54.565376
 20
41.655209
 30
0.0
  0
VERTEX
  8
LY_1
  6
CONTINUOUS
 62
     3
  5
B8D
 10
54.548309
 20
40.982841
 30
0.0
  0
VERTEX
  8
LY_1
  6
CONTINUOUS
 62
     3
  5
B8E
 10
54.530242
 20
40.310492
 30
0.0
  0
VERTEX
  8
LY_1
  6
CONTINUOUS
 62
     3
  5
B8F
 10
54.511177
 20
39.638166
 30
0.0
  0
VERTEX
  8
LY_1
  6
CONTINUOUS
 62
     3
  5
B90
 10
54.491113
 20
38.965863
 30
0.0
  0
VERTEX
  8
LY_1
  6
CONTINUOUS
 62
     3
  5
B91
 10
54.47005
 20
38.293586
 30
0.0
  0
VERTEX
  8
LY_1
  6
CONTINUOUS
 62
     3
  5
B92
 10
54.447988
 20
37.621336
 30
0.0
  0
VERTEX
  8
LY_1
  6
CONTINUOUS
 62
     3
  5
B93
 10
54.424927
 20
36.949114
 30
0.0
  0
VERTEX
  8
LY_1
  6
CONTINUOUS
 62
     3
  5
B94
 10
54.400866
 20
36.276924
 30
0.0
  0
VERTEX
  8
LY_1
  6
CONTINUOUS
 62
     3
  5
B95
 10
54.375807
 20
35.604766
 30
0.0
  0
VERTEX
  8
LY_1
  6
CONTINUOUS
 62
     3
  5
B96
 10
54.349749
 20
34.932642
 30
0.0
  0
VERTEX
  8
LY_1
  6
CONTINUOUS
 62
     3
  5
B97
 10
54.322691
 20
34.260554
 30
0.0
  0
VERTEX
  8
LY_1
  6
CONTINUOUS
 62
     3
  5
B98
 10
54.294634
 20
33.588503
 30
0.0
  0
VERTEX
  8
LY_1
  6
CONTINUOUS
 62
     3
  5
B99
 10
54.265578
 20
32.916492
 30
0.0
  0
VERTEX
  8
LY_1
  6
CONTINUOUS
 62
     3
  5
B9A
 10
54.235523
 20
32.244521
 30
0.0
  0
VERTEX
  8
LY_1
  6
CONTINUOUS
 62
     3
  5
B9B
 10
54.204469
 20
31.572594
 30
0.0
  0
VERTEX
  8
LY_1
  6
CONTINUOUS
 62
     3
  5
B9C
 10
54.172415
 20
30.900711
 30
0.0
  0
VERTEX
  8
LY_1
  6
CONTINUOUS
 62
     3
  5
B9D
 10
54.139362
 20
30.228875
 30
0.0
  0
VERTEX
  8
LY_1
  6
CONTINUOUS
 62
     3
  5
B9E
 10
54.10531
 20
29.557086
 30
0.0
  0
VERTEX
  8
LY_1
  6
CONTINUOUS
 62
     3
  5
B9F
 10
54.070258
 20
28.885347
 30
0.0
  0
VERTEX
  8
LY_1
  6
CONTINUOUS
 62
     3
  5
BA0
 10
54.034207
 20
28.21366
 30
0.0
  0
VERTEX
  8
LY_1
  6
CONTINUOUS
 62
     3
  5
BA1
 10
53.997156
 20
27.542026
 30
0.0
  0
VERTEX
  8
LY_1
  6
CONTINUOUS
 62
     3
  5
BA2
 10
53.959106
 20
26.870446
 30
0.0
  0
VERTEX
  8
LY_1
  6
CONTINUOUS
 62
     3
  5
BA3
 10
53.920056
 20
26.198924
 30
0.0
  0
VERTEX
  8
LY_1
  6
CONTINUOUS
 62
     3
  5
BA4
 10
53.880007
 20
25.52746
 30
0.0
  0
VERTEX
  8
LY_1
  6
CONTINUOUS
 62
     3
  5
BA5
 10
53.838959
 20
24.856056
 30
0.0
  0
VERTEX
  8
LY_1
  6
CONTINUOUS
 62
     3
  5
BA6
 10
53.79691
 20
24.184714
 30
0.0
  0
VERTEX
  8
LY_1
  6
CONTINUOUS
 62
     3
  5
BA7
 10
53.753863
 20
23.513436
 30
0.0
  0
VERTEX
  8
LY_1
  6
CONTINUOUS
 62
     3
  5
BA8
 10
53.709815
 20
22.842223
 30
0.0
  0
VERTEX
  8
LY_1
  6
CONTINUOUS
 62
     3
  5
BA9
 10
53.664768
 20
22.171077
 30
0.0
  0
VERTEX
  8
LY_1
  6
CONTINUOUS
 62
     3
  5
BAA
 10
53.618721
 20
21.5
 30
0.0
  0
VERTEX
  8
LY_1
  6
CONTINUOUS
 62
     3
  5
BAB
 10
53.576651
 20
20.899295
 30
0.0
  0
VERTEX
  8
LY_1
  6
CONTINUOUS
 62
     3
  5
BAC
 10
53.53378
 20
20.298649
 30
0.0
  0
VERTEX
  8
LY_1
  6
CONTINUOUS
 62
     3
  5
BAD
 10
53.490108
 20
19.698061
 30
0.0
  0
VERTEX
  8
LY_1
  6
CONTINUOUS
 62
     3
  5
BAE
 10
53.445635
 20
19.097533
 30
0.0
  0
VERTEX
  8
LY_1
  6
CONTINUOUS
 62
     3
  5
BAF
 10
53.400362
 20
18.497066
 30
0.0
  0
VERTEX
  8
LY_1
  6
CONTINUOUS
 62
     3
  5
BB0
 10
53.354289
 20
17.896661
 30
0.0
  0
VERTEX
  8
LY_1
  6
CONTINUOUS
 62
     3
  5
BB1
 10
53.307415
 20
17.29632
 30
0.0
  0
VERTEX
  8
LY_1
  6
CONTINUOUS
 62
     3
  5
BB2
 10
53.259742
 20
16.696044
 30
0.0
  0
VERTEX
  8
LY_1
  6
CONTINUOUS
 62
     3
  5
BB3
 10
53.211269
 20
16.095833
 30
0.0
  0
VERTEX
  8
LY_1
  6
CONTINUOUS
 62
     3
  5
BB4
 10
53.161996
 20
15.495689
 30
0.0
  0
VERTEX
  8
LY_1
  6
CONTINUOUS
 62
     3
  5
BB5
 10
53.111924
 20
14.895613
 30
0.0
  0
VERTEX
  8
LY_1
  6
CONTINUOUS
 62
     3
  5
BB6
 10
53.061054
 20
14.295606
 30
0.0
  0
VERTEX
  8
LY_1
  6
CONTINUOUS
 62
     3
  5
BB7
 10
53.009384
 20
13.695669
 30
0.0
  0
VERTEX
  8
LY_1
  6
CONTINUOUS
 62
     3
  5
BB8
 10
52.956915
 20
13.095804
 30
0.0
  0
VERTEX
  8
LY_1
  6
CONTINUOUS
 62
     3
  5
BB9
 10
52.903648
 20
12.496012
 30
0.0
  0
VERTEX
  8
LY_1
  6
CONTINUOUS
 62
     3
  5
BBA
 10
52.849583
 20
11.896293
 30
0.0
  0
VERTEX
  8
LY_1
  6
CONTINUOUS
 62
     3
  5
BBB
 10
52.794719
 20
11.296649
 30
0.0
  0
VERTEX
  8
LY_1
  6
CONTINUOUS
 62
     3
  5
BBC
 10
52.739058
 20
10.697081
 30
0.0
  0
VERTEX
  8
LY_1
  6
CONTINUOUS
 62
     3
  5
BBD
 10
52.682598
 20
10.09759
 30
0.0
  0
VERTEX
  8
LY_1
  6
CONTINUOUS
 62
     3
  5
BBE
 10
52.625341
 20
9.498178
 30
0.0
  0
VERTEX
  8
LY_1
  6
CONTINUOUS
 62
     3
  5
BBF
 10
52.567287
 20
8.898845
 30
0.0
  0
VERTEX
  8
LY_1
  6
CONTINUOUS
 62
     3
  5
BC0
 10
52.508436
 20
8.299592
 30
0.0
  0
VERTEX
  8
LY_1
  6
CONTINUOUS
 62
     3
  5
BC1
 10
52.448787
 20
7.700422
 30
0.0
  0
VERTEX
  8
LY_1
  6
CONTINUOUS
 62
     3
  5
BC2
 10
52.388342
 20
7.101334
 30
0.0
  0
VERTEX
  8
LY_1
  6
CONTINUOUS
 62
     3
  5
BC3
 10
52.3271
 20
6.50233
 30
0.0
  0
VERTEX
  8
LY_1
  6
CONTINUOUS
 62
     3
  5
BC4
 10
52.265061
 20
5.903411
 30
0.0
  0
VERTEX
  8
LY_1
  6
CONTINUOUS
 62
     3
  5
BC5
 10
52.202227
 20
5.304579
 30
0.0
  0
VERTEX
  8
LY_1
  6
CONTINUOUS
 62
     3
  5
BC6
 10
52.138596
 20
4.705834
 30
0.0
  0
VERTEX
  8
LY_1
  6
CONTINUOUS
 62
     3
  5
BC7
 10
52.074169
 20
4.107177
 30
0.0
  0
VERTEX
  8
LY_1
  6
CONTINUOUS
 62
     3
  5
BC8
 10
52.008947
 20
3.50861
 30
0.0
  0
VERTEX
  8
LY_1
  6
CONTINUOUS
 62
     3
  5
BC9
 10
51.942929
 20
2.910135
 30
0.0
  0
VERTEX
  8
LY_1
  6
CONTINUOUS
 62
     3
  5
BCA
 10
51.876116
 20
2.311751
 30
0.0
  0
SEQEND
  8
LY_1
  6
CONTINUOUS
 62
     3
  5
BCB
  0
POLYLINE
  8
LY_1
  6
CONTINUOUS
 62
     3
  5
C0
 66
     1
 10
0.0
 20
0.0
 30
0.0
  0
VERTEX
  8
LY_1
  6
CONTINUOUS
 62
     3
  5
BCC
 10
54.596514
 20
43.0
 30
0.0
  0
VERTEX
  8
LY_1
  6
CONTINUOUS
 62
     3
  5
BCD
 10
54.604361
 20
43.136438
 30
0.0
  0
VERTEX
  8
LY_1
  6
CONTINUOUS
 62
     3
  5
BCE
 10
54.610659
 20
43.273741
 30
0.0
  0
VERTEX
  8
LY_1
  6
CONTINUOUS
 62
     3
  5
BCF
 10
54.615534
 20
43.411718
 30
0.0
  0
VERTEX
  8
LY_1
  6
CONTINUOUS
 62
     3
  5
BD0
 10
54.619109
 20
43.550176
 30
0.0
  0
VERTEX
  8
LY_1
  6
CONTINUOUS
 62
     3
  5
BD1
 10
54.621512
 20
43.688925
 30
0.0
  0
VERTEX
  8
LY_1
  6
CONTINUOUS
 62
     3
  5
BD2
 10
54.622866
 20
43.827772
 30
0.0
  0
VERTEX
  8
LY_1
  6
CONTINUOUS
 62
     3
  5
BD3
 10
54.623297
 20
43.966525
 30
0.0
  0
VERTEX
  8
LY_1
  6
CONTINUOUS
 62
     3
  5
BD4
 10
54.62293
 20
44.104993
 30
0.0
  0
VERTEX
  8
LY_1
  6
CONTINUOUS
 62
     3
  5
BD5
 10
54.621889
 20
44.242984
 30
0.0
  0
VERTEX
  8
LY_1
  6
CONTINUOUS
 62
     3
  5
BD6
 10
54.620301
 20
44.380306
 30
0.0
  0
VERTEX
  8
LY_1
  6
CONTINUOUS
 62
     3
  5
BD7
 10
54.61829
 20
44.516767
 30
0.0
  0
VERTEX
  8
LY_1
  6
CONTINUOUS
 62
     3
  5
BD8
 10
54.61598
 20
44.652176
 30
0.0
  0
VERTEX
  8
LY_1
  6
CONTINUOUS
 62
     3
  5
BD9
 10
54.613499
 20
44.78634
 30
0.0
  0
VERTEX
  8
LY_1
  6
CONTINUOUS
 62
     3
  5
BDA
 10
54.610969
 20
44.919068
 30
0.0
  0
VERTEX
  8
LY_1
  6
CONTINUOUS
 62
     3
  5
BDB
 10
54.608517
 20
45.050169
 30
0.0
  0
VERTEX
  8
LY_1
  6
CONTINUOUS
 62
     3
  5
BDC
 10
54.606267
 20
45.179449
 30
0.0
  0
VERTEX
  8
LY_1
  6
CONTINUOUS
 62
     3
  5
BDD
 10
54.604566
 20
45.286579
 30
0.0
  0
VERTEX
  8
LY_1
  6
CONTINUOUS
 62
     3
  5
BDE
 10
54.602813
 20
45.392697
 30
0.0
  0
VERTEX
  8
LY_1
  6
CONTINUOUS
 62
     3
  5
BDF
 10
54.600725
 20
45.49821
 30
0.0
  0
VERTEX
  8
LY_1
  6
CONTINUOUS
 62
     3
  5
BE0
 10
54.598018
 20
45.603525
 30
0.0
  0
VERTEX
  8
LY_1
  6
CONTINUOUS
 62
     3
  5
BE1
 10
54.59441
 20
45.709048
 30
0.0
  0
VERTEX
  8
LY_1
  6
CONTINUOUS
 62
     3
  5
BE2
 10
54.589618
 20
45.815188
 30
0.0
  0
VERTEX
  8
LY_1
  6
CONTINUOUS
 62
     3
  5
BE3
 10
54.583358
 20
45.92235
 30
0.0
  0
VERTEX
  8
LY_1
  6
CONTINUOUS
 62
     3
  5
BE4
 10
54.575347
 20
46.030942
 30
0.0
  0
VERTEX
  8
LY_1
  6
CONTINUOUS
 62
     3
  5
BE5
 10
54.565301
 20
46.141372
 30
0.0
  0
VERTEX
  8
LY_1
  6
CONTINUOUS
 62
     3
  5
BE6
 10
54.552939
 20
46.254045
 30
0.0
  0
VERTEX
  8
LY_1
  6
CONTINUOUS
 62
     3
  5
BE7
 10
54.537977
 20
46.369369
 30
0.0
  0
VERTEX
  8
LY_1
  6
CONTINUOUS
 62
     3
  5
BE8
 10
54.520131
 20
46.487752
 30
0.0
  0
VERTEX
  8
LY_1
  6
CONTINUOUS
 62
     3
  5
BE9
 10
54.499118
 20
46.609599
 30
0.0
  0
VERTEX
  8
LY_1
  6
CONTINUOUS
 62
     3
  5
BEA
 10
54.474656
 20
46.735318
 30
0.0
  0
VERTEX
  8
LY_1
  6
CONTINUOUS
 62
     3
  5
BEB
 10
54.446461
 20
46.865316
 30
0.0
  0
VERTEX
  8
LY_1
  6
CONTINUOUS
 62
     3
  5
BEC
 10
54.41425
 20
47.0
 30
0.0
  0
VERTEX
  8
LY_1
  6
CONTINUOUS
 62
     3
  5
BED
 10
54.392457
 20
47.084746
 30
0.0
  0
VERTEX
  8
LY_1
  6
CONTINUOUS
 62
     3
  5
BEE
 10
54.369107
 20
47.170539
 30
0.0
  0
VERTEX
  8
LY_1
  6
CONTINUOUS
 62
     3
  5
BEF
 10
54.344257
 20
47.256519
 30
0.0
  0
VERTEX
  8
LY_1
  6
CONTINUOUS
 62
     3
  5
BF0
 10
54.31796
 20
47.341827
 30
0.0
  0
VERTEX
  8
LY_1
  6
CONTINUOUS
 62
     3
  5
BF1
 10
54.29027
 20
47.425602
 30
0.0
  0
VERTEX
  8
LY_1
  6
CONTINUOUS
 62
     3
  5
BF2
 10
54.261243
 20
47.506984
 30
0.0
  0
VERTEX
  8
LY_1
  6
CONTINUOUS
 62
     3
  5
BF3
 10
54.230932
 20
47.585114
 30
0.0
  0
VERTEX
  8
LY_1
  6
CONTINUOUS
 62
     3
  5
BF4
 10
54.199391
 20
47.65913
 30
0.0
  0
VERTEX
  8
LY_1
  6
CONTINUOUS
 62
     3
  5
BF5
 10
54.166676
 20
47.728175
 30
0.0
  0
VERTEX
  8
LY_1
  6
CONTINUOUS
 62
     3
  5
BF6
 10
54.13284
 20
47.791386
 30
0.0
  0
VERTEX
  8
LY_1
  6
CONTINUOUS
 62
     3
  5
BF7
 10
54.097938
 20
47.847905
 30
0.0
  0
VERTEX
  8
LY_1
  6
CONTINUOUS
 62
     3
  5
BF8
 10
54.062024
 20
47.896872
 30
0.0
  0
VERTEX
  8
LY_1
  6
CONTINUOUS
 62
     3
  5
BF9
 10
54.025153
 20
47.937426
 30
0.0
  0
VERTEX
  8
LY_1
  6
CONTINUOUS
 62
     3
  5
BFA
 10
53.987379
 20
47.968707
 30
0.0
  0
VERTEX
  8
LY_1
  6
CONTINUOUS
 62
     3
  5
BFB
 10
53.948756
 20
47.989856
 30
0.0
  0
VERTEX
  8
LY_1
  6
CONTINUOUS
 62
     3
  5
BFC
 10
53.909339
 20
48.000013
 30
0.0
  0
VERTEX
  8
LY_1
  6
CONTINUOUS
 62
     3
  5
BFD
 10
53.866269
 20
47.998052
 30
0.0
  0
VERTEX
  8
LY_1
  6
CONTINUOUS
 62
     3
  5
BFE
 10
53.822533
 20
47.983442
 30
0.0
  0
VERTEX
  8
LY_1
  6
CONTINUOUS
 62
     3
  5
BFF
 10
53.778316
 20
47.957165
 30
0.0
  0
VERTEX
  8
LY_1
  6
CONTINUOUS
 62
     3
  5
C00
 10
53.733802
 20
47.9202
 30
0.0
  0
VERTEX
  8
LY_1
  6
CONTINUOUS
 62
     3
  5
C01
 10
53.689176
 20
47.873529
 30
0.0
  0
VERTEX
  8
LY_1
  6
CONTINUOUS
 62
     3
  5
C02
 10
53.644623
 20
47.818132
 30
0.0
  0
VERTEX
  8
LY_1
  6
CONTINUOUS
 62
     3
  5
C03
 10
53.600326
 20
47.754991
 30
0.0
  0
VERTEX
  8
LY_1
  6
CONTINUOUS
 62
     3
  5
C04
 10
53.556472
 20
47.685084
 30
0.0
  0
VERTEX
  8
LY_1
  6
CONTINUOUS
 62
     3
  5
C05
 10
53.513244
 20
47.609394
 30
0.0
  0
VERTEX
  8
LY_1
  6
CONTINUOUS
 62
     3
  5
C06
 10
53.470828
 20
47.528902
 30
0.0
  0
VERTEX
  8
LY_1
  6
CONTINUOUS
 62
     3
  5
C07
 10
53.429407
 20
47.444586
 30
0.0
  0
VERTEX
  8
LY_1
  6
CONTINUOUS
 62
     3
  5
C08
 10
53.389168
 20
47.35743
 30
0.0
  0
VERTEX
  8
LY_1
  6
CONTINUOUS
 62
     3
  5
C09
 10
53.350293
 20
47.268412
 30
0.0
  0
VERTEX
  8
LY_1
  6
CONTINUOUS
 62
     3
  5
C0A
 10
53.312969
 20
47.178514
 30
0.0
  0
VERTEX
  8
LY_1
  6
CONTINUOUS
 62
     3
  5
C0B
 10
53.277379
 20
47.088716
 30
0.0
  0
VERTEX
  8
LY_1
  6
CONTINUOUS
 62
     3
  5
C0C
 10
53.243708
 20
47.0
 30
0.0
  0
VERTEX
  8
LY_1
  6
CONTINUOUS
 62
     3
  5
C0D
 10
53.19556
 20
46.866205
 30
0.0
  0
VERTEX
  8
LY_1
  6
CONTINUOUS
 62
     3
  5
C0E
 10
53.152131
 20
46.736963
 30
0.0
  0
VERTEX
  8
LY_1
  6
CONTINUOUS
 62
     3
  5
C0F
 10
53.113085
 20
46.61187
 30
0.0
  0
VERTEX
  8
LY_1
  6
CONTINUOUS
 62
     3
  5
C10
 10
53.078082
 20
46.490521
 30
0.0
  0
VERTEX
  8
LY_1
  6
CONTINUOUS
 62
     3
  5
C11
 10
53.046785
 20
46.372514
 30
0.0
  0
VERTEX
  8
LY_1
  6
CONTINUOUS
 62
     3
  5
C12
 10
53.018856
 20
46.257444
 30
0.0
  0
VERTEX
  8
LY_1
  6
CONTINUOUS
 62
     3
  5
C13
 10
52.993958
 20
46.144907
 30
0.0
  0
VERTEX
  8
LY_1
  6
CONTINUOUS
 62
     3
  5
C14
 10
52.971751
 20
46.0345
 30
0.0
  0
VERTEX
  8
LY_1
  6
CONTINUOUS
 62
     3
  5
C15
 10
52.951899
 20
45.925819
 30
0.0
  0
VERTEX
  8
LY_1
  6
CONTINUOUS
 62
     3
  5
C16
 10
52.934062
 20
45.81846
 30
0.0
  0
VERTEX
  8
LY_1
  6
CONTINUOUS
 62
     3
  5
C17
 10
52.917904
 20
45.712019
 30
0.0
  0
VERTEX
  8
LY_1
  6
CONTINUOUS
 62
     3
  5
C18
 10
52.903086
 20
45.606092
 30
0.0
  0
VERTEX
  8
LY_1
  6
CONTINUOUS
 62
     3
  5
C19
 10
52.88927
 20
45.500275
 30
0.0
  0
VERTEX
  8
LY_1
  6
CONTINUOUS
 62
     3
  5
C1A
 10
52.876118
 20
45.394165
 30
0.0
  0
VERTEX
  8
LY_1
  6
CONTINUOUS
 62
     3
  5
C1B
 10
52.863292
 20
45.287358
 30
0.0
  0
VERTEX
  8
LY_1
  6
CONTINUOUS
 62
     3
  5
C1C
 10
52.850455
 20
45.179449
 30
0.0
  0
VERTEX
  8
LY_1
  6
CONTINUOUS
 62
     3
  5
C1D
 10
52.83501
 20
45.050811
 30
0.0
  0
VERTEX
  8
LY_1
  6
CONTINUOUS
 62
     3
  5
C1E
 10
52.81923
 20
44.920282
 30
0.0
  0
VERTEX
  8
LY_1
  6
CONTINUOUS
 62
     3
  5
C1F
 10
52.803262
 20
44.788051
 30
0.0
  0
VERTEX
  8
LY_1
  6
CONTINUOUS
 62
     3
  5
C20
 10
52.787253
 20
44.654308
 30
0.0
  0
VERTEX
  8
LY_1
  6
CONTINUOUS
 62
     3
  5
C21
 10
52.77135
 20
44.519239
 30
0.0
  0
VERTEX
  8
LY_1
  6
CONTINUOUS
 62
     3
  5
C22
 10
52.755701
 20
44.383035
 30
0.0
  0
VERTEX
  8
LY_1
  6
CONTINUOUS
 62
     3
  5
C23
 10
52.740454
 20
44.245884
 30
0.0
  0
VERTEX
  8
LY_1
  6
CONTINUOUS
 62
     3
  5
C24
 10
52.725755
 20
44.107973
 30
0.0
  0
VERTEX
  8
LY_1
  6
CONTINUOUS
 62
     3
  5
C25
 10
52.711753
 20
43.969492
 30
0.0
  0
VERTEX
  8
LY_1
  6
CONTINUOUS
 62
     3
  5
C26
 10
52.698594
 20
43.83063
 30
0.0
  0
VERTEX
  8
LY_1
  6
CONTINUOUS
 62
     3
  5
C27
 10
52.686426
 20
43.691574
 30
0.0
  0
VERTEX
  8
LY_1
  6
CONTINUOUS
 62
     3
  5
C28
 10
52.675396
 20
43.552514
 30
0.0
  0
VERTEX
  8
LY_1
  6
CONTINUOUS
 62
     3
  5
C29
 10
52.665653
 20
43.413638
 30
0.0
  0
VERTEX
  8
LY_1
  6
CONTINUOUS
 62
     3
  5
C2A
 10
52.657342
 20
43.275135
 30
0.0
  0
VERTEX
  8
LY_1
  6
CONTINUOUS
 62
     3
  5
C2B
 10
52.650613
 20
43.137193
 30
0.0
  0
VERTEX
  8
LY_1
  6
CONTINUOUS
 62
     3
  5
C2C
 10
52.645611
 20
43.0
 30
0.0
  0
SEQEND
  8
LY_1
  6
CONTINUOUS
 62
     3
  5
C2D
  0
LINE
  8
LY_1
  6
CONTINUOUS
 62
     3
  5
C1
 10
-54.997994
 20
53.0
 30
0.0
 11
55.002006
 21
53.0
 31
0.0
  0
INSERT
  8
LY_1
  6
BYBLOCK
 62
    21
  5
C2
  2
MS_2
 10
30.310889
 20
-117.5
 30
0.0
 50
240.0
  0
INSERT
  8
LY_1
  6
BYBLOCK
 62
    21
  5
C3
  2
MS_2
 10
-30.310889
 20
-117.5
 30
0.0
 50
120.0
  0
INSERT
  8
LY_1
  6
BYBLOCK
 62
    21
  5
C4
  2
MS_2
 10
0.0
 20
-65.0
 30
0.0
  0
ARC
  8
LY_1
  6
CONTINUOUS
 62
     3
  5
C5
 10
0.0
 20
-100.0
 30
0.0
 40
47.0
 50
268.766918
 51
268.780849
  0
ARC
  8
LY_1
  6
CONTINUOUS
 62
     3
  5
C6
 10
0.0
 20
-100.0
 30
0.0
 40
48.0
 50
268.115848
 51
268.806252
  0
ARC
  8
LY_1
  6
CONTINUOUS
 62
     3
  5
C7
 10
-13.650653
 20
-168.626468
 30
0.0
 40
16.0
 50
81.672464
 51
96.88603
  0
POLYLINE
  8
LY_1
  6
CONTINUOUS
 62
     3
  5
C8
 66
     1
 10
0.0
 20
0.0
 30
0.0
  0
VERTEX
  8
LY_1
  6
CONTINUOUS
 62
     3
  5
C2E
 10
0.123671
 20
-132.045844
 30
0.0
  0
VERTEX
  8
LY_1
  6
CONTINUOUS
 62
     3
  5
C2F
 10
0.135555
 20
-132.247917
 30
0.0
  0
VERTEX
  8
LY_1
  6
CONTINUOUS
 62
     3
  5
C30
 10
0.146055
 20
-132.450547
 30
0.0
  0
VERTEX
  8
LY_1
  6
CONTINUOUS
 62
     3
  5
C31
 10
0.155128
 20
-132.653715
 30
0.0
  0
VERTEX
  8
LY_1
  6
CONTINUOUS
 62
     3
  5
C32
 10
0.16273
 20
-132.857399
 30
0.0
  0
VERTEX
  8
LY_1
  6
CONTINUOUS
 62
     3
  5
C33
 10
0.168815
 20
-133.06158
 30
0.0
  0
VERTEX
  8
LY_1
  6
CONTINUOUS
 62
     3
  5
C34
 10
0.173338
 20
-133.266238
 30
0.0
  0
VERTEX
  8
LY_1
  6
CONTINUOUS
 62
     3
  5
C35
 10
0.176254
 20
-133.471351
 30
0.0
  0
VERTEX
  8
LY_1
  6
CONTINUOUS
 62
     3
  5
C36
 10
0.177516
 20
-133.6769
 30
0.0
  0
VERTEX
  8
LY_1
  6
CONTINUOUS
 62
     3
  5
C37
 10
0.177079
 20
-133.882863
 30
0.0
  0
VERTEX
  8
LY_1
  6
CONTINUOUS
 62
     3
  5
C38
 10
0.174895
 20
-134.08922
 30
0.0
  0
VERTEX
  8
LY_1
  6
CONTINUOUS
 62
     3
  5
C39
 10
0.170917
 20
-134.29595
 30
0.0
  0
VERTEX
  8
LY_1
  6
CONTINUOUS
 62
     3
  5
C3A
 10
0.165097
 20
-134.503031
 30
0.0
  0
VERTEX
  8
LY_1
  6
CONTINUOUS
 62
     3
  5
C3B
 10
0.157388
 20
-134.710442
 30
0.0
  0
VERTEX
  8
LY_1
  6
CONTINUOUS
 62
     3
  5
C3C
 10
0.147742
 20
-134.91816
 30
0.0
  0
VERTEX
  8
LY_1
  6
CONTINUOUS
 62
     3
  5
C3D
 10
0.136108
 20
-135.126164
 30
0.0
  0
VERTEX
  8
LY_1
  6
CONTINUOUS
 62
     3
  5
C3E
 10
0.122437
 20
-135.33443
 30
0.0
  0
VERTEX
  8
LY_1
  6
CONTINUOUS
 62
     3
  5
C3F
 10
0.072905
 20
-135.920654
 30
0.0
  0
VERTEX
  8
LY_1
  6
CONTINUOUS
 62
     3
  5
C40
 10
0.007506
 20
-136.5038
 30
0.0
  0
VERTEX
  8
LY_1
  6
CONTINUOUS
 62
     3
  5
C41
 10
-0.07337
 20
-137.083682
 30
0.0
  0
VERTEX
  8
LY_1
  6
CONTINUOUS
 62
     3
  5
C42
 10
-0.169331
 20
-137.660124
 30
0.0
  0
VERTEX
  8
LY_1
  6
CONTINUOUS
 62
     3
  5
C43
 10
-0.279985
 20
-138.232963
 30
0.0
  0
VERTEX
  8
LY_1
  6
CONTINUOUS
 62
     3
  5
C44
 10
-0.404942
 20
-138.802049
 30
0.0
  0
VERTEX
  8
LY_1
  6
CONTINUOUS
 62
     3
  5
C45
 10
-0.543811
 20
-139.367245
 30
0.0
  0
VERTEX
  8
LY_1
  6
CONTINUOUS
 62
     3
  5
C46
 10
-0.696206
 20
-139.92842
 30
0.0
  0
VERTEX
  8
LY_1
  6
CONTINUOUS
 62
     3
  5
C47
 10
-0.861743
 20
-140.485457
 30
0.0
  0
VERTEX
  8
LY_1
  6
CONTINUOUS
 62
     3
  5
C48
 10
-1.040043
 20
-141.038245
 30
0.0
  0
VERTEX
  8
LY_1
  6
CONTINUOUS
 62
     3
  5
C49
 10
-1.230731
 20
-141.586682
 30
0.0
  0
VERTEX
  8
LY_1
  6
CONTINUOUS
 62
     3
  5
C4A
 10
-1.433437
 20
-142.130671
 30
0.0
  0
VERTEX
  8
LY_1
  6
CONTINUOUS
 62
     3
  5
C4B
 10
-1.647796
 20
-142.670124
 30
0.0
  0
VERTEX
  8
LY_1
  6
CONTINUOUS
 62
     3
  5
C4C
 10
-1.873448
 20
-143.204953
 30
0.0
  0
VERTEX
  8
LY_1
  6
CONTINUOUS
 62
     3
  5
C4D
 10
-2.110039
 20
-143.73508
 30
0.0
  0
VERTEX
  8
LY_1
  6
CONTINUOUS
 62
     3
  5
C4E
 10
-2.357219
 20
-144.260427
 30
0.0
  0
VERTEX
  8
LY_1
  6
CONTINUOUS
 62
     3
  5
C4F
 10
-2.614645
 20
-144.780919
 30
0.0
  0
VERTEX
  8
LY_1
  6
CONTINUOUS
 62
     3
  5
C50
 10
-2.881976
 20
-145.296483
 30
0.0
  0
VERTEX
  8
LY_1
  6
CONTINUOUS
 62
     3
  5
C51
 10
-3.158878
 20
-145.80705
 30
0.0
  0
VERTEX
  8
LY_1
  6
CONTINUOUS
 62
     3
  5
C52
 10
-3.445022
 20
-146.31255
 30
0.0
  0
VERTEX
  8
LY_1
  6
CONTINUOUS
 62
     3
  5
C53
 10
-3.740082
 20
-146.812914
 30
0.0
  0
VERTEX
  8
LY_1
  6
CONTINUOUS
 62
     3
  5
C54
 10
-4.043735
 20
-147.308074
 30
0.0
  0
VERTEX
  8
LY_1
  6
CONTINUOUS
 62
     3
  5
C55
 10
-4.355666
 20
-147.797962
 30
0.0
  0
VERTEX
  8
LY_1
  6
CONTINUOUS
 62
     3
  5
C56
 10
-4.675559
 20
-148.282509
 30
0.0
  0
VERTEX
  8
LY_1
  6
CONTINUOUS
 62
     3
  5
C57
 10
-5.003105
 20
-148.761646
 30
0.0
  0
VERTEX
  8
LY_1
  6
CONTINUOUS
 62
     3
  5
C58
 10
-5.337995
 20
-149.235305
 30
0.0
  0
VERTEX
  8
LY_1
  6
CONTINUOUS
 62
     3
  5
C59
 10
-5.679926
 20
-149.703415
 30
0.0
  0
VERTEX
  8
LY_1
  6
CONTINUOUS
 62
     3
  5
C5A
 10
-6.028596
 20
-150.165906
 30
0.0
  0
VERTEX
  8
LY_1
  6
CONTINUOUS
 62
     3
  5
C5B
 10
-6.383707
 20
-150.622705
 30
0.0
  0
VERTEX
  8
LY_1
  6
CONTINUOUS
 62
     3
  5
C5C
 10
-6.744961
 20
-151.07374
 30
0.0
  0
VERTEX
  8
LY_1
  6
CONTINUOUS
 62
     3
  5
C5D
 10
-7.112064
 20
-151.518936
 30
0.0
  0
VERTEX
  8
LY_1
  6
CONTINUOUS
 62
     3
  5
C5E
 10
-7.484724
 20
-151.95822
 30
0.0
  0
VERTEX
  8
LY_1
  6
CONTINUOUS
 62
     3
  5
C5F
 10
-8.153222
 20
-152.716654
 30
0.0
  0
VERTEX
  8
LY_1
  6
CONTINUOUS
 62
     3
  5
C60
 10
-8.838212
 20
-153.457363
 30
0.0
  0
VERTEX
  8
LY_1
  6
CONTINUOUS
 62
     3
  5
C61
 10
-9.539173
 20
-154.180303
 30
0.0
  0
VERTEX
  8
LY_1
  6
CONTINUOUS
 62
     3
  5
C62
 10
-10.255588
 20
-154.885436
 30
0.0
  0
VERTEX
  8
LY_1
  6
CONTINUOUS
 62
     3
  5
C63
 10
-10.986941
 20
-155.572724
 30
0.0
  0
VERTEX
  8
LY_1
  6
CONTINUOUS
 62
     3
  5
C64
 10
-11.732722
 20
-156.242136
 30
0.0
  0
VERTEX
  8
LY_1
  6
CONTINUOUS
 62
     3
  5
C65
 10
-12.492422
 20
-156.89364
 30
0.0
  0
VERTEX
  8
LY_1
  6
CONTINUOUS
 62
     3
  5
C66
 10
-13.265537
 20
-157.527209
 30
0.0
  0
VERTEX
  8
LY_1
  6
CONTINUOUS
 62
     3
  5
C67
 10
-14.051565
 20
-158.142816
 30
0.0
  0
VERTEX
  8
LY_1
  6
CONTINUOUS
 62
     3
  5
C68
 10
-14.850009
 20
-158.740436
 30
0.0
  0
VERTEX
  8
LY_1
  6
CONTINUOUS
 62
     3
  5
C69
 10
-15.660373
 20
-159.320047
 30
0.0
  0
VERTEX
  8
LY_1
  6
CONTINUOUS
 62
     3
  5
C6A
 10
-16.482168
 20
-159.881624
 30
0.0
  0
VERTEX
  8
LY_1
  6
CONTINUOUS
 62
     3
  5
C6B
 10
-17.314903
 20
-160.425147
 30
0.0
  0
VERTEX
  8
LY_1
  6
CONTINUOUS
 62
     3
  5
C6C
 10
-18.158095
 20
-160.950594
 30
0.0
  0
VERTEX
  8
LY_1
  6
CONTINUOUS
 62
     3
  5
C6D
 10
-19.011262
 20
-161.457942
 30
0.0
  0
VERTEX
  8
LY_1
  6
CONTINUOUS
 62
     3
  5
C6E
 10
-19.873924
 20
-161.947169
 30
0.0
  0
VERTEX
  8
LY_1
  6
CONTINUOUS
 62
     3
  5
C6F
 10
-20.745604
 20
-162.418254
 30
0.0
  0
VERTEX
  8
LY_1
  6
CONTINUOUS
 62
     3
  5
C70
 10
-21.62583
 20
-162.871174
 30
0.0
  0
VERTEX
  8
LY_1
  6
CONTINUOUS
 62
     3
  5
C71
 10
-22.514129
 20
-163.305904
 30
0.0
  0
VERTEX
  8
LY_1
  6
CONTINUOUS
 62
     3
  5
C72
 10
-23.410034
 20
-163.722421
 30
0.0
  0
VERTEX
  8
LY_1
  6
CONTINUOUS
 62
     3
  5
C73
 10
-24.313076
 20
-164.120699
 30
0.0
  0
VERTEX
  8
LY_1
  6
CONTINUOUS
 62
     3
  5
C74
 10
-25.222792
 20
-164.500711
 30
0.0
  0
VERTEX
  8
LY_1
  6
CONTINUOUS
 62
     3
  5
C75
 10
-26.138718
 20
-164.862429
 30
0.0
  0
VERTEX
  8
LY_1
  6
CONTINUOUS
 62
     3
  5
C76
 10
-27.060394
 20
-165.205823
 30
0.0
  0
VERTEX
  8
LY_1
  6
CONTINUOUS
 62
     3
  5
C77
 10
-27.987362
 20
-165.530863
 30
0.0
  0
VERTEX
  8
LY_1
  6
CONTINUOUS
 62
     3
  5
C78
 10
-28.919162
 20
-165.837516
 30
0.0
  0
VERTEX
  8
LY_1
  6
CONTINUOUS
 62
     3
  5
C79
 10
-29.85534
 20
-166.125748
 30
0.0
  0
VERTEX
  8
LY_1
  6
CONTINUOUS
 62
     3
  5
C7A
 10
-30.795441
 20
-166.395523
 30
0.0
  0
VERTEX
  8
LY_1
  6
CONTINUOUS
 62
     3
  5
C7B
 10
-31.739011
 20
-166.646803
 30
0.0
  0
VERTEX
  8
LY_1
  6
CONTINUOUS
 62
     3
  5
C7C
 10
-32.685598
 20
-166.879549
 30
0.0
  0
VERTEX
  8
LY_1
  6
CONTINUOUS
 62
     3
  5
C7D
 10
-33.634752
 20
-167.093717
 30
0.0
  0
VERTEX
  8
LY_1
  6
CONTINUOUS
 62
     3
  5
C7E
 10
-34.586022
 20
-167.289266
 30
0.0
  0
SEQEND
  8
LY_1
  6
CONTINUOUS
 62
     3
  5
C7F
  0
POLYLINE
  8
LY_1
  6
CONTINUOUS
 62
     3
  5
C9
 66
     1
 10
0.0
 20
0.0
 30
0.0
  0
VERTEX
  8
LY_1
  6
CONTINUOUS
 62
     3
  5
C80
 10
2.628298
 20
-133.553608
 30
0.0
  0
VERTEX
  8
LY_1
  6
CONTINUOUS
 62
     3
  5
C81
 10
2.628798
 20
-133.673896
 30
0.0
  0
VERTEX
  8
LY_1
  6
CONTINUOUS
 62
     3
  5
C82
 10
2.628769
 20
-133.794436
 30
0.0
  0
VERTEX
  8
LY_1
  6
CONTINUOUS
 62
     3
  5
C83
 10
2.628201
 20
-133.915226
 30
0.0
  0
VERTEX
  8
LY_1
  6
CONTINUOUS
 62
     3
  5
C84
 10
2.627086
 20
-134.036263
 30
0.0
  0
VERTEX
  8
LY_1
  6
CONTINUOUS
 62
     3
  5
C85
 10
2.625414
 20
-134.157544
 30
0.0
  0
VERTEX
  8
LY_1
  6
CONTINUOUS
 62
     3
  5
C86
 10
2.623176
 20
-134.279067
 30
0.0
  0
VERTEX
  8
LY_1
  6
CONTINUOUS
 62
     3
  5
C87
 10
2.620363
 20
-134.400829
 30
0.0
  0
VERTEX
  8
LY_1
  6
CONTINUOUS
 62
     3
  5
C88
 10
2.616966
 20
-134.522828
 30
0.0
  0
VERTEX
  8
LY_1
  6
CONTINUOUS
 62
     3
  5
C89
 10
2.612976
 20
-134.64506
 30
0.0
  0
VERTEX
  8
LY_1
  6
CONTINUOUS
 62
     3
  5
C8A
 10
2.608384
 20
-134.767522
 30
0.0
  0
VERTEX
  8
LY_1
  6
CONTINUOUS
 62
     3
  5
C8B
 10
2.603179
 20
-134.890213
 30
0.0
  0
VERTEX
  8
LY_1
  6
CONTINUOUS
 62
     3
  5
C8C
 10
2.597353
 20
-135.013128
 30
0.0
  0
VERTEX
  8
LY_1
  6
CONTINUOUS
 62
     3
  5
C8D
 10
2.590896
 20
-135.136265
 30
0.0
  0
VERTEX
  8
LY_1
  6
CONTINUOUS
 62
     3
  5
C8E
 10
2.583798
 20
-135.25962
 30
0.0
  0
VERTEX
  8
LY_1
  6
CONTINUOUS
 62
     3
  5
C8F
 10
2.576049
 20
-135.383191
 30
0.0
  0
VERTEX
  8
LY_1
  6
CONTINUOUS
 62
     3
  5
C90
 10
2.567641
 20
-135.506973
 30
0.0
  0
VERTEX
  8
LY_1
  6
CONTINUOUS
 62
     3
  5
C91
 10
2.512409
 20
-136.160677
 30
0.0
  0
VERTEX
  8
LY_1
  6
CONTINUOUS
 62
     3
  5
C92
 10
2.439597
 20
-136.809942
 30
0.0
  0
VERTEX
  8
LY_1
  6
CONTINUOUS
 62
     3
  5
C93
 10
2.349704
 20
-137.454499
 30
0.0
  0
VERTEX
  8
LY_1
  6
CONTINUOUS
 62
     3
  5
C94
 10
2.24323
 20
-138.094104
 30
0.0
  0
VERTEX
  8
LY_1
  6
CONTINUOUS
 62
     3
  5
C95
 10
2.12068
 20
-138.72854
 30
0.0
  0
VERTEX
  8
LY_1
  6
CONTINUOUS
 62
     3
  5
C96
 10
1.982554
 20
-139.357615
 30
0.0
  0
VERTEX
  8
LY_1
  6
CONTINUOUS
 62
     3
  5
C97
 10
1.829351
 20
-139.98116
 30
0.0
  0
VERTEX
  8
LY_1
  6
CONTINUOUS
 62
     3
  5
C98
 10
1.661562
 20
-140.59903
 30
0.0
  0
VERTEX
  8
LY_1
  6
CONTINUOUS
 62
     3
  5
C99
 10
1.479674
 20
-141.211099
 30
0.0
  0
VERTEX
  8
LY_1
  6
CONTINUOUS
 62
     3
  5
C9A
 10
1.284162
 20
-141.817257
 30
0.0
  0
VERTEX
  8
LY_1
  6
CONTINUOUS
 62
     3
  5
C9B
 10
1.075494
 20
-142.417413
 30
0.0
  0
VERTEX
  8
LY_1
  6
CONTINUOUS
 62
     3
  5
C9C
 10
0.854127
 20
-143.011488
 30
0.0
  0
VERTEX
  8
LY_1
  6
CONTINUOUS
 62
     3
  5
C9D
 10
0.620508
 20
-143.599417
 30
0.0
  0
VERTEX
  8
LY_1
  6
CONTINUOUS
 62
     3
  5
C9E
 10
0.375072
 20
-144.181144
 30
0.0
  0
VERTEX
  8
LY_1
  6
CONTINUOUS
 62
     3
  5
C9F
 10
0.118243
 20
-144.756622
 30
0.0
  0
VERTEX
  8
LY_1
  6
CONTINUOUS
 62
     3
  5
CA0
 10
-0.149564
 20
-145.325812
 30
0.0
  0
VERTEX
  8
LY_1
  6
CONTINUOUS
 62
     3
  5
CA1
 10
-0.427946
 20
-145.888681
 30
0.0
  0
VERTEX
  8
LY_1
  6
CONTINUOUS
 62
     3
  5
CA2
 10
-0.71651
 20
-146.445198
 30
0.0
  0
VERTEX
  8
LY_1
  6
CONTINUOUS
 62
     3
  5
CA3
 10
-1.014873
 20
-146.995339
 30
0.0
  0
VERTEX
  8
LY_1
  6
CONTINUOUS
 62
     3
  5
CA4
 10
-1.322662
 20
-147.539081
 30
0.0
  0
VERTEX
  8
LY_1
  6
CONTINUOUS
 62
     3
  5
CA5
 10
-1.639514
 20
-148.076403
 30
0.0
  0
VERTEX
  8
LY_1
  6
CONTINUOUS
 62
     3
  5
CA6
 10
-1.965071
 20
-148.607283
 30
0.0
  0
VERTEX
  8
LY_1
  6
CONTINUOUS
 62
     3
  5
CA7
 10
-2.298987
 20
-149.131701
 30
0.0
  0
VERTEX
  8
LY_1
  6
CONTINUOUS
 62
     3
  5
CA8
 10
-2.640922
 20
-149.649638
 30
0.0
  0
VERTEX
  8
LY_1
  6
CONTINUOUS
 62
     3
  5
CA9
 10
-2.990543
 20
-150.16107
 30
0.0
  0
VERTEX
  8
LY_1
  6
CONTINUOUS
 62
     3
  5
CAA
 10
-3.347525
 20
-150.665975
 30
0.0
  0
VERTEX
  8
LY_1
  6
CONTINUOUS
 62
     3
  5
CAB
 10
-3.711546
 20
-151.16433
 30
0.0
  0
VERTEX
  8
LY_1
  6
CONTINUOUS
 62
     3
  5
CAC
 10
-4.082295
 20
-151.656107
 30
0.0
  0
VERTEX
  8
LY_1
  6
CONTINUOUS
 62
     3
  5
CAD
 10
-4.459461
 20
-152.141279
 30
0.0
  0
VERTEX
  8
LY_1
  6
CONTINUOUS
 62
     3
  5
CAE
 10
-4.842742
 20
-152.619816
 30
0.0
  0
VERTEX
  8
LY_1
  6
CONTINUOUS
 62
     3
  5
CAF
 10
-5.231838
 20
-153.091686
 30
0.0
  0
VERTEX
  8
LY_1
  6
CONTINUOUS
 62
     3
  5
CB0
 10
-5.626456
 20
-153.556853
 30
0.0
  0
VERTEX
  8
LY_1
  6
CONTINUOUS
 62
     3
  5
CB1
 10
-6.333867
 20
-154.359437
 30
0.0
  0
VERTEX
  8
LY_1
  6
CONTINUOUS
 62
     3
  5
CB2
 10
-7.05839
 20
-155.142897
 30
0.0
  0
VERTEX
  8
LY_1
  6
CONTINUOUS
 62
     3
  5
CB3
 10
-7.799447
 20
-155.907192
 30
0.0
  0
VERTEX
  8
LY_1
  6
CONTINUOUS
 62
     3
  5
CB4
 10
-8.556465
 20
-156.65229
 30
0.0
  0
VERTEX
  8
LY_1
  6
CONTINUOUS
 62
     3
  5
CB5
 10
-9.328879
 20
-157.378166
 30
0.0
  0
VERTEX
  8
LY_1
  6
CONTINUOUS
 62
     3
  5
CB6
 10
-10.116128
 20
-158.084801
 30
0.0
  0
VERTEX
  8
LY_1
  6
CONTINUOUS
 62
     3
  5
CB7
 10
-10.917662
 20
-158.772182
 30
0.0
  0
VERTEX
  8
LY_1
  6
CONTINUOUS
 62
     3
  5
CB8
 10
-11.732934
 20
-159.4403
 30
0.0
  0
VERTEX
  8
LY_1
  6
CONTINUOUS
 62
     3
  5
CB9
 10
-12.561406
 20
-160.08915
 30
0.0
  0
VERTEX
  8
LY_1
  6
CONTINUOUS
 62
     3
  5
CBA
 10
-13.402548
 20
-160.71873
 30
0.0
  0
VERTEX
  8
LY_1
  6
CONTINUOUS
 62
     3
  5
CBB
 10
-14.255836
 20
-161.329042
 30
0.0
  0
VERTEX
  8
LY_1
  6
CONTINUOUS
 62
     3
  5
CBC
 10
-15.120752
 20
-161.920089
 30
0.0
  0
VERTEX
  8
LY_1
  6
CONTINUOUS
 62
     3
  5
CBD
 10
-15.996786
 20
-162.491873
 30
0.0
  0
VERTEX
  8
LY_1
  6
CONTINUOUS
 62
     3
  5
CBE
 10
-16.883434
 20
-163.044401
 30
0.0
  0
VERTEX
  8
LY_1
  6
CONTINUOUS
 62
     3
  5
CBF
 10
-17.780198
 20
-163.577675
 30
0.0
  0
VERTEX
  8
LY_1
  6
CONTINUOUS
 62
     3
  5
CC0
 10
-18.686586
 20
-164.091702
 30
0.0
  0
VERTEX
  8
LY_1
  6
CONTINUOUS
 62
     3
  5
CC1
 10
-19.602113
 20
-164.586483
 30
0.0
  0
VERTEX
  8
LY_1
  6
CONTINUOUS
 62
     3
  5
CC2
 10
-20.526297
 20
-165.062022
 30
0.0
  0
VERTEX
  8
LY_1
  6
CONTINUOUS
 62
     3
  5
CC3
 10
-21.458663
 20
-165.51832
 30
0.0
  0
VERTEX
  8
LY_1
  6
CONTINUOUS
 62
     3
  5
CC4
 10
-22.398742
 20
-165.955374
 30
0.0
  0
VERTEX
  8
LY_1
  6
CONTINUOUS
 62
     3
  5
CC5
 10
-23.346066
 20
-166.373182
 30
0.0
  0
VERTEX
  8
LY_1
  6
CONTINUOUS
 62
     3
  5
CC6
 10
-24.300175
 20
-166.771739
 30
0.0
  0
VERTEX
  8
LY_1
  6
CONTINUOUS
 62
     3
  5
CC7
 10
-25.260611
 20
-167.151035
 30
0.0
  0
VERTEX
  8
LY_1
  6
CONTINUOUS
 62
     3
  5
CC8
 10
-26.22692
 20
-167.511059
 30
0.0
  0
VERTEX
  8
LY_1
  6
CONTINUOUS
 62
     3
  5
CC9
 10
-27.198654
 20
-167.851796
 30
0.0
  0
VERTEX
  8
LY_1
  6
CONTINUOUS
 62
     3
  5
CCA
 10
-28.175366
 20
-168.17323
 30
0.0
  0
VERTEX
  8
LY_1
  6
CONTINUOUS
 62
     3
  5
CCB
 10
-29.156611
 20
-168.475337
 30
0.0
  0
VERTEX
  8
LY_1
  6
CONTINUOUS
 62
     3
  5
CCC
 10
-30.14195
 20
-168.758094
 30
0.0
  0
VERTEX
  8
LY_1
  6
CONTINUOUS
 62
     3
  5
CCD
 10
-31.130945
 20
-169.021471
 30
0.0
  0
VERTEX
  8
LY_1
  6
CONTINUOUS
 62
     3
  5
CCE
 10
-32.123161
 20
-169.265435
 30
0.0
  0
VERTEX
  8
LY_1
  6
CONTINUOUS
 62
     3
  5
CCF
 10
-33.118164
 20
-169.489949
 30
0.0
  0
VERTEX
  8
LY_1
  6
CONTINUOUS
 62
     3
  5
CD0
 10
-34.115523
 20
-169.694972
 30
0.0
  0
SEQEND
  8
LY_1
  6
CONTINUOUS
 62
     3
  5
CD1
  0
POLYLINE
  8
LY_1
  6
CONTINUOUS
 62
     3
  5
CA
 66
     1
 10
0.0
 20
0.0
 30
0.0
  0
VERTEX
  8
LY_1
  6
CONTINUOUS
 62
     3
  5
CD2
 10
-2.087302
 20
-132.845199
 30
0.0
  0
VERTEX
  8
LY_1
  6
CONTINUOUS
 62
     3
  5
CD3
 10
-2.08232
 20
-132.990971
 30
0.0
  0
VERTEX
  8
LY_1
  6
CONTINUOUS
 62
     3
  5
CD4
 10
-2.078196
 20
-133.136786
 30
0.0
  0
VERTEX
  8
LY_1
  6
CONTINUOUS
 62
     3
  5
CD5
 10
-2.074949
 20
-133.282632
 30
0.0
  0
VERTEX
  8
LY_1
  6
CONTINUOUS
 62
     3
  5
CD6
 10
-2.072594
 20
-133.428497
 30
0.0
  0
VERTEX
  8
LY_1
  6
CONTINUOUS
 62
     3
  5
CD7
 10
-2.07115
 20
-133.57437
 30
0.0
  0
VERTEX
  8
LY_1
  6
CONTINUOUS
 62
     3
  5
CD8
 10
-2.070633
 20
-133.72024
 30
0.0
  0
VERTEX
  8
LY_1
  6
CONTINUOUS
 62
     3
  5
CD9
 10
-2.07106
 20
-133.866094
 30
0.0
  0
VERTEX
  8
LY_1
  6
CONTINUOUS
 62
     3
  5
CDA
 10
-2.072449
 20
-134.011921
 30
0.0
  0
VERTEX
  8
LY_1
  6
CONTINUOUS
 62
     3
  5
CDB
 10
-2.074815
 20
-134.15771
 30
0.0
  0
VERTEX
  8
LY_1
  6
CONTINUOUS
 62
     3
  5
CDC
 10
-2.078176
 20
-134.303449
 30
0.0
  0
VERTEX
  8
LY_1
  6
CONTINUOUS
 62
     3
  5
CDD
 10
-2.082549
 20
-134.449126
 30
0.0
  0
VERTEX
  8
LY_1
  6
CONTINUOUS
 62
     3
  5
CDE
 10
-2.087951
 20
-134.59473
 30
0.0
  0
VERTEX
  8
LY_1
  6
CONTINUOUS
 62
     3
  5
CDF
 10
-2.094398
 20
-134.740249
 30
0.0
  0
VERTEX
  8
LY_1
  6
CONTINUOUS
 62
     3
  5
CE0
 10
-2.101909
 20
-134.885672
 30
0.0
  0
VERTEX
  8
LY_1
  6
CONTINUOUS
 62
     3
  5
CE1
 10
-2.110499
 20
-135.030986
 30
0.0
  0
VERTEX
  8
LY_1
  6
CONTINUOUS
 62
     3
  5
CE2
 10
-2.120186
 20
-135.176182
 30
0.0
  0
VERTEX
  8
LY_1
  6
CONTINUOUS
 62
     3
  5
CE3
 10
-2.164492
 20
-135.700516
 30
0.0
  0
VERTEX
  8
LY_1
  6
CONTINUOUS
 62
     3
  5
CE4
 10
-2.223092
 20
-136.223022
 30
0.0
  0
VERTEX
  8
LY_1
  6
CONTINUOUS
 62
     3
  5
CE5
 10
-2.295697
 20
-136.743586
 30
0.0
  0
VERTEX
  8
LY_1
  6
CONTINUOUS
 62
     3
  5
CE6
 10
-2.382017
 20
-137.262097
 30
0.0
  0
VERTEX
  8
LY_1
  6
CONTINUOUS
 62
     3
  5
CE7
 10
-2.481761
 20
-137.778443
 30
0.0
  0
VERTEX
  8
LY_1
  6
CONTINUOUS
 62
     3
  5
CE8
 10
-2.59464
 20
-138.292512
 30
0.0
  0
VERTEX
  8
LY_1
  6
CONTINUOUS
 62
     3
  5
CE9
 10
-2.720362
 20
-138.804191
 30
0.0
  0
VERTEX
  8
LY_1
  6
CONTINUOUS
 62
     3
  5
CEA
 10
-2.858639
 20
-139.313369
 30
0.0
  0
VERTEX
  8
LY_1
  6
CONTINUOUS
 62
     3
  5
CEB
 10
-3.00918
 20
-139.819934
 30
0.0
  0
VERTEX
  8
LY_1
  6
CONTINUOUS
 62
     3
  5
CEC
 10
-3.171694
 20
-140.323773
 30
0.0
  0
VERTEX
  8
LY_1
  6
CONTINUOUS
 62
     3
  5
CED
 10
-3.345891
 20
-140.824775
 30
0.0
  0
VERTEX
  8
LY_1
  6
CONTINUOUS
 62
     3
  5
CEE
 10
-3.531482
 20
-141.322828
 30
0.0
  0
VERTEX
  8
LY_1
  6
CONTINUOUS
 62
     3
  5
CEF
 10
-3.728177
 20
-141.81782
 30
0.0
  0
VERTEX
  8
LY_1
  6
CONTINUOUS
 62
     3
  5
CF0
 10
-3.935684
 20
-142.309638
 30
0.0
  0
VERTEX
  8
LY_1
  6
CONTINUOUS
 62
     3
  5
CF1
 10
-4.153714
 20
-142.798171
 30
0.0
  0
VERTEX
  8
LY_1
  6
CONTINUOUS
 62
     3
  5
CF2
 10
-4.381976
 20
-143.283306
 30
0.0
  0
VERTEX
  8
LY_1
  6
CONTINUOUS
 62
     3
  5
CF3
 10
-4.620181
 20
-143.764932
 30
0.0
  0
VERTEX
  8
LY_1
  6
CONTINUOUS
 62
     3
  5
CF4
 10
-4.868038
 20
-144.242937
 30
0.0
  0
VERTEX
  8
LY_1
  6
CONTINUOUS
 62
     3
  5
CF5
 10
-5.125258
 20
-144.717208
 30
0.0
  0
VERTEX
  8
LY_1
  6
CONTINUOUS
 62
     3
  5
CF6
 10
-5.391549
 20
-145.187634
 30
0.0
  0
VERTEX
  8
LY_1
  6
CONTINUOUS
 62
     3
  5
CF7
 10
-5.666623
 20
-145.654103
 30
0.0
  0
VERTEX
  8
LY_1
  6
CONTINUOUS
 62
     3
  5
CF8
 10
-5.950188
 20
-146.116502
 30
0.0
  0
VERTEX
  8
LY_1
  6
CONTINUOUS
 62
     3
  5
CF9
 10
-6.241954
 20
-146.574719
 30
0.0
  0
VERTEX
  8
LY_1
  6
CONTINUOUS
 62
     3
  5
CFA
 10
-6.541632
 20
-147.028643
 30
0.0
  0
VERTEX
  8
LY_1
  6
CONTINUOUS
 62
     3
  5
CFB
 10
-6.84893
 20
-147.478162
 30
0.0
  0
VERTEX
  8
LY_1
  6
CONTINUOUS
 62
     3
  5
CFC
 10
-7.16356
 20
-147.923163
 30
0.0
  0
VERTEX
  8
LY_1
  6
CONTINUOUS
 62
     3
  5
CFD
 10
-7.485231
 20
-148.363535
 30
0.0
  0
VERTEX
  8
LY_1
  6
CONTINUOUS
 62
     3
  5
CFE
 10
-7.813652
 20
-148.799165
 30
0.0
  0
VERTEX
  8
LY_1
  6
CONTINUOUS
 62
     3
  5
CFF
 10
-8.148533
 20
-149.229941
 30
0.0
  0
VERTEX
  8
LY_1
  6
CONTINUOUS
 62
     3
  5
D00
 10
-8.489585
 20
-149.655752
 30
0.0
  0
VERTEX
  8
LY_1
  6
CONTINUOUS
 62
     3
  5
D01
 10
-8.836517
 20
-150.076486
 30
0.0
  0
VERTEX
  8
LY_1
  6
CONTINUOUS
 62
     3
  5
D02
 10
-9.189039
 20
-150.49203
 30
0.0
  0
VERTEX
  8
LY_1
  6
CONTINUOUS
 62
     3
  5
D03
 10
-9.821848
 20
-151.209972
 30
0.0
  0
VERTEX
  8
LY_1
  6
CONTINUOUS
 62
     3
  5
D04
 10
-10.47058
 20
-151.911472
 30
0.0
  0
VERTEX
  8
LY_1
  6
CONTINUOUS
 62
     3
  5
D05
 10
-11.134767
 20
-152.596483
 30
0.0
  0
VERTEX
  8
LY_1
  6
CONTINUOUS
 62
     3
  5
D06
 10
-11.813941
 20
-153.264961
 30
0.0
  0
VERTEX
  8
LY_1
  6
CONTINUOUS
 62
     3
  5
D07
 10
-12.507636
 20
-153.916859
 30
0.0
  0
VERTEX
  8
LY_1
  6
CONTINUOUS
 62
     3
  5
D08
 10
-13.215384
 20
-154.552131
 30
0.0
  0
VERTEX
  8
LY_1
  6
CONTINUOUS
 62
     3
  5
D09
 10
-13.936717
 20
-155.170731
 30
0.0
  0
VERTEX
  8
LY_1
  6
CONTINUOUS
 62
     3
  5
D0A
 10
-14.671168
 20
-155.772613
 30
0.0
  0
VERTEX
  8
LY_1
  6
CONTINUOUS
 62
     3
  5
D0B
 10
-15.418268
 20
-156.357731
 30
0.0
  0
VERTEX
  8
LY_1
  6
CONTINUOUS
 62
     3
  5
D0C
 10
-16.177551
 20
-156.926039
 30
0.0
  0
VERTEX
  8
LY_1
  6
CONTINUOUS
 62
     3
  5
D0D
 10
-16.948548
 20
-157.477491
 30
0.0
  0
VERTEX
  8
LY_1
  6
CONTINUOUS
 62
     3
  5
D0E
 10
-17.730793
 20
-158.012042
 30
0.0
  0
VERTEX
  8
LY_1
  6
CONTINUOUS
 62
     3
  5
D0F
 10
-18.523817
 20
-158.529645
 30
0.0
  0
VERTEX
  8
LY_1
  6
CONTINUOUS
 62
     3
  5
D10
 10
-19.327154
 20
-159.030254
 30
0.0
  0
VERTEX
  8
LY_1
  6
CONTINUOUS
 62
     3
  5
D11
 10
-20.140335
 20
-159.513823
 30
0.0
  0
VERTEX
  8
LY_1
  6
CONTINUOUS
 62
     3
  5
D12
 10
-20.962893
 20
-159.980306
 30
0.0
  0
VERTEX
  8
LY_1
  6
CONTINUOUS
 62
     3
  5
D13
 10
-21.79436
 20
-160.429658
 30
0.0
  0
VERTEX
  8
LY_1
  6
CONTINUOUS
 62
     3
  5
D14
 10
-22.634269
 20
-160.861832
 30
0.0
  0
VERTEX
  8
LY_1
  6
CONTINUOUS
 62
     3
  5
D15
 10
-23.482153
 20
-161.276783
 30
0.0
  0
VERTEX
  8
LY_1
  6
CONTINUOUS
 62
     3
  5
D16
 10
-24.337543
 20
-161.674463
 30
0.0
  0
VERTEX
  8
LY_1
  6
CONTINUOUS
 62
     3
  5
D17
 10
-25.199972
 20
-162.054829
 30
0.0
  0
VERTEX
  8
LY_1
  6
CONTINUOUS
 62
     3
  5
D18
 10
-26.068972
 20
-162.417832
 30
0.0
  0
VERTEX
  8
LY_1
  6
CONTINUOUS
 62
     3
  5
D19
 10
-26.944076
 20
-162.763428
 30
0.0
  0
VERTEX
  8
LY_1
  6
CONTINUOUS
 62
     3
  5
D1A
 10
-27.824817
 20
-163.091571
 30
0.0
  0
VERTEX
  8
LY_1
  6
CONTINUOUS
 62
     3
  5
D1B
 10
-28.710726
 20
-163.402214
 30
0.0
  0
VERTEX
  8
LY_1
  6
CONTINUOUS
 62
     3
  5
D1C
 10
-29.601337
 20
-163.695311
 30
0.0
  0
VERTEX
  8
LY_1
  6
CONTINUOUS
 62
     3
  5
D1D
 10
-30.496181
 20
-163.970817
 30
0.0
  0
VERTEX
  8
LY_1
  6
CONTINUOUS
 62
     3
  5
D1E
 10
-31.394791
 20
-164.228686
 30
0.0
  0
VERTEX
  8
LY_1
  6
CONTINUOUS
 62
     3
  5
D1F
 10
-32.2967
 20
-164.468871
 30
0.0
  0
VERTEX
  8
LY_1
  6
CONTINUOUS
 62
     3
  5
D20
 10
-33.201439
 20
-164.691327
 30
0.0
  0
VERTEX
  8
LY_1
  6
CONTINUOUS
 62
     3
  5
D21
 10
-34.108542
 20
-164.896008
 30
0.0
  0
VERTEX
  8
LY_1
  6
CONTINUOUS
 62
     3
  5
D22
 10
-35.01754
 20
-165.082867
 30
0.0
  0
SEQEND
  8
LY_1
  6
CONTINUOUS
 62
     3
  5
D23
  0
LINE
  8
LY_1
  6
CONTINUOUS
 62
     3
  5
CB
 10
-27.125904
 20
-65.25
 30
0.0
 11
-32.355904
 21
-65.25
 31
0.0
  0
LINE
  8
LY_1
  6
CONTINUOUS
 62
     3
  5
CC
 10
38.125953
 20
-91.036087
 30
0.0
 11
39.424991
 21
-90.286087
 31
0.0
  0
LINE
  8
LY_1
  6
CONTINUOUS
 62
     3
  5
CD
 10
24.825953
 20
-67.999811
 30
0.0
 11
26.124991
 21
-67.249811
 31
0.0
  0
LINE
  8
LY_1
  6
CONTINUOUS
 62
     3
  5
CE
 10
30.024991
 20
-74.004809
 30
0.0
 11
31.624991
 21
-76.776091
 31
0.0
  0
LINE
  8
LY_1
  6
CONTINUOUS
 62
     3
  5
CF
 10
28.725953
 20
-74.754809
 30
0.0
 11
30.325953
 21
-77.526091
 31
0.0
  0
LINE
  8
LY_1
  6
CONTINUOUS
 62
     3
  5
D0
 10
33.924991
 20
-80.759808
 30
0.0
 11
35.524991
 21
-83.531089
 31
0.0
  0
LINE
  8
LY_1
  6
CONTINUOUS
 62
     3
  5
D1
 10
32.625953
 20
-81.509808
 30
0.0
 11
34.225953
 21
-84.281089
 31
0.0
  0
LINE
  8
LY_1
  6
CONTINUOUS
 62
     3
  5
D2
 10
37.824991
 20
-87.514806
 30
0.0
 11
39.424991
 21
-90.286087
 31
0.0
  0
LINE
  8
LY_1
  6
CONTINUOUS
 62
     3
  5
D3
 10
36.525953
 20
-88.264806
 30
0.0
 11
38.125953
 21
-91.036087
 31
0.0
  0
LINE
  8
LY_1
  6
CONTINUOUS
 62
     3
  5
D4
 10
28.298711
 20
-93.014806
 30
0.0
 11
29.898711
 21
-95.786087
 31
0.0
  0
LINE
  8
LY_1
  6
CONTINUOUS
 62
     3
  5
D5
 10
29.597749
 20
-92.264806
 30
0.0
 11
31.197749
 21
-95.036087
 31
0.0
  0
LINE
  8
LY_1
  6
CONTINUOUS
 62
     3
  5
D6
 10
24.398711
 20
-86.259808
 30
0.0
 11
25.998711
 21
-89.031089
 31
0.0
  0
LINE
  8
LY_1
  6
CONTINUOUS
 62
     3
  5
D7
 10
25.697749
 20
-85.509808
 30
0.0
 11
27.297749
 21
-88.281089
 31
0.0
  0
LINE
  8
LY_1
  6
CONTINUOUS
 62
     3
  5
D8
 10
20.498711
 20
-79.504809
 30
0.0
 11
22.098711
 21
-82.276091
 31
0.0
  0
LINE
  8
LY_1
  6
CONTINUOUS
 62
     3
  5
D9
 10
21.797749
 20
-78.754809
 30
0.0
 11
23.397749
 21
-81.526091
 31
0.0
  0
LINE
  8
LY_1
  6
CONTINUOUS
 62
     3
  5
DA
 10
26.425953
 20
-70.771093
 30
0.0
 11
27.724991
 21
-70.021093
 31
0.0
  0
LINE
  8
LY_1
  6
CONTINUOUS
 62
     3
  5
DB
 10
28.725953
 20
-74.754809
 30
0.0
 11
30.024991
 21
-74.004809
 31
0.0
  0
LINE
  8
LY_1
  6
CONTINUOUS
 62
     3
  5
DC
 10
30.325953
 20
-77.526091
 30
0.0
 11
31.624991
 21
-76.776091
 31
0.0
  0
LINE
  8
LY_1
  6
CONTINUOUS
 62
     3
  5
DD
 10
32.625953
 20
-81.509808
 30
0.0
 11
33.924991
 21
-80.759808
 31
0.0
  0
LINE
  8
LY_1
  6
CONTINUOUS
 62
     3
  5
DE
 10
34.225953
 20
-84.281089
 30
0.0
 11
35.524991
 21
-83.531089
 31
0.0
  0
LINE
  8
LY_1
  6
CONTINUOUS
 62
     3
  5
DF
 10
36.525953
 20
-88.264806
 30
0.0
 11
37.824991
 21
-87.514806
 31
0.0
  0
LINE
  8
LY_1
  6
CONTINUOUS
 62
     3
  5
E0
 10
16.598711
 20
-72.749811
 30
0.0
 11
17.897749
 21
-71.999811
 31
0.0
  0
LINE
  8
LY_1
  6
CONTINUOUS
 62
     3
  5
E1
 10
18.198711
 20
-75.521093
 30
0.0
 11
19.497749
 21
-74.771093
 31
0.0
  0
LINE
  8
LY_1
  6
CONTINUOUS
 62
     3
  5
E2
 10
20.498711
 20
-79.504809
 30
0.0
 11
21.797749
 21
-78.754809
 31
0.0
  0
LINE
  8
LY_1
  6
CONTINUOUS
 62
     3
  5
E3
 10
22.098711
 20
-82.276091
 30
0.0
 11
23.397749
 21
-81.526091
 31
0.0
  0
LINE
  8
LY_1
  6
CONTINUOUS
 62
     3
  5
E4
 10
24.398711
 20
-86.259808
 30
0.0
 11
25.697749
 21
-85.509808
 31
0.0
  0
LINE
  8
LY_1
  6
CONTINUOUS
 62
     3
  5
E5
 10
25.998711
 20
-89.031089
 30
0.0
 11
27.297749
 21
-88.281089
 31
0.0
  0
LINE
  8
LY_1
  6
CONTINUOUS
 62
     3
  5
E6
 10
28.298711
 20
-93.014806
 30
0.0
 11
29.597749
 21
-92.264806
 31
0.0
  0
LINE
  8
LY_1
  6
CONTINUOUS
 62
     3
  5
E7
 10
29.898711
 20
-95.786087
 30
0.0
 11
31.197749
 21
-95.036087
 31
0.0
  0
LINE
  8
LY_1
  6
CONTINUOUS
 62
     3
  5
E8
 10
26.124991
 20
-67.249811
 30
0.0
 11
27.724991
 21
-70.021093
 31
0.0
  0
LINE
  8
LY_1
  6
CONTINUOUS
 62
     3
  5
E9
 10
16.598711
 20
-72.749811
 30
0.0
 11
18.198711
 21
-75.521093
 31
0.0
  0
LINE
  8
LY_1
  6
CONTINUOUS
 62
     3
  5
EA
 10
24.825953
 20
-67.999811
 30
0.0
 11
26.425953
 21
-70.771093
 31
0.0
  0
LINE
  8
LY_1
  6
CONTINUOUS
 62
     3
  5
EB
 10
17.897749
 20
-71.999811
 30
0.0
 11
19.497749
 21
-74.771093
 31
0.0
  0
CIRCLE
  8
LY_1
  6
CONTINUOUS
 62
     3
  5
EC
 10
22.161851
 20
-71.385452
 30
0.0
 40
1.6
  0
CIRCLE
  8
LY_1
  6
CONTINUOUS
 62
     3
  5
ED
 10
26.061851
 20
-78.14045
 30
0.0
 40
1.6
  0
CIRCLE
  8
LY_1
  6
CONTINUOUS
 62
     3
  5
EE
 10
29.961851
 20
-84.895448
 30
0.0
 40
1.6
  0
CIRCLE
  8
LY_1
  6
CONTINUOUS
 62
     3
  5
EF
 10
33.861851
 20
-91.650446
 30
0.0
 40
1.6
  0
LINE
  8
LY_1
  6
CONTINUOUS
 62
     3
  5
F0
 10
26.873067
 20
-62.545517
 30
0.0
 11
35.873067
 21
-78.133975
 31
0.0
  0
LINE
  8
LY_1
  6
CONTINUOUS
 62
     3
  5
F1
 10
4.155445
 20
-72.197441
 30
0.0
 11
22.774991
 21
-61.447441
 31
0.0
  0
LINE
  8
LY_1
  6
CONTINUOUS
 62
     3
  5
F2
 10
24.155445
 20
-106.838457
 30
0.0
 11
42.774991
 21
-96.088457
 31
0.0
  0
CIRCLE
  8
LY_1
  6
CONTINUOUS
 62
     3
  5
F3
 10
-29.740904
 20
-65.25
 30
0.0
 40
2.615
  0
CIRCLE
  8
LY_1
  6
CONTINUOUS
 62
     3
  5
F4
 10
-23.43889
 20
-69.379703
 30
0.0
 40
2.5
  0
CIRCLE
  8
LY_1
  6
CONTINUOUS
 62
     3
  5
F5
 10
-33.133756
 20
-71.977434
 30
0.0
 40
2.5
  0
CIRCLE
  8
LY_1
  6
CONTINUOUS
 62
    80
  5
F6
 10
-20.920089
 20
-98.169729
 30
0.0
 40
3.5
  0
ARC
  8
LY_1
  6
CONTINUOUS
 62
     3
  5
F7
 10
0.0
 20
-135.0
 30
0.0
 40
3.0
 50
324.726964
 51
219.330938
  0
ARC
  8
LY_1
  6
CONTINUOUS
 62
     3
  5
F8
 10
0.0
 20
-135.0
 30
0.0
 40
4.5
 50
102.839588
 51
233.550644
  0
ARC
  8
LY_1
  6
CONTINUOUS
 62
     3
  5
F9
 10
0.0
 20
-100.0
 30
0.0
 40
55.0
 50
263.150397
 51
257.185637
  0
CIRCLE
  8
LY_1
  6
CONTINUOUS
 62
     3
  5
FA
 10
-9.273232
 20
-141.636392
 30
0.0
 40
3.0
  0
CIRCLE
  8
LY_1
  6
CONTINUOUS
 62
     3
  5
FB
 10
-11.732013
 20
-132.460096
 30
0.0
 40
3.5
  0
CIRCLE
  8
LY_1
  6
CONTINUOUS
 62
    80
  5
FC
 10
-39.046244
 20
-106.622095
 30
0.0
 40
2.0
  0
CIRCLE
  8
LY_1
  6
CONTINUOUS
 62
    80
  5
FD
 10
-40.843983
 20
-96.426615
 30
0.0
 40
2.0
  0
CIRCLE
  8
LY_1
  6
CONTINUOUS
 62
    80
  5
FE
 10
-37.30313
 20
-86.698201
 30
0.0
 40
2.0
  0
CIRCLE
  8
LY_1
  6
CONTINUOUS
 62
    80
  5
FF
 10
-17.447125
 20
-117.865884
 30
0.0
 40
2.0
  0
CIRCLE
  8
LY_1
  6
CONTINUOUS
 62
    80
  5
100
 10
-8.064336
 20
-113.490618
 30
0.0
 40
2.0
  0
CIRCLE
  8
LY_1
  6
CONTINUOUS
 62
    80
  5
101
 10
-20.920089
 20
-78.169729
 30
0.0
 40
2.0
  0
CIRCLE
  8
LY_1
  6
CONTINUOUS
 62
    80
  5
102
 10
-10.920089
 20
-80.849221
 30
0.0
 40
2.0
  0
ARC
  8
LY_1
  6
CONTINUOUS
 62
     3
  5
103
 10
0.0
 20
-100.0
 30
0.0
 40
47.0
 50
211.219151
 51
262.361573
  0
ARC
  8
LY_1
  6
CONTINUOUS
 62
     3
  5
104
 10
0.0
 20
-100.0
 30
0.0
 40
48.0
 50
211.193748
 51
261.773273
  0
ARC
  8
LY_1
  6
CONTINUOUS
 62
     3
  5
105
 10
-30.310889
 20
-117.5
 30
0.0
 40
7.0
 50
218.213211
 51
21.786789
  0
CIRCLE
  8
LY_1
  6
CONTINUOUS
 62
     3
  5
106
 10
-30.310889
 20
-117.5
 30
0.0
 40
6.5
  0
ARC
  8
LY_1
  6
CONTINUOUS
 62
     3
  5
107
 10
30.310889
 20
-117.5
 30
0.0
 40
7.0
 50
158.213211
 51
321.786789
  0
CIRCLE
  8
LY_1
  6
CONTINUOUS
 62
     3
  5
108
 10
30.310889
 20
-117.5
 30
0.0
 40
6.5
  0
ARC
  8
LY_1
  6
CONTINUOUS
 62
     3
  5
109
 10
0.0
 20
-65.0
 30
0.0
 40
7.0
 50
98.213211
 51
261.786789
  0
CIRCLE
  8
LY_1
  6
CONTINUOUS
 62
     3
  5
10A
 10
0.0
 20
-65.0
 30
0.0
 40
6.5
  0
LINE
  8
LY_1
  6
CONTINUOUS
 62
     3
  5
10B
 10
1.0
 20
-104.898979
 30
0.0
 11
1.0
 21
-130.612518
 31
0.0
  0
LINE
  8
LY_1
  6
CONTINUOUS
 62
     3
  5
10C
 10
-1.0
 20
-104.898979
 30
0.0
 11
-1.0
 21
-130.612518
 31
0.0
  0
ARC
  8
LY_1
  6
CONTINUOUS
 62
     3
  5
10D
 10
0.0
 20
-100.0
 30
0.0
 40
5.0
 50
221.536959
 51
258.463041
  0
LINE
  8
LY_1
  6
CONTINUOUS
 62
     3
  5
10E
 10
4.742641
 20
-101.583464
 30
0.0
 11
24.810889
 21
-113.169873
 31
0.0
  0
LINE
  8
LY_1
  6
CONTINUOUS
 62
     3
  5
10F
 10
3.742641
 20
-103.315515
 30
0.0
 11
23.810889
 21
-114.901924
 31
0.0
  0
LINE
  8
LY_1
  6
CONTINUOUS
 62
     3
  5
110
 10
3.742641
 20
-96.684485
 30
0.0
 11
12.057368
 21
-91.883975
 31
0.0
  0
LINE
  8
LY_1
  6
CONTINUOUS
 62
     3
  5
111
 10
4.742641
 20
-98.416536
 30
0.0
 11
13.057368
 21
-93.616025
 31
0.0
  0
LINE
  8
LY_1
  6
CONTINUOUS
 62
     3
  5
112
 10
-1.0
 20
-95.101021
 30
0.0
 11
-1.0
 21
-71.928203
 31
0.0
  0
LINE
  8
LY_1
  6
CONTINUOUS
 62
     3
  5
113
 10
1.0
 20
-95.101021
 30
0.0
 11
1.0
 21
-71.928203
 31
0.0
  0
LINE
  8
LY_1
  6
CONTINUOUS
 62
     3
  5
114
 10
-4.742641
 20
-98.416536
 30
0.0
 11
-42.069219
 21
-76.866025
 31
0.0
  0
LINE
  8
LY_1
  6
CONTINUOUS
 62
     3
  5
115
 10
-3.742641
 20
-96.684485
 30
0.0
 11
-41.069219
 21
-75.133975
 31
0.0
  0
LINE
  8
LY_1
  6
CONTINUOUS
 62
     3
  5
116
 10
-3.742641
 20
-103.315515
 30
0.0
 11
-23.810889
 21
-114.901924
 31
0.0
  0
LINE
  8
LY_1
  6
CONTINUOUS
 62
     3
  5
117
 10
-4.742641
 20
-101.583464
 30
0.0
 11
-24.810889
 21
-113.169873
 31
0.0
  0
ARC
  8
LY_1
  6
CONTINUOUS
 62
     3
  5
118
 10
0.0
 20
-100.0
 30
0.0
 40
47.0
 50
271.219151
 51
328.780849
  0
ARC
  8
LY_1
  6
CONTINUOUS
 62
     3
  5
119
 10
0.0
 20
-100.0
 30
0.0
 40
48.0
 50
271.193748
 51
328.806252
  0
ARC
  8
LY_1
  6
CONTINUOUS
 62
     3
  5
11A
 10
0.0
 20
-100.0
 30
0.0
 40
47.0
 50
331.219151
 51
28.780849
  0
ARC
  8
LY_1
  6
CONTINUOUS
 62
     3
  5
11B
 10
0.0
 20
-100.0
 30
0.0
 40
48.0
 50
331.193748
 51
28.806252
  0
ARC
  8
LY_1
  6
CONTINUOUS
 62
     3
  5
11C
 10
0.0
 20
-100.0
 30
0.0
 40
47.0
 50
31.219151
 51
88.780849
  0
ARC
  8
LY_1
  6
CONTINUOUS
 62
     3
  5
11D
 10
0.0
 20
-100.0
 30
0.0
 40
48.0
 50
31.193748
 51
88.806252
  0
ARC
  8
LY_1
  6
CONTINUOUS
 62
     3
  5
11E
 10
0.0
 20
-100.0
 30
0.0
 40
47.0
 50
91.219151
 51
127.727245
  0
ARC
  8
LY_1
  6
CONTINUOUS
 62
     3
  5
11F
 10
0.0
 20
-100.0
 30
0.0
 40
48.0
 50
91.193748
 51
128.951448
  0
ARC
  8
LY_1
  6
CONTINUOUS
 62
     3
  5
120
 10
0.0
 20
-100.0
 30
0.0
 40
47.0
 50
151.219151
 51
208.780849
  0
ARC
  8
LY_1
  6
CONTINUOUS
 62
     3
  5
121
 10
0.0
 20
-100.0
 30
0.0
 40
48.0
 50
151.193748
 51
208.806252
  0
ARC
  8
LY_1
  6
CONTINUOUS
 62
     3
  5
122
 10
-30.310889
 20
-117.5
 30
0.0
 40
7.0
 50
38.213211
 51
201.786789
  0
LINE
  8
LY_1
  6
CONTINUOUS
 62
     3
  5
123
 10
-36.810889
 20
-120.098076
 30
0.0
 11
-42.069219
 21
-123.133975
 31
0.0
  0
LINE
  8
LY_1
  6
CONTINUOUS
 62
     3
  5
124
 10
-35.810889
 20
-121.830127
 30
0.0
 11
-41.069219
 21
-124.866025
 31
0.0
  0
ARC
  8
LY_1
  6
CONTINUOUS
 62
     3
  5
125
 10
0.0
 20
-100.0
 30
0.0
 40
5.0
 50
161.536959
 51
198.463041
  0
ARC
  8
LY_1
  6
CONTINUOUS
 62
     3
  5
126
 10
0.0
 20
-100.0
 30
0.0
 40
5.0
 50
281.536959
 51
318.463041
  0
ARC
  8
LY_1
  6
CONTINUOUS
 62
     3
  5
127
 10
0.0
 20
-100.0
 30
0.0
 40
5.0
 50
341.536959
 51
18.463041
  0
ARC
  8
LY_1
  6
CONTINUOUS
 62
     3
  5
128
 10
0.0
 20
-100.0
 30
0.0
 40
5.0
 50
41.536959
 51
78.463041
  0
ARC
  8
LY_1
  6
CONTINUOUS
 62
     3
  5
129
 10
0.0
 20
-100.0
 30
0.0
 40
5.0
 50
101.536959
 51
138.463041
  0
LINE
  8
LY_1
  6
CONTINUOUS
 62
     3
  5
12A
 10
1.0
 20
-142.624509
 30
0.0
 11
1.0
 21
-148.0
 31
0.0
  0
LINE
  8
LY_1
  6
CONTINUOUS
 62
     3
  5
12B
 10
-1.0
 20
-146.968476
 30
0.0
 11
-1.0
 21
-148.0
 31
0.0
  0
ARC
  8
LY_1
  6
CONTINUOUS
 62
     3
  5
12C
 10
0.0
 20
-135.0
 30
0.0
 40
4.5
 50
297.291043
 51
77.160412
  0
LINE
  8
LY_1
  6
CONTINUOUS
 62
     3
  5
12D
 10
35.810889
 20
-121.830127
 30
0.0
 11
41.069219
 21
-124.866025
 31
0.0
  0
LINE
  8
LY_1
  6
CONTINUOUS
 62
     3
  5
12E
 10
36.810889
 20
-120.098076
 30
0.0
 11
42.069219
 21
-123.133975
 31
0.0
  0
ARC
  8
LY_1
  6
CONTINUOUS
 62
     3
  5
12F
 10
30.310889
 20
-117.5
 30
0.0
 40
7.0
 50
338.213211
 51
141.786789
  0
LINE
  8
LY_1
  6
CONTINUOUS
 62
     3
  5
130
 10
-1.0
 20
-58.071797
 30
0.0
 11
-1.0
 21
-52.0
 31
0.0
  0
LINE
  8
LY_1
  6
CONTINUOUS
 62
     3
  5
131
 10
1.0
 20
-58.071797
 30
0.0
 11
1.0
 21
-52.0
 31
0.0
  0
ARC
  8
LY_1
  6
CONTINUOUS
 62
     3
  5
132
 10
0.0
 20
-65.0
 30
0.0
 40
7.0
 50
278.213211
 51
81.786789
  0
LINE
  8
LY_1
  6
CONTINUOUS
 62
     3
  5
133
 10
20.057368
 20
-105.740381
 30
0.0
 11
13.057368
 21
-93.616025
 31
0.0
  0
LINE
  8
LY_1
  6
CONTINUOUS
 62
     3
  5
134
 10
20.923394
 20
-105.240381
 30
0.0
 11
3.923394
 21
-75.795517
 31
0.0
  0
LINE
  8
LY_1
  6
CONTINUOUS
 62
     3
  5
135
 10
24.923394
 20
-102.93098
 30
0.0
 11
7.923394
 21
-73.486116
 31
0.0
  0
LINE
  8
LY_1
  6
CONTINUOUS
 62
     3
  5
136
 10
42.574029
 20
-92.740381
 30
0.0
 11
25.574029
 21
-63.295517
 31
0.0
  0
LINE
  8
LY_1
  6
CONTINUOUS
 62
     3
  5
137
 10
3.923394
 20
-75.795517
 30
0.0
 11
25.574029
 21
-63.295517
 31
0.0
  0
LINE
  8
LY_1
  6
CONTINUOUS
 62
     3
  5
138
 10
20.923394
 20
-105.240381
 30
0.0
 11
42.574029
 21
-92.740381
 31
0.0
  0
ARC
  8
LY_1
  6
CONTINUOUS
 62
     3
  5
139
 10
22.655445
 20
-104.240381
 30
0.0
 40
3.0
 50
210.0
 51
300.0
  0
ARC
  8
LY_1
  6
CONTINUOUS
 62
     3
  5
13A
 10
5.655445
 20
-74.795517
 30
0.0
 40
3.0
 50
120.0
 51
210.0
  0
ARC
  8
LY_1
  6
CONTINUOUS
 62
     3
  5
13B
 10
24.274991
 20
-64.045517
 30
0.0
 40
3.0
 50
30.0
 51
120.0
  0
ARC
  8
LY_1
  6
CONTINUOUS
 62
     3
  5
13C
 10
41.274991
 20
-93.490381
 30
0.0
 40
3.0
 50
300.0
 51
30.0
  0
LINE
  8
LY_1
  6
CONTINUOUS
 62
     3
  5
13D
 10
36.873067
 20
-79.866025
 30
0.0
 11
42.069219
 21
-76.866025
 31
0.0
  0
LINE
  8
LY_1
  6
CONTINUOUS
 62
     3
  5
13E
 10
35.873067
 20
-78.133975
 30
0.0
 11
41.069219
 21
-75.133975
 31
0.0
  0
LINE
  8
LY_1
  6
CONTINUOUS
 62
     3
  5
13F
 10
36.873067
 20
-79.866025
 30
0.0
 11
43.873067
 21
-91.990381
 31
0.0
  0
LINE
  8
LY_1
  6
CONTINUOUS
 62
     3
  5
140
 10
12.057368
 20
-91.883975
 30
0.0
 11
3.057368
 21
-76.295517
 31
0.0
  0
LINE
  8
LY_1
  6
CONTINUOUS
 62
     3
  5
141
 10
15.315699
 20
-71.527568
 30
0.0
 11
14.315699
 21
-69.795517
 31
0.0
  0
LINE
  8
LY_1
  6
CONTINUOUS
 62
     3
  5
142
 10
15.315699
 20
-71.527568
 30
0.0
 11
26.574029
 21
-65.027568
 31
0.0
  0
LINE
  8
LY_1
  6
CONTINUOUS
 62
     3
  5
143
 10
18.565699
 20
-77.156733
 30
0.0
 11
29.824029
 21
-70.656733
 31
0.0
  0
LINE
  8
LY_1
  6
CONTINUOUS
 62
     3
  5
144
 10
19.215699
 20
-78.282566
 30
0.0
 11
30.474029
 21
-71.782566
 31
0.0
  0
LINE
  8
LY_1
  6
CONTINUOUS
 62
     3
  5
145
 10
18.565699
 20
-77.156733
 30
0.0
 11
19.215699
 21
-78.282566
 31
0.0
  0
LINE
  8
LY_1
  6
CONTINUOUS
 62
     3
  5
146
 10
22.465699
 20
-83.911731
 30
0.0
 11
33.724029
 21
-77.411731
 31
0.0
  0
LINE
  8
LY_1
  6
CONTINUOUS
 62
     3
  5
147
 10
23.115699
 20
-85.037564
 30
0.0
 11
34.374029
 21
-78.537564
 31
0.0
  0
LINE
  8
LY_1
  6
CONTINUOUS
 62
     3
  5
148
 10
22.465699
 20
-83.911731
 30
0.0
 11
23.115699
 21
-85.037564
 31
0.0
  0
LINE
  8
LY_1
  6
CONTINUOUS
 62
     3
  5
149
 10
26.365699
 20
-90.66673
 30
0.0
 11
37.624029
 21
-84.16673
 31
0.0
  0
LINE
  8
LY_1
  6
CONTINUOUS
 62
     3
  5
14A
 10
27.015699
 20
-91.792563
 30
0.0
 11
38.274029
 21
-85.292563
 31
0.0
  0
LINE
  8
LY_1
  6
CONTINUOUS
 62
     3
  5
14B
 10
26.365699
 20
-90.66673
 30
0.0
 11
27.015699
 21
-91.792563
 31
0.0
  0
LINE
  8
LY_1
  6
CONTINUOUS
 62
     3
  5
14C
 10
30.315699
 20
-97.50833
 30
0.0
 11
31.315699
 21
-99.240381
 31
0.0
  0
LINE
  8
LY_1
  6
CONTINUOUS
 62
     3
  5
14D
 10
30.315699
 20
-97.50833
 30
0.0
 11
41.574029
 21
-91.00833
 31
0.0
  0
LINE
  8
LY_1
  6
CONTINUOUS
 62
     3
  5
14E
 10
-24.172972
 20
-52.630843
 30
0.0
 11
-25.0
 21
-51.010205
 31
0.0
  0
LINE
  8
LY_1
  6
CONTINUOUS
 62
     3
  5
14F
 10
24.172972
 20
-52.630843
 30
0.0
 11
25.0
 21
-51.010205
 31
0.0
  0
ARC
  8
LY_1
  6
CONTINUOUS
 62
     3
  5
150
 10
0.0
 20
-100.0
 30
0.0
 40
53.180538
 50
62.964308
 51
117.035692
  0
ARC
  8
LY_1
  6
CONTINUOUS
 62
     3
  5
151
 10
13.650653
 20
-168.626468
 30
0.0
 40
16.0
 50
83.11397
 51
119.38603
  0
ARC
  8
LY_1
  6
CONTINUOUS
 62
     3
  5
152
 10
5.750523
 20
-154.597999
 30
0.0
 40
0.1
 50
276.012499
 51
299.38603
  0
ARC
  8
LY_1
  6
CONTINUOUS
 62
     3
  5
153
 10
15.580959
 20
-152.642604
 30
0.0
 40
0.1
 50
263.11397
 51
286.487501
  0
ARC
  8
LY_1
  6
CONTINUOUS
 62
     3
  5
154
 10
12.541778
 20
-163.051777
 30
0.0
 40
16.0
 50
83.11397
 51
119.38603
  0
ARC
  8
LY_1
  6
CONTINUOUS
 62
     3
  5
155
 10
4.641648
 20
-149.023308
 30
0.0
 40
0.1
 50
276.012499
 51
299.38603
  0
ARC
  8
LY_1
  6
CONTINUOUS
 62
     3
  5
156
 10
14.472084
 20
-147.067912
 30
0.0
 40
0.1
 50
263.11397
 51
286.487501
  0
LINE
  8
LY_1
  6
CONTINUOUS
 62
     3
  5
157
 10
4.652122
 20
-149.122758
 30
0.0
 11
5.760998
 21
-154.697449
 31
0.0
  0
LINE
  8
LY_1
  6
CONTINUOUS
 62
     3
  5
158
 10
14.500465
 20
-147.1638
 30
0.0
 11
15.60934
 21
-152.738492
 31
0.0
  0
LINE
  8
LY_1
  6
CONTINUOUS
 62
     3
  5
159
 10
31.445488
 20
-138.024582
 30
0.0
 11
34.603297
 21
-142.750577
 31
0.0
  0
LINE
  8
LY_1
  6
CONTINUOUS
 62
     3
  5
15A
 10
23.096466
 20
-143.60322
 30
0.0
 11
26.254275
 21
-148.329215
 31
0.0
  0
ARC
  8
LY_1
  6
CONTINUOUS
 62
     3
  5
15B
 10
31.382573
 20
-137.946854
 30
0.0
 40
0.1
 50
285.61397
 51
308.987501
  0
ARC
  8
LY_1
  6
CONTINUOUS
 62
     3
  5
15C
 10
23.048731
 20
-143.515349
 30
0.0
 40
0.1
 50
298.512499
 51
321.88603
  0
ARC
  8
LY_1
  6
CONTINUOUS
 62
     3
  5
15D
 10
35.715962
 20
-153.452715
 30
0.0
 40
16.0
 50
105.61397
 51
141.88603
  0
ARC
  8
LY_1
  6
CONTINUOUS
 62
     3
  5
15E
 10
34.540381
 20
-142.672849
 30
0.0
 40
0.1
 50
285.61397
 51
308.987501
  0
ARC
  8
LY_1
  6
CONTINUOUS
 62
     3
  5
15F
 10
26.20654
 20
-148.241344
 30
0.0
 40
0.1
 50
298.512499
 51
321.88603
  0
ARC
  8
LY_1
  6
CONTINUOUS
 62
     3
  5
160
 10
38.873771
 20
-158.17871
 30
0.0
 40
16.0
 50
105.61397
 51
141.88603
  0
LINE
  8
LY_1
  6
CONTINUOUS
 62
     3
  5
161
 10
43.60322
 20
-123.096466
 30
0.0
 11
48.329215
 21
-126.254275
 31
0.0
  0
LINE
  8
LY_1
  6
CONTINUOUS
 62
     3
  5
162
 10
38.024582
 20
-131.445488
 30
0.0
 11
42.750577
 21
-134.603297
 31
0.0
  0
ARC
  8
LY_1
  6
CONTINUOUS
 62
     3
  5
163
 10
43.515349
 20
-123.048731
 30
0.0
 40
0.1
 50
308.11397
 51
331.487501
  0
ARC
  8
LY_1
  6
CONTINUOUS
 62
     3
  5
164
 10
37.946854
 20
-131.382573
 30
0.0
 40
0.1
 50
321.012499
 51
344.38603
  0
ARC
  8
LY_1
  6
CONTINUOUS
 62
     3
  5
165
 10
53.452715
 20
-135.715962
 30
0.0
 40
16.0
 50
128.11397
 51
164.38603
  0
ARC
  8
LY_1
  6
CONTINUOUS
 62
     3
  5
166
 10
48.241344
 20
-126.20654
 30
0.0
 40
0.1
 50
308.11397
 51
331.487501
  0
ARC
  8
LY_1
  6
CONTINUOUS
 62
     3
  5
167
 10
42.672849
 20
-134.540381
 30
0.0
 40
0.1
 50
321.012499
 51
344.38603
  0
ARC
  8
LY_1
  6
CONTINUOUS
 62
     3
  5
168
 10
58.17871
 20
-138.873771
 30
0.0
 40
16.0
 50
128.11397
 51
164.38603
  0
LINE
  8
LY_1
  6
CONTINUOUS
 62
     3
  5
169
 10
49.122758
 20
-104.652122
 30
0.0
 11
54.697449
 21
-105.760998
 31
0.0
  0
LINE
  8
LY_1
  6
CONTINUOUS
 62
     3
  5
16A
 10
47.1638
 20
-114.500465
 30
0.0
 11
52.738492
 21
-115.60934
 31
0.0
  0
ARC
  8
LY_1
  6
CONTINUOUS
 62
     3
  5
16B
 10
49.023308
 20
-104.641648
 30
0.0
 40
0.1
 50
330.61397
 51
353.987501
  0
ARC
  8
LY_1
  6
CONTINUOUS
 62
     3
  5
16C
 10
47.067912
 20
-114.472084
 30
0.0
 40
0.1
 50
343.512499
 51
6.88603
  0
ARC
  8
LY_1
  6
CONTINUOUS
 62
     3
  5
16D
 10
63.051777
 20
-112.541778
 30
0.0
 40
16.0
 50
150.61397
 51
186.88603
  0
ARC
  8
LY_1
  6
CONTINUOUS
 62
     3
  5
16E
 10
54.597999
 20
-105.750523
 30
0.0
 40
0.1
 50
330.61397
 51
353.987501
  0
ARC
  8
LY_1
  6
CONTINUOUS
 62
     3
  5
16F
 10
52.642604
 20
-115.580959
 30
0.0
 40
0.1
 50
343.512499
 51
6.88603
  0
ARC
  8
LY_1
  6
CONTINUOUS
 62
     3
  5
170
 10
68.626468
 20
-113.650653
 30
0.0
 40
16.0
 50
150.61397
 51
186.88603
  0
LINE
  8
LY_1
  6
CONTINUOUS
 62
     3
  5
171
 10
47.1638
 20
-85.499535
 30
0.0
 11
52.738492
 21
-84.39066
 31
0.0
  0
LINE
  8
LY_1
  6
CONTINUOUS
 62
     3
  5
172
 10
49.122758
 20
-95.347878
 30
0.0
 11
54.697449
 21
-94.239002
 31
0.0
  0
ARC
  8
LY_1
  6
CONTINUOUS
 62
     3
  5
173
 10
47.067912
 20
-85.527916
 30
0.0
 40
0.1
 50
353.11397
 51
16.487501
  0
ARC
  8
LY_1
  6
CONTINUOUS
 62
     3
  5
174
 10
49.023308
 20
-95.358352
 30
0.0
 40
0.1
 50
6.012499
 51
29.38603
  0
ARC
  8
LY_1
  6
CONTINUOUS
 62
     3
  5
175
 10
63.051777
 20
-87.458222
 30
0.0
 40
16.0
 50
173.11397
 51
209.38603
  0
ARC
  8
LY_1
  6
CONTINUOUS
 62
     3
  5
176
 10
52.642604
 20
-84.419041
 30
0.0
 40
0.1
 50
353.11397
 51
16.487501
  0
ARC
  8
LY_1
  6
CONTINUOUS
 62
     3
  5
177
 10
54.597999
 20
-94.249477
 30
0.0
 40
0.1
 50
6.012499
 51
29.38603
  0
ARC
  8
LY_1
  6
CONTINUOUS
 62
     3
  5
178
 10
68.626468
 20
-86.349347
 30
0.0
 40
16.0
 50
173.11397
 51
209.38603
  0
LINE
  8
LY_1
  6
CONTINUOUS
 62
     3
  5
179
 10
38.024582
 20
-68.554512
 30
0.0
 11
42.750577
 21
-65.396703
 31
0.0
  0
LINE
  8
LY_1
  6
CONTINUOUS
 62
     3
  5
17A
 10
43.60322
 20
-76.903534
 30
0.0
 11
48.329215
 21
-73.745725
 31
0.0
  0
ARC
  8
LY_1
  6
CONTINUOUS
 62
     3
  5
17B
 10
37.946854
 20
-68.617427
 30
0.0
 40
0.1
 50
15.61397
 51
38.987501
  0
ARC
  8
LY_1
  6
CONTINUOUS
 62
     3
  5
17C
 10
43.515349
 20
-76.951269
 30
0.0
 40
0.1
 50
28.512499
 51
51.88603
  0
ARC
  8
LY_1
  6
CONTINUOUS
 62
     3
  5
17D
 10
53.452715
 20
-64.284038
 30
0.0
 40
16.0
 50
195.61397
 51
231.88603
  0
ARC
  8
LY_1
  6
CONTINUOUS
 62
     3
  5
17E
 10
42.672849
 20
-65.459619
 30
0.0
 40
0.1
 50
15.61397
 51
38.987501
  0
ARC
  8
LY_1
  6
CONTINUOUS
 62
     3
  5
17F
 10
48.241344
 20
-73.79346
 30
0.0
 40
0.1
 50
28.512499
 51
51.88603
  0
ARC
  8
LY_1
  6
CONTINUOUS
 62
     3
  5
180
 10
58.17871
 20
-61.126229
 30
0.0
 40
16.0
 50
195.61397
 51
231.88603
  0
LINE
  8
LY_1
  6
CONTINUOUS
 62
     3
  5
181
 10
23.096466
 20
-56.39678
 30
0.0
 11
26.254275
 21
-51.670785
 31
0.0
  0
LINE
  8
LY_1
  6
CONTINUOUS
 62
     3
  5
182
 10
31.445488
 20
-61.975418
 30
0.0
 11
34.603297
 21
-57.249423
 31
0.0
  0
ARC
  8
LY_1
  6
CONTINUOUS
 62
     3
  5
183
 10
23.048731
 20
-56.484651
 30
0.0
 40
0.1
 50
38.11397
 51
61.487501
  0
ARC
  8
LY_1
  6
CONTINUOUS
 62
     3
  5
184
 10
31.382573
 20
-62.053146
 30
0.0
 40
0.1
 50
51.012499
 51
74.38603
  0
ARC
  8
LY_1
  6
CONTINUOUS
 62
     3
  5
185
 10
35.715962
 20
-46.547285
 30
0.0
 40
16.0
 50
218.11397
 51
254.38603
  0
ARC
  8
LY_1
  6
CONTINUOUS
 62
     3
  5
186
 10
26.20654
 20
-51.758656
 30
0.0
 40
0.1
 50
38.11397
 51
61.487501
  0
ARC
  8
LY_1
  6
CONTINUOUS
 62
     3
  5
187
 10
34.540381
 20
-57.327151
 30
0.0
 40
0.1
 50
51.012499
 51
74.38603
  0
ARC
  8
LY_1
  6
CONTINUOUS
 62
     3
  5
188
 10
38.873771
 20
-41.82129
 30
0.0
 40
16.0
 50
218.11397
 51
254.38603
  0
LINE
  8
LY_1
  6
CONTINUOUS
 62
     3
  5
189
 10
4.652122
 20
-50.877242
 30
0.0
 11
5.404499
 21
-47.094792
 31
0.0
  0
LINE
  8
LY_1
  6
CONTINUOUS
 62
     3
  5
18A
 10
14.500465
 20
-52.8362
 30
0.0
 11
15.252841
 21
-49.053749
 31
0.0
  0
ARC
  8
LY_1
  6
CONTINUOUS
 62
     3
  5
18B
 10
4.641648
 20
-50.976692
 30
0.0
 40
0.1
 50
60.61397
 51
83.987501
  0
ARC
  8
LY_1
  6
CONTINUOUS
 62
     3
  5
18C
 10
14.472084
 20
-52.932088
 30
0.0
 40
0.1
 50
73.512499
 51
96.88603
  0
ARC
  8
LY_1
  6
CONTINUOUS
 62
     3
  5
18D
 10
12.541778
 20
-36.948223
 30
0.0
 40
16.0
 50
240.61397
 51
276.88603
  0
LINE
  8
LY_1
  6
CONTINUOUS
 62
     3
  5
18E
 10
-14.500465
 20
-52.8362
 30
0.0
 11
-15.252841
 21
-49.053749
 31
0.0
  0
LINE
  8
LY_1
  6
CONTINUOUS
 62
     3
  5
18F
 10
-4.652122
 20
-50.877242
 30
0.0
 11
-5.404499
 21
-47.094792
 31
0.0
  0
ARC
  8
LY_1
  6
CONTINUOUS
 62
     3
  5
190
 10
-14.472084
 20
-52.932088
 30
0.0
 40
0.1
 50
83.11397
 51
106.487501
  0
ARC
  8
LY_1
  6
CONTINUOUS
 62
     3
  5
191
 10
-4.641648
 20
-50.976692
 30
0.0
 40
0.1
 50
96.012499
 51
119.38603
  0
ARC
  8
LY_1
  6
CONTINUOUS
 62
     3
  5
192
 10
-12.541778
 20
-36.948223
 30
0.0
 40
16.0
 50
263.11397
 51
299.38603
  0
LINE
  8
LY_1
  6
CONTINUOUS
 62
     3
  5
193
 10
-31.445488
 20
-61.975418
 30
0.0
 11
-34.603297
 21
-57.249423
 31
0.0
  0
LINE
  8
LY_1
  6
CONTINUOUS
 62
     3
  5
194
 10
-23.096466
 20
-56.39678
 30
0.0
 11
-26.254275
 21
-51.670785
 31
0.0
  0
ARC
  8
LY_1
  6
CONTINUOUS
 62
     3
  5
195
 10
-31.382573
 20
-62.053146
 30
0.0
 40
0.1
 50
105.61397
 51
128.987501
  0
ARC
  8
LY_1
  6
CONTINUOUS
 62
     3
  5
196
 10
-23.048731
 20
-56.484651
 30
0.0
 40
0.1
 50
118.512499
 51
141.88603
  0
ARC
  8
LY_1
  6
CONTINUOUS
 62
     3
  5
197
 10
-35.715962
 20
-46.547285
 30
0.0
 40
16.0
 50
285.61397
 51
321.88603
  0
ARC
  8
LY_1
  6
CONTINUOUS
 62
     3
  5
198
 10
-34.540381
 20
-57.327151
 30
0.0
 40
0.1
 50
105.61397
 51
128.987501
  0
ARC
  8
LY_1
  6
CONTINUOUS
 62
     3
  5
199
 10
-26.20654
 20
-51.758656
 30
0.0
 40
0.1
 50
118.512499
 51
141.88603
  0
ARC
  8
LY_1
  6
CONTINUOUS
 62
     3
  5
19A
 10
-38.873771
 20
-41.82129
 30
0.0
 40
16.0
 50
285.61397
 51
321.88603
  0
LINE
  8
LY_1
  6
CONTINUOUS
 62
     3
  5
19B
 10
-43.60322
 20
-76.903534
 30
0.0
 11
-48.329215
 21
-73.745725
 31
0.0
  0
LINE
  8
LY_1
  6
CONTINUOUS
 62
     3
  5
19C
 10
-38.024582
 20
-68.554512
 30
0.0
 11
-42.750577
 21
-65.396703
 31
0.0
  0
ARC
  8
LY_1
  6
CONTINUOUS
 62
     3
  5
19D
 10
-43.515349
 20
-76.951269
 30
0.0
 40
0.1
 50
128.11397
 51
151.487501
  0
ARC
  8
LY_1
  6
CONTINUOUS
 62
     3
  5
19E
 10
-37.946854
 20
-68.617427
 30
0.0
 40
0.1
 50
141.012499
 51
164.38603
  0
ARC
  8
LY_1
  6
CONTINUOUS
 62
     3
  5
19F
 10
-53.452715
 20
-64.284038
 30
0.0
 40
16.0
 50
308.11397
 51
344.38603
  0
ARC
  8
LY_1
  6
CONTINUOUS
 62
     3
  5
1A0
 10
-48.241344
 20
-73.79346
 30
0.0
 40
0.1
 50
128.11397
 51
151.487501
  0
ARC
  8
LY_1
  6
CONTINUOUS
 62
     3
  5
1A1
 10
-42.672849
 20
-65.459619
 30
0.0
 40
0.1
 50
141.012499
 51
164.38603
  0
ARC
  8
LY_1
  6
CONTINUOUS
 62
     3
  5
1A2
 10
-58.17871
 20
-61.126229
 30
0.0
 40
16.0
 50
308.11397
 51
344.38603
  0
LINE
  8
LY_1
  6
CONTINUOUS
 62
     3
  5
1A3
 10
-49.122758
 20
-95.347878
 30
0.0
 11
-54.697449
 21
-94.239002
 31
0.0
  0
LINE
  8
LY_1
  6
CONTINUOUS
 62
     3
  5
1A4
 10
-47.1638
 20
-85.499535
 30
0.0
 11
-52.738492
 21
-84.39066
 31
0.0
  0
ARC
  8
LY_1
  6
CONTINUOUS
 62
     3
  5
1A5
 10
-49.023308
 20
-95.358352
 30
0.0
 40
0.1
 50
150.61397
 51
173.987501
  0
ARC
  8
LY_1
  6
CONTINUOUS
 62
     3
  5
1A6
 10
-47.067912
 20
-85.527916
 30
0.0
 40
0.1
 50
163.512499
 51
186.88603
  0
ARC
  8
LY_1
  6
CONTINUOUS
 62
     3
  5
1A7
 10
-63.051777
 20
-87.458222
 30
0.0
 40
16.0
 50
330.61397
 51
6.88603
  0
ARC
  8
LY_1
  6
CONTINUOUS
 62
     3
  5
1A8
 10
-54.597999
 20
-94.249477
 30
0.0
 40
0.1
 50
150.61397
 51
173.987501
  0
ARC
  8
LY_1
  6
CONTINUOUS
 62
     3
  5
1A9
 10
-52.642604
 20
-84.419041
 30
0.0
 40
0.1
 50
163.512499
 51
186.88603
  0
ARC
  8
LY_1
  6
CONTINUOUS
 62
     3
  5
1AA
 10
-68.626468
 20
-86.349347
 30
0.0
 40
16.0
 50
330.61397
 51
6.88603
  0
LINE
  8
LY_1
  6
CONTINUOUS
 62
     3
  5
1AB
 10
-47.1638
 20
-114.500465
 30
0.0
 11
-52.738492
 21
-115.60934
 31
0.0
  0
LINE
  8
LY_1
  6
CONTINUOUS
 62
     3
  5
1AC
 10
-49.122758
 20
-104.652122
 30
0.0
 11
-54.697449
 21
-105.760998
 31
0.0
  0
ARC
  8
LY_1
  6
CONTINUOUS
 62
     3
  5
1AD
 10
-47.067912
 20
-114.472084
 30
0.0
 40
0.1
 50
173.11397
 51
196.487501
  0
ARC
  8
LY_1
  6
CONTINUOUS
 62
     3
  5
1AE
 10
-49.023308
 20
-104.641648
 30
0.0
 40
0.1
 50
186.012499
 51
209.38603
  0
ARC
  8
LY_1
  6
CONTINUOUS
 62
     3
  5
1AF
 10
-63.051777
 20
-112.541778
 30
0.0
 40
16.0
 50
353.11397
 51
29.38603
  0
ARC
  8
LY_1
  6
CONTINUOUS
 62
     3
  5
1B0
 10
-52.642604
 20
-115.580959
 30
0.0
 40
0.1
 50
173.11397
 51
196.487501
  0
ARC
  8
LY_1
  6
CONTINUOUS
 62
     3
  5
1B1
 10
-54.597999
 20
-105.750523
 30
0.0
 40
0.1
 50
186.012499
 51
209.38603
  0
ARC
  8
LY_1
  6
CONTINUOUS
 62
     3
  5
1B2
 10
-68.626468
 20
-113.650653
 30
0.0
 40
16.0
 50
353.11397
 51
29.38603
  0
LINE
  8
LY_1
  6
CONTINUOUS
 62
     3
  5
1B3
 10
-38.024582
 20
-131.445488
 30
0.0
 11
-42.750577
 21
-134.603297
 31
0.0
  0
LINE
  8
LY_1
  6
CONTINUOUS
 62
     3
  5
1B4
 10
-43.60322
 20
-123.096466
 30
0.0
 11
-48.329215
 21
-126.254275
 31
0.0
  0
ARC
  8
LY_1
  6
CONTINUOUS
 62
     3
  5
1B5
 10
-37.946854
 20
-131.382573
 30
0.0
 40
0.1
 50
195.61397
 51
218.987501
  0
ARC
  8
LY_1
  6
CONTINUOUS
 62
     3
  5
1B6
 10
-43.515349
 20
-123.048731
 30
0.0
 40
0.1
 50
208.512499
 51
231.88603
  0
ARC
  8
LY_1
  6
CONTINUOUS
 62
     3
  5
1B7
 10
-53.452715
 20
-135.715962
 30
0.0
 40
16.0
 50
15.61397
 51
51.88603
  0
ARC
  8
LY_1
  6
CONTINUOUS
 62
     3
  5
1B8
 10
-42.672849
 20
-134.540381
 30
0.0
 40
0.1
 50
195.61397
 51
218.987501
  0
ARC
  8
LY_1
  6
CONTINUOUS
 62
     3
  5
1B9
 10
-48.241344
 20
-126.20654
 30
0.0
 40
0.1
 50
208.512499
 51
231.88603
  0
ARC
  8
LY_1
  6
CONTINUOUS
 62
     3
  5
1BA
 10
-58.17871
 20
-138.873771
 30
0.0
 40
16.0
 50
15.61397
 51
51.88603
  0
LINE
  8
LY_1
  6
CONTINUOUS
 62
     3
  5
1BB
 10
-23.096466
 20
-143.60322
 30
0.0
 11
-26.254275
 21
-148.329215
 31
0.0
  0
LINE
  8
LY_1
  6
CONTINUOUS
 62
     3
  5
1BC
 10
-31.445488
 20
-138.024582
 30
0.0
 11
-34.603297
 21
-142.750577
 31
0.0
  0
ARC
  8
LY_1
  6
CONTINUOUS
 62
     3
  5
1BD
 10
-23.048731
 20
-143.515349
 30
0.0
 40
0.1
 50
218.11397
 51
241.487501
  0
ARC
  8
LY_1
  6
CONTINUOUS
 62
     3
  5
1BE
 10
-31.382573
 20
-137.946854
 30
0.0
 40
0.1
 50
231.012499
 51
254.38603
  0
ARC
  8
LY_1
  6
CONTINUOUS
 62
     3
  5
1BF
 10
-35.715962
 20
-153.452715
 30
0.0
 40
16.0
 50
38.11397
 51
74.38603
  0
ARC
  8
LY_1
  6
CONTINUOUS
 62
     3
  5
1C0
 10
-26.20654
 20
-148.241344
 30
0.0
 40
0.1
 50
218.11397
 51
241.487501
  0
ARC
  8
LY_1
  6
CONTINUOUS
 62
     3
  5
1C1
 10
-34.540381
 20
-142.672849
 30
0.0
 40
0.1
 50
231.012499
 51
254.38603
  0
ARC
  8
LY_1
  6
CONTINUOUS
 62
     3
  5
1C2
 10
-38.873771
 20
-158.17871
 30
0.0
 40
16.0
 50
38.11397
 51
74.38603
  0
LINE
  8
LY_1
  6
CONTINUOUS
 62
     3
  5
1C3
 10
-5.506195
 20
-153.41647
 30
0.0
 11
-5.760998
 21
-154.697449
 31
0.0
  0
LINE
  8
LY_1
  6
CONTINUOUS
 62
     3
  5
1C4
 10
-14.500465
 20
-147.1638
 30
0.0
 11
-15.60934
 21
-152.738492
 31
0.0
  0
ARC
  8
LY_1
  6
CONTINUOUS
 62
     3
  5
1C5
 10
-14.472084
 20
-147.067912
 30
0.0
 40
0.1
 50
253.512499
 51
276.88603
  0
ARC
  8
LY_1
  6
CONTINUOUS
 62
     3
  5
1C6
 10
-12.541778
 20
-163.051777
 30
0.0
 40
16.0
 50
70.488086
 51
96.88603
  0
ARC
  8
LY_1
  6
CONTINUOUS
 62
     3
  5
1C7
 10
-5.750523
 20
-154.597999
 30
0.0
 40
0.1
 50
240.61397
 51
263.987501
  0
ARC
  8
LY_1
  6
CONTINUOUS
 62
     3
  5
1C8
 10
-15.580959
 20
-152.642604
 30
0.0
 40
0.1
 50
253.512499
 51
276.88603
  0
ARC
  8
LY_1
  6
CONTINUOUS
 62
     3
  5
1C9
 10
-13.650653
 20
-168.626468
 30
0.0
 40
16.0
 50
60.61397
 51
62.881522
  0
ARC
  8
LY_1
  6
CONTINUOUS
 62
     3
  5
1CA
 10
0.0
 20
-100.0
 30
0.0
 40
47.0
 50
133.390106
 51
148.780849
  0
ARC
  8
LY_1
  6
CONTINUOUS
 62
     3
  5
1CB
 10
0.0
 20
-100.0
 30
0.0
 40
48.0
 50
132.165903
 51
148.806252
  0
ARC
  8
LY_1
  6
CONTINUOUS
 62
     3
  5
1CC
 10
-20.920089
 20
-98.169729
 30
0.0
 40
28.6
 50
90.052156
 51
99.947844
  0
ARC
  8
LY_1
  6
CONTINUOUS
 62
     3
  5
1CD
 10
-20.920089
 20
-98.169729
 30
0.0
 40
28.6
 50
110.052156
 51
119.947844
  0
ARC
  8
LY_1
  6
CONTINUOUS
 62
     3
  5
1CE
 10
61.75
 20
71.9
 30
0.0
 40
10.0
 50
179.4
 51
225.6
  0
ARC
  8
LY_1
  6
CONTINUOUS
 62
     3
  5
1CF
 10
-62.25
 20
71.3
 30
0.0
 40
10.0
 50
319.1
 51
0.6
  0
ARC
  8
LY_1
  6
CONTINUOUS
 62
     3
  5
1D0
 10
-245.0
 20
52.2
 30
0.0
 40
300.0
 50
0.534768
 51
2.4
  0
ARC
  8
LY_1
  6
CONTINUOUS
 62
     3
  5
1D1
 10
245.05
 20
52.2
 30
0.0
 40
300.0
 50
177.6
 51
179.465232
  0
LINE
  8
LY_1
  6
CONTINUOUS
 62
     3
  5
1D2
 10
-54.95
 20
55.0
 30
0.0
 11
55.0
 21
55.0
 31
0.0
  0
ARC
  8
LY_1
  6
CONTINUOUS
 62
     3
  5
1D3
 10
54.0
 20
54.0
 30
0.0
 40
1.0
 50
270.0
 51
90.0
  0
ARC
  8
LY_1
  6
CONTINUOUS
 62
     3
  5
1D4
 10
-54.0
 20
54.0
 30
0.0
 40
1.0
 50
90.0
 51
270.0
  0
LINE
  8
LY_1
  6
CONTINUOUS
 62
     3
  5
1D5
 10
-54.7
 20
64.75
 30
0.0
 11
54.75
 21
64.75
 31
0.0
  0
ARC
  8
LY_1
  6
CONTINUOUS
 62
     3
  5
1D6
 10
-588.25
 20
72.5
 30
0.0
 40
640.0
 50
359.945583
 51
6.328574
  0
ARC
  8
LY_1
  6
CONTINUOUS
 62
     3
  5
1D7
 10
0.0
 20
33.0
 30
0.0
 40
120.0
 50
66.49999
 51
113.731212
  0
ARC
  8
LY_1
  6
CONTINUOUS
 62
     3
  5
1D8
 10
587.75
 20
71.8
 30
0.0
 40
640.0
 50
173.625845
 51
180.1
  0
ENDSEC
  0
EOF
