  0
SECTION
  2
HEADER
  9
$ACADVER
  1
AC1009
  9
$DWGCODEPAGE
  3
dos932
  9
$INSBASE
 10
0.0
 20
0.0
 30
0.0
  9
$EXTMIN
 10
-58.0
 20
-181.047435
 30
0.0
  9
$EXTMAX
 10
58.0
 20
150.9
 30
0.0
  9
$LIMMIN
 10
-58.0
 20
-181.047435
  9
$LIMMAX
 10
58.0
 20
150.9
  9
$ORTHOMODE
 70
     0
  9
$REGENMODE
 70
     1
  9
$FILLMODE
 70
     1
  9
$QTEXTMODE
 70
     0
  9
$MIRRTEXT
 70
     1
  9
$DRAGMODE
 70
     2
  9
$LTSCALE
 40
1.0
  9
$OSMODE
 70
     0
  9
$ATTMODE
 70
     1
  9
$TEXTSIZE
 40
4.1656
  9
$TRACEWID
 40
0.05
  9
$TEXTSTYLE
  7
MX_NOTE_STANDARD
  9
$CLAYER
  8
LY_1
  9
$CELTYPE
  6
CONTINUOUS
  9
$CECOLOR
 62
   256
  9
$DIMSCALE
 40
1.0
  9
$DIMASZ
 40
2.5
  9
$DIMEXO
 40
0.5
  9
$DIMDLI
 40
3.75
  9
$DIMRND
 40
0.0
  9
$DIMDLE
 40
0.0
  9
$DIMEXE
 40
1.0
  9
$DIMTP
 40
0.0
  9
$DIMTM
 40
0.0
  9
$DIMTXT
 40
2.5
  9
$DIMCEN
 40
2.5
  9
$DIMTSZ
 40
0.0
  9
$DIMTOL
 70
     0
  9
$DIMLIM
 70
     0
  9
$DIMTIH
 70
     0
  9
$DIMTOH
 70
     0
  9
$DIMSE1
 70
     0
  9
$DIMSE2
 70
     0
  9
$DIMTAD
 70
     1
  9
$DIMZIN
 70
     8
  9
$DIMBLK
  1

  9
$DIMASO
 70
     1
  9
$DIMSHO
 70
     1
  9
$DIMPOST
  1

  9
$DIMAPOST
  1

  9
$DIMALT
 70
     0
  9
$DIMALTD
 70
     4
  9
$DIMALTF
 40
0.03937
  9
$DIMLFAC
 40
1.0
  9
$DIMTOFL
 70
     1
  9
$DIMTVP
 40
0.0
  9
$DIMTIX
 70
     0
  9
$DIMSOXD
 70
     0
  9
$DIMSAH
 70
     0
  9
$DIMBLK1
  1

  9
$DIMBLK2
  1

  9
$DIMSTYLE
  2
MXDIMSTYLE
  9
$DIMCLRD
 70
     0
  9
$DIMCLRE
 70
     0
  9
$DIMCLRT
 70
     0
  9
$DIMTFAC
 40
1.0
  9
$DIMGAP
 40
1.0
  9
$LUNITS
 70
     2
  9
$LUPREC
 70
     4
  9
$AXISMODE
 70
     0
  9
$AXISUNIT
 10
0.0
 20
0.0
  9
$SKETCHINC
 40
0.1
  9
$FILLETRAD
 40
0.0
  9
$AUNITS
 70
     0
  9
$AUPREC
 70
     0
  9
$MENU
  1
acad
  9
$ELEVATION
 40
0.0
  9
$PELEVATION
 40
0.0
  9
$THICKNESS
 40
0.0
  9
$LIMCHECK
 70
     0
  9
$BLIPMODE
 70
     1
  9
$CHAMFERA
 40
0.0
  9
$CHAMFERB
 40
0.0
  9
$SKPOLY
 70
     0
  9
$TDCREATE
 40
2453676.660937500
  9
$TDUPDATE
 40
2453676.660937500
  9
$TDINDWG
 40
0.0000000000
  9
$TDUSRTIMER
 40
0.0000000000
  9
$USRTIMER
 70
     1
  9
$ANGBASE
 50
0.0
  9
$ANGDIR
 70
     0
  9
$PDMODE
 70
     0
  9
$PDSIZE
 40
0.0
  9
$PLINEWID
 40
0.0
  9
$COORDS
 70
     1
  9
$SPLFRAME
 70
     0
  9
$SPLINETYPE
 70
     6
  9
$SPLINESEGS
 70
     8
  9
$ATTDIA
 70
     0
  9
$ATTREQ
 70
     1
  9
$HANDLING
 70
     1
  9
$HANDSEED
  5
775
  9
$SURFTAB1
 70
     6
  9
$SURFTAB2
 70
     6
  9
$SURFTYPE
 70
     6
  9
$SURFU
 70
     6
  9
$SURFV
 70
     6
  9
$UCSNAME
  2

  9
$UCSORG
 10
0.0
 20
0.0
 30
0.0
  9
$UCSXDIR
 10
1.0
 20
0.0
 30
0.0
  9
$UCSYDIR
 10
0.0
 20
1.0
 30
0.0
  9
$PUCSNAME
  2

  9
$PUCSORG
 10
0.0
 20
0.0
 30
0.0
  9
$PUCSXDIR
 10
1.0
 20
0.0
 30
0.0
  9
$PUCSYDIR
 10
0.0
 20
1.0
 30
0.0
  9
$USERI1
 70
     0
  9
$USERI2
 70
     0
  9
$USERI3
 70
     0
  9
$USERI4
 70
     0
  9
$USERI5
 70
     0
  9
$USERR1
 40
0.0
  9
$USERR2
 40
0.0
  9
$USERR3
 40
0.0
  9
$USERR4
 40
0.0
  9
$USERR5
 40
0.0
  9
$WORLDVIEW
 70
     1
  9
$SHADEDGE
 70
     3
  9
$SHADEDIF
 70
    70
  9
$TILEMODE
 70
     1
  9
$MAXACTVP
 70
    16
  9
$PINSBASE
 10
0.0
 20
0.0
 30
0.0
  9
$PLIMCHECK
 70
     0
  9
$PEXTMIN
 10
1.000000E+20
 20
1.000000E+20
 30
1.000000E+20
  9
$PEXTMAX
 10
-1.000000E+20
 20
-1.000000E+20
 30
-1.000000E+20
  9
$PLIMMIN
 10
0.0
 20
0.0
  9
$PLIMMAX
 10
12.0
 20
9.0
  9
$UNITMODE
 70
     0
  9
$VISRETAIN
 70
     0
  9
$PLINEGEN
 70
     1
  9
$PSLTSCALE
 70
     0
  9
$TREEDEPTH
 70
  3020
  9
$DWGCODEPAGE
  3
dos932
  0
ENDSEC
  0
SECTION
  2
TABLES
  0
TABLE
  2
VPORT
 70
     1
  0
VPORT
  2
*ACTIVE
 70
     0
 10
0.0
 20
0.0
 11
1.0
 21
1.0
 12
0.0
 22
-15.073717
 13
0.0
 23
0.0
 14
1.0
 24
1.0
 15
0.0
 25
0.0
 16
0.0
 26
0.0
 36
1.0
 17
0.0
 27
0.0
 37
0.0
 40
335.266909
 41
1.732051
 42
50.0
 43
0.0
 44
0.0
 50
0.0
 51
0.0
 71
     0
 72
   100
 73
     1
 74
     1
 75
     0
 76
     0
 77
     0
 78
     0
  0
ENDTAB
  0
TABLE
  2
LTYPE
 70
     1
  0
LTYPE
  2
CONTINUOUS
 70
    64
  3
Solid line
 72
    65
 73
     0
 40
0.0
  0
ENDTAB
  0
TABLE
  2
LAYER
 70
     3
  0
LAYER
  2
0
 70
     0
 62
     7
  6
CONTINUOUS
  0
LAYER
  2
LY_1
 70
     0
 62
     7
  6
CONTINUOUS
  0
LAYER
  2
DEFPOINTS
 70
     0
 62
     7
  6
CONTINUOUS
  0
ENDTAB
  0
TABLE
  2
STYLE
 70
     1
  0
STYLE
  2
MX_NOTE_STANDARD
 70
     0
 40
0.0
 41
1.0
 50
0.0
 71
     0
 42
4.1656
  3
txt.shx
  4
extfont.shx
  0
ENDTAB
  0
TABLE
  2
VIEW
 70
     0
  0
ENDTAB
  0
TABLE
  2
UCS
 70
     0
  0
ENDTAB
  0
TABLE
  2
APPID
 70
     1
  0
APPID
  2
ACAD
 70
     0
  0
ENDTAB
  0
TABLE
  2
DIMSTYLE
 70
     1
  0
DIMSTYLE
  2
MXDIMSTYLE
 70
     0
  3

  4

  5

  6

  7

 40
1.0
 41
2.5
 42
0.5
 43
3.75
 44
1.0
 45
0.0
 46
0.0
 47
0.0
 48
0.0
 71
     0
 72
     0
 73
     0
 74
     0
 75
     0
 76
     0
 77
     1
 78
     8
140
2.5
141
2.5
142
0.0
143
0.03937
144
1.0
145
0.0
146
1.0
147
1.0
170
     0
171
     4
172
     1
173
     0
174
     0
175
     0
176
     0
177
     0
178
     0
  0
ENDTAB
  0
ENDSEC
  0
SECTION
  2
BLOCKS
  0
ENDSEC
  0
SECTION
  2
ENTITIES
  0
LINE
  8
LY_1
  6
CONTINUOUS
 62
    80
  5
1F
 10
-27.810889
 20
-24.390757
 30
0.0
 11
-27.810889
 21
-16.860239
 31
0.0
  0
LINE
  8
LY_1
  6
CONTINUOUS
 62
    80
  5
20
 10
-33.310889
 20
-23.890757
 30
0.0
 11
-27.310889
 21
-23.890757
 31
0.0
  0
LINE
  8
LY_1
  6
CONTINUOUS
 62
    80
  5
21
 10
-32.810889
 20
-24.390757
 30
0.0
 11
-32.810889
 21
-16.860239
 31
0.0
  0
LINE
  8
LY_1
  6
CONTINUOUS
 62
    80
  5
22
 10
2.5
 20
-24.390757
 30
0.0
 11
2.5
 21
-16.860239
 31
0.0
  0
LINE
  8
LY_1
  6
CONTINUOUS
 62
    80
  5
23
 10
-3.0
 20
-23.890757
 30
0.0
 11
3.0
 21
-23.890757
 31
0.0
  0
LINE
  8
LY_1
  6
CONTINUOUS
 62
    80
  5
24
 10
-2.5
 20
-24.390757
 30
0.0
 11
-2.5
 21
-16.860239
 31
0.0
  0
LINE
  8
LY_1
  6
CONTINUOUS
 62
    80
  5
25
 10
27.310889
 20
-23.890757
 30
0.0
 11
33.310889
 21
-23.890757
 31
0.0
  0
LINE
  8
LY_1
  6
CONTINUOUS
 62
    80
  5
26
 10
32.810889
 20
-24.390757
 30
0.0
 11
32.810889
 21
-16.860239
 31
0.0
  0
LINE
  8
LY_1
  6
CONTINUOUS
 62
    80
  5
27
 10
27.810889
 20
-24.390757
 30
0.0
 11
27.810889
 21
-16.860239
 31
0.0
  0
LINE
  8
LY_1
  6
CONTINUOUS
 62
     3
  5
28
 10
32.810889
 20
-24.390757
 30
0.0
 11
33.310889
 21
-23.890757
 31
0.0
  0
LINE
  8
LY_1
  6
CONTINUOUS
 62
     3
  5
29
 10
27.310889
 20
-23.890757
 30
0.0
 11
27.810889
 21
-24.390757
 31
0.0
  0
LINE
  8
LY_1
  6
CONTINUOUS
 62
     3
  5
2A
 10
2.5
 20
-24.390757
 30
0.0
 11
3.0
 21
-23.890757
 31
0.0
  0
LINE
  8
LY_1
  6
CONTINUOUS
 62
     3
  5
2B
 10
-3.0
 20
-23.890757
 30
0.0
 11
-2.5
 21
-24.390757
 31
0.0
  0
LINE
  8
LY_1
  6
CONTINUOUS
 62
     3
  5
2C
 10
-27.810889
 20
-24.390757
 30
0.0
 11
-27.310889
 21
-23.890757
 31
0.0
  0
LINE
  8
LY_1
  6
CONTINUOUS
 62
     3
  5
2D
 10
-33.310889
 20
-23.890757
 30
0.0
 11
-32.810889
 21
-24.390757
 31
0.0
  0
LINE
  8
LY_1
  6
CONTINUOUS
 62
     3
  5
2E
 10
-29.764498
 20
-10.0
 30
0.0
 11
-31.264498
 21
-11.5
 31
0.0
  0
LINE
  8
LY_1
  6
CONTINUOUS
 62
     3
  5
2F
 10
-28.350284
 20
-10.0
 30
0.0
 11
-29.850284
 21
-11.5
 31
0.0
  0
POLYLINE
  8
LY_1
  6
CONTINUOUS
 62
    80
  5
30
 66
     1
 10
0.0
 20
0.0
 30
0.0
  0
VERTEX
  8
LY_1
  6
CONTINUOUS
 62
    80
  5
108
 10
-34.65021
 20
-16.860239
 30
0.0
  0
VERTEX
  8
LY_1
  6
CONTINUOUS
 62
    80
  5
109
 10
-34.662099
 20
-16.860144
 30
0.0
  0
VERTEX
  8
LY_1
  6
CONTINUOUS
 62
    80
  5
10A
 10
-34.673988
 20
-16.859987
 30
0.0
  0
VERTEX
  8
LY_1
  6
CONTINUOUS
 62
    80
  5
10B
 10
-34.685876
 20
-16.859766
 30
0.0
  0
VERTEX
  8
LY_1
  6
CONTINUOUS
 62
    80
  5
10C
 10
-34.697764
 20
-16.859482
 30
0.0
  0
VERTEX
  8
LY_1
  6
CONTINUOUS
 62
    80
  5
10D
 10
-34.70965
 20
-16.859135
 30
0.0
  0
VERTEX
  8
LY_1
  6
CONTINUOUS
 62
    80
  5
10E
 10
-34.721535
 20
-16.858724
 30
0.0
  0
VERTEX
  8
LY_1
  6
CONTINUOUS
 62
    80
  5
10F
 10
-34.733418
 20
-16.85825
 30
0.0
  0
VERTEX
  8
LY_1
  6
CONTINUOUS
 62
    80
  5
110
 10
-34.745299
 20
-16.857712
 30
0.0
  0
VERTEX
  8
LY_1
  6
CONTINUOUS
 62
    80
  5
111
 10
-34.757177
 20
-16.857111
 30
0.0
  0
VERTEX
  8
LY_1
  6
CONTINUOUS
 62
    80
  5
112
 10
-34.769052
 20
-16.856446
 30
0.0
  0
VERTEX
  8
LY_1
  6
CONTINUOUS
 62
    80
  5
113
 10
-34.780923
 20
-16.855717
 30
0.0
  0
VERTEX
  8
LY_1
  6
CONTINUOUS
 62
    80
  5
114
 10
-34.79279
 20
-16.854924
 30
0.0
  0
VERTEX
  8
LY_1
  6
CONTINUOUS
 62
    80
  5
115
 10
-34.804652
 20
-16.854067
 30
0.0
  0
VERTEX
  8
LY_1
  6
CONTINUOUS
 62
    80
  5
116
 10
-34.81651
 20
-16.853145
 30
0.0
  0
VERTEX
  8
LY_1
  6
CONTINUOUS
 62
    80
  5
117
 10
-34.828362
 20
-16.85216
 30
0.0
  0
VERTEX
  8
LY_1
  6
CONTINUOUS
 62
    80
  5
118
 10
-34.840208
 20
-16.85111
 30
0.0
  0
VERTEX
  8
LY_1
  6
CONTINUOUS
 62
    80
  5
119
 10
-34.852141
 20
-16.849987
 30
0.0
  0
VERTEX
  8
LY_1
  6
CONTINUOUS
 62
    80
  5
11A
 10
-34.864067
 20
-16.848798
 30
0.0
  0
VERTEX
  8
LY_1
  6
CONTINUOUS
 62
    80
  5
11B
 10
-34.875986
 20
-16.847545
 30
0.0
  0
VERTEX
  8
LY_1
  6
CONTINUOUS
 62
    80
  5
11C
 10
-34.887898
 20
-16.846227
 30
0.0
  0
VERTEX
  8
LY_1
  6
CONTINUOUS
 62
    80
  5
11D
 10
-34.899803
 20
-16.844845
 30
0.0
  0
VERTEX
  8
LY_1
  6
CONTINUOUS
 62
    80
  5
11E
 10
-34.9117
 20
-16.843399
 30
0.0
  0
VERTEX
  8
LY_1
  6
CONTINUOUS
 62
    80
  5
11F
 10
-34.923589
 20
-16.84189
 30
0.0
  0
VERTEX
  8
LY_1
  6
CONTINUOUS
 62
    80
  5
120
 10
-34.93547
 20
-16.840317
 30
0.0
  0
VERTEX
  8
LY_1
  6
CONTINUOUS
 62
    80
  5
121
 10
-34.947342
 20
-16.838681
 30
0.0
  0
VERTEX
  8
LY_1
  6
CONTINUOUS
 62
    80
  5
122
 10
-34.959206
 20
-16.836982
 30
0.0
  0
VERTEX
  8
LY_1
  6
CONTINUOUS
 62
    80
  5
123
 10
-34.97106
 20
-16.835221
 30
0.0
  0
VERTEX
  8
LY_1
  6
CONTINUOUS
 62
    80
  5
124
 10
-34.982906
 20
-16.833398
 30
0.0
  0
VERTEX
  8
LY_1
  6
CONTINUOUS
 62
    80
  5
125
 10
-34.994742
 20
-16.831513
 30
0.0
  0
VERTEX
  8
LY_1
  6
CONTINUOUS
 62
    80
  5
126
 10
-35.006567
 20
-16.829567
 30
0.0
  0
VERTEX
  8
LY_1
  6
CONTINUOUS
 62
    80
  5
127
 10
-35.018383
 20
-16.82756
 30
0.0
  0
VERTEX
  8
LY_1
  6
CONTINUOUS
 62
    80
  5
128
 10
-35.030188
 20
-16.825491
 30
0.0
  0
VERTEX
  8
LY_1
  6
CONTINUOUS
 62
    80
  5
129
 10
-35.046983
 20
-16.822441
 30
0.0
  0
VERTEX
  8
LY_1
  6
CONTINUOUS
 62
    80
  5
12A
 10
-35.063756
 20
-16.81927
 30
0.0
  0
VERTEX
  8
LY_1
  6
CONTINUOUS
 62
    80
  5
12B
 10
-35.080506
 20
-16.815978
 30
0.0
  0
VERTEX
  8
LY_1
  6
CONTINUOUS
 62
    80
  5
12C
 10
-35.097233
 20
-16.812567
 30
0.0
  0
VERTEX
  8
LY_1
  6
CONTINUOUS
 62
    80
  5
12D
 10
-35.113935
 20
-16.809038
 30
0.0
  0
VERTEX
  8
LY_1
  6
CONTINUOUS
 62
    80
  5
12E
 10
-35.130613
 20
-16.805393
 30
0.0
  0
VERTEX
  8
LY_1
  6
CONTINUOUS
 62
    80
  5
12F
 10
-35.147266
 20
-16.801633
 30
0.0
  0
VERTEX
  8
LY_1
  6
CONTINUOUS
 62
    80
  5
130
 10
-35.163894
 20
-16.797759
 30
0.0
  0
VERTEX
  8
LY_1
  6
CONTINUOUS
 62
    80
  5
131
 10
-35.180495
 20
-16.793772
 30
0.0
  0
VERTEX
  8
LY_1
  6
CONTINUOUS
 62
    80
  5
132
 10
-35.197069
 20
-16.789674
 30
0.0
  0
VERTEX
  8
LY_1
  6
CONTINUOUS
 62
    80
  5
133
 10
-35.213616
 20
-16.785465
 30
0.0
  0
VERTEX
  8
LY_1
  6
CONTINUOUS
 62
    80
  5
134
 10
-35.230135
 20
-16.781148
 30
0.0
  0
VERTEX
  8
LY_1
  6
CONTINUOUS
 62
    80
  5
135
 10
-35.246626
 20
-16.776722
 30
0.0
  0
VERTEX
  8
LY_1
  6
CONTINUOUS
 62
    80
  5
136
 10
-35.263087
 20
-16.772191
 30
0.0
  0
VERTEX
  8
LY_1
  6
CONTINUOUS
 62
    80
  5
137
 10
-35.279519
 20
-16.767554
 30
0.0
  0
VERTEX
  8
LY_1
  6
CONTINUOUS
 62
    80
  5
138
 10
-35.295921
 20
-16.762813
 30
0.0
  0
VERTEX
  8
LY_1
  6
CONTINUOUS
 62
    80
  5
139
 10
-35.312651
 20
-16.757863
 30
0.0
  0
VERTEX
  8
LY_1
  6
CONTINUOUS
 62
    80
  5
13A
 10
-35.32935
 20
-16.752806
 30
0.0
  0
VERTEX
  8
LY_1
  6
CONTINUOUS
 62
    80
  5
13B
 10
-35.346015
 20
-16.747644
 30
0.0
  0
VERTEX
  8
LY_1
  6
CONTINUOUS
 62
    80
  5
13C
 10
-35.362648
 20
-16.742379
 30
0.0
  0
VERTEX
  8
LY_1
  6
CONTINUOUS
 62
    80
  5
13D
 10
-35.379248
 20
-16.737011
 30
0.0
  0
VERTEX
  8
LY_1
  6
CONTINUOUS
 62
    80
  5
13E
 10
-35.395814
 20
-16.731543
 30
0.0
  0
VERTEX
  8
LY_1
  6
CONTINUOUS
 62
    80
  5
13F
 10
-35.412348
 20
-16.725974
 30
0.0
  0
VERTEX
  8
LY_1
  6
CONTINUOUS
 62
    80
  5
140
 10
-35.428847
 20
-16.720307
 30
0.0
  0
VERTEX
  8
LY_1
  6
CONTINUOUS
 62
    80
  5
141
 10
-35.445313
 20
-16.714542
 30
0.0
  0
VERTEX
  8
LY_1
  6
CONTINUOUS
 62
    80
  5
142
 10
-35.461744
 20
-16.708681
 30
0.0
  0
VERTEX
  8
LY_1
  6
CONTINUOUS
 62
    80
  5
143
 10
-35.478141
 20
-16.702725
 30
0.0
  0
VERTEX
  8
LY_1
  6
CONTINUOUS
 62
    80
  5
144
 10
-35.494503
 20
-16.696674
 30
0.0
  0
VERTEX
  8
LY_1
  6
CONTINUOUS
 62
    80
  5
145
 10
-35.510831
 20
-16.690532
 30
0.0
  0
VERTEX
  8
LY_1
  6
CONTINUOUS
 62
    80
  5
146
 10
-35.527123
 20
-16.684298
 30
0.0
  0
VERTEX
  8
LY_1
  6
CONTINUOUS
 62
    80
  5
147
 10
-35.543381
 20
-16.677973
 30
0.0
  0
VERTEX
  8
LY_1
  6
CONTINUOUS
 62
    80
  5
148
 10
-35.559602
 20
-16.67156
 30
0.0
  0
VERTEX
  8
LY_1
  6
CONTINUOUS
 62
    80
  5
149
 10
-35.57636
 20
-16.664827
 30
0.0
  0
VERTEX
  8
LY_1
  6
CONTINUOUS
 62
    80
  5
14A
 10
-35.593079
 20
-16.658002
 30
0.0
  0
VERTEX
  8
LY_1
  6
CONTINUOUS
 62
    80
  5
14B
 10
-35.609761
 20
-16.651087
 30
0.0
  0
VERTEX
  8
LY_1
  6
CONTINUOUS
 62
    80
  5
14C
 10
-35.626405
 20
-16.644082
 30
0.0
  0
VERTEX
  8
LY_1
  6
CONTINUOUS
 62
    80
  5
14D
 10
-35.643012
 20
-16.63699
 30
0.0
  0
VERTEX
  8
LY_1
  6
CONTINUOUS
 62
    80
  5
14E
 10
-35.659583
 20
-16.629812
 30
0.0
  0
VERTEX
  8
LY_1
  6
CONTINUOUS
 62
    80
  5
14F
 10
-35.676118
 20
-16.622551
 30
0.0
  0
VERTEX
  8
LY_1
  6
CONTINUOUS
 62
    80
  5
150
 10
-35.692616
 20
-16.615207
 30
0.0
  0
VERTEX
  8
LY_1
  6
CONTINUOUS
 62
    80
  5
151
 10
-35.709079
 20
-16.607783
 30
0.0
  0
VERTEX
  8
LY_1
  6
CONTINUOUS
 62
    80
  5
152
 10
-35.725507
 20
-16.60028
 30
0.0
  0
VERTEX
  8
LY_1
  6
CONTINUOUS
 62
    80
  5
153
 10
-35.7419
 20
-16.5927
 30
0.0
  0
VERTEX
  8
LY_1
  6
CONTINUOUS
 62
    80
  5
154
 10
-35.758258
 20
-16.585045
 30
0.0
  0
VERTEX
  8
LY_1
  6
CONTINUOUS
 62
    80
  5
155
 10
-35.774582
 20
-16.577316
 30
0.0
  0
VERTEX
  8
LY_1
  6
CONTINUOUS
 62
    80
  5
156
 10
-35.790872
 20
-16.569515
 30
0.0
  0
VERTEX
  8
LY_1
  6
CONTINUOUS
 62
    80
  5
157
 10
-35.807128
 20
-16.561643
 30
0.0
  0
VERTEX
  8
LY_1
  6
CONTINUOUS
 62
    80
  5
158
 10
-35.823351
 20
-16.553703
 30
0.0
  0
VERTEX
  8
LY_1
  6
CONTINUOUS
 62
    80
  5
159
 10
-35.839952
 20
-16.545492
 30
0.0
  0
VERTEX
  8
LY_1
  6
CONTINUOUS
 62
    80
  5
15A
 10
-35.856518
 20
-16.537209
 30
0.0
  0
VERTEX
  8
LY_1
  6
CONTINUOUS
 62
    80
  5
15B
 10
-35.873049
 20
-16.528856
 30
0.0
  0
VERTEX
  8
LY_1
  6
CONTINUOUS
 62
    80
  5
15C
 10
-35.889543
 20
-16.520431
 30
0.0
  0
VERTEX
  8
LY_1
  6
CONTINUOUS
 62
    80
  5
15D
 10
-35.905999
 20
-16.511935
 30
0.0
  0
VERTEX
  8
LY_1
  6
CONTINUOUS
 62
    80
  5
15E
 10
-35.922419
 20
-16.503368
 30
0.0
  0
VERTEX
  8
LY_1
  6
CONTINUOUS
 62
    80
  5
15F
 10
-35.938799
 20
-16.494728
 30
0.0
  0
VERTEX
  8
LY_1
  6
CONTINUOUS
 62
    80
  5
160
 10
-35.955141
 20
-16.486015
 30
0.0
  0
VERTEX
  8
LY_1
  6
CONTINUOUS
 62
    80
  5
161
 10
-35.971443
 20
-16.47723
 30
0.0
  0
VERTEX
  8
LY_1
  6
CONTINUOUS
 62
    80
  5
162
 10
-35.987705
 20
-16.468372
 30
0.0
  0
VERTEX
  8
LY_1
  6
CONTINUOUS
 62
    80
  5
163
 10
-36.003927
 20
-16.459441
 30
0.0
  0
VERTEX
  8
LY_1
  6
CONTINUOUS
 62
    80
  5
164
 10
-36.020107
 20
-16.450436
 30
0.0
  0
VERTEX
  8
LY_1
  6
CONTINUOUS
 62
    80
  5
165
 10
-36.036245
 20
-16.441357
 30
0.0
  0
VERTEX
  8
LY_1
  6
CONTINUOUS
 62
    80
  5
166
 10
-36.05234
 20
-16.432204
 30
0.0
  0
VERTEX
  8
LY_1
  6
CONTINUOUS
 62
    80
  5
167
 10
-36.068392
 20
-16.422976
 30
0.0
  0
VERTEX
  8
LY_1
  6
CONTINUOUS
 62
    80
  5
168
 10
-36.0844
 20
-16.413673
 30
0.0
  0
SEQEND
  8
LY_1
  6
CONTINUOUS
 62
    80
  5
169
  0
POLYLINE
  8
LY_1
  6
CONTINUOUS
 62
    80
  5
31
 66
     1
 10
0.0
 20
0.0
 30
0.0
  0
VERTEX
  8
LY_1
  6
CONTINUOUS
 62
    80
  5
16A
 10
-24.537395
 20
-16.41368
 30
0.0
  0
VERTEX
  8
LY_1
  6
CONTINUOUS
 62
    80
  5
16B
 10
-24.558577
 20
-16.426079
 30
0.0
  0
VERTEX
  8
LY_1
  6
CONTINUOUS
 62
    80
  5
16C
 10
-24.579842
 20
-16.438337
 30
0.0
  0
VERTEX
  8
LY_1
  6
CONTINUOUS
 62
    80
  5
16D
 10
-24.60119
 20
-16.450453
 30
0.0
  0
VERTEX
  8
LY_1
  6
CONTINUOUS
 62
    80
  5
16E
 10
-24.622619
 20
-16.462429
 30
0.0
  0
VERTEX
  8
LY_1
  6
CONTINUOUS
 62
    80
  5
16F
 10
-24.644128
 20
-16.474265
 30
0.0
  0
VERTEX
  8
LY_1
  6
CONTINUOUS
 62
    80
  5
170
 10
-24.665714
 20
-16.485961
 30
0.0
  0
VERTEX
  8
LY_1
  6
CONTINUOUS
 62
    80
  5
171
 10
-24.687376
 20
-16.497519
 30
0.0
  0
VERTEX
  8
LY_1
  6
CONTINUOUS
 62
    80
  5
172
 10
-24.709113
 20
-16.508938
 30
0.0
  0
VERTEX
  8
LY_1
  6
CONTINUOUS
 62
    80
  5
173
 10
-24.730924
 20
-16.52022
 30
0.0
  0
VERTEX
  8
LY_1
  6
CONTINUOUS
 62
    80
  5
174
 10
-24.752806
 20
-16.531364
 30
0.0
  0
VERTEX
  8
LY_1
  6
CONTINUOUS
 62
    80
  5
175
 10
-24.774759
 20
-16.542372
 30
0.0
  0
VERTEX
  8
LY_1
  6
CONTINUOUS
 62
    80
  5
176
 10
-24.796781
 20
-16.553245
 30
0.0
  0
VERTEX
  8
LY_1
  6
CONTINUOUS
 62
    80
  5
177
 10
-24.818869
 20
-16.563981
 30
0.0
  0
VERTEX
  8
LY_1
  6
CONTINUOUS
 62
    80
  5
178
 10
-24.841024
 20
-16.574584
 30
0.0
  0
VERTEX
  8
LY_1
  6
CONTINUOUS
 62
    80
  5
179
 10
-24.863243
 20
-16.585052
 30
0.0
  0
VERTEX
  8
LY_1
  6
CONTINUOUS
 62
    80
  5
17A
 10
-24.885524
 20
-16.595387
 30
0.0
  0
VERTEX
  8
LY_1
  6
CONTINUOUS
 62
    80
  5
17B
 10
-24.9072
 20
-16.605285
 30
0.0
  0
VERTEX
  8
LY_1
  6
CONTINUOUS
 62
    80
  5
17C
 10
-24.928933
 20
-16.615054
 30
0.0
  0
VERTEX
  8
LY_1
  6
CONTINUOUS
 62
    80
  5
17D
 10
-24.950725
 20
-16.624691
 30
0.0
  0
VERTEX
  8
LY_1
  6
CONTINUOUS
 62
    80
  5
17E
 10
-24.972576
 20
-16.63419
 30
0.0
  0
VERTEX
  8
LY_1
  6
CONTINUOUS
 62
    80
  5
17F
 10
-24.994487
 20
-16.643549
 30
0.0
  0
VERTEX
  8
LY_1
  6
CONTINUOUS
 62
    80
  5
180
 10
-25.016457
 20
-16.652763
 30
0.0
  0
VERTEX
  8
LY_1
  6
CONTINUOUS
 62
    80
  5
181
 10
-25.038489
 20
-16.661827
 30
0.0
  0
VERTEX
  8
LY_1
  6
CONTINUOUS
 62
    80
  5
182
 10
-25.060581
 20
-16.67074
 30
0.0
  0
VERTEX
  8
LY_1
  6
CONTINUOUS
 62
    80
  5
183
 10
-25.082735
 20
-16.679495
 30
0.0
  0
VERTEX
  8
LY_1
  6
CONTINUOUS
 62
    80
  5
184
 10
-25.104951
 20
-16.68809
 30
0.0
  0
VERTEX
  8
LY_1
  6
CONTINUOUS
 62
    80
  5
185
 10
-25.127229
 20
-16.69652
 30
0.0
  0
VERTEX
  8
LY_1
  6
CONTINUOUS
 62
    80
  5
186
 10
-25.149571
 20
-16.704782
 30
0.0
  0
VERTEX
  8
LY_1
  6
CONTINUOUS
 62
    80
  5
187
 10
-25.171976
 20
-16.712871
 30
0.0
  0
VERTEX
  8
LY_1
  6
CONTINUOUS
 62
    80
  5
188
 10
-25.194444
 20
-16.720783
 30
0.0
  0
VERTEX
  8
LY_1
  6
CONTINUOUS
 62
    80
  5
189
 10
-25.216978
 20
-16.728515
 30
0.0
  0
VERTEX
  8
LY_1
  6
CONTINUOUS
 62
    80
  5
18A
 10
-25.239576
 20
-16.736063
 30
0.0
  0
VERTEX
  8
LY_1
  6
CONTINUOUS
 62
    80
  5
18B
 10
-25.261842
 20
-16.743295
 30
0.0
  0
VERTEX
  8
LY_1
  6
CONTINUOUS
 62
    80
  5
18C
 10
-25.284171
 20
-16.750342
 30
0.0
  0
VERTEX
  8
LY_1
  6
CONTINUOUS
 62
    80
  5
18D
 10
-25.30656
 20
-16.7572
 30
0.0
  0
VERTEX
  8
LY_1
  6
CONTINUOUS
 62
    80
  5
18E
 10
-25.329008
 20
-16.763864
 30
0.0
  0
VERTEX
  8
LY_1
  6
CONTINUOUS
 62
    80
  5
18F
 10
-25.351514
 20
-16.770332
 30
0.0
  0
VERTEX
  8
LY_1
  6
CONTINUOUS
 62
    80
  5
190
 10
-25.374078
 20
-16.776599
 30
0.0
  0
VERTEX
  8
LY_1
  6
CONTINUOUS
 62
    80
  5
191
 10
-25.396697
 20
-16.782662
 30
0.0
  0
VERTEX
  8
LY_1
  6
CONTINUOUS
 62
    80
  5
192
 10
-25.419371
 20
-16.788516
 30
0.0
  0
VERTEX
  8
LY_1
  6
CONTINUOUS
 62
    80
  5
193
 10
-25.442098
 20
-16.794159
 30
0.0
  0
VERTEX
  8
LY_1
  6
CONTINUOUS
 62
    80
  5
194
 10
-25.464876
 20
-16.799587
 30
0.0
  0
VERTEX
  8
LY_1
  6
CONTINUOUS
 62
    80
  5
195
 10
-25.487706
 20
-16.804795
 30
0.0
  0
VERTEX
  8
LY_1
  6
CONTINUOUS
 62
    80
  5
196
 10
-25.510584
 20
-16.809781
 30
0.0
  0
VERTEX
  8
LY_1
  6
CONTINUOUS
 62
    80
  5
197
 10
-25.533511
 20
-16.814539
 30
0.0
  0
VERTEX
  8
LY_1
  6
CONTINUOUS
 62
    80
  5
198
 10
-25.556485
 20
-16.819068
 30
0.0
  0
VERTEX
  8
LY_1
  6
CONTINUOUS
 62
    80
  5
199
 10
-25.579505
 20
-16.823361
 30
0.0
  0
VERTEX
  8
LY_1
  6
CONTINUOUS
 62
    80
  5
19A
 10
-25.602569
 20
-16.827417
 30
0.0
  0
VERTEX
  8
LY_1
  6
CONTINUOUS
 62
    80
  5
19B
 10
-25.625364
 20
-16.831183
 30
0.0
  0
VERTEX
  8
LY_1
  6
CONTINUOUS
 62
    80
  5
19C
 10
-25.648198
 20
-16.834714
 30
0.0
  0
VERTEX
  8
LY_1
  6
CONTINUOUS
 62
    80
  5
19D
 10
-25.671068
 20
-16.838012
 30
0.0
  0
VERTEX
  8
LY_1
  6
CONTINUOUS
 62
    80
  5
19E
 10
-25.693972
 20
-16.841079
 30
0.0
  0
VERTEX
  8
LY_1
  6
CONTINUOUS
 62
    80
  5
19F
 10
-25.716906
 20
-16.843915
 30
0.0
  0
VERTEX
  8
LY_1
  6
CONTINUOUS
 62
    80
  5
1A0
 10
-25.739867
 20
-16.846522
 30
0.0
  0
VERTEX
  8
LY_1
  6
CONTINUOUS
 62
    80
  5
1A1
 10
-25.762854
 20
-16.848901
 30
0.0
  0
VERTEX
  8
LY_1
  6
CONTINUOUS
 62
    80
  5
1A2
 10
-25.785862
 20
-16.851053
 30
0.0
  0
VERTEX
  8
LY_1
  6
CONTINUOUS
 62
    80
  5
1A3
 10
-25.808889
 20
-16.852979
 30
0.0
  0
VERTEX
  8
LY_1
  6
CONTINUOUS
 62
    80
  5
1A4
 10
-25.831932
 20
-16.85468
 30
0.0
  0
VERTEX
  8
LY_1
  6
CONTINUOUS
 62
    80
  5
1A5
 10
-25.854988
 20
-16.856158
 30
0.0
  0
VERTEX
  8
LY_1
  6
CONTINUOUS
 62
    80
  5
1A6
 10
-25.878055
 20
-16.857414
 30
0.0
  0
VERTEX
  8
LY_1
  6
CONTINUOUS
 62
    80
  5
1A7
 10
-25.901129
 20
-16.858449
 30
0.0
  0
VERTEX
  8
LY_1
  6
CONTINUOUS
 62
    80
  5
1A8
 10
-25.924207
 20
-16.859264
 30
0.0
  0
VERTEX
  8
LY_1
  6
CONTINUOUS
 62
    80
  5
1A9
 10
-25.947287
 20
-16.85986
 30
0.0
  0
VERTEX
  8
LY_1
  6
CONTINUOUS
 62
    80
  5
1AA
 10
-25.970366
 20
-16.860239
 30
0.0
  0
SEQEND
  8
LY_1
  6
CONTINUOUS
 62
    80
  5
1AB
  0
POLYLINE
  8
LY_1
  6
CONTINUOUS
 62
    80
  5
32
 66
     1
 10
0.0
 20
0.0
 30
0.0
  0
VERTEX
  8
LY_1
  6
CONTINUOUS
 62
    80
  5
1AC
 10
-25.991181
 20
-16.860239
 30
0.0
  0
VERTEX
  8
LY_1
  6
CONTINUOUS
 62
    80
  5
1AD
 10
-25.996945
 20
-16.860201
 30
0.0
  0
VERTEX
  8
LY_1
  6
CONTINUOUS
 62
    80
  5
1AE
 10
-26.002708
 20
-16.860148
 30
0.0
  0
VERTEX
  8
LY_1
  6
CONTINUOUS
 62
    80
  5
1AF
 10
-26.008472
 20
-16.860081
 30
0.0
  0
VERTEX
  8
LY_1
  6
CONTINUOUS
 62
    80
  5
1B0
 10
-26.014235
 20
-16.859998
 30
0.0
  0
VERTEX
  8
LY_1
  6
CONTINUOUS
 62
    80
  5
1B1
 10
-26.019998
 20
-16.859901
 30
0.0
  0
VERTEX
  8
LY_1
  6
CONTINUOUS
 62
    80
  5
1B2
 10
-26.025761
 20
-16.859789
 30
0.0
  0
VERTEX
  8
LY_1
  6
CONTINUOUS
 62
    80
  5
1B3
 10
-26.031523
 20
-16.859662
 30
0.0
  0
VERTEX
  8
LY_1
  6
CONTINUOUS
 62
    80
  5
1B4
 10
-26.037286
 20
-16.85952
 30
0.0
  0
VERTEX
  8
LY_1
  6
CONTINUOUS
 62
    80
  5
1B5
 10
-26.043048
 20
-16.859362
 30
0.0
  0
VERTEX
  8
LY_1
  6
CONTINUOUS
 62
    80
  5
1B6
 10
-26.048809
 20
-16.85919
 30
0.0
  0
VERTEX
  8
LY_1
  6
CONTINUOUS
 62
    80
  5
1B7
 10
-26.054571
 20
-16.859002
 30
0.0
  0
VERTEX
  8
LY_1
  6
CONTINUOUS
 62
    80
  5
1B8
 10
-26.060331
 20
-16.858799
 30
0.0
  0
VERTEX
  8
LY_1
  6
CONTINUOUS
 62
    80
  5
1B9
 10
-26.066092
 20
-16.858581
 30
0.0
  0
VERTEX
  8
LY_1
  6
CONTINUOUS
 62
    80
  5
1BA
 10
-26.071852
 20
-16.858347
 30
0.0
  0
VERTEX
  8
LY_1
  6
CONTINUOUS
 62
    80
  5
1BB
 10
-26.077611
 20
-16.858098
 30
0.0
  0
VERTEX
  8
LY_1
  6
CONTINUOUS
 62
    80
  5
1BC
 10
-26.08337
 20
-16.857834
 30
0.0
  0
VERTEX
  8
LY_1
  6
CONTINUOUS
 62
    80
  5
1BD
 10
-26.104509
 20
-16.85673
 30
0.0
  0
VERTEX
  8
LY_1
  6
CONTINUOUS
 62
    80
  5
1BE
 10
-26.125639
 20
-16.855419
 30
0.0
  0
VERTEX
  8
LY_1
  6
CONTINUOUS
 62
    80
  5
1BF
 10
-26.146758
 20
-16.853902
 30
0.0
  0
VERTEX
  8
LY_1
  6
CONTINUOUS
 62
    80
  5
1C0
 10
-26.167863
 20
-16.852181
 30
0.0
  0
VERTEX
  8
LY_1
  6
CONTINUOUS
 62
    80
  5
1C1
 10
-26.188953
 20
-16.850257
 30
0.0
  0
VERTEX
  8
LY_1
  6
CONTINUOUS
 62
    80
  5
1C2
 10
-26.210026
 20
-16.848132
 30
0.0
  0
VERTEX
  8
LY_1
  6
CONTINUOUS
 62
    80
  5
1C3
 10
-26.23108
 20
-16.845808
 30
0.0
  0
VERTEX
  8
LY_1
  6
CONTINUOUS
 62
    80
  5
1C4
 10
-26.252113
 20
-16.843285
 30
0.0
  0
VERTEX
  8
LY_1
  6
CONTINUOUS
 62
    80
  5
1C5
 10
-26.273123
 20
-16.840566
 30
0.0
  0
VERTEX
  8
LY_1
  6
CONTINUOUS
 62
    80
  5
1C6
 10
-26.294109
 20
-16.837653
 30
0.0
  0
VERTEX
  8
LY_1
  6
CONTINUOUS
 62
    80
  5
1C7
 10
-26.315067
 20
-16.834546
 30
0.0
  0
VERTEX
  8
LY_1
  6
CONTINUOUS
 62
    80
  5
1C8
 10
-26.335996
 20
-16.831248
 30
0.0
  0
VERTEX
  8
LY_1
  6
CONTINUOUS
 62
    80
  5
1C9
 10
-26.356895
 20
-16.82776
 30
0.0
  0
VERTEX
  8
LY_1
  6
CONTINUOUS
 62
    80
  5
1CA
 10
-26.377761
 20
-16.824083
 30
0.0
  0
VERTEX
  8
LY_1
  6
CONTINUOUS
 62
    80
  5
1CB
 10
-26.398592
 20
-16.82022
 30
0.0
  0
VERTEX
  8
LY_1
  6
CONTINUOUS
 62
    80
  5
1CC
 10
-26.419386
 20
-16.816172
 30
0.0
  0
VERTEX
  8
LY_1
  6
CONTINUOUS
 62
    80
  5
1CD
 10
-26.440693
 20
-16.811825
 30
0.0
  0
VERTEX
  8
LY_1
  6
CONTINUOUS
 62
    80
  5
1CE
 10
-26.461959
 20
-16.807288
 30
0.0
  0
VERTEX
  8
LY_1
  6
CONTINUOUS
 62
    80
  5
1CF
 10
-26.483182
 20
-16.802561
 30
0.0
  0
VERTEX
  8
LY_1
  6
CONTINUOUS
 62
    80
  5
1D0
 10
-26.504362
 20
-16.797649
 30
0.0
  0
VERTEX
  8
LY_1
  6
CONTINUOUS
 62
    80
  5
1D1
 10
-26.525497
 20
-16.792553
 30
0.0
  0
VERTEX
  8
LY_1
  6
CONTINUOUS
 62
    80
  5
1D2
 10
-26.546587
 20
-16.787276
 30
0.0
  0
VERTEX
  8
LY_1
  6
CONTINUOUS
 62
    80
  5
1D3
 10
-26.567632
 20
-16.781819
 30
0.0
  0
VERTEX
  8
LY_1
  6
CONTINUOUS
 62
    80
  5
1D4
 10
-26.58863
 20
-16.776187
 30
0.0
  0
VERTEX
  8
LY_1
  6
CONTINUOUS
 62
    80
  5
1D5
 10
-26.609579
 20
-16.77038
 30
0.0
  0
VERTEX
  8
LY_1
  6
CONTINUOUS
 62
    80
  5
1D6
 10
-26.630481
 20
-16.764401
 30
0.0
  0
VERTEX
  8
LY_1
  6
CONTINUOUS
 62
    80
  5
1D7
 10
-26.651332
 20
-16.758254
 30
0.0
  0
VERTEX
  8
LY_1
  6
CONTINUOUS
 62
    80
  5
1D8
 10
-26.672134
 20
-16.75194
 30
0.0
  0
VERTEX
  8
LY_1
  6
CONTINUOUS
 62
    80
  5
1D9
 10
-26.692884
 20
-16.745461
 30
0.0
  0
VERTEX
  8
LY_1
  6
CONTINUOUS
 62
    80
  5
1DA
 10
-26.713581
 20
-16.73882
 30
0.0
  0
VERTEX
  8
LY_1
  6
CONTINUOUS
 62
    80
  5
1DB
 10
-26.734226
 20
-16.73202
 30
0.0
  0
VERTEX
  8
LY_1
  6
CONTINUOUS
 62
    80
  5
1DC
 10
-26.754817
 20
-16.725063
 30
0.0
  0
VERTEX
  8
LY_1
  6
CONTINUOUS
 62
    80
  5
1DD
 10
-26.776264
 20
-16.717633
 30
0.0
  0
VERTEX
  8
LY_1
  6
CONTINUOUS
 62
    80
  5
1DE
 10
-26.797651
 20
-16.710037
 30
0.0
  0
VERTEX
  8
LY_1
  6
CONTINUOUS
 62
    80
  5
1DF
 10
-26.818979
 20
-16.70228
 30
0.0
  0
VERTEX
  8
LY_1
  6
CONTINUOUS
 62
    80
  5
1E0
 10
-26.840249
 20
-16.694364
 30
0.0
  0
VERTEX
  8
LY_1
  6
CONTINUOUS
 62
    80
  5
1E1
 10
-26.861461
 20
-16.686295
 30
0.0
  0
VERTEX
  8
LY_1
  6
CONTINUOUS
 62
    80
  5
1E2
 10
-26.882615
 20
-16.678074
 30
0.0
  0
VERTEX
  8
LY_1
  6
CONTINUOUS
 62
    80
  5
1E3
 10
-26.903713
 20
-16.669706
 30
0.0
  0
VERTEX
  8
LY_1
  6
CONTINUOUS
 62
    80
  5
1E4
 10
-26.924754
 20
-16.661195
 30
0.0
  0
VERTEX
  8
LY_1
  6
CONTINUOUS
 62
    80
  5
1E5
 10
-26.945739
 20
-16.652543
 30
0.0
  0
VERTEX
  8
LY_1
  6
CONTINUOUS
 62
    80
  5
1E6
 10
-26.966668
 20
-16.643755
 30
0.0
  0
VERTEX
  8
LY_1
  6
CONTINUOUS
 62
    80
  5
1E7
 10
-26.987543
 20
-16.634834
 30
0.0
  0
VERTEX
  8
LY_1
  6
CONTINUOUS
 62
    80
  5
1E8
 10
-27.008362
 20
-16.625783
 30
0.0
  0
VERTEX
  8
LY_1
  6
CONTINUOUS
 62
    80
  5
1E9
 10
-27.029128
 20
-16.616607
 30
0.0
  0
VERTEX
  8
LY_1
  6
CONTINUOUS
 62
    80
  5
1EA
 10
-27.04984
 20
-16.607308
 30
0.0
  0
VERTEX
  8
LY_1
  6
CONTINUOUS
 62
    80
  5
1EB
 10
-27.070498
 20
-16.597891
 30
0.0
  0
VERTEX
  8
LY_1
  6
CONTINUOUS
 62
    80
  5
1EC
 10
-27.091104
 20
-16.588358
 30
0.0
  0
VERTEX
  8
LY_1
  6
CONTINUOUS
 62
    80
  5
1ED
 10
-27.112396
 20
-16.578364
 30
0.0
  0
VERTEX
  8
LY_1
  6
CONTINUOUS
 62
    80
  5
1EE
 10
-27.133631
 20
-16.568249
 30
0.0
  0
VERTEX
  8
LY_1
  6
CONTINUOUS
 62
    80
  5
1EF
 10
-27.154806
 20
-16.558014
 30
0.0
  0
VERTEX
  8
LY_1
  6
CONTINUOUS
 62
    80
  5
1F0
 10
-27.175922
 20
-16.547657
 30
0.0
  0
VERTEX
  8
LY_1
  6
CONTINUOUS
 62
    80
  5
1F1
 10
-27.196976
 20
-16.537178
 30
0.0
  0
VERTEX
  8
LY_1
  6
CONTINUOUS
 62
    80
  5
1F2
 10
-27.217968
 20
-16.526576
 30
0.0
  0
VERTEX
  8
LY_1
  6
CONTINUOUS
 62
    80
  5
1F3
 10
-27.238896
 20
-16.515851
 30
0.0
  0
VERTEX
  8
LY_1
  6
CONTINUOUS
 62
    80
  5
1F4
 10
-27.259758
 20
-16.505002
 30
0.0
  0
VERTEX
  8
LY_1
  6
CONTINUOUS
 62
    80
  5
1F5
 10
-27.280554
 20
-16.494029
 30
0.0
  0
VERTEX
  8
LY_1
  6
CONTINUOUS
 62
    80
  5
1F6
 10
-27.301282
 20
-16.482931
 30
0.0
  0
VERTEX
  8
LY_1
  6
CONTINUOUS
 62
    80
  5
1F7
 10
-27.32194
 20
-16.471706
 30
0.0
  0
VERTEX
  8
LY_1
  6
CONTINUOUS
 62
    80
  5
1F8
 10
-27.342529
 20
-16.460356
 30
0.0
  0
VERTEX
  8
LY_1
  6
CONTINUOUS
 62
    80
  5
1F9
 10
-27.363045
 20
-16.448879
 30
0.0
  0
VERTEX
  8
LY_1
  6
CONTINUOUS
 62
    80
  5
1FA
 10
-27.383488
 20
-16.437274
 30
0.0
  0
VERTEX
  8
LY_1
  6
CONTINUOUS
 62
    80
  5
1FB
 10
-27.403857
 20
-16.425542
 30
0.0
  0
VERTEX
  8
LY_1
  6
CONTINUOUS
 62
    80
  5
1FC
 10
-27.42415
 20
-16.413681
 30
0.0
  0
SEQEND
  8
LY_1
  6
CONTINUOUS
 62
    80
  5
1FD
  0
POLYLINE
  8
LY_1
  6
CONTINUOUS
 62
    80
  5
33
 66
     1
 10
0.0
 20
0.0
 30
0.0
  0
VERTEX
  8
LY_1
  6
CONTINUOUS
 62
    80
  5
1FE
 10
-33.197646
 20
-16.413678
 30
0.0
  0
VERTEX
  8
LY_1
  6
CONTINUOUS
 62
    80
  5
1FF
 10
-33.219558
 20
-16.426481
 30
0.0
  0
VERTEX
  8
LY_1
  6
CONTINUOUS
 62
    80
  5
200
 10
-33.241559
 20
-16.439136
 30
0.0
  0
VERTEX
  8
LY_1
  6
CONTINUOUS
 62
    80
  5
201
 10
-33.263646
 20
-16.451644
 30
0.0
  0
VERTEX
  8
LY_1
  6
CONTINUOUS
 62
    80
  5
202
 10
-33.285818
 20
-16.464006
 30
0.0
  0
VERTEX
  8
LY_1
  6
CONTINUOUS
 62
    80
  5
203
 10
-33.308073
 20
-16.47622
 30
0.0
  0
VERTEX
  8
LY_1
  6
CONTINUOUS
 62
    80
  5
204
 10
-33.330409
 20
-16.488288
 30
0.0
  0
VERTEX
  8
LY_1
  6
CONTINUOUS
 62
    80
  5
205
 10
-33.352826
 20
-16.50021
 30
0.0
  0
VERTEX
  8
LY_1
  6
CONTINUOUS
 62
    80
  5
206
 10
-33.375321
 20
-16.511986
 30
0.0
  0
VERTEX
  8
LY_1
  6
CONTINUOUS
 62
    80
  5
207
 10
-33.397892
 20
-16.523617
 30
0.0
  0
VERTEX
  8
LY_1
  6
CONTINUOUS
 62
    80
  5
208
 10
-33.420539
 20
-16.535102
 30
0.0
  0
VERTEX
  8
LY_1
  6
CONTINUOUS
 62
    80
  5
209
 10
-33.44326
 20
-16.546442
 30
0.0
  0
VERTEX
  8
LY_1
  6
CONTINUOUS
 62
    80
  5
20A
 10
-33.466053
 20
-16.557638
 30
0.0
  0
VERTEX
  8
LY_1
  6
CONTINUOUS
 62
    80
  5
20B
 10
-33.488916
 20
-16.56869
 30
0.0
  0
VERTEX
  8
LY_1
  6
CONTINUOUS
 62
    80
  5
20C
 10
-33.511848
 20
-16.579597
 30
0.0
  0
VERTEX
  8
LY_1
  6
CONTINUOUS
 62
    80
  5
20D
 10
-33.534847
 20
-16.590361
 30
0.0
  0
VERTEX
  8
LY_1
  6
CONTINUOUS
 62
    80
  5
20E
 10
-33.557912
 20
-16.600982
 30
0.0
  0
VERTEX
  8
LY_1
  6
CONTINUOUS
 62
    80
  5
20F
 10
-33.57413
 20
-16.608345
 30
0.0
  0
VERTEX
  8
LY_1
  6
CONTINUOUS
 62
    80
  5
210
 10
-33.59038
 20
-16.615637
 30
0.0
  0
VERTEX
  8
LY_1
  6
CONTINUOUS
 62
    80
  5
211
 10
-33.606661
 20
-16.622855
 30
0.0
  0
VERTEX
  8
LY_1
  6
CONTINUOUS
 62
    80
  5
212
 10
-33.622976
 20
-16.629996
 30
0.0
  0
VERTEX
  8
LY_1
  6
CONTINUOUS
 62
    80
  5
213
 10
-33.639323
 20
-16.63706
 30
0.0
  0
VERTEX
  8
LY_1
  6
CONTINUOUS
 62
    80
  5
214
 10
-33.655704
 20
-16.644044
 30
0.0
  0
VERTEX
  8
LY_1
  6
CONTINUOUS
 62
    80
  5
215
 10
-33.672119
 20
-16.650946
 30
0.0
  0
VERTEX
  8
LY_1
  6
CONTINUOUS
 62
    80
  5
216
 10
-33.688567
 20
-16.657764
 30
0.0
  0
VERTEX
  8
LY_1
  6
CONTINUOUS
 62
    80
  5
217
 10
-33.70505
 20
-16.664498
 30
0.0
  0
VERTEX
  8
LY_1
  6
CONTINUOUS
 62
    80
  5
218
 10
-33.721568
 20
-16.671144
 30
0.0
  0
VERTEX
  8
LY_1
  6
CONTINUOUS
 62
    80
  5
219
 10
-33.738121
 20
-16.677701
 30
0.0
  0
VERTEX
  8
LY_1
  6
CONTINUOUS
 62
    80
  5
21A
 10
-33.754709
 20
-16.684167
 30
0.0
  0
VERTEX
  8
LY_1
  6
CONTINUOUS
 62
    80
  5
21B
 10
-33.771333
 20
-16.690541
 30
0.0
  0
VERTEX
  8
LY_1
  6
CONTINUOUS
 62
    80
  5
21C
 10
-33.787993
 20
-16.69682
 30
0.0
  0
VERTEX
  8
LY_1
  6
CONTINUOUS
 62
    80
  5
21D
 10
-33.80469
 20
-16.703002
 30
0.0
  0
VERTEX
  8
LY_1
  6
CONTINUOUS
 62
    80
  5
21E
 10
-33.821423
 20
-16.709086
 30
0.0
  0
VERTEX
  8
LY_1
  6
CONTINUOUS
 62
    80
  5
21F
 10
-33.837834
 20
-16.714942
 30
0.0
  0
VERTEX
  8
LY_1
  6
CONTINUOUS
 62
    80
  5
220
 10
-33.854281
 20
-16.720702
 30
0.0
  0
VERTEX
  8
LY_1
  6
CONTINUOUS
 62
    80
  5
221
 10
-33.870762
 20
-16.726363
 30
0.0
  0
VERTEX
  8
LY_1
  6
CONTINUOUS
 62
    80
  5
222
 10
-33.887277
 20
-16.731924
 30
0.0
  0
VERTEX
  8
LY_1
  6
CONTINUOUS
 62
    80
  5
223
 10
-33.903827
 20
-16.737385
 30
0.0
  0
VERTEX
  8
LY_1
  6
CONTINUOUS
 62
    80
  5
224
 10
-33.92041
 20
-16.742744
 30
0.0
  0
VERTEX
  8
LY_1
  6
CONTINUOUS
 62
    80
  5
225
 10
-33.937026
 20
-16.748
 30
0.0
  0
VERTEX
  8
LY_1
  6
CONTINUOUS
 62
    80
  5
226
 10
-33.953676
 20
-16.753152
 30
0.0
  0
VERTEX
  8
LY_1
  6
CONTINUOUS
 62
    80
  5
227
 10
-33.970357
 20
-16.758198
 30
0.0
  0
VERTEX
  8
LY_1
  6
CONTINUOUS
 62
    80
  5
228
 10
-33.987071
 20
-16.763138
 30
0.0
  0
VERTEX
  8
LY_1
  6
CONTINUOUS
 62
    80
  5
229
 10
-34.003816
 20
-16.76797
 30
0.0
  0
VERTEX
  8
LY_1
  6
CONTINUOUS
 62
    80
  5
22A
 10
-34.020592
 20
-16.772693
 30
0.0
  0
VERTEX
  8
LY_1
  6
CONTINUOUS
 62
    80
  5
22B
 10
-34.037399
 20
-16.777306
 30
0.0
  0
VERTEX
  8
LY_1
  6
CONTINUOUS
 62
    80
  5
22C
 10
-34.054236
 20
-16.781808
 30
0.0
  0
VERTEX
  8
LY_1
  6
CONTINUOUS
 62
    80
  5
22D
 10
-34.071103
 20
-16.786198
 30
0.0
  0
VERTEX
  8
LY_1
  6
CONTINUOUS
 62
    80
  5
22E
 10
-34.088
 20
-16.790474
 30
0.0
  0
VERTEX
  8
LY_1
  6
CONTINUOUS
 62
    80
  5
22F
 10
-34.104744
 20
-16.794591
 30
0.0
  0
VERTEX
  8
LY_1
  6
CONTINUOUS
 62
    80
  5
230
 10
-34.121515
 20
-16.798594
 30
0.0
  0
VERTEX
  8
LY_1
  6
CONTINUOUS
 62
    80
  5
231
 10
-34.138314
 20
-16.802482
 30
0.0
  0
VERTEX
  8
LY_1
  6
CONTINUOUS
 62
    80
  5
232
 10
-34.155139
 20
-16.806254
 30
0.0
  0
VERTEX
  8
LY_1
  6
CONTINUOUS
 62
    80
  5
233
 10
-34.171991
 20
-16.809908
 30
0.0
  0
VERTEX
  8
LY_1
  6
CONTINUOUS
 62
    80
  5
234
 10
-34.188867
 20
-16.813443
 30
0.0
  0
VERTEX
  8
LY_1
  6
CONTINUOUS
 62
    80
  5
235
 10
-34.205768
 20
-16.816857
 30
0.0
  0
VERTEX
  8
LY_1
  6
CONTINUOUS
 62
    80
  5
236
 10
-34.222693
 20
-16.820149
 30
0.0
  0
VERTEX
  8
LY_1
  6
CONTINUOUS
 62
    80
  5
237
 10
-34.239642
 20
-16.823318
 30
0.0
  0
VERTEX
  8
LY_1
  6
CONTINUOUS
 62
    80
  5
238
 10
-34.256613
 20
-16.826363
 30
0.0
  0
VERTEX
  8
LY_1
  6
CONTINUOUS
 62
    80
  5
239
 10
-34.273606
 20
-16.829281
 30
0.0
  0
VERTEX
  8
LY_1
  6
CONTINUOUS
 62
    80
  5
23A
 10
-34.290621
 20
-16.832072
 30
0.0
  0
VERTEX
  8
LY_1
  6
CONTINUOUS
 62
    80
  5
23B
 10
-34.307656
 20
-16.834734
 30
0.0
  0
VERTEX
  8
LY_1
  6
CONTINUOUS
 62
    80
  5
23C
 10
-34.324712
 20
-16.837266
 30
0.0
  0
VERTEX
  8
LY_1
  6
CONTINUOUS
 62
    80
  5
23D
 10
-34.341787
 20
-16.839666
 30
0.0
  0
VERTEX
  8
LY_1
  6
CONTINUOUS
 62
    80
  5
23E
 10
-34.358881
 20
-16.841933
 30
0.0
  0
VERTEX
  8
LY_1
  6
CONTINUOUS
 62
    80
  5
23F
 10
-34.375858
 20
-16.84405
 30
0.0
  0
VERTEX
  8
LY_1
  6
CONTINUOUS
 62
    80
  5
240
 10
-34.392852
 20
-16.846036
 30
0.0
  0
VERTEX
  8
LY_1
  6
CONTINUOUS
 62
    80
  5
241
 10
-34.409862
 20
-16.847889
 30
0.0
  0
VERTEX
  8
LY_1
  6
CONTINUOUS
 62
    80
  5
242
 10
-34.426885
 20
-16.849612
 30
0.0
  0
VERTEX
  8
LY_1
  6
CONTINUOUS
 62
    80
  5
243
 10
-34.443922
 20
-16.851205
 30
0.0
  0
VERTEX
  8
LY_1
  6
CONTINUOUS
 62
    80
  5
244
 10
-34.46097
 20
-16.852667
 30
0.0
  0
VERTEX
  8
LY_1
  6
CONTINUOUS
 62
    80
  5
245
 10
-34.478029
 20
-16.854
 30
0.0
  0
VERTEX
  8
LY_1
  6
CONTINUOUS
 62
    80
  5
246
 10
-34.495098
 20
-16.855204
 30
0.0
  0
VERTEX
  8
LY_1
  6
CONTINUOUS
 62
    80
  5
247
 10
-34.512174
 20
-16.856279
 30
0.0
  0
VERTEX
  8
LY_1
  6
CONTINUOUS
 62
    80
  5
248
 10
-34.529257
 20
-16.857226
 30
0.0
  0
VERTEX
  8
LY_1
  6
CONTINUOUS
 62
    80
  5
249
 10
-34.546345
 20
-16.858045
 30
0.0
  0
VERTEX
  8
LY_1
  6
CONTINUOUS
 62
    80
  5
24A
 10
-34.563438
 20
-16.858737
 30
0.0
  0
VERTEX
  8
LY_1
  6
CONTINUOUS
 62
    80
  5
24B
 10
-34.580534
 20
-16.859302
 30
0.0
  0
VERTEX
  8
LY_1
  6
CONTINUOUS
 62
    80
  5
24C
 10
-34.597632
 20
-16.85974
 30
0.0
  0
VERTEX
  8
LY_1
  6
CONTINUOUS
 62
    80
  5
24D
 10
-34.61473
 20
-16.860052
 30
0.0
  0
VERTEX
  8
LY_1
  6
CONTINUOUS
 62
    80
  5
24E
 10
-34.631828
 20
-16.860239
 30
0.0
  0
SEQEND
  8
LY_1
  6
CONTINUOUS
 62
    80
  5
24F
  0
POLYLINE
  8
LY_1
  6
CONTINUOUS
 62
    80
  5
34
 66
     1
 10
0.0
 20
0.0
 30
0.0
  0
VERTEX
  8
LY_1
  6
CONTINUOUS
 62
    80
  5
250
 10
-27.42415
 20
-16.413681
 30
0.0
  0
VERTEX
  8
LY_1
  6
CONTINUOUS
 62
    80
  5
251
 10
-27.467357
 20
-16.42624
 30
0.0
  0
VERTEX
  8
LY_1
  6
CONTINUOUS
 62
    80
  5
252
 10
-27.510611
 20
-16.438636
 30
0.0
  0
VERTEX
  8
LY_1
  6
CONTINUOUS
 62
    80
  5
253
 10
-27.553913
 20
-16.45087
 30
0.0
  0
VERTEX
  8
LY_1
  6
CONTINUOUS
 62
    80
  5
254
 10
-27.597262
 20
-16.462943
 30
0.0
  0
VERTEX
  8
LY_1
  6
CONTINUOUS
 62
    80
  5
255
 10
-27.640655
 20
-16.474855
 30
0.0
  0
VERTEX
  8
LY_1
  6
CONTINUOUS
 62
    80
  5
256
 10
-27.684094
 20
-16.486607
 30
0.0
  0
VERTEX
  8
LY_1
  6
CONTINUOUS
 62
    80
  5
257
 10
-27.727575
 20
-16.498199
 30
0.0
  0
VERTEX
  8
LY_1
  6
CONTINUOUS
 62
    80
  5
258
 10
-27.7711
 20
-16.509632
 30
0.0
  0
VERTEX
  8
LY_1
  6
CONTINUOUS
 62
    80
  5
259
 10
-27.814667
 20
-16.520908
 30
0.0
  0
VERTEX
  8
LY_1
  6
CONTINUOUS
 62
    80
  5
25A
 10
-27.858275
 20
-16.532026
 30
0.0
  0
VERTEX
  8
LY_1
  6
CONTINUOUS
 62
    80
  5
25B
 10
-27.901923
 20
-16.542987
 30
0.0
  0
VERTEX
  8
LY_1
  6
CONTINUOUS
 62
    80
  5
25C
 10
-27.945611
 20
-16.553792
 30
0.0
  0
VERTEX
  8
LY_1
  6
CONTINUOUS
 62
    80
  5
25D
 10
-27.989337
 20
-16.564441
 30
0.0
  0
VERTEX
  8
LY_1
  6
CONTINUOUS
 62
    80
  5
25E
 10
-28.033101
 20
-16.574936
 30
0.0
  0
VERTEX
  8
LY_1
  6
CONTINUOUS
 62
    80
  5
25F
 10
-28.076902
 20
-16.585276
 30
0.0
  0
VERTEX
  8
LY_1
  6
CONTINUOUS
 62
    80
  5
260
 10
-28.120739
 20
-16.595463
 30
0.0
  0
VERTEX
  8
LY_1
  6
CONTINUOUS
 62
    80
  5
261
 10
-28.164755
 20
-16.60553
 30
0.0
  0
VERTEX
  8
LY_1
  6
CONTINUOUS
 62
    80
  5
262
 10
-28.208807
 20
-16.61544
 30
0.0
  0
VERTEX
  8
LY_1
  6
CONTINUOUS
 62
    80
  5
263
 10
-28.252894
 20
-16.62519
 30
0.0
  0
VERTEX
  8
LY_1
  6
CONTINUOUS
 62
    80
  5
264
 10
-28.297017
 20
-16.634778
 30
0.0
  0
VERTEX
  8
LY_1
  6
CONTINUOUS
 62
    80
  5
265
 10
-28.341174
 20
-16.644202
 30
0.0
  0
VERTEX
  8
LY_1
  6
CONTINUOUS
 62
    80
  5
266
 10
-28.385366
 20
-16.653457
 30
0.0
  0
VERTEX
  8
LY_1
  6
CONTINUOUS
 62
    80
  5
267
 10
-28.429593
 20
-16.662542
 30
0.0
  0
VERTEX
  8
LY_1
  6
CONTINUOUS
 62
    80
  5
268
 10
-28.473855
 20
-16.671454
 30
0.0
  0
VERTEX
  8
LY_1
  6
CONTINUOUS
 62
    80
  5
269
 10
-28.518151
 20
-16.68019
 30
0.0
  0
VERTEX
  8
LY_1
  6
CONTINUOUS
 62
    80
  5
26A
 10
-28.562482
 20
-16.688746
 30
0.0
  0
VERTEX
  8
LY_1
  6
CONTINUOUS
 62
    80
  5
26B
 10
-28.606847
 20
-16.697121
 30
0.0
  0
VERTEX
  8
LY_1
  6
CONTINUOUS
 62
    80
  5
26C
 10
-28.651246
 20
-16.705312
 30
0.0
  0
VERTEX
  8
LY_1
  6
CONTINUOUS
 62
    80
  5
26D
 10
-28.69568
 20
-16.713315
 30
0.0
  0
VERTEX
  8
LY_1
  6
CONTINUOUS
 62
    80
  5
26E
 10
-28.740148
 20
-16.721128
 30
0.0
  0
VERTEX
  8
LY_1
  6
CONTINUOUS
 62
    80
  5
26F
 10
-28.784649
 20
-16.728748
 30
0.0
  0
VERTEX
  8
LY_1
  6
CONTINUOUS
 62
    80
  5
270
 10
-28.829185
 20
-16.736173
 30
0.0
  0
VERTEX
  8
LY_1
  6
CONTINUOUS
 62
    80
  5
271
 10
-28.874358
 20
-16.743496
 30
0.0
  0
VERTEX
  8
LY_1
  6
CONTINUOUS
 62
    80
  5
272
 10
-28.919565
 20
-16.750613
 30
0.0
  0
VERTEX
  8
LY_1
  6
CONTINUOUS
 62
    80
  5
273
 10
-28.964804
 20
-16.757522
 30
0.0
  0
VERTEX
  8
LY_1
  6
CONTINUOUS
 62
    80
  5
274
 10
-29.010076
 20
-16.764221
 30
0.0
  0
VERTEX
  8
LY_1
  6
CONTINUOUS
 62
    80
  5
275
 10
-29.05538
 20
-16.770708
 30
0.0
  0
VERTEX
  8
LY_1
  6
CONTINUOUS
 62
    80
  5
276
 10
-29.100713
 20
-16.776981
 30
0.0
  0
VERTEX
  8
LY_1
  6
CONTINUOUS
 62
    80
  5
277
 10
-29.146076
 20
-16.783039
 30
0.0
  0
VERTEX
  8
LY_1
  6
CONTINUOUS
 62
    80
  5
278
 10
-29.191468
 20
-16.788878
 30
0.0
  0
VERTEX
  8
LY_1
  6
CONTINUOUS
 62
    80
  5
279
 10
-29.236888
 20
-16.794498
 30
0.0
  0
VERTEX
  8
LY_1
  6
CONTINUOUS
 62
    80
  5
27A
 10
-29.282335
 20
-16.799895
 30
0.0
  0
VERTEX
  8
LY_1
  6
CONTINUOUS
 62
    80
  5
27B
 10
-29.327808
 20
-16.805069
 30
0.0
  0
VERTEX
  8
LY_1
  6
CONTINUOUS
 62
    80
  5
27C
 10
-29.373306
 20
-16.810016
 30
0.0
  0
VERTEX
  8
LY_1
  6
CONTINUOUS
 62
    80
  5
27D
 10
-29.418829
 20
-16.814735
 30
0.0
  0
VERTEX
  8
LY_1
  6
CONTINUOUS
 62
    80
  5
27E
 10
-29.464375
 20
-16.819225
 30
0.0
  0
VERTEX
  8
LY_1
  6
CONTINUOUS
 62
    80
  5
27F
 10
-29.509945
 20
-16.823482
 30
0.0
  0
VERTEX
  8
LY_1
  6
CONTINUOUS
 62
    80
  5
280
 10
-29.555536
 20
-16.827505
 30
0.0
  0
VERTEX
  8
LY_1
  6
CONTINUOUS
 62
    80
  5
281
 10
-29.601436
 20
-16.831316
 30
0.0
  0
VERTEX
  8
LY_1
  6
CONTINUOUS
 62
    80
  5
282
 10
-29.647356
 20
-16.834888
 30
0.0
  0
VERTEX
  8
LY_1
  6
CONTINUOUS
 62
    80
  5
283
 10
-29.693295
 20
-16.838222
 30
0.0
  0
VERTEX
  8
LY_1
  6
CONTINUOUS
 62
    80
  5
284
 10
-29.73925
 20
-16.841319
 30
0.0
  0
VERTEX
  8
LY_1
  6
CONTINUOUS
 62
    80
  5
285
 10
-29.785221
 20
-16.84418
 30
0.0
  0
VERTEX
  8
LY_1
  6
CONTINUOUS
 62
    80
  5
286
 10
-29.831206
 20
-16.846805
 30
0.0
  0
VERTEX
  8
LY_1
  6
CONTINUOUS
 62
    80
  5
287
 10
-29.877203
 20
-16.849196
 30
0.0
  0
VERTEX
  8
LY_1
  6
CONTINUOUS
 62
    80
  5
288
 10
-29.923212
 20
-16.851351
 30
0.0
  0
VERTEX
  8
LY_1
  6
CONTINUOUS
 62
    80
  5
289
 10
-29.96923
 20
-16.853273
 30
0.0
  0
VERTEX
  8
LY_1
  6
CONTINUOUS
 62
    80
  5
28A
 10
-30.015256
 20
-16.854962
 30
0.0
  0
VERTEX
  8
LY_1
  6
CONTINUOUS
 62
    80
  5
28B
 10
-30.061289
 20
-16.856419
 30
0.0
  0
VERTEX
  8
LY_1
  6
CONTINUOUS
 62
    80
  5
28C
 10
-30.107326
 20
-16.857643
 30
0.0
  0
VERTEX
  8
LY_1
  6
CONTINUOUS
 62
    80
  5
28D
 10
-30.153368
 20
-16.858637
 30
0.0
  0
VERTEX
  8
LY_1
  6
CONTINUOUS
 62
    80
  5
28E
 10
-30.199412
 20
-16.859401
 30
0.0
  0
VERTEX
  8
LY_1
  6
CONTINUOUS
 62
    80
  5
28F
 10
-30.245456
 20
-16.859934
 30
0.0
  0
VERTEX
  8
LY_1
  6
CONTINUOUS
 62
    80
  5
290
 10
-30.2915
 20
-16.860239
 30
0.0
  0
SEQEND
  8
LY_1
  6
CONTINUOUS
 62
    80
  5
291
  0
POLYLINE
  8
LY_1
  6
CONTINUOUS
 62
    80
  5
35
 66
     1
 10
0.0
 20
0.0
 30
0.0
  0
VERTEX
  8
LY_1
  6
CONTINUOUS
 62
    80
  5
292
 10
-30.330284
 20
-16.860239
 30
0.0
  0
VERTEX
  8
LY_1
  6
CONTINUOUS
 62
    80
  5
293
 10
-30.341899
 20
-16.860204
 30
0.0
  0
VERTEX
  8
LY_1
  6
CONTINUOUS
 62
    80
  5
294
 10
-30.353513
 20
-16.860153
 30
0.0
  0
VERTEX
  8
LY_1
  6
CONTINUOUS
 62
    80
  5
295
 10
-30.365127
 20
-16.860087
 30
0.0
  0
VERTEX
  8
LY_1
  6
CONTINUOUS
 62
    80
  5
296
 10
-30.376741
 20
-16.860006
 30
0.0
  0
VERTEX
  8
LY_1
  6
CONTINUOUS
 62
    80
  5
297
 10
-30.388356
 20
-16.85991
 30
0.0
  0
VERTEX
  8
LY_1
  6
CONTINUOUS
 62
    80
  5
298
 10
-30.39997
 20
-16.859798
 30
0.0
  0
VERTEX
  8
LY_1
  6
CONTINUOUS
 62
    80
  5
299
 10
-30.411583
 20
-16.859671
 30
0.0
  0
VERTEX
  8
LY_1
  6
CONTINUOUS
 62
    80
  5
29A
 10
-30.423197
 20
-16.859529
 30
0.0
  0
VERTEX
  8
LY_1
  6
CONTINUOUS
 62
    80
  5
29B
 10
-30.434811
 20
-16.859371
 30
0.0
  0
VERTEX
  8
LY_1
  6
CONTINUOUS
 62
    80
  5
29C
 10
-30.446424
 20
-16.859197
 30
0.0
  0
VERTEX
  8
LY_1
  6
CONTINUOUS
 62
    80
  5
29D
 10
-30.458037
 20
-16.859008
 30
0.0
  0
VERTEX
  8
LY_1
  6
CONTINUOUS
 62
    80
  5
29E
 10
-30.46965
 20
-16.858804
 30
0.0
  0
VERTEX
  8
LY_1
  6
CONTINUOUS
 62
    80
  5
29F
 10
-30.481263
 20
-16.858584
 30
0.0
  0
VERTEX
  8
LY_1
  6
CONTINUOUS
 62
    80
  5
2A0
 10
-30.492876
 20
-16.858348
 30
0.0
  0
VERTEX
  8
LY_1
  6
CONTINUOUS
 62
    80
  5
2A1
 10
-30.504488
 20
-16.858097
 30
0.0
  0
VERTEX
  8
LY_1
  6
CONTINUOUS
 62
    80
  5
2A2
 10
-30.5161
 20
-16.85783
 30
0.0
  0
VERTEX
  8
LY_1
  6
CONTINUOUS
 62
    80
  5
2A3
 10
-30.558171
 20
-16.856733
 30
0.0
  0
VERTEX
  8
LY_1
  6
CONTINUOUS
 62
    80
  5
2A4
 10
-30.600238
 20
-16.85543
 30
0.0
  0
VERTEX
  8
LY_1
  6
CONTINUOUS
 62
    80
  5
2A5
 10
-30.6423
 20
-16.853923
 30
0.0
  0
VERTEX
  8
LY_1
  6
CONTINUOUS
 62
    80
  5
2A6
 10
-30.684355
 20
-16.852214
 30
0.0
  0
VERTEX
  8
LY_1
  6
CONTINUOUS
 62
    80
  5
2A7
 10
-30.726402
 20
-16.850302
 30
0.0
  0
VERTEX
  8
LY_1
  6
CONTINUOUS
 62
    80
  5
2A8
 10
-30.768441
 20
-16.848188
 30
0.0
  0
VERTEX
  8
LY_1
  6
CONTINUOUS
 62
    80
  5
2A9
 10
-30.81047
 20
-16.845874
 30
0.0
  0
VERTEX
  8
LY_1
  6
CONTINUOUS
 62
    80
  5
2AA
 10
-30.852488
 20
-16.843361
 30
0.0
  0
VERTEX
  8
LY_1
  6
CONTINUOUS
 62
    80
  5
2AB
 10
-30.894495
 20
-16.840648
 30
0.0
  0
VERTEX
  8
LY_1
  6
CONTINUOUS
 62
    80
  5
2AC
 10
-30.936489
 20
-16.837738
 30
0.0
  0
VERTEX
  8
LY_1
  6
CONTINUOUS
 62
    80
  5
2AD
 10
-30.978469
 20
-16.834631
 30
0.0
  0
VERTEX
  8
LY_1
  6
CONTINUOUS
 62
    80
  5
2AE
 10
-31.020435
 20
-16.831327
 30
0.0
  0
VERTEX
  8
LY_1
  6
CONTINUOUS
 62
    80
  5
2AF
 10
-31.062385
 20
-16.827828
 30
0.0
  0
VERTEX
  8
LY_1
  6
CONTINUOUS
 62
    80
  5
2B0
 10
-31.104318
 20
-16.824135
 30
0.0
  0
VERTEX
  8
LY_1
  6
CONTINUOUS
 62
    80
  5
2B1
 10
-31.146233
 20
-16.820248
 30
0.0
  0
VERTEX
  8
LY_1
  6
CONTINUOUS
 62
    80
  5
2B2
 10
-31.188129
 20
-16.816168
 30
0.0
  0
VERTEX
  8
LY_1
  6
CONTINUOUS
 62
    80
  5
2B3
 10
-31.230235
 20
-16.811872
 30
0.0
  0
VERTEX
  8
LY_1
  6
CONTINUOUS
 62
    80
  5
2B4
 10
-31.272321
 20
-16.807383
 30
0.0
  0
VERTEX
  8
LY_1
  6
CONTINUOUS
 62
    80
  5
2B5
 10
-31.314385
 20
-16.802704
 30
0.0
  0
VERTEX
  8
LY_1
  6
CONTINUOUS
 62
    80
  5
2B6
 10
-31.356427
 20
-16.797834
 30
0.0
  0
VERTEX
  8
LY_1
  6
CONTINUOUS
 62
    80
  5
2B7
 10
-31.398447
 20
-16.792775
 30
0.0
  0
VERTEX
  8
LY_1
  6
CONTINUOUS
 62
    80
  5
2B8
 10
-31.440443
 20
-16.787529
 30
0.0
  0
VERTEX
  8
LY_1
  6
CONTINUOUS
 62
    80
  5
2B9
 10
-31.482416
 20
-16.782098
 30
0.0
  0
VERTEX
  8
LY_1
  6
CONTINUOUS
 62
    80
  5
2BA
 10
-31.524364
 20
-16.776481
 30
0.0
  0
VERTEX
  8
LY_1
  6
CONTINUOUS
 62
    80
  5
2BB
 10
-31.566286
 20
-16.770681
 30
0.0
  0
VERTEX
  8
LY_1
  6
CONTINUOUS
 62
    80
  5
2BC
 10
-31.608183
 20
-16.764699
 30
0.0
  0
VERTEX
  8
LY_1
  6
CONTINUOUS
 62
    80
  5
2BD
 10
-31.650054
 20
-16.758536
 30
0.0
  0
VERTEX
  8
LY_1
  6
CONTINUOUS
 62
    80
  5
2BE
 10
-31.691897
 20
-16.752194
 30
0.0
  0
VERTEX
  8
LY_1
  6
CONTINUOUS
 62
    80
  5
2BF
 10
-31.733713
 20
-16.745674
 30
0.0
  0
VERTEX
  8
LY_1
  6
CONTINUOUS
 62
    80
  5
2C0
 10
-31.7755
 20
-16.738977
 30
0.0
  0
VERTEX
  8
LY_1
  6
CONTINUOUS
 62
    80
  5
2C1
 10
-31.817258
 20
-16.732105
 30
0.0
  0
VERTEX
  8
LY_1
  6
CONTINUOUS
 62
    80
  5
2C2
 10
-31.858987
 20
-16.725059
 30
0.0
  0
VERTEX
  8
LY_1
  6
CONTINUOUS
 62
    80
  5
2C3
 10
-31.901259
 20
-16.71774
 30
0.0
  0
VERTEX
  8
LY_1
  6
CONTINUOUS
 62
    80
  5
2C4
 10
-31.943499
 20
-16.710246
 30
0.0
  0
VERTEX
  8
LY_1
  6
CONTINUOUS
 62
    80
  5
2C5
 10
-31.985708
 20
-16.702579
 30
0.0
  0
VERTEX
  8
LY_1
  6
CONTINUOUS
 62
    80
  5
2C6
 10
-32.027886
 20
-16.694743
 30
0.0
  0
VERTEX
  8
LY_1
  6
CONTINUOUS
 62
    80
  5
2C7
 10
-32.070033
 20
-16.686739
 30
0.0
  0
VERTEX
  8
LY_1
  6
CONTINUOUS
 62
    80
  5
2C8
 10
-32.112148
 20
-16.67857
 30
0.0
  0
VERTEX
  8
LY_1
  6
CONTINUOUS
 62
    80
  5
2C9
 10
-32.154232
 20
-16.670238
 30
0.0
  0
VERTEX
  8
LY_1
  6
CONTINUOUS
 62
    80
  5
2CA
 10
-32.196284
 20
-16.661747
 30
0.0
  0
VERTEX
  8
LY_1
  6
CONTINUOUS
 62
    80
  5
2CB
 10
-32.238305
 20
-16.653098
 30
0.0
  0
VERTEX
  8
LY_1
  6
CONTINUOUS
 62
    80
  5
2CC
 10
-32.280294
 20
-16.644294
 30
0.0
  0
VERTEX
  8
LY_1
  6
CONTINUOUS
 62
    80
  5
2CD
 10
-32.322251
 20
-16.635337
 30
0.0
  0
VERTEX
  8
LY_1
  6
CONTINUOUS
 62
    80
  5
2CE
 10
-32.364176
 20
-16.62623
 30
0.0
  0
VERTEX
  8
LY_1
  6
CONTINUOUS
 62
    80
  5
2CF
 10
-32.40607
 20
-16.616976
 30
0.0
  0
VERTEX
  8
LY_1
  6
CONTINUOUS
 62
    80
  5
2D0
 10
-32.447931
 20
-16.607577
 30
0.0
  0
VERTEX
  8
LY_1
  6
CONTINUOUS
 62
    80
  5
2D1
 10
-32.489761
 20
-16.598036
 30
0.0
  0
VERTEX
  8
LY_1
  6
CONTINUOUS
 62
    80
  5
2D2
 10
-32.531558
 20
-16.588354
 30
0.0
  0
VERTEX
  8
LY_1
  6
CONTINUOUS
 62
    80
  5
2D3
 10
-32.573463
 20
-16.578501
 30
0.0
  0
VERTEX
  8
LY_1
  6
CONTINUOUS
 62
    80
  5
2D4
 10
-32.615334
 20
-16.568509
 30
0.0
  0
VERTEX
  8
LY_1
  6
CONTINUOUS
 62
    80
  5
2D5
 10
-32.657171
 20
-16.558378
 30
0.0
  0
VERTEX
  8
LY_1
  6
CONTINUOUS
 62
    80
  5
2D6
 10
-32.698974
 20
-16.548106
 30
0.0
  0
VERTEX
  8
LY_1
  6
CONTINUOUS
 62
    80
  5
2D7
 10
-32.740742
 20
-16.537694
 30
0.0
  0
VERTEX
  8
LY_1
  6
CONTINUOUS
 62
    80
  5
2D8
 10
-32.782474
 20
-16.527139
 30
0.0
  0
VERTEX
  8
LY_1
  6
CONTINUOUS
 62
    80
  5
2D9
 10
-32.824168
 20
-16.516443
 30
0.0
  0
VERTEX
  8
LY_1
  6
CONTINUOUS
 62
    80
  5
2DA
 10
-32.865826
 20
-16.505604
 30
0.0
  0
VERTEX
  8
LY_1
  6
CONTINUOUS
 62
    80
  5
2DB
 10
-32.907445
 20
-16.494621
 30
0.0
  0
VERTEX
  8
LY_1
  6
CONTINUOUS
 62
    80
  5
2DC
 10
-32.949025
 20
-16.483495
 30
0.0
  0
VERTEX
  8
LY_1
  6
CONTINUOUS
 62
    80
  5
2DD
 10
-32.990565
 20
-16.472224
 30
0.0
  0
VERTEX
  8
LY_1
  6
CONTINUOUS
 62
    80
  5
2DE
 10
-33.032065
 20
-16.460807
 30
0.0
  0
VERTEX
  8
LY_1
  6
CONTINUOUS
 62
    80
  5
2DF
 10
-33.073524
 20
-16.449245
 30
0.0
  0
VERTEX
  8
LY_1
  6
CONTINUOUS
 62
    80
  5
2E0
 10
-33.114941
 20
-16.437537
 30
0.0
  0
VERTEX
  8
LY_1
  6
CONTINUOUS
 62
    80
  5
2E1
 10
-33.156315
 20
-16.425681
 30
0.0
  0
VERTEX
  8
LY_1
  6
CONTINUOUS
 62
    80
  5
2E2
 10
-33.197646
 20
-16.413678
 30
0.0
  0
SEQEND
  8
LY_1
  6
CONTINUOUS
 62
    80
  5
2E3
  0
LINE
  8
LY_1
  6
CONTINUOUS
 62
     3
  5
36
 10
-36.0844
 20
-11.5
 30
0.0
 11
-24.537395
 21
-11.5
 31
0.0
  0
LINE
  8
LY_1
  6
CONTINUOUS
 62
     3
  5
37
 10
-25.310858
 20
-16.860239
 30
0.0
 11
-24.537389
 21
-16.413676
 31
0.0
  0
LINE
  8
LY_1
  6
CONTINUOUS
 62
     3
  5
38
 10
-25.310858
 20
-16.860239
 30
0.0
 11
-25.970366
 21
-16.860239
 31
0.0
  0
LINE
  8
LY_1
  6
CONTINUOUS
 62
     3
  5
39
 10
-34.65021
 20
-16.860239
 30
0.0
 11
-35.310926
 21
-16.860239
 31
0.0
  0
LINE
  8
LY_1
  6
CONTINUOUS
 62
     3
  5
3A
 10
-36.084395
 20
-16.413676
 30
0.0
 11
-35.310926
 21
-16.860239
 31
0.0
  0
LINE
  8
LY_1
  6
CONTINUOUS
 62
     3
  5
3B
 10
-34.631828
 20
-16.860239
 30
0.0
 11
-34.65021
 21
-16.860239
 31
0.0
  0
LINE
  8
LY_1
  6
CONTINUOUS
 62
     3
  5
3C
 10
-36.0844
 20
-11.5
 30
0.0
 11
-36.0844
 21
-16.413673
 31
0.0
  0
LINE
  8
LY_1
  6
CONTINUOUS
 62
     3
  5
3D
 10
-25.970366
 20
-16.860239
 30
0.0
 11
-25.991181
 21
-16.860239
 31
0.0
  0
LINE
  8
LY_1
  6
CONTINUOUS
 62
     3
  5
3E
 10
-24.537395
 20
-11.5
 30
0.0
 11
-24.537395
 21
-16.41368
 31
0.0
  0
LINE
  8
LY_1
  6
CONTINUOUS
 62
     3
  5
3F
 10
-25.991181
 20
-16.860239
 30
0.0
 11
-30.2915
 21
-16.860239
 31
0.0
  0
LINE
  8
LY_1
  6
CONTINUOUS
 62
     3
  5
40
 10
-30.330284
 20
-16.860239
 30
0.0
 11
-34.631828
 21
-16.860239
 31
0.0
  0
LINE
  8
LY_1
  6
CONTINUOUS
 62
    80
  5
41
 10
-27.42415
 20
-11.5
 30
0.0
 11
-27.42415
 21
-16.413681
 31
0.0
  0
LINE
  8
LY_1
  6
CONTINUOUS
 62
    80
  5
42
 10
-33.197646
 20
-11.5
 30
0.0
 11
-33.197646
 21
-16.413678
 31
0.0
  0
LINE
  8
LY_1
  6
CONTINUOUS
 62
     3
  5
43
 10
-30.2915
 20
-16.860239
 30
0.0
 11
-30.330284
 21
-16.860239
 31
0.0
  0
LINE
  8
LY_1
  6
CONTINUOUS
 62
     3
  5
44
 10
-24.610898
 20
-10.0
 30
0.0
 11
-36.010898
 21
-10.0
 31
0.0
  0
LINE
  8
LY_1
  6
CONTINUOUS
 62
     3
  5
45
 10
-23.810898
 20
-11.5
 30
0.0
 11
-23.810898
 21
-10.0
 31
0.0
  0
LINE
  8
LY_1
  6
CONTINUOUS
 62
     3
  5
46
 10
-36.810898
 20
-10.0
 30
0.0
 11
-36.810898
 21
-11.5
 31
0.0
  0
LINE
  8
LY_1
  6
CONTINUOUS
 62
     3
  5
47
 10
-36.810898
 20
-10.0
 30
0.0
 11
-23.810898
 21
-10.0
 31
0.0
  0
LINE
  8
LY_1
  6
CONTINUOUS
 62
     3
  5
48
 10
-36.810898
 20
-11.5
 30
0.0
 11
-23.810898
 21
-11.5
 31
0.0
  0
LINE
  8
LY_1
  6
CONTINUOUS
 62
     3
  5
49
 10
-20.310898
 20
-10.0
 30
0.0
 11
-40.310898
 21
-10.0
 31
0.0
  0
LINE
  8
LY_1
  6
CONTINUOUS
 62
     3
  5
4A
 10
-27.310889
 20
-23.890757
 30
0.0
 11
-27.310889
 21
-16.860239
 31
0.0
  0
LINE
  8
LY_1
  6
CONTINUOUS
 62
     3
  5
4B
 10
-33.310889
 20
-16.860239
 30
0.0
 11
-33.310889
 21
-23.890757
 31
0.0
  0
LINE
  8
LY_1
  6
CONTINUOUS
 62
     3
  5
4C
 10
-32.810889
 20
-24.390757
 30
0.0
 11
-27.810889
 21
-24.390757
 31
0.0
  0
LINE
  8
LY_1
  6
CONTINUOUS
 62
     3
  5
4D
 10
-40.310898
 20
0.0
 30
0.0
 11
-40.310898
 21
-10.0
 31
0.0
  0
LINE
  8
LY_1
  6
CONTINUOUS
 62
     3
  5
4E
 10
-20.310898
 20
-10.0
 30
0.0
 11
-20.310898
 21
0.0
 31
0.0
  0
LINE
  8
LY_1
  6
CONTINUOUS
 62
     3
  5
4F
 10
-0.546391
 20
-10.0
 30
0.0
 11
0.953609
 21
-11.5
 31
0.0
  0
LINE
  8
LY_1
  6
CONTINUOUS
 62
     3
  5
50
 10
-1.960605
 20
-10.0
 30
0.0
 11
-0.460605
 21
-11.5
 31
0.0
  0
POLYLINE
  8
LY_1
  6
CONTINUOUS
 62
    80
  5
51
 66
     1
 10
0.0
 20
0.0
 30
0.0
  0
VERTEX
  8
LY_1
  6
CONTINUOUS
 62
    80
  5
2E4
 10
4.339321
 20
-16.860239
 30
0.0
  0
VERTEX
  8
LY_1
  6
CONTINUOUS
 62
    80
  5
2E5
 10
4.35121
 20
-16.860144
 30
0.0
  0
VERTEX
  8
LY_1
  6
CONTINUOUS
 62
    80
  5
2E6
 10
4.363098
 20
-16.859987
 30
0.0
  0
VERTEX
  8
LY_1
  6
CONTINUOUS
 62
    80
  5
2E7
 10
4.374987
 20
-16.859766
 30
0.0
  0
VERTEX
  8
LY_1
  6
CONTINUOUS
 62
    80
  5
2E8
 10
4.386875
 20
-16.859482
 30
0.0
  0
VERTEX
  8
LY_1
  6
CONTINUOUS
 62
    80
  5
2E9
 10
4.398761
 20
-16.859135
 30
0.0
  0
VERTEX
  8
LY_1
  6
CONTINUOUS
 62
    80
  5
2EA
 10
4.410646
 20
-16.858724
 30
0.0
  0
VERTEX
  8
LY_1
  6
CONTINUOUS
 62
    80
  5
2EB
 10
4.422529
 20
-16.85825
 30
0.0
  0
VERTEX
  8
LY_1
  6
CONTINUOUS
 62
    80
  5
2EC
 10
4.43441
 20
-16.857712
 30
0.0
  0
VERTEX
  8
LY_1
  6
CONTINUOUS
 62
    80
  5
2ED
 10
4.446288
 20
-16.857111
 30
0.0
  0
VERTEX
  8
LY_1
  6
CONTINUOUS
 62
    80
  5
2EE
 10
4.458162
 20
-16.856446
 30
0.0
  0
VERTEX
  8
LY_1
  6
CONTINUOUS
 62
    80
  5
2EF
 10
4.470033
 20
-16.855717
 30
0.0
  0
VERTEX
  8
LY_1
  6
CONTINUOUS
 62
    80
  5
2F0
 10
4.4819
 20
-16.854924
 30
0.0
  0
VERTEX
  8
LY_1
  6
CONTINUOUS
 62
    80
  5
2F1
 10
4.493763
 20
-16.854067
 30
0.0
  0
VERTEX
  8
LY_1
  6
CONTINUOUS
 62
    80
  5
2F2
 10
4.50562
 20
-16.853145
 30
0.0
  0
VERTEX
  8
LY_1
  6
CONTINUOUS
 62
    80
  5
2F3
 10
4.517472
 20
-16.85216
 30
0.0
  0
VERTEX
  8
LY_1
  6
CONTINUOUS
 62
    80
  5
2F4
 10
4.529319
 20
-16.85111
 30
0.0
  0
VERTEX
  8
LY_1
  6
CONTINUOUS
 62
    80
  5
2F5
 10
4.541251
 20
-16.849987
 30
0.0
  0
VERTEX
  8
LY_1
  6
CONTINUOUS
 62
    80
  5
2F6
 10
4.553177
 20
-16.848798
 30
0.0
  0
VERTEX
  8
LY_1
  6
CONTINUOUS
 62
    80
  5
2F7
 10
4.565097
 20
-16.847545
 30
0.0
  0
VERTEX
  8
LY_1
  6
CONTINUOUS
 62
    80
  5
2F8
 10
4.577009
 20
-16.846227
 30
0.0
  0
VERTEX
  8
LY_1
  6
CONTINUOUS
 62
    80
  5
2F9
 10
4.588913
 20
-16.844845
 30
0.0
  0
VERTEX
  8
LY_1
  6
CONTINUOUS
 62
    80
  5
2FA
 10
4.60081
 20
-16.843399
 30
0.0
  0
VERTEX
  8
LY_1
  6
CONTINUOUS
 62
    80
  5
2FB
 10
4.6127
 20
-16.84189
 30
0.0
  0
VERTEX
  8
LY_1
  6
CONTINUOUS
 62
    80
  5
2FC
 10
4.62458
 20
-16.840317
 30
0.0
  0
VERTEX
  8
LY_1
  6
CONTINUOUS
 62
    80
  5
2FD
 10
4.636453
 20
-16.838681
 30
0.0
  0
VERTEX
  8
LY_1
  6
CONTINUOUS
 62
    80
  5
2FE
 10
4.648317
 20
-16.836982
 30
0.0
  0
VERTEX
  8
LY_1
  6
CONTINUOUS
 62
    80
  5
2FF
 10
4.660171
 20
-16.835221
 30
0.0
  0
VERTEX
  8
LY_1
  6
CONTINUOUS
 62
    80
  5
300
 10
4.672017
 20
-16.833398
 30
0.0
  0
VERTEX
  8
LY_1
  6
CONTINUOUS
 62
    80
  5
301
 10
4.683852
 20
-16.831513
 30
0.0
  0
VERTEX
  8
LY_1
  6
CONTINUOUS
 62
    80
  5
302
 10
4.695678
 20
-16.829567
 30
0.0
  0
VERTEX
  8
LY_1
  6
CONTINUOUS
 62
    80
  5
303
 10
4.707494
 20
-16.82756
 30
0.0
  0
VERTEX
  8
LY_1
  6
CONTINUOUS
 62
    80
  5
304
 10
4.719299
 20
-16.825491
 30
0.0
  0
VERTEX
  8
LY_1
  6
CONTINUOUS
 62
    80
  5
305
 10
4.736094
 20
-16.822441
 30
0.0
  0
VERTEX
  8
LY_1
  6
CONTINUOUS
 62
    80
  5
306
 10
4.752867
 20
-16.81927
 30
0.0
  0
VERTEX
  8
LY_1
  6
CONTINUOUS
 62
    80
  5
307
 10
4.769617
 20
-16.815978
 30
0.0
  0
VERTEX
  8
LY_1
  6
CONTINUOUS
 62
    80
  5
308
 10
4.786343
 20
-16.812567
 30
0.0
  0
VERTEX
  8
LY_1
  6
CONTINUOUS
 62
    80
  5
309
 10
4.803046
 20
-16.809038
 30
0.0
  0
VERTEX
  8
LY_1
  6
CONTINUOUS
 62
    80
  5
30A
 10
4.819724
 20
-16.805393
 30
0.0
  0
VERTEX
  8
LY_1
  6
CONTINUOUS
 62
    80
  5
30B
 10
4.836377
 20
-16.801633
 30
0.0
  0
VERTEX
  8
LY_1
  6
CONTINUOUS
 62
    80
  5
30C
 10
4.853004
 20
-16.797759
 30
0.0
  0
VERTEX
  8
LY_1
  6
CONTINUOUS
 62
    80
  5
30D
 10
4.869605
 20
-16.793772
 30
0.0
  0
VERTEX
  8
LY_1
  6
CONTINUOUS
 62
    80
  5
30E
 10
4.88618
 20
-16.789674
 30
0.0
  0
VERTEX
  8
LY_1
  6
CONTINUOUS
 62
    80
  5
30F
 10
4.902727
 20
-16.785465
 30
0.0
  0
VERTEX
  8
LY_1
  6
CONTINUOUS
 62
    80
  5
310
 10
4.919246
 20
-16.781148
 30
0.0
  0
VERTEX
  8
LY_1
  6
CONTINUOUS
 62
    80
  5
311
 10
4.935736
 20
-16.776722
 30
0.0
  0
VERTEX
  8
LY_1
  6
CONTINUOUS
 62
    80
  5
312
 10
4.952198
 20
-16.772191
 30
0.0
  0
VERTEX
  8
LY_1
  6
CONTINUOUS
 62
    80
  5
313
 10
4.96863
 20
-16.767554
 30
0.0
  0
VERTEX
  8
LY_1
  6
CONTINUOUS
 62
    80
  5
314
 10
4.985032
 20
-16.762813
 30
0.0
  0
VERTEX
  8
LY_1
  6
CONTINUOUS
 62
    80
  5
315
 10
5.001762
 20
-16.757863
 30
0.0
  0
VERTEX
  8
LY_1
  6
CONTINUOUS
 62
    80
  5
316
 10
5.01846
 20
-16.752806
 30
0.0
  0
VERTEX
  8
LY_1
  6
CONTINUOUS
 62
    80
  5
317
 10
5.035126
 20
-16.747644
 30
0.0
  0
VERTEX
  8
LY_1
  6
CONTINUOUS
 62
    80
  5
318
 10
5.051759
 20
-16.742379
 30
0.0
  0
VERTEX
  8
LY_1
  6
CONTINUOUS
 62
    80
  5
319
 10
5.068359
 20
-16.737011
 30
0.0
  0
VERTEX
  8
LY_1
  6
CONTINUOUS
 62
    80
  5
31A
 10
5.084925
 20
-16.731543
 30
0.0
  0
VERTEX
  8
LY_1
  6
CONTINUOUS
 62
    80
  5
31B
 10
5.101458
 20
-16.725974
 30
0.0
  0
VERTEX
  8
LY_1
  6
CONTINUOUS
 62
    80
  5
31C
 10
5.117958
 20
-16.720307
 30
0.0
  0
VERTEX
  8
LY_1
  6
CONTINUOUS
 62
    80
  5
31D
 10
5.134423
 20
-16.714542
 30
0.0
  0
VERTEX
  8
LY_1
  6
CONTINUOUS
 62
    80
  5
31E
 10
5.150855
 20
-16.708681
 30
0.0
  0
VERTEX
  8
LY_1
  6
CONTINUOUS
 62
    80
  5
31F
 10
5.167252
 20
-16.702725
 30
0.0
  0
VERTEX
  8
LY_1
  6
CONTINUOUS
 62
    80
  5
320
 10
5.183614
 20
-16.696674
 30
0.0
  0
VERTEX
  8
LY_1
  6
CONTINUOUS
 62
    80
  5
321
 10
5.199942
 20
-16.690532
 30
0.0
  0
VERTEX
  8
LY_1
  6
CONTINUOUS
 62
    80
  5
322
 10
5.216234
 20
-16.684298
 30
0.0
  0
VERTEX
  8
LY_1
  6
CONTINUOUS
 62
    80
  5
323
 10
5.232491
 20
-16.677973
 30
0.0
  0
VERTEX
  8
LY_1
  6
CONTINUOUS
 62
    80
  5
324
 10
5.248713
 20
-16.67156
 30
0.0
  0
VERTEX
  8
LY_1
  6
CONTINUOUS
 62
    80
  5
325
 10
5.26547
 20
-16.664827
 30
0.0
  0
VERTEX
  8
LY_1
  6
CONTINUOUS
 62
    80
  5
326
 10
5.28219
 20
-16.658002
 30
0.0
  0
VERTEX
  8
LY_1
  6
CONTINUOUS
 62
    80
  5
327
 10
5.298871
 20
-16.651087
 30
0.0
  0
VERTEX
  8
LY_1
  6
CONTINUOUS
 62
    80
  5
328
 10
5.315516
 20
-16.644082
 30
0.0
  0
VERTEX
  8
LY_1
  6
CONTINUOUS
 62
    80
  5
329
 10
5.332123
 20
-16.63699
 30
0.0
  0
VERTEX
  8
LY_1
  6
CONTINUOUS
 62
    80
  5
32A
 10
5.348694
 20
-16.629812
 30
0.0
  0
VERTEX
  8
LY_1
  6
CONTINUOUS
 62
    80
  5
32B
 10
5.365229
 20
-16.622551
 30
0.0
  0
VERTEX
  8
LY_1
  6
CONTINUOUS
 62
    80
  5
32C
 10
5.381727
 20
-16.615207
 30
0.0
  0
VERTEX
  8
LY_1
  6
CONTINUOUS
 62
    80
  5
32D
 10
5.39819
 20
-16.607783
 30
0.0
  0
VERTEX
  8
LY_1
  6
CONTINUOUS
 62
    80
  5
32E
 10
5.414618
 20
-16.60028
 30
0.0
  0
VERTEX
  8
LY_1
  6
CONTINUOUS
 62
    80
  5
32F
 10
5.431011
 20
-16.5927
 30
0.0
  0
VERTEX
  8
LY_1
  6
CONTINUOUS
 62
    80
  5
330
 10
5.447369
 20
-16.585045
 30
0.0
  0
VERTEX
  8
LY_1
  6
CONTINUOUS
 62
    80
  5
331
 10
5.463692
 20
-16.577316
 30
0.0
  0
VERTEX
  8
LY_1
  6
CONTINUOUS
 62
    80
  5
332
 10
5.479982
 20
-16.569515
 30
0.0
  0
VERTEX
  8
LY_1
  6
CONTINUOUS
 62
    80
  5
333
 10
5.496239
 20
-16.561643
 30
0.0
  0
VERTEX
  8
LY_1
  6
CONTINUOUS
 62
    80
  5
334
 10
5.512462
 20
-16.553703
 30
0.0
  0
VERTEX
  8
LY_1
  6
CONTINUOUS
 62
    80
  5
335
 10
5.529063
 20
-16.545492
 30
0.0
  0
VERTEX
  8
LY_1
  6
CONTINUOUS
 62
    80
  5
336
 10
5.545629
 20
-16.537209
 30
0.0
  0
VERTEX
  8
LY_1
  6
CONTINUOUS
 62
    80
  5
337
 10
5.56216
 20
-16.528856
 30
0.0
  0
VERTEX
  8
LY_1
  6
CONTINUOUS
 62
    80
  5
338
 10
5.578653
 20
-16.520431
 30
0.0
  0
VERTEX
  8
LY_1
  6
CONTINUOUS
 62
    80
  5
339
 10
5.59511
 20
-16.511935
 30
0.0
  0
VERTEX
  8
LY_1
  6
CONTINUOUS
 62
    80
  5
33A
 10
5.611529
 20
-16.503368
 30
0.0
  0
VERTEX
  8
LY_1
  6
CONTINUOUS
 62
    80
  5
33B
 10
5.62791
 20
-16.494728
 30
0.0
  0
VERTEX
  8
LY_1
  6
CONTINUOUS
 62
    80
  5
33C
 10
5.644252
 20
-16.486015
 30
0.0
  0
VERTEX
  8
LY_1
  6
CONTINUOUS
 62
    80
  5
33D
 10
5.660554
 20
-16.47723
 30
0.0
  0
VERTEX
  8
LY_1
  6
CONTINUOUS
 62
    80
  5
33E
 10
5.676816
 20
-16.468372
 30
0.0
  0
VERTEX
  8
LY_1
  6
CONTINUOUS
 62
    80
  5
33F
 10
5.693037
 20
-16.459441
 30
0.0
  0
VERTEX
  8
LY_1
  6
CONTINUOUS
 62
    80
  5
340
 10
5.709217
 20
-16.450436
 30
0.0
  0
VERTEX
  8
LY_1
  6
CONTINUOUS
 62
    80
  5
341
 10
5.725355
 20
-16.441357
 30
0.0
  0
VERTEX
  8
LY_1
  6
CONTINUOUS
 62
    80
  5
342
 10
5.741451
 20
-16.432204
 30
0.0
  0
VERTEX
  8
LY_1
  6
CONTINUOUS
 62
    80
  5
343
 10
5.757503
 20
-16.422976
 30
0.0
  0
VERTEX
  8
LY_1
  6
CONTINUOUS
 62
    80
  5
344
 10
5.773511
 20
-16.413673
 30
0.0
  0
SEQEND
  8
LY_1
  6
CONTINUOUS
 62
    80
  5
345
  0
POLYLINE
  8
LY_1
  6
CONTINUOUS
 62
    80
  5
52
 66
     1
 10
0.0
 20
0.0
 30
0.0
  0
VERTEX
  8
LY_1
  6
CONTINUOUS
 62
    80
  5
346
 10
-5.773494
 20
-16.41368
 30
0.0
  0
VERTEX
  8
LY_1
  6
CONTINUOUS
 62
    80
  5
347
 10
-5.752313
 20
-16.426079
 30
0.0
  0
VERTEX
  8
LY_1
  6
CONTINUOUS
 62
    80
  5
348
 10
-5.731047
 20
-16.438337
 30
0.0
  0
VERTEX
  8
LY_1
  6
CONTINUOUS
 62
    80
  5
349
 10
-5.709699
 20
-16.450453
 30
0.0
  0
VERTEX
  8
LY_1
  6
CONTINUOUS
 62
    80
  5
34A
 10
-5.68827
 20
-16.462429
 30
0.0
  0
VERTEX
  8
LY_1
  6
CONTINUOUS
 62
    80
  5
34B
 10
-5.666762
 20
-16.474265
 30
0.0
  0
VERTEX
  8
LY_1
  6
CONTINUOUS
 62
    80
  5
34C
 10
-5.645176
 20
-16.485961
 30
0.0
  0
VERTEX
  8
LY_1
  6
CONTINUOUS
 62
    80
  5
34D
 10
-5.623513
 20
-16.497519
 30
0.0
  0
VERTEX
  8
LY_1
  6
CONTINUOUS
 62
    80
  5
34E
 10
-5.601776
 20
-16.508938
 30
0.0
  0
VERTEX
  8
LY_1
  6
CONTINUOUS
 62
    80
  5
34F
 10
-5.579965
 20
-16.52022
 30
0.0
  0
VERTEX
  8
LY_1
  6
CONTINUOUS
 62
    80
  5
350
 10
-5.558083
 20
-16.531364
 30
0.0
  0
VERTEX
  8
LY_1
  6
CONTINUOUS
 62
    80
  5
351
 10
-5.53613
 20
-16.542372
 30
0.0
  0
VERTEX
  8
LY_1
  6
CONTINUOUS
 62
    80
  5
352
 10
-5.514109
 20
-16.553245
 30
0.0
  0
VERTEX
  8
LY_1
  6
CONTINUOUS
 62
    80
  5
353
 10
-5.49202
 20
-16.563981
 30
0.0
  0
VERTEX
  8
LY_1
  6
CONTINUOUS
 62
    80
  5
354
 10
-5.469865
 20
-16.574584
 30
0.0
  0
VERTEX
  8
LY_1
  6
CONTINUOUS
 62
    80
  5
355
 10
-5.447647
 20
-16.585052
 30
0.0
  0
VERTEX
  8
LY_1
  6
CONTINUOUS
 62
    80
  5
356
 10
-5.425365
 20
-16.595387
 30
0.0
  0
VERTEX
  8
LY_1
  6
CONTINUOUS
 62
    80
  5
357
 10
-5.40369
 20
-16.605285
 30
0.0
  0
VERTEX
  8
LY_1
  6
CONTINUOUS
 62
    80
  5
358
 10
-5.381956
 20
-16.615054
 30
0.0
  0
VERTEX
  8
LY_1
  6
CONTINUOUS
 62
    80
  5
359
 10
-5.360164
 20
-16.624691
 30
0.0
  0
VERTEX
  8
LY_1
  6
CONTINUOUS
 62
    80
  5
35A
 10
-5.338313
 20
-16.63419
 30
0.0
  0
VERTEX
  8
LY_1
  6
CONTINUOUS
 62
    80
  5
35B
 10
-5.316403
 20
-16.643549
 30
0.0
  0
VERTEX
  8
LY_1
  6
CONTINUOUS
 62
    80
  5
35C
 10
-5.294432
 20
-16.652763
 30
0.0
  0
VERTEX
  8
LY_1
  6
CONTINUOUS
 62
    80
  5
35D
 10
-5.2724
 20
-16.661827
 30
0.0
  0
VERTEX
  8
LY_1
  6
CONTINUOUS
 62
    80
  5
35E
 10
-5.250308
 20
-16.67074
 30
0.0
  0
VERTEX
  8
LY_1
  6
CONTINUOUS
 62
    80
  5
35F
 10
-5.228154
 20
-16.679495
 30
0.0
  0
VERTEX
  8
LY_1
  6
CONTINUOUS
 62
    80
  5
360
 10
-5.205938
 20
-16.68809
 30
0.0
  0
VERTEX
  8
LY_1
  6
CONTINUOUS
 62
    80
  5
361
 10
-5.18366
 20
-16.69652
 30
0.0
  0
VERTEX
  8
LY_1
  6
CONTINUOUS
 62
    80
  5
362
 10
-5.161319
 20
-16.704782
 30
0.0
  0
VERTEX
  8
LY_1
  6
CONTINUOUS
 62
    80
  5
363
 10
-5.138914
 20
-16.712871
 30
0.0
  0
VERTEX
  8
LY_1
  6
CONTINUOUS
 62
    80
  5
364
 10
-5.116445
 20
-16.720783
 30
0.0
  0
VERTEX
  8
LY_1
  6
CONTINUOUS
 62
    80
  5
365
 10
-5.093912
 20
-16.728515
 30
0.0
  0
VERTEX
  8
LY_1
  6
CONTINUOUS
 62
    80
  5
366
 10
-5.071313
 20
-16.736063
 30
0.0
  0
VERTEX
  8
LY_1
  6
CONTINUOUS
 62
    80
  5
367
 10
-5.049047
 20
-16.743295
 30
0.0
  0
VERTEX
  8
LY_1
  6
CONTINUOUS
 62
    80
  5
368
 10
-5.026719
 20
-16.750342
 30
0.0
  0
VERTEX
  8
LY_1
  6
CONTINUOUS
 62
    80
  5
369
 10
-5.00433
 20
-16.7572
 30
0.0
  0
VERTEX
  8
LY_1
  6
CONTINUOUS
 62
    80
  5
36A
 10
-4.981881
 20
-16.763864
 30
0.0
  0
VERTEX
  8
LY_1
  6
CONTINUOUS
 62
    80
  5
36B
 10
-4.959375
 20
-16.770332
 30
0.0
  0
VERTEX
  8
LY_1
  6
CONTINUOUS
 62
    80
  5
36C
 10
-4.936811
 20
-16.776599
 30
0.0
  0
VERTEX
  8
LY_1
  6
CONTINUOUS
 62
    80
  5
36D
 10
-4.914192
 20
-16.782662
 30
0.0
  0
VERTEX
  8
LY_1
  6
CONTINUOUS
 62
    80
  5
36E
 10
-4.891519
 20
-16.788516
 30
0.0
  0
VERTEX
  8
LY_1
  6
CONTINUOUS
 62
    80
  5
36F
 10
-4.868792
 20
-16.794159
 30
0.0
  0
VERTEX
  8
LY_1
  6
CONTINUOUS
 62
    80
  5
370
 10
-4.846013
 20
-16.799587
 30
0.0
  0
VERTEX
  8
LY_1
  6
CONTINUOUS
 62
    80
  5
371
 10
-4.823184
 20
-16.804795
 30
0.0
  0
VERTEX
  8
LY_1
  6
CONTINUOUS
 62
    80
  5
372
 10
-4.800305
 20
-16.809781
 30
0.0
  0
VERTEX
  8
LY_1
  6
CONTINUOUS
 62
    80
  5
373
 10
-4.777378
 20
-16.814539
 30
0.0
  0
VERTEX
  8
LY_1
  6
CONTINUOUS
 62
    80
  5
374
 10
-4.754404
 20
-16.819068
 30
0.0
  0
VERTEX
  8
LY_1
  6
CONTINUOUS
 62
    80
  5
375
 10
-4.731384
 20
-16.823361
 30
0.0
  0
VERTEX
  8
LY_1
  6
CONTINUOUS
 62
    80
  5
376
 10
-4.70832
 20
-16.827417
 30
0.0
  0
VERTEX
  8
LY_1
  6
CONTINUOUS
 62
    80
  5
377
 10
-4.685525
 20
-16.831183
 30
0.0
  0
VERTEX
  8
LY_1
  6
CONTINUOUS
 62
    80
  5
378
 10
-4.662691
 20
-16.834714
 30
0.0
  0
VERTEX
  8
LY_1
  6
CONTINUOUS
 62
    80
  5
379
 10
-4.639821
 20
-16.838012
 30
0.0
  0
VERTEX
  8
LY_1
  6
CONTINUOUS
 62
    80
  5
37A
 10
-4.616918
 20
-16.841079
 30
0.0
  0
VERTEX
  8
LY_1
  6
CONTINUOUS
 62
    80
  5
37B
 10
-4.593984
 20
-16.843915
 30
0.0
  0
VERTEX
  8
LY_1
  6
CONTINUOUS
 62
    80
  5
37C
 10
-4.571022
 20
-16.846522
 30
0.0
  0
VERTEX
  8
LY_1
  6
CONTINUOUS
 62
    80
  5
37D
 10
-4.548036
 20
-16.848901
 30
0.0
  0
VERTEX
  8
LY_1
  6
CONTINUOUS
 62
    80
  5
37E
 10
-4.525027
 20
-16.851053
 30
0.0
  0
VERTEX
  8
LY_1
  6
CONTINUOUS
 62
    80
  5
37F
 10
-4.502
 20
-16.852979
 30
0.0
  0
VERTEX
  8
LY_1
  6
CONTINUOUS
 62
    80
  5
380
 10
-4.478957
 20
-16.85468
 30
0.0
  0
VERTEX
  8
LY_1
  6
CONTINUOUS
 62
    80
  5
381
 10
-4.455901
 20
-16.856158
 30
0.0
  0
VERTEX
  8
LY_1
  6
CONTINUOUS
 62
    80
  5
382
 10
-4.432834
 20
-16.857414
 30
0.0
  0
VERTEX
  8
LY_1
  6
CONTINUOUS
 62
    80
  5
383
 10
-4.409761
 20
-16.858449
 30
0.0
  0
VERTEX
  8
LY_1
  6
CONTINUOUS
 62
    80
  5
384
 10
-4.386682
 20
-16.859264
 30
0.0
  0
VERTEX
  8
LY_1
  6
CONTINUOUS
 62
    80
  5
385
 10
-4.363602
 20
-16.85986
 30
0.0
  0
VERTEX
  8
LY_1
  6
CONTINUOUS
 62
    80
  5
386
 10
-4.340524
 20
-16.860239
 30
0.0
  0
SEQEND
  8
LY_1
  6
CONTINUOUS
 62
    80
  5
387
  0
POLYLINE
  8
LY_1
  6
CONTINUOUS
 62
    80
  5
53
 66
     1
 10
0.0
 20
0.0
 30
0.0
  0
VERTEX
  8
LY_1
  6
CONTINUOUS
 62
    80
  5
388
 10
-4.319708
 20
-16.860239
 30
0.0
  0
VERTEX
  8
LY_1
  6
CONTINUOUS
 62
    80
  5
389
 10
-4.313945
 20
-16.860201
 30
0.0
  0
VERTEX
  8
LY_1
  6
CONTINUOUS
 62
    80
  5
38A
 10
-4.308181
 20
-16.860148
 30
0.0
  0
VERTEX
  8
LY_1
  6
CONTINUOUS
 62
    80
  5
38B
 10
-4.302418
 20
-16.860081
 30
0.0
  0
VERTEX
  8
LY_1
  6
CONTINUOUS
 62
    80
  5
38C
 10
-4.296654
 20
-16.859998
 30
0.0
  0
VERTEX
  8
LY_1
  6
CONTINUOUS
 62
    80
  5
38D
 10
-4.290891
 20
-16.859901
 30
0.0
  0
VERTEX
  8
LY_1
  6
CONTINUOUS
 62
    80
  5
38E
 10
-4.285128
 20
-16.859789
 30
0.0
  0
VERTEX
  8
LY_1
  6
CONTINUOUS
 62
    80
  5
38F
 10
-4.279366
 20
-16.859662
 30
0.0
  0
VERTEX
  8
LY_1
  6
CONTINUOUS
 62
    80
  5
390
 10
-4.273604
 20
-16.85952
 30
0.0
  0
VERTEX
  8
LY_1
  6
CONTINUOUS
 62
    80
  5
391
 10
-4.267842
 20
-16.859362
 30
0.0
  0
VERTEX
  8
LY_1
  6
CONTINUOUS
 62
    80
  5
392
 10
-4.26208
 20
-16.85919
 30
0.0
  0
VERTEX
  8
LY_1
  6
CONTINUOUS
 62
    80
  5
393
 10
-4.256319
 20
-16.859002
 30
0.0
  0
VERTEX
  8
LY_1
  6
CONTINUOUS
 62
    80
  5
394
 10
-4.250558
 20
-16.858799
 30
0.0
  0
VERTEX
  8
LY_1
  6
CONTINUOUS
 62
    80
  5
395
 10
-4.244797
 20
-16.858581
 30
0.0
  0
VERTEX
  8
LY_1
  6
CONTINUOUS
 62
    80
  5
396
 10
-4.239037
 20
-16.858347
 30
0.0
  0
VERTEX
  8
LY_1
  6
CONTINUOUS
 62
    80
  5
397
 10
-4.233278
 20
-16.858098
 30
0.0
  0
VERTEX
  8
LY_1
  6
CONTINUOUS
 62
    80
  5
398
 10
-4.227519
 20
-16.857834
 30
0.0
  0
VERTEX
  8
LY_1
  6
CONTINUOUS
 62
    80
  5
399
 10
-4.20638
 20
-16.85673
 30
0.0
  0
VERTEX
  8
LY_1
  6
CONTINUOUS
 62
    80
  5
39A
 10
-4.18525
 20
-16.855419
 30
0.0
  0
VERTEX
  8
LY_1
  6
CONTINUOUS
 62
    80
  5
39B
 10
-4.164131
 20
-16.853902
 30
0.0
  0
VERTEX
  8
LY_1
  6
CONTINUOUS
 62
    80
  5
39C
 10
-4.143026
 20
-16.852181
 30
0.0
  0
VERTEX
  8
LY_1
  6
CONTINUOUS
 62
    80
  5
39D
 10
-4.121936
 20
-16.850257
 30
0.0
  0
VERTEX
  8
LY_1
  6
CONTINUOUS
 62
    80
  5
39E
 10
-4.100863
 20
-16.848132
 30
0.0
  0
VERTEX
  8
LY_1
  6
CONTINUOUS
 62
    80
  5
39F
 10
-4.079809
 20
-16.845808
 30
0.0
  0
VERTEX
  8
LY_1
  6
CONTINUOUS
 62
    80
  5
3A0
 10
-4.058776
 20
-16.843285
 30
0.0
  0
VERTEX
  8
LY_1
  6
CONTINUOUS
 62
    80
  5
3A1
 10
-4.037766
 20
-16.840566
 30
0.0
  0
VERTEX
  8
LY_1
  6
CONTINUOUS
 62
    80
  5
3A2
 10
-4.016781
 20
-16.837653
 30
0.0
  0
VERTEX
  8
LY_1
  6
CONTINUOUS
 62
    80
  5
3A3
 10
-3.995823
 20
-16.834546
 30
0.0
  0
VERTEX
  8
LY_1
  6
CONTINUOUS
 62
    80
  5
3A4
 10
-3.974893
 20
-16.831248
 30
0.0
  0
VERTEX
  8
LY_1
  6
CONTINUOUS
 62
    80
  5
3A5
 10
-3.953995
 20
-16.82776
 30
0.0
  0
VERTEX
  8
LY_1
  6
CONTINUOUS
 62
    80
  5
3A6
 10
-3.933129
 20
-16.824083
 30
0.0
  0
VERTEX
  8
LY_1
  6
CONTINUOUS
 62
    80
  5
3A7
 10
-3.912297
 20
-16.82022
 30
0.0
  0
VERTEX
  8
LY_1
  6
CONTINUOUS
 62
    80
  5
3A8
 10
-3.891503
 20
-16.816172
 30
0.0
  0
VERTEX
  8
LY_1
  6
CONTINUOUS
 62
    80
  5
3A9
 10
-3.870196
 20
-16.811825
 30
0.0
  0
VERTEX
  8
LY_1
  6
CONTINUOUS
 62
    80
  5
3AA
 10
-3.84893
 20
-16.807288
 30
0.0
  0
VERTEX
  8
LY_1
  6
CONTINUOUS
 62
    80
  5
3AB
 10
-3.827707
 20
-16.802561
 30
0.0
  0
VERTEX
  8
LY_1
  6
CONTINUOUS
 62
    80
  5
3AC
 10
-3.806528
 20
-16.797649
 30
0.0
  0
VERTEX
  8
LY_1
  6
CONTINUOUS
 62
    80
  5
3AD
 10
-3.785392
 20
-16.792553
 30
0.0
  0
VERTEX
  8
LY_1
  6
CONTINUOUS
 62
    80
  5
3AE
 10
-3.764302
 20
-16.787276
 30
0.0
  0
VERTEX
  8
LY_1
  6
CONTINUOUS
 62
    80
  5
3AF
 10
-3.743257
 20
-16.781819
 30
0.0
  0
VERTEX
  8
LY_1
  6
CONTINUOUS
 62
    80
  5
3B0
 10
-3.72226
 20
-16.776187
 30
0.0
  0
VERTEX
  8
LY_1
  6
CONTINUOUS
 62
    80
  5
3B1
 10
-3.70131
 20
-16.77038
 30
0.0
  0
VERTEX
  8
LY_1
  6
CONTINUOUS
 62
    80
  5
3B2
 10
-3.680409
 20
-16.764401
 30
0.0
  0
VERTEX
  8
LY_1
  6
CONTINUOUS
 62
    80
  5
3B3
 10
-3.659557
 20
-16.758254
 30
0.0
  0
VERTEX
  8
LY_1
  6
CONTINUOUS
 62
    80
  5
3B4
 10
-3.638756
 20
-16.75194
 30
0.0
  0
VERTEX
  8
LY_1
  6
CONTINUOUS
 62
    80
  5
3B5
 10
-3.618006
 20
-16.745461
 30
0.0
  0
VERTEX
  8
LY_1
  6
CONTINUOUS
 62
    80
  5
3B6
 10
-3.597308
 20
-16.73882
 30
0.0
  0
VERTEX
  8
LY_1
  6
CONTINUOUS
 62
    80
  5
3B7
 10
-3.576663
 20
-16.73202
 30
0.0
  0
VERTEX
  8
LY_1
  6
CONTINUOUS
 62
    80
  5
3B8
 10
-3.556072
 20
-16.725063
 30
0.0
  0
VERTEX
  8
LY_1
  6
CONTINUOUS
 62
    80
  5
3B9
 10
-3.534626
 20
-16.717633
 30
0.0
  0
VERTEX
  8
LY_1
  6
CONTINUOUS
 62
    80
  5
3BA
 10
-3.513239
 20
-16.710037
 30
0.0
  0
VERTEX
  8
LY_1
  6
CONTINUOUS
 62
    80
  5
3BB
 10
-3.49191
 20
-16.70228
 30
0.0
  0
VERTEX
  8
LY_1
  6
CONTINUOUS
 62
    80
  5
3BC
 10
-3.47064
 20
-16.694364
 30
0.0
  0
VERTEX
  8
LY_1
  6
CONTINUOUS
 62
    80
  5
3BD
 10
-3.449428
 20
-16.686295
 30
0.0
  0
VERTEX
  8
LY_1
  6
CONTINUOUS
 62
    80
  5
3BE
 10
-3.428274
 20
-16.678074
 30
0.0
  0
VERTEX
  8
LY_1
  6
CONTINUOUS
 62
    80
  5
3BF
 10
-3.407176
 20
-16.669706
 30
0.0
  0
VERTEX
  8
LY_1
  6
CONTINUOUS
 62
    80
  5
3C0
 10
-3.386135
 20
-16.661195
 30
0.0
  0
VERTEX
  8
LY_1
  6
CONTINUOUS
 62
    80
  5
3C1
 10
-3.36515
 20
-16.652543
 30
0.0
  0
VERTEX
  8
LY_1
  6
CONTINUOUS
 62
    80
  5
3C2
 10
-3.344221
 20
-16.643755
 30
0.0
  0
VERTEX
  8
LY_1
  6
CONTINUOUS
 62
    80
  5
3C3
 10
-3.323347
 20
-16.634834
 30
0.0
  0
VERTEX
  8
LY_1
  6
CONTINUOUS
 62
    80
  5
3C4
 10
-3.302527
 20
-16.625783
 30
0.0
  0
VERTEX
  8
LY_1
  6
CONTINUOUS
 62
    80
  5
3C5
 10
-3.281761
 20
-16.616607
 30
0.0
  0
VERTEX
  8
LY_1
  6
CONTINUOUS
 62
    80
  5
3C6
 10
-3.261049
 20
-16.607308
 30
0.0
  0
VERTEX
  8
LY_1
  6
CONTINUOUS
 62
    80
  5
3C7
 10
-3.240391
 20
-16.597891
 30
0.0
  0
VERTEX
  8
LY_1
  6
CONTINUOUS
 62
    80
  5
3C8
 10
-3.219785
 20
-16.588358
 30
0.0
  0
VERTEX
  8
LY_1
  6
CONTINUOUS
 62
    80
  5
3C9
 10
-3.198493
 20
-16.578364
 30
0.0
  0
VERTEX
  8
LY_1
  6
CONTINUOUS
 62
    80
  5
3CA
 10
-3.177259
 20
-16.568249
 30
0.0
  0
VERTEX
  8
LY_1
  6
CONTINUOUS
 62
    80
  5
3CB
 10
-3.156083
 20
-16.558014
 30
0.0
  0
VERTEX
  8
LY_1
  6
CONTINUOUS
 62
    80
  5
3CC
 10
-3.134967
 20
-16.547657
 30
0.0
  0
VERTEX
  8
LY_1
  6
CONTINUOUS
 62
    80
  5
3CD
 10
-3.113913
 20
-16.537178
 30
0.0
  0
VERTEX
  8
LY_1
  6
CONTINUOUS
 62
    80
  5
3CE
 10
-3.092921
 20
-16.526576
 30
0.0
  0
VERTEX
  8
LY_1
  6
CONTINUOUS
 62
    80
  5
3CF
 10
-3.071994
 20
-16.515851
 30
0.0
  0
VERTEX
  8
LY_1
  6
CONTINUOUS
 62
    80
  5
3D0
 10
-3.051131
 20
-16.505002
 30
0.0
  0
VERTEX
  8
LY_1
  6
CONTINUOUS
 62
    80
  5
3D1
 10
-3.030335
 20
-16.494029
 30
0.0
  0
VERTEX
  8
LY_1
  6
CONTINUOUS
 62
    80
  5
3D2
 10
-3.009607
 20
-16.482931
 30
0.0
  0
VERTEX
  8
LY_1
  6
CONTINUOUS
 62
    80
  5
3D3
 10
-2.988949
 20
-16.471706
 30
0.0
  0
VERTEX
  8
LY_1
  6
CONTINUOUS
 62
    80
  5
3D4
 10
-2.968361
 20
-16.460356
 30
0.0
  0
VERTEX
  8
LY_1
  6
CONTINUOUS
 62
    80
  5
3D5
 10
-2.947844
 20
-16.448879
 30
0.0
  0
VERTEX
  8
LY_1
  6
CONTINUOUS
 62
    80
  5
3D6
 10
-2.927401
 20
-16.437274
 30
0.0
  0
VERTEX
  8
LY_1
  6
CONTINUOUS
 62
    80
  5
3D7
 10
-2.907033
 20
-16.425542
 30
0.0
  0
VERTEX
  8
LY_1
  6
CONTINUOUS
 62
    80
  5
3D8
 10
-2.88674
 20
-16.413681
 30
0.0
  0
SEQEND
  8
LY_1
  6
CONTINUOUS
 62
    80
  5
3D9
  0
POLYLINE
  8
LY_1
  6
CONTINUOUS
 62
    80
  5
54
 66
     1
 10
0.0
 20
0.0
 30
0.0
  0
VERTEX
  8
LY_1
  6
CONTINUOUS
 62
    80
  5
3DA
 10
2.886756
 20
-16.413678
 30
0.0
  0
VERTEX
  8
LY_1
  6
CONTINUOUS
 62
    80
  5
3DB
 10
2.908669
 20
-16.426481
 30
0.0
  0
VERTEX
  8
LY_1
  6
CONTINUOUS
 62
    80
  5
3DC
 10
2.93067
 20
-16.439136
 30
0.0
  0
VERTEX
  8
LY_1
  6
CONTINUOUS
 62
    80
  5
3DD
 10
2.952757
 20
-16.451644
 30
0.0
  0
VERTEX
  8
LY_1
  6
CONTINUOUS
 62
    80
  5
3DE
 10
2.974929
 20
-16.464006
 30
0.0
  0
VERTEX
  8
LY_1
  6
CONTINUOUS
 62
    80
  5
3DF
 10
2.997184
 20
-16.47622
 30
0.0
  0
VERTEX
  8
LY_1
  6
CONTINUOUS
 62
    80
  5
3E0
 10
3.01952
 20
-16.488288
 30
0.0
  0
VERTEX
  8
LY_1
  6
CONTINUOUS
 62
    80
  5
3E1
 10
3.041937
 20
-16.50021
 30
0.0
  0
VERTEX
  8
LY_1
  6
CONTINUOUS
 62
    80
  5
3E2
 10
3.064432
 20
-16.511986
 30
0.0
  0
VERTEX
  8
LY_1
  6
CONTINUOUS
 62
    80
  5
3E3
 10
3.087003
 20
-16.523617
 30
0.0
  0
VERTEX
  8
LY_1
  6
CONTINUOUS
 62
    80
  5
3E4
 10
3.10965
 20
-16.535102
 30
0.0
  0
VERTEX
  8
LY_1
  6
CONTINUOUS
 62
    80
  5
3E5
 10
3.132371
 20
-16.546442
 30
0.0
  0
VERTEX
  8
LY_1
  6
CONTINUOUS
 62
    80
  5
3E6
 10
3.155163
 20
-16.557638
 30
0.0
  0
VERTEX
  8
LY_1
  6
CONTINUOUS
 62
    80
  5
3E7
 10
3.178027
 20
-16.56869
 30
0.0
  0
VERTEX
  8
LY_1
  6
CONTINUOUS
 62
    80
  5
3E8
 10
3.200959
 20
-16.579597
 30
0.0
  0
VERTEX
  8
LY_1
  6
CONTINUOUS
 62
    80
  5
3E9
 10
3.223958
 20
-16.590361
 30
0.0
  0
VERTEX
  8
LY_1
  6
CONTINUOUS
 62
    80
  5
3EA
 10
3.247023
 20
-16.600982
 30
0.0
  0
VERTEX
  8
LY_1
  6
CONTINUOUS
 62
    80
  5
3EB
 10
3.263241
 20
-16.608345
 30
0.0
  0
VERTEX
  8
LY_1
  6
CONTINUOUS
 62
    80
  5
3EC
 10
3.27949
 20
-16.615637
 30
0.0
  0
VERTEX
  8
LY_1
  6
CONTINUOUS
 62
    80
  5
3ED
 10
3.295772
 20
-16.622855
 30
0.0
  0
VERTEX
  8
LY_1
  6
CONTINUOUS
 62
    80
  5
3EE
 10
3.312087
 20
-16.629996
 30
0.0
  0
VERTEX
  8
LY_1
  6
CONTINUOUS
 62
    80
  5
3EF
 10
3.328434
 20
-16.63706
 30
0.0
  0
VERTEX
  8
LY_1
  6
CONTINUOUS
 62
    80
  5
3F0
 10
3.344815
 20
-16.644044
 30
0.0
  0
VERTEX
  8
LY_1
  6
CONTINUOUS
 62
    80
  5
3F1
 10
3.36123
 20
-16.650946
 30
0.0
  0
VERTEX
  8
LY_1
  6
CONTINUOUS
 62
    80
  5
3F2
 10
3.377678
 20
-16.657764
 30
0.0
  0
VERTEX
  8
LY_1
  6
CONTINUOUS
 62
    80
  5
3F3
 10
3.394161
 20
-16.664498
 30
0.0
  0
VERTEX
  8
LY_1
  6
CONTINUOUS
 62
    80
  5
3F4
 10
3.410679
 20
-16.671144
 30
0.0
  0
VERTEX
  8
LY_1
  6
CONTINUOUS
 62
    80
  5
3F5
 10
3.427232
 20
-16.677701
 30
0.0
  0
VERTEX
  8
LY_1
  6
CONTINUOUS
 62
    80
  5
3F6
 10
3.44382
 20
-16.684167
 30
0.0
  0
VERTEX
  8
LY_1
  6
CONTINUOUS
 62
    80
  5
3F7
 10
3.460444
 20
-16.690541
 30
0.0
  0
VERTEX
  8
LY_1
  6
CONTINUOUS
 62
    80
  5
3F8
 10
3.477104
 20
-16.69682
 30
0.0
  0
VERTEX
  8
LY_1
  6
CONTINUOUS
 62
    80
  5
3F9
 10
3.493801
 20
-16.703002
 30
0.0
  0
VERTEX
  8
LY_1
  6
CONTINUOUS
 62
    80
  5
3FA
 10
3.510534
 20
-16.709086
 30
0.0
  0
VERTEX
  8
LY_1
  6
CONTINUOUS
 62
    80
  5
3FB
 10
3.526945
 20
-16.714942
 30
0.0
  0
VERTEX
  8
LY_1
  6
CONTINUOUS
 62
    80
  5
3FC
 10
3.543391
 20
-16.720702
 30
0.0
  0
VERTEX
  8
LY_1
  6
CONTINUOUS
 62
    80
  5
3FD
 10
3.559873
 20
-16.726363
 30
0.0
  0
VERTEX
  8
LY_1
  6
CONTINUOUS
 62
    80
  5
3FE
 10
3.576388
 20
-16.731924
 30
0.0
  0
VERTEX
  8
LY_1
  6
CONTINUOUS
 62
    80
  5
3FF
 10
3.592938
 20
-16.737385
 30
0.0
  0
VERTEX
  8
LY_1
  6
CONTINUOUS
 62
    80
  5
400
 10
3.609521
 20
-16.742744
 30
0.0
  0
VERTEX
  8
LY_1
  6
CONTINUOUS
 62
    80
  5
401
 10
3.626137
 20
-16.748
 30
0.0
  0
VERTEX
  8
LY_1
  6
CONTINUOUS
 62
    80
  5
402
 10
3.642786
 20
-16.753152
 30
0.0
  0
VERTEX
  8
LY_1
  6
CONTINUOUS
 62
    80
  5
403
 10
3.659468
 20
-16.758198
 30
0.0
  0
VERTEX
  8
LY_1
  6
CONTINUOUS
 62
    80
  5
404
 10
3.676181
 20
-16.763138
 30
0.0
  0
VERTEX
  8
LY_1
  6
CONTINUOUS
 62
    80
  5
405
 10
3.692926
 20
-16.76797
 30
0.0
  0
VERTEX
  8
LY_1
  6
CONTINUOUS
 62
    80
  5
406
 10
3.709703
 20
-16.772693
 30
0.0
  0
VERTEX
  8
LY_1
  6
CONTINUOUS
 62
    80
  5
407
 10
3.72651
 20
-16.777306
 30
0.0
  0
VERTEX
  8
LY_1
  6
CONTINUOUS
 62
    80
  5
408
 10
3.743347
 20
-16.781808
 30
0.0
  0
VERTEX
  8
LY_1
  6
CONTINUOUS
 62
    80
  5
409
 10
3.760214
 20
-16.786198
 30
0.0
  0
VERTEX
  8
LY_1
  6
CONTINUOUS
 62
    80
  5
40A
 10
3.777111
 20
-16.790474
 30
0.0
  0
VERTEX
  8
LY_1
  6
CONTINUOUS
 62
    80
  5
40B
 10
3.793855
 20
-16.794591
 30
0.0
  0
VERTEX
  8
LY_1
  6
CONTINUOUS
 62
    80
  5
40C
 10
3.810626
 20
-16.798594
 30
0.0
  0
VERTEX
  8
LY_1
  6
CONTINUOUS
 62
    80
  5
40D
 10
3.827425
 20
-16.802482
 30
0.0
  0
VERTEX
  8
LY_1
  6
CONTINUOUS
 62
    80
  5
40E
 10
3.84425
 20
-16.806254
 30
0.0
  0
VERTEX
  8
LY_1
  6
CONTINUOUS
 62
    80
  5
40F
 10
3.861101
 20
-16.809908
 30
0.0
  0
VERTEX
  8
LY_1
  6
CONTINUOUS
 62
    80
  5
410
 10
3.877978
 20
-16.813443
 30
0.0
  0
VERTEX
  8
LY_1
  6
CONTINUOUS
 62
    80
  5
411
 10
3.894879
 20
-16.816857
 30
0.0
  0
VERTEX
  8
LY_1
  6
CONTINUOUS
 62
    80
  5
412
 10
3.911804
 20
-16.820149
 30
0.0
  0
VERTEX
  8
LY_1
  6
CONTINUOUS
 62
    80
  5
413
 10
3.928753
 20
-16.823318
 30
0.0
  0
VERTEX
  8
LY_1
  6
CONTINUOUS
 62
    80
  5
414
 10
3.945724
 20
-16.826363
 30
0.0
  0
VERTEX
  8
LY_1
  6
CONTINUOUS
 62
    80
  5
415
 10
3.962717
 20
-16.829281
 30
0.0
  0
VERTEX
  8
LY_1
  6
CONTINUOUS
 62
    80
  5
416
 10
3.979732
 20
-16.832072
 30
0.0
  0
VERTEX
  8
LY_1
  6
CONTINUOUS
 62
    80
  5
417
 10
3.996767
 20
-16.834734
 30
0.0
  0
VERTEX
  8
LY_1
  6
CONTINUOUS
 62
    80
  5
418
 10
4.013823
 20
-16.837266
 30
0.0
  0
VERTEX
  8
LY_1
  6
CONTINUOUS
 62
    80
  5
419
 10
4.030898
 20
-16.839666
 30
0.0
  0
VERTEX
  8
LY_1
  6
CONTINUOUS
 62
    80
  5
41A
 10
4.047991
 20
-16.841933
 30
0.0
  0
VERTEX
  8
LY_1
  6
CONTINUOUS
 62
    80
  5
41B
 10
4.064969
 20
-16.84405
 30
0.0
  0
VERTEX
  8
LY_1
  6
CONTINUOUS
 62
    80
  5
41C
 10
4.081963
 20
-16.846036
 30
0.0
  0
VERTEX
  8
LY_1
  6
CONTINUOUS
 62
    80
  5
41D
 10
4.098972
 20
-16.847889
 30
0.0
  0
VERTEX
  8
LY_1
  6
CONTINUOUS
 62
    80
  5
41E
 10
4.115996
 20
-16.849612
 30
0.0
  0
VERTEX
  8
LY_1
  6
CONTINUOUS
 62
    80
  5
41F
 10
4.133033
 20
-16.851205
 30
0.0
  0
VERTEX
  8
LY_1
  6
CONTINUOUS
 62
    80
  5
420
 10
4.150081
 20
-16.852667
 30
0.0
  0
VERTEX
  8
LY_1
  6
CONTINUOUS
 62
    80
  5
421
 10
4.16714
 20
-16.854
 30
0.0
  0
VERTEX
  8
LY_1
  6
CONTINUOUS
 62
    80
  5
422
 10
4.184208
 20
-16.855204
 30
0.0
  0
VERTEX
  8
LY_1
  6
CONTINUOUS
 62
    80
  5
423
 10
4.201284
 20
-16.856279
 30
0.0
  0
VERTEX
  8
LY_1
  6
CONTINUOUS
 62
    80
  5
424
 10
4.218367
 20
-16.857226
 30
0.0
  0
VERTEX
  8
LY_1
  6
CONTINUOUS
 62
    80
  5
425
 10
4.235456
 20
-16.858045
 30
0.0
  0
VERTEX
  8
LY_1
  6
CONTINUOUS
 62
    80
  5
426
 10
4.252549
 20
-16.858737
 30
0.0
  0
VERTEX
  8
LY_1
  6
CONTINUOUS
 62
    80
  5
427
 10
4.269645
 20
-16.859302
 30
0.0
  0
VERTEX
  8
LY_1
  6
CONTINUOUS
 62
    80
  5
428
 10
4.286742
 20
-16.85974
 30
0.0
  0
VERTEX
  8
LY_1
  6
CONTINUOUS
 62
    80
  5
429
 10
4.303841
 20
-16.860052
 30
0.0
  0
VERTEX
  8
LY_1
  6
CONTINUOUS
 62
    80
  5
42A
 10
4.320939
 20
-16.860239
 30
0.0
  0
SEQEND
  8
LY_1
  6
CONTINUOUS
 62
    80
  5
42B
  0
POLYLINE
  8
LY_1
  6
CONTINUOUS
 62
    80
  5
55
 66
     1
 10
0.0
 20
0.0
 30
0.0
  0
VERTEX
  8
LY_1
  6
CONTINUOUS
 62
    80
  5
42C
 10
-2.88674
 20
-16.413681
 30
0.0
  0
VERTEX
  8
LY_1
  6
CONTINUOUS
 62
    80
  5
42D
 10
-2.843533
 20
-16.42624
 30
0.0
  0
VERTEX
  8
LY_1
  6
CONTINUOUS
 62
    80
  5
42E
 10
-2.800278
 20
-16.438636
 30
0.0
  0
VERTEX
  8
LY_1
  6
CONTINUOUS
 62
    80
  5
42F
 10
-2.756976
 20
-16.45087
 30
0.0
  0
VERTEX
  8
LY_1
  6
CONTINUOUS
 62
    80
  5
430
 10
-2.713628
 20
-16.462943
 30
0.0
  0
VERTEX
  8
LY_1
  6
CONTINUOUS
 62
    80
  5
431
 10
-2.670234
 20
-16.474855
 30
0.0
  0
VERTEX
  8
LY_1
  6
CONTINUOUS
 62
    80
  5
432
 10
-2.626796
 20
-16.486607
 30
0.0
  0
VERTEX
  8
LY_1
  6
CONTINUOUS
 62
    80
  5
433
 10
-2.583314
 20
-16.498199
 30
0.0
  0
VERTEX
  8
LY_1
  6
CONTINUOUS
 62
    80
  5
434
 10
-2.539789
 20
-16.509632
 30
0.0
  0
VERTEX
  8
LY_1
  6
CONTINUOUS
 62
    80
  5
435
 10
-2.496222
 20
-16.520908
 30
0.0
  0
VERTEX
  8
LY_1
  6
CONTINUOUS
 62
    80
  5
436
 10
-2.452614
 20
-16.532026
 30
0.0
  0
VERTEX
  8
LY_1
  6
CONTINUOUS
 62
    80
  5
437
 10
-2.408966
 20
-16.542987
 30
0.0
  0
VERTEX
  8
LY_1
  6
CONTINUOUS
 62
    80
  5
438
 10
-2.365279
 20
-16.553792
 30
0.0
  0
VERTEX
  8
LY_1
  6
CONTINUOUS
 62
    80
  5
439
 10
-2.321552
 20
-16.564441
 30
0.0
  0
VERTEX
  8
LY_1
  6
CONTINUOUS
 62
    80
  5
43A
 10
-2.277788
 20
-16.574936
 30
0.0
  0
VERTEX
  8
LY_1
  6
CONTINUOUS
 62
    80
  5
43B
 10
-2.233988
 20
-16.585276
 30
0.0
  0
VERTEX
  8
LY_1
  6
CONTINUOUS
 62
    80
  5
43C
 10
-2.190151
 20
-16.595463
 30
0.0
  0
VERTEX
  8
LY_1
  6
CONTINUOUS
 62
    80
  5
43D
 10
-2.146134
 20
-16.60553
 30
0.0
  0
VERTEX
  8
LY_1
  6
CONTINUOUS
 62
    80
  5
43E
 10
-2.102082
 20
-16.61544
 30
0.0
  0
VERTEX
  8
LY_1
  6
CONTINUOUS
 62
    80
  5
43F
 10
-2.057995
 20
-16.62519
 30
0.0
  0
VERTEX
  8
LY_1
  6
CONTINUOUS
 62
    80
  5
440
 10
-2.013873
 20
-16.634778
 30
0.0
  0
VERTEX
  8
LY_1
  6
CONTINUOUS
 62
    80
  5
441
 10
-1.969715
 20
-16.644202
 30
0.0
  0
VERTEX
  8
LY_1
  6
CONTINUOUS
 62
    80
  5
442
 10
-1.925523
 20
-16.653457
 30
0.0
  0
VERTEX
  8
LY_1
  6
CONTINUOUS
 62
    80
  5
443
 10
-1.881296
 20
-16.662542
 30
0.0
  0
VERTEX
  8
LY_1
  6
CONTINUOUS
 62
    80
  5
444
 10
-1.837034
 20
-16.671454
 30
0.0
  0
VERTEX
  8
LY_1
  6
CONTINUOUS
 62
    80
  5
445
 10
-1.792738
 20
-16.68019
 30
0.0
  0
VERTEX
  8
LY_1
  6
CONTINUOUS
 62
    80
  5
446
 10
-1.748407
 20
-16.688746
 30
0.0
  0
VERTEX
  8
LY_1
  6
CONTINUOUS
 62
    80
  5
447
 10
-1.704042
 20
-16.697121
 30
0.0
  0
VERTEX
  8
LY_1
  6
CONTINUOUS
 62
    80
  5
448
 10
-1.659643
 20
-16.705312
 30
0.0
  0
VERTEX
  8
LY_1
  6
CONTINUOUS
 62
    80
  5
449
 10
-1.615209
 20
-16.713315
 30
0.0
  0
VERTEX
  8
LY_1
  6
CONTINUOUS
 62
    80
  5
44A
 10
-1.570742
 20
-16.721128
 30
0.0
  0
VERTEX
  8
LY_1
  6
CONTINUOUS
 62
    80
  5
44B
 10
-1.52624
 20
-16.728748
 30
0.0
  0
VERTEX
  8
LY_1
  6
CONTINUOUS
 62
    80
  5
44C
 10
-1.481705
 20
-16.736173
 30
0.0
  0
VERTEX
  8
LY_1
  6
CONTINUOUS
 62
    80
  5
44D
 10
-1.436532
 20
-16.743496
 30
0.0
  0
VERTEX
  8
LY_1
  6
CONTINUOUS
 62
    80
  5
44E
 10
-1.391325
 20
-16.750613
 30
0.0
  0
VERTEX
  8
LY_1
  6
CONTINUOUS
 62
    80
  5
44F
 10
-1.346085
 20
-16.757522
 30
0.0
  0
VERTEX
  8
LY_1
  6
CONTINUOUS
 62
    80
  5
450
 10
-1.300813
 20
-16.764221
 30
0.0
  0
VERTEX
  8
LY_1
  6
CONTINUOUS
 62
    80
  5
451
 10
-1.25551
 20
-16.770708
 30
0.0
  0
VERTEX
  8
LY_1
  6
CONTINUOUS
 62
    80
  5
452
 10
-1.210176
 20
-16.776981
 30
0.0
  0
VERTEX
  8
LY_1
  6
CONTINUOUS
 62
    80
  5
453
 10
-1.164813
 20
-16.783039
 30
0.0
  0
VERTEX
  8
LY_1
  6
CONTINUOUS
 62
    80
  5
454
 10
-1.119421
 20
-16.788878
 30
0.0
  0
VERTEX
  8
LY_1
  6
CONTINUOUS
 62
    80
  5
455
 10
-1.074001
 20
-16.794498
 30
0.0
  0
VERTEX
  8
LY_1
  6
CONTINUOUS
 62
    80
  5
456
 10
-1.028554
 20
-16.799895
 30
0.0
  0
VERTEX
  8
LY_1
  6
CONTINUOUS
 62
    80
  5
457
 10
-0.983081
 20
-16.805069
 30
0.0
  0
VERTEX
  8
LY_1
  6
CONTINUOUS
 62
    80
  5
458
 10
-0.937583
 20
-16.810016
 30
0.0
  0
VERTEX
  8
LY_1
  6
CONTINUOUS
 62
    80
  5
459
 10
-0.89206
 20
-16.814735
 30
0.0
  0
VERTEX
  8
LY_1
  6
CONTINUOUS
 62
    80
  5
45A
 10
-0.846514
 20
-16.819225
 30
0.0
  0
VERTEX
  8
LY_1
  6
CONTINUOUS
 62
    80
  5
45B
 10
-0.800944
 20
-16.823482
 30
0.0
  0
VERTEX
  8
LY_1
  6
CONTINUOUS
 62
    80
  5
45C
 10
-0.755353
 20
-16.827505
 30
0.0
  0
VERTEX
  8
LY_1
  6
CONTINUOUS
 62
    80
  5
45D
 10
-0.709453
 20
-16.831316
 30
0.0
  0
VERTEX
  8
LY_1
  6
CONTINUOUS
 62
    80
  5
45E
 10
-0.663533
 20
-16.834888
 30
0.0
  0
VERTEX
  8
LY_1
  6
CONTINUOUS
 62
    80
  5
45F
 10
-0.617595
 20
-16.838222
 30
0.0
  0
VERTEX
  8
LY_1
  6
CONTINUOUS
 62
    80
  5
460
 10
-0.571639
 20
-16.841319
 30
0.0
  0
VERTEX
  8
LY_1
  6
CONTINUOUS
 62
    80
  5
461
 10
-0.525668
 20
-16.84418
 30
0.0
  0
VERTEX
  8
LY_1
  6
CONTINUOUS
 62
    80
  5
462
 10
-0.479683
 20
-16.846805
 30
0.0
  0
VERTEX
  8
LY_1
  6
CONTINUOUS
 62
    80
  5
463
 10
-0.433686
 20
-16.849196
 30
0.0
  0
VERTEX
  8
LY_1
  6
CONTINUOUS
 62
    80
  5
464
 10
-0.387677
 20
-16.851351
 30
0.0
  0
VERTEX
  8
LY_1
  6
CONTINUOUS
 62
    80
  5
465
 10
-0.341659
 20
-16.853273
 30
0.0
  0
VERTEX
  8
LY_1
  6
CONTINUOUS
 62
    80
  5
466
 10
-0.295633
 20
-16.854962
 30
0.0
  0
VERTEX
  8
LY_1
  6
CONTINUOUS
 62
    80
  5
467
 10
-0.249601
 20
-16.856419
 30
0.0
  0
VERTEX
  8
LY_1
  6
CONTINUOUS
 62
    80
  5
468
 10
-0.203563
 20
-16.857643
 30
0.0
  0
VERTEX
  8
LY_1
  6
CONTINUOUS
 62
    80
  5
469
 10
-0.157521
 20
-16.858637
 30
0.0
  0
VERTEX
  8
LY_1
  6
CONTINUOUS
 62
    80
  5
46A
 10
-0.111477
 20
-16.859401
 30
0.0
  0
VERTEX
  8
LY_1
  6
CONTINUOUS
 62
    80
  5
46B
 10
-0.065433
 20
-16.859934
 30
0.0
  0
VERTEX
  8
LY_1
  6
CONTINUOUS
 62
    80
  5
46C
 10
-0.019389
 20
-16.860239
 30
0.0
  0
SEQEND
  8
LY_1
  6
CONTINUOUS
 62
    80
  5
46D
  0
POLYLINE
  8
LY_1
  6
CONTINUOUS
 62
    80
  5
56
 66
     1
 10
0.0
 20
0.0
 30
0.0
  0
VERTEX
  8
LY_1
  6
CONTINUOUS
 62
    80
  5
46E
 10
0.019395
 20
-16.860239
 30
0.0
  0
VERTEX
  8
LY_1
  6
CONTINUOUS
 62
    80
  5
46F
 10
0.031009
 20
-16.860204
 30
0.0
  0
VERTEX
  8
LY_1
  6
CONTINUOUS
 62
    80
  5
470
 10
0.042624
 20
-16.860153
 30
0.0
  0
VERTEX
  8
LY_1
  6
CONTINUOUS
 62
    80
  5
471
 10
0.054238
 20
-16.860087
 30
0.0
  0
VERTEX
  8
LY_1
  6
CONTINUOUS
 62
    80
  5
472
 10
0.065852
 20
-16.860006
 30
0.0
  0
VERTEX
  8
LY_1
  6
CONTINUOUS
 62
    80
  5
473
 10
0.077466
 20
-16.85991
 30
0.0
  0
VERTEX
  8
LY_1
  6
CONTINUOUS
 62
    80
  5
474
 10
0.08908
 20
-16.859798
 30
0.0
  0
VERTEX
  8
LY_1
  6
CONTINUOUS
 62
    80
  5
475
 10
0.100694
 20
-16.859671
 30
0.0
  0
VERTEX
  8
LY_1
  6
CONTINUOUS
 62
    80
  5
476
 10
0.112308
 20
-16.859529
 30
0.0
  0
VERTEX
  8
LY_1
  6
CONTINUOUS
 62
    80
  5
477
 10
0.123921
 20
-16.859371
 30
0.0
  0
VERTEX
  8
LY_1
  6
CONTINUOUS
 62
    80
  5
478
 10
0.135535
 20
-16.859197
 30
0.0
  0
VERTEX
  8
LY_1
  6
CONTINUOUS
 62
    80
  5
479
 10
0.147148
 20
-16.859008
 30
0.0
  0
VERTEX
  8
LY_1
  6
CONTINUOUS
 62
    80
  5
47A
 10
0.158761
 20
-16.858804
 30
0.0
  0
VERTEX
  8
LY_1
  6
CONTINUOUS
 62
    80
  5
47B
 10
0.170374
 20
-16.858584
 30
0.0
  0
VERTEX
  8
LY_1
  6
CONTINUOUS
 62
    80
  5
47C
 10
0.181986
 20
-16.858348
 30
0.0
  0
VERTEX
  8
LY_1
  6
CONTINUOUS
 62
    80
  5
47D
 10
0.193599
 20
-16.858097
 30
0.0
  0
VERTEX
  8
LY_1
  6
CONTINUOUS
 62
    80
  5
47E
 10
0.205211
 20
-16.85783
 30
0.0
  0
VERTEX
  8
LY_1
  6
CONTINUOUS
 62
    80
  5
47F
 10
0.247282
 20
-16.856733
 30
0.0
  0
VERTEX
  8
LY_1
  6
CONTINUOUS
 62
    80
  5
480
 10
0.289349
 20
-16.85543
 30
0.0
  0
VERTEX
  8
LY_1
  6
CONTINUOUS
 62
    80
  5
481
 10
0.331411
 20
-16.853923
 30
0.0
  0
VERTEX
  8
LY_1
  6
CONTINUOUS
 62
    80
  5
482
 10
0.373465
 20
-16.852214
 30
0.0
  0
VERTEX
  8
LY_1
  6
CONTINUOUS
 62
    80
  5
483
 10
0.415513
 20
-16.850302
 30
0.0
  0
VERTEX
  8
LY_1
  6
CONTINUOUS
 62
    80
  5
484
 10
0.457551
 20
-16.848188
 30
0.0
  0
VERTEX
  8
LY_1
  6
CONTINUOUS
 62
    80
  5
485
 10
0.499581
 20
-16.845874
 30
0.0
  0
VERTEX
  8
LY_1
  6
CONTINUOUS
 62
    80
  5
486
 10
0.541599
 20
-16.843361
 30
0.0
  0
VERTEX
  8
LY_1
  6
CONTINUOUS
 62
    80
  5
487
 10
0.583606
 20
-16.840648
 30
0.0
  0
VERTEX
  8
LY_1
  6
CONTINUOUS
 62
    80
  5
488
 10
0.6256
 20
-16.837738
 30
0.0
  0
VERTEX
  8
LY_1
  6
CONTINUOUS
 62
    80
  5
489
 10
0.66758
 20
-16.834631
 30
0.0
  0
VERTEX
  8
LY_1
  6
CONTINUOUS
 62
    80
  5
48A
 10
0.709546
 20
-16.831327
 30
0.0
  0
VERTEX
  8
LY_1
  6
CONTINUOUS
 62
    80
  5
48B
 10
0.751495
 20
-16.827828
 30
0.0
  0
VERTEX
  8
LY_1
  6
CONTINUOUS
 62
    80
  5
48C
 10
0.793428
 20
-16.824135
 30
0.0
  0
VERTEX
  8
LY_1
  6
CONTINUOUS
 62
    80
  5
48D
 10
0.835343
 20
-16.820248
 30
0.0
  0
VERTEX
  8
LY_1
  6
CONTINUOUS
 62
    80
  5
48E
 10
0.87724
 20
-16.816168
 30
0.0
  0
VERTEX
  8
LY_1
  6
CONTINUOUS
 62
    80
  5
48F
 10
0.919346
 20
-16.811872
 30
0.0
  0
VERTEX
  8
LY_1
  6
CONTINUOUS
 62
    80
  5
490
 10
0.961432
 20
-16.807383
 30
0.0
  0
VERTEX
  8
LY_1
  6
CONTINUOUS
 62
    80
  5
491
 10
1.003496
 20
-16.802704
 30
0.0
  0
VERTEX
  8
LY_1
  6
CONTINUOUS
 62
    80
  5
492
 10
1.045538
 20
-16.797834
 30
0.0
  0
VERTEX
  8
LY_1
  6
CONTINUOUS
 62
    80
  5
493
 10
1.087558
 20
-16.792775
 30
0.0
  0
VERTEX
  8
LY_1
  6
CONTINUOUS
 62
    80
  5
494
 10
1.129554
 20
-16.787529
 30
0.0
  0
VERTEX
  8
LY_1
  6
CONTINUOUS
 62
    80
  5
495
 10
1.171527
 20
-16.782098
 30
0.0
  0
VERTEX
  8
LY_1
  6
CONTINUOUS
 62
    80
  5
496
 10
1.213474
 20
-16.776481
 30
0.0
  0
VERTEX
  8
LY_1
  6
CONTINUOUS
 62
    80
  5
497
 10
1.255397
 20
-16.770681
 30
0.0
  0
VERTEX
  8
LY_1
  6
CONTINUOUS
 62
    80
  5
498
 10
1.297294
 20
-16.764699
 30
0.0
  0
VERTEX
  8
LY_1
  6
CONTINUOUS
 62
    80
  5
499
 10
1.339164
 20
-16.758536
 30
0.0
  0
VERTEX
  8
LY_1
  6
CONTINUOUS
 62
    80
  5
49A
 10
1.381008
 20
-16.752194
 30
0.0
  0
VERTEX
  8
LY_1
  6
CONTINUOUS
 62
    80
  5
49B
 10
1.422824
 20
-16.745674
 30
0.0
  0
VERTEX
  8
LY_1
  6
CONTINUOUS
 62
    80
  5
49C
 10
1.464611
 20
-16.738977
 30
0.0
  0
VERTEX
  8
LY_1
  6
CONTINUOUS
 62
    80
  5
49D
 10
1.506369
 20
-16.732105
 30
0.0
  0
VERTEX
  8
LY_1
  6
CONTINUOUS
 62
    80
  5
49E
 10
1.548098
 20
-16.725059
 30
0.0
  0
VERTEX
  8
LY_1
  6
CONTINUOUS
 62
    80
  5
49F
 10
1.59037
 20
-16.71774
 30
0.0
  0
VERTEX
  8
LY_1
  6
CONTINUOUS
 62
    80
  5
4A0
 10
1.63261
 20
-16.710246
 30
0.0
  0
VERTEX
  8
LY_1
  6
CONTINUOUS
 62
    80
  5
4A1
 10
1.674819
 20
-16.702579
 30
0.0
  0
VERTEX
  8
LY_1
  6
CONTINUOUS
 62
    80
  5
4A2
 10
1.716997
 20
-16.694743
 30
0.0
  0
VERTEX
  8
LY_1
  6
CONTINUOUS
 62
    80
  5
4A3
 10
1.759144
 20
-16.686739
 30
0.0
  0
VERTEX
  8
LY_1
  6
CONTINUOUS
 62
    80
  5
4A4
 10
1.801259
 20
-16.67857
 30
0.0
  0
VERTEX
  8
LY_1
  6
CONTINUOUS
 62
    80
  5
4A5
 10
1.843343
 20
-16.670238
 30
0.0
  0
VERTEX
  8
LY_1
  6
CONTINUOUS
 62
    80
  5
4A6
 10
1.885395
 20
-16.661747
 30
0.0
  0
VERTEX
  8
LY_1
  6
CONTINUOUS
 62
    80
  5
4A7
 10
1.927416
 20
-16.653098
 30
0.0
  0
VERTEX
  8
LY_1
  6
CONTINUOUS
 62
    80
  5
4A8
 10
1.969404
 20
-16.644294
 30
0.0
  0
VERTEX
  8
LY_1
  6
CONTINUOUS
 62
    80
  5
4A9
 10
2.011362
 20
-16.635337
 30
0.0
  0
VERTEX
  8
LY_1
  6
CONTINUOUS
 62
    80
  5
4AA
 10
2.053287
 20
-16.62623
 30
0.0
  0
VERTEX
  8
LY_1
  6
CONTINUOUS
 62
    80
  5
4AB
 10
2.095181
 20
-16.616976
 30
0.0
  0
VERTEX
  8
LY_1
  6
CONTINUOUS
 62
    80
  5
4AC
 10
2.137042
 20
-16.607577
 30
0.0
  0
VERTEX
  8
LY_1
  6
CONTINUOUS
 62
    80
  5
4AD
 10
2.178872
 20
-16.598036
 30
0.0
  0
VERTEX
  8
LY_1
  6
CONTINUOUS
 62
    80
  5
4AE
 10
2.220669
 20
-16.588354
 30
0.0
  0
VERTEX
  8
LY_1
  6
CONTINUOUS
 62
    80
  5
4AF
 10
2.262574
 20
-16.578501
 30
0.0
  0
VERTEX
  8
LY_1
  6
CONTINUOUS
 62
    80
  5
4B0
 10
2.304445
 20
-16.568509
 30
0.0
  0
VERTEX
  8
LY_1
  6
CONTINUOUS
 62
    80
  5
4B1
 10
2.346282
 20
-16.558378
 30
0.0
  0
VERTEX
  8
LY_1
  6
CONTINUOUS
 62
    80
  5
4B2
 10
2.388085
 20
-16.548106
 30
0.0
  0
VERTEX
  8
LY_1
  6
CONTINUOUS
 62
    80
  5
4B3
 10
2.429853
 20
-16.537694
 30
0.0
  0
VERTEX
  8
LY_1
  6
CONTINUOUS
 62
    80
  5
4B4
 10
2.471584
 20
-16.527139
 30
0.0
  0
VERTEX
  8
LY_1
  6
CONTINUOUS
 62
    80
  5
4B5
 10
2.513279
 20
-16.516443
 30
0.0
  0
VERTEX
  8
LY_1
  6
CONTINUOUS
 62
    80
  5
4B6
 10
2.554936
 20
-16.505604
 30
0.0
  0
VERTEX
  8
LY_1
  6
CONTINUOUS
 62
    80
  5
4B7
 10
2.596556
 20
-16.494621
 30
0.0
  0
VERTEX
  8
LY_1
  6
CONTINUOUS
 62
    80
  5
4B8
 10
2.638136
 20
-16.483495
 30
0.0
  0
VERTEX
  8
LY_1
  6
CONTINUOUS
 62
    80
  5
4B9
 10
2.679676
 20
-16.472224
 30
0.0
  0
VERTEX
  8
LY_1
  6
CONTINUOUS
 62
    80
  5
4BA
 10
2.721176
 20
-16.460807
 30
0.0
  0
VERTEX
  8
LY_1
  6
CONTINUOUS
 62
    80
  5
4BB
 10
2.762635
 20
-16.449245
 30
0.0
  0
VERTEX
  8
LY_1
  6
CONTINUOUS
 62
    80
  5
4BC
 10
2.804051
 20
-16.437537
 30
0.0
  0
VERTEX
  8
LY_1
  6
CONTINUOUS
 62
    80
  5
4BD
 10
2.845426
 20
-16.425681
 30
0.0
  0
VERTEX
  8
LY_1
  6
CONTINUOUS
 62
    80
  5
4BE
 10
2.886756
 20
-16.413678
 30
0.0
  0
SEQEND
  8
LY_1
  6
CONTINUOUS
 62
    80
  5
4BF
  0
LINE
  8
LY_1
  6
CONTINUOUS
 62
     3
  5
57
 10
5.773511
 20
-11.5
 30
0.0
 11
-5.773494
 21
-11.5
 31
0.0
  0
LINE
  8
LY_1
  6
CONTINUOUS
 62
     3
  5
58
 10
-5.000031
 20
-16.860239
 30
0.0
 11
-5.7735
 21
-16.413676
 31
0.0
  0
LINE
  8
LY_1
  6
CONTINUOUS
 62
     3
  5
59
 10
-5.000031
 20
-16.860239
 30
0.0
 11
-4.340524
 21
-16.860239
 31
0.0
  0
LINE
  8
LY_1
  6
CONTINUOUS
 62
     3
  5
5A
 10
4.339321
 20
-16.860239
 30
0.0
 11
5.000037
 21
-16.860239
 31
0.0
  0
LINE
  8
LY_1
  6
CONTINUOUS
 62
     3
  5
5B
 10
5.773506
 20
-16.413676
 30
0.0
 11
5.000037
 21
-16.860239
 31
0.0
  0
LINE
  8
LY_1
  6
CONTINUOUS
 62
     3
  5
5C
 10
4.320939
 20
-16.860239
 30
0.0
 11
4.339321
 21
-16.860239
 31
0.0
  0
LINE
  8
LY_1
  6
CONTINUOUS
 62
     3
  5
5D
 10
5.773511
 20
-11.5
 30
0.0
 11
5.773511
 21
-16.413673
 31
0.0
  0
LINE
  8
LY_1
  6
CONTINUOUS
 62
     3
  5
5E
 10
-4.340524
 20
-16.860239
 30
0.0
 11
-4.319708
 21
-16.860239
 31
0.0
  0
LINE
  8
LY_1
  6
CONTINUOUS
 62
     3
  5
5F
 10
-5.773494
 20
-11.5
 30
0.0
 11
-5.773494
 21
-16.41368
 31
0.0
  0
LINE
  8
LY_1
  6
CONTINUOUS
 62
     3
  5
60
 10
-4.319708
 20
-16.860239
 30
0.0
 11
-0.019389
 21
-16.860239
 31
0.0
  0
LINE
  8
LY_1
  6
CONTINUOUS
 62
     3
  5
61
 10
0.019395
 20
-16.860239
 30
0.0
 11
4.320939
 21
-16.860239
 31
0.0
  0
LINE
  8
LY_1
  6
CONTINUOUS
 62
    80
  5
62
 10
-2.88674
 20
-11.5
 30
0.0
 11
-2.88674
 21
-16.413681
 31
0.0
  0
LINE
  8
LY_1
  6
CONTINUOUS
 62
    80
  5
63
 10
2.886756
 20
-11.5
 30
0.0
 11
2.886756
 21
-16.413678
 31
0.0
  0
LINE
  8
LY_1
  6
CONTINUOUS
 62
     3
  5
64
 10
-0.019389
 20
-16.860239
 30
0.0
 11
0.019395
 21
-16.860239
 31
0.0
  0
LINE
  8
LY_1
  6
CONTINUOUS
 62
     3
  5
65
 10
-5.699992
 20
-10.0
 30
0.0
 11
5.700008
 21
-10.0
 31
0.0
  0
LINE
  8
LY_1
  6
CONTINUOUS
 62
     3
  5
66
 10
-6.499992
 20
-11.5
 30
0.0
 11
-6.499992
 21
-10.0
 31
0.0
  0
LINE
  8
LY_1
  6
CONTINUOUS
 62
     3
  5
67
 10
6.500008
 20
-10.0
 30
0.0
 11
6.500008
 21
-11.5
 31
0.0
  0
LINE
  8
LY_1
  6
CONTINUOUS
 62
     3
  5
68
 10
6.500008
 20
-10.0
 30
0.0
 11
-6.499992
 21
-10.0
 31
0.0
  0
LINE
  8
LY_1
  6
CONTINUOUS
 62
     3
  5
69
 10
6.500008
 20
-11.5
 30
0.0
 11
-6.499992
 21
-11.5
 31
0.0
  0
LINE
  8
LY_1
  6
CONTINUOUS
 62
     3
  5
6A
 10
-9.999992
 20
-10.0
 30
0.0
 11
10.000008
 21
-10.0
 31
0.0
  0
LINE
  8
LY_1
  6
CONTINUOUS
 62
     3
  5
6B
 10
-9.999992
 20
-10.0
 30
0.0
 11
-9.999992
 21
0.0
 31
0.0
  0
LINE
  8
LY_1
  6
CONTINUOUS
 62
     3
  5
6C
 10
10.000008
 20
0.0
 30
0.0
 11
10.000008
 21
-10.0
 31
0.0
  0
LINE
  8
LY_1
  6
CONTINUOUS
 62
     3
  5
6D
 10
-3.0
 20
-23.890757
 30
0.0
 11
-3.0
 21
-16.860239
 31
0.0
  0
LINE
  8
LY_1
  6
CONTINUOUS
 62
     3
  5
6E
 10
3.0
 20
-16.860239
 30
0.0
 11
3.0
 21
-23.890757
 31
0.0
  0
LINE
  8
LY_1
  6
CONTINUOUS
 62
     3
  5
6F
 10
2.5
 20
-24.390757
 30
0.0
 11
-2.5
 21
-24.390757
 31
0.0
  0
CIRCLE
  8
LY_1
  6
CONTINUOUS
 62
     3
  5
70
 10
30.310889
 20
-132.5
 30
0.0
 40
6.5
  0
CIRCLE
  8
LY_1
  6
CONTINUOUS
 62
     3
  5
71
 10
30.310892
 20
-132.499995
 30
0.0
 40
6.499989
  0
ARC
  8
LY_1
  6
CONTINUOUS
 62
     3
  5
72
 10
30.310889
 20
-132.5
 30
0.0
 40
5.000034
 50
60.210645
 51
119.777783
  0
ARC
  8
LY_1
  6
CONTINUOUS
 62
     3
  5
73
 10
30.310889
 20
-132.5
 30
0.0
 40
5.000034
 50
240.210645
 51
299.801601
  0
ARC
  8
LY_1
  6
CONTINUOUS
 62
     3
  5
74
 10
30.310889
 20
-132.5
 30
0.0
 40
5.000034
 50
180.238525
 51
239.789355
  0
ARC
  8
LY_1
  6
CONTINUOUS
 62
     3
  5
75
 10
30.310889
 20
-132.5
 30
0.0
 40
5.000034
 50
120.222216
 51
179.761476
  0
ARC
  8
LY_1
  6
CONTINUOUS
 62
     3
  5
76
 10
30.310889
 20
-132.5
 30
0.0
 40
5.000034
 50
300.198398
 51
359.821539
  0
ARC
  8
LY_1
  6
CONTINUOUS
 62
     3
  5
77
 10
30.310889
 20
-132.5
 30
0.0
 40
5.000034
 50
0.178461
 51
59.789355
  0
LINE
  8
LY_1
  6
CONTINUOUS
 62
     3
  5
78
 10
35.310899
 20
-132.484426
 30
0.0
 11
35.310899
 21
-132.515574
 31
0.0
  0
LINE
  8
LY_1
  6
CONTINUOUS
 62
     3
  5
79
 10
32.825885
 20
-136.821474
 30
0.0
 11
32.795897
 21
-136.838787
 31
0.0
  0
LINE
  8
LY_1
  6
CONTINUOUS
 62
     3
  5
7A
 10
27.794097
 20
-128.179572
 30
0.0
 11
27.827685
 21
-128.16018
 31
0.0
  0
LINE
  8
LY_1
  6
CONTINUOUS
 62
     3
  5
7B
 10
25.310899
 20
-132.520815
 30
0.0
 11
25.310899
 21
-132.479185
 31
0.0
  0
LINE
  8
LY_1
  6
CONTINUOUS
 62
     3
  5
7C
 10
32.79497
 20
-128.160682
 30
0.0
 11
32.826809
 21
-128.179064
 31
0.0
  0
LINE
  8
LY_1
  6
CONTINUOUS
 62
     3
  5
7D
 10
27.826809
 20
-136.839318
 30
0.0
 11
27.79497
 21
-136.820936
 31
0.0
  0
LINE
  8
LY_1
  6
CONTINUOUS
 62
     3
  5
7E
 10
30.310893
 20
-126.7265
 30
0.0
 11
27.827685
 21
-128.16018
 31
0.0
  0
LINE
  8
LY_1
  6
CONTINUOUS
 62
     3
  5
7F
 10
32.79497
 20
-128.160682
 30
0.0
 11
30.310893
 21
-126.7265
 31
0.0
  0
LINE
  8
LY_1
  6
CONTINUOUS
 62
     3
  5
80
 10
32.795897
 20
-136.838787
 30
0.0
 11
30.310893
 21
-138.273505
 31
0.0
  0
LINE
  8
LY_1
  6
CONTINUOUS
 62
     3
  5
81
 10
30.310893
 20
-138.273505
 30
0.0
 11
27.826809
 21
-136.839318
 31
0.0
  0
LINE
  8
LY_1
  6
CONTINUOUS
 62
     3
  5
82
 10
25.310899
 20
-135.386757
 30
0.0
 11
25.310899
 21
-132.520815
 31
0.0
  0
LINE
  8
LY_1
  6
CONTINUOUS
 62
     3
  5
83
 10
27.79497
 20
-136.820936
 30
0.0
 11
25.310899
 21
-135.386757
 31
0.0
  0
LINE
  8
LY_1
  6
CONTINUOUS
 62
     3
  5
84
 10
27.794097
 20
-128.179572
 30
0.0
 11
25.310899
 21
-129.613248
 31
0.0
  0
LINE
  8
LY_1
  6
CONTINUOUS
 62
     3
  5
85
 10
25.310899
 20
-132.479185
 30
0.0
 11
25.310899
 21
-129.613248
 31
0.0
  0
LINE
  8
LY_1
  6
CONTINUOUS
 62
     3
  5
86
 10
35.310899
 20
-135.38675
 30
0.0
 11
35.310899
 21
-132.515574
 31
0.0
  0
LINE
  8
LY_1
  6
CONTINUOUS
 62
     3
  5
87
 10
35.310899
 20
-135.38675
 30
0.0
 11
32.825885
 21
-136.821474
 31
0.0
  0
LINE
  8
LY_1
  6
CONTINUOUS
 62
     3
  5
88
 10
35.310899
 20
-132.484426
 30
0.0
 11
35.310899
 21
-129.613254
 31
0.0
  0
LINE
  8
LY_1
  6
CONTINUOUS
 62
     3
  5
89
 10
35.310899
 20
-129.613254
 30
0.0
 11
32.826809
 21
-128.179064
 31
0.0
  0
CIRCLE
  8
LY_1
  6
CONTINUOUS
 62
     3
  5
8A
 10
-30.310889
 20
-132.5
 30
0.0
 40
6.5
  0
CIRCLE
  8
LY_1
  6
CONTINUOUS
 62
     3
  5
8B
 10
-30.310886
 20
-132.499995
 30
0.0
 40
6.499989
  0
ARC
  8
LY_1
  6
CONTINUOUS
 62
     3
  5
8C
 10
-30.310889
 20
-132.5
 30
0.0
 40
5.000034
 50
60.210645
 51
119.777783
  0
ARC
  8
LY_1
  6
CONTINUOUS
 62
     3
  5
8D
 10
-30.310889
 20
-132.5
 30
0.0
 40
5.000034
 50
240.210645
 51
299.801601
  0
ARC
  8
LY_1
  6
CONTINUOUS
 62
     3
  5
8E
 10
-30.310889
 20
-132.5
 30
0.0
 40
5.000034
 50
180.238525
 51
239.789355
  0
ARC
  8
LY_1
  6
CONTINUOUS
 62
     3
  5
8F
 10
-30.310889
 20
-132.5
 30
0.0
 40
5.000034
 50
120.222216
 51
179.761476
  0
ARC
  8
LY_1
  6
CONTINUOUS
 62
     3
  5
90
 10
-30.310889
 20
-132.5
 30
0.0
 40
5.000034
 50
300.198398
 51
359.821539
  0
ARC
  8
LY_1
  6
CONTINUOUS
 62
     3
  5
91
 10
-30.310889
 20
-132.5
 30
0.0
 40
5.000034
 50
0.178461
 51
59.789355
  0
LINE
  8
LY_1
  6
CONTINUOUS
 62
     3
  5
92
 10
-25.31088
 20
-132.484426
 30
0.0
 11
-25.31088
 21
-132.515574
 31
0.0
  0
LINE
  8
LY_1
  6
CONTINUOUS
 62
     3
  5
93
 10
-27.795893
 20
-136.821474
 30
0.0
 11
-27.825881
 21
-136.838787
 31
0.0
  0
LINE
  8
LY_1
  6
CONTINUOUS
 62
     3
  5
94
 10
-32.827681
 20
-128.179572
 30
0.0
 11
-32.794093
 21
-128.16018
 31
0.0
  0
LINE
  8
LY_1
  6
CONTINUOUS
 62
     3
  5
95
 10
-35.31088
 20
-132.520815
 30
0.0
 11
-35.31088
 21
-132.479185
 31
0.0
  0
LINE
  8
LY_1
  6
CONTINUOUS
 62
     3
  5
96
 10
-27.826809
 20
-128.160682
 30
0.0
 11
-27.79497
 21
-128.179064
 31
0.0
  0
LINE
  8
LY_1
  6
CONTINUOUS
 62
     3
  5
97
 10
-32.79497
 20
-136.839318
 30
0.0
 11
-32.826809
 21
-136.820936
 31
0.0
  0
LINE
  8
LY_1
  6
CONTINUOUS
 62
     3
  5
98
 10
-30.310885
 20
-126.7265
 30
0.0
 11
-32.794093
 21
-128.16018
 31
0.0
  0
LINE
  8
LY_1
  6
CONTINUOUS
 62
     3
  5
99
 10
-27.826809
 20
-128.160682
 30
0.0
 11
-30.310885
 21
-126.7265
 31
0.0
  0
LINE
  8
LY_1
  6
CONTINUOUS
 62
     3
  5
9A
 10
-27.825881
 20
-136.838787
 30
0.0
 11
-30.310885
 21
-138.273505
 31
0.0
  0
LINE
  8
LY_1
  6
CONTINUOUS
 62
     3
  5
9B
 10
-30.310885
 20
-138.273505
 30
0.0
 11
-32.79497
 21
-136.839318
 31
0.0
  0
LINE
  8
LY_1
  6
CONTINUOUS
 62
     3
  5
9C
 10
-35.31088
 20
-135.386757
 30
0.0
 11
-35.31088
 21
-132.520815
 31
0.0
  0
LINE
  8
LY_1
  6
CONTINUOUS
 62
     3
  5
9D
 10
-32.826809
 20
-136.820936
 30
0.0
 11
-35.31088
 21
-135.386757
 31
0.0
  0
LINE
  8
LY_1
  6
CONTINUOUS
 62
     3
  5
9E
 10
-32.827681
 20
-128.179572
 30
0.0
 11
-35.31088
 21
-129.613248
 31
0.0
  0
LINE
  8
LY_1
  6
CONTINUOUS
 62
     3
  5
9F
 10
-35.31088
 20
-132.479185
 30
0.0
 11
-35.31088
 21
-129.613248
 31
0.0
  0
LINE
  8
LY_1
  6
CONTINUOUS
 62
     3
  5
A0
 10
-25.31088
 20
-135.38675
 30
0.0
 11
-25.31088
 21
-132.515574
 31
0.0
  0
LINE
  8
LY_1
  6
CONTINUOUS
 62
     3
  5
A1
 10
-25.31088
 20
-135.38675
 30
0.0
 11
-27.795893
 21
-136.821474
 31
0.0
  0
LINE
  8
LY_1
  6
CONTINUOUS
 62
     3
  5
A2
 10
-25.31088
 20
-132.484426
 30
0.0
 11
-25.31088
 21
-129.613254
 31
0.0
  0
LINE
  8
LY_1
  6
CONTINUOUS
 62
     3
  5
A3
 10
-25.31088
 20
-129.613254
 30
0.0
 11
-27.79497
 21
-128.179064
 31
0.0
  0
CIRCLE
  8
LY_1
  6
CONTINUOUS
 62
     3
  5
A4
 10
0.0
 20
-80.0
 30
0.0
 40
6.5
  0
CIRCLE
  8
LY_1
  6
CONTINUOUS
 62
     3
  5
A5
 10
0.000003
 20
-79.999995
 30
0.0
 40
6.499989
  0
ARC
  8
LY_1
  6
CONTINUOUS
 62
     3
  5
A6
 10
0.0
 20
-80.0
 30
0.0
 40
5.000034
 50
60.210645
 51
119.777783
  0
ARC
  8
LY_1
  6
CONTINUOUS
 62
     3
  5
A7
 10
0.0
 20
-80.0
 30
0.0
 40
5.000034
 50
240.210645
 51
299.801601
  0
ARC
  8
LY_1
  6
CONTINUOUS
 62
     3
  5
A8
 10
0.0
 20
-80.0
 30
0.0
 40
5.000034
 50
180.238525
 51
239.789355
  0
ARC
  8
LY_1
  6
CONTINUOUS
 62
     3
  5
A9
 10
0.0
 20
-80.0
 30
0.0
 40
5.000034
 50
120.222216
 51
179.761476
  0
ARC
  8
LY_1
  6
CONTINUOUS
 62
     3
  5
AA
 10
0.0
 20
-80.0
 30
0.0
 40
5.000034
 50
300.198398
 51
359.821539
  0
ARC
  8
LY_1
  6
CONTINUOUS
 62
     3
  5
AB
 10
0.0
 20
-80.0
 30
0.0
 40
5.000034
 50
0.178461
 51
59.789355
  0
LINE
  8
LY_1
  6
CONTINUOUS
 62
     3
  5
AC
 10
5.00001
 20
-79.984426
 30
0.0
 11
5.00001
 21
-80.015574
 31
0.0
  0
LINE
  8
LY_1
  6
CONTINUOUS
 62
     3
  5
AD
 10
2.514996
 20
-84.321473
 30
0.0
 11
2.485008
 21
-84.338787
 31
0.0
  0
LINE
  8
LY_1
  6
CONTINUOUS
 62
     3
  5
AE
 10
-2.516792
 20
-75.679572
 30
0.0
 11
-2.483204
 21
-75.66018
 31
0.0
  0
LINE
  8
LY_1
  6
CONTINUOUS
 62
     3
  5
AF
 10
-4.99999
 20
-80.020815
 30
0.0
 11
-4.99999
 21
-79.979185
 31
0.0
  0
LINE
  8
LY_1
  6
CONTINUOUS
 62
     3
  5
B0
 10
2.48408
 20
-75.660682
 30
0.0
 11
2.51592
 21
-75.679064
 31
0.0
  0
LINE
  8
LY_1
  6
CONTINUOUS
 62
     3
  5
B1
 10
-2.48408
 20
-84.339318
 30
0.0
 11
-2.51592
 21
-84.320936
 31
0.0
  0
LINE
  8
LY_1
  6
CONTINUOUS
 62
     3
  5
B2
 10
0.000004
 20
-74.226499
 30
0.0
 11
-2.483204
 21
-75.66018
 31
0.0
  0
LINE
  8
LY_1
  6
CONTINUOUS
 62
     3
  5
B3
 10
2.48408
 20
-75.660682
 30
0.0
 11
0.000004
 21
-74.226499
 31
0.0
  0
LINE
  8
LY_1
  6
CONTINUOUS
 62
     3
  5
B4
 10
2.485008
 20
-84.338787
 30
0.0
 11
0.000004
 21
-85.773505
 31
0.0
  0
LINE
  8
LY_1
  6
CONTINUOUS
 62
     3
  5
B5
 10
0.000004
 20
-85.773505
 30
0.0
 11
-2.48408
 21
-84.339318
 31
0.0
  0
LINE
  8
LY_1
  6
CONTINUOUS
 62
     3
  5
B6
 10
-4.99999
 20
-82.886757
 30
0.0
 11
-4.99999
 21
-80.020815
 31
0.0
  0
LINE
  8
LY_1
  6
CONTINUOUS
 62
     3
  5
B7
 10
-2.51592
 20
-84.320936
 30
0.0
 11
-4.99999
 21
-82.886757
 31
0.0
  0
LINE
  8
LY_1
  6
CONTINUOUS
 62
     3
  5
B8
 10
-2.516792
 20
-75.679572
 30
0.0
 11
-4.99999
 21
-77.113247
 31
0.0
  0
LINE
  8
LY_1
  6
CONTINUOUS
 62
     3
  5
B9
 10
-4.99999
 20
-79.979185
 30
0.0
 11
-4.99999
 21
-77.113247
 31
0.0
  0
LINE
  8
LY_1
  6
CONTINUOUS
 62
     3
  5
BA
 10
5.00001
 20
-82.88675
 30
0.0
 11
5.00001
 21
-80.015574
 31
0.0
  0
LINE
  8
LY_1
  6
CONTINUOUS
 62
     3
  5
BB
 10
5.00001
 20
-82.88675
 30
0.0
 11
2.514996
 21
-84.321473
 31
0.0
  0
LINE
  8
LY_1
  6
CONTINUOUS
 62
     3
  5
BC
 10
5.00001
 20
-79.984426
 30
0.0
 11
5.00001
 21
-77.113254
 31
0.0
  0
LINE
  8
LY_1
  6
CONTINUOUS
 62
     3
  5
BD
 10
5.00001
 20
-77.113254
 30
0.0
 11
2.51592
 21
-75.679064
 31
0.0
  0
ARC
  8
LY_1
  6
CONTINUOUS
 62
     3
  5
BE
 10
0.0
 20
-150.0
 30
0.0
 40
6.5
 50
278.9816
 51
226.331422
  0
ARC
  8
LY_1
  6
CONTINUOUS
 62
     3
  5
BF
 10
0.0
 20
-150.0
 30
0.0
 40
3.5
 50
316.454835
 51
203.990439
  0
CIRCLE
  8
LY_1
  6
CONTINUOUS
 62
     3
  5
C0
 10
0.0
 20
-80.0
 30
0.0
 40
10.0
  0
CIRCLE
  8
LY_1
  6
CONTINUOUS
 62
     3
  5
C1
 10
0.0
 20
-80.0
 30
0.0
 40
7.0
  0
CIRCLE
  8
LY_1
  6
CONTINUOUS
 62
     3
  5
C2
 10
30.310889
 20
-132.5
 30
0.0
 40
10.0
  0
CIRCLE
  8
LY_1
  6
CONTINUOUS
 62
     3
  5
C3
 10
30.310889
 20
-132.5
 30
0.0
 40
7.0
  0
CIRCLE
  8
LY_1
  6
CONTINUOUS
 62
     3
  5
C4
 10
-30.310889
 20
-132.5
 30
0.0
 40
10.0
  0
CIRCLE
  8
LY_1
  6
CONTINUOUS
 62
     3
  5
C5
 10
-30.310889
 20
-132.5
 30
0.0
 40
7.0
  0
CIRCLE
  8
LY_1
  6
CONTINUOUS
 62
     3
  5
C6
 10
0.0
 20
-80.0
 30
0.0
 40
3.0
  0
CIRCLE
  8
LY_1
  6
CONTINUOUS
 62
     3
  5
C7
 10
30.310889
 20
-132.5
 30
0.0
 40
3.0
  0
CIRCLE
  8
LY_1
  6
CONTINUOUS
 62
     3
  5
C8
 10
-30.310889
 20
-132.5
 30
0.0
 40
3.0
  0
CIRCLE
  8
LY_1
  6
CONTINUOUS
 62
     3
  5
C9
 10
13.856406
 20
-107.0
 30
0.0
 40
3.0
  0
POLYLINE
  8
LY_1
  6
CONTINUOUS
 62
     3
  5
CA
 66
     1
 10
0.0
 20
0.0
 30
0.0
  0
VERTEX
  8
LY_1
  6
CONTINUOUS
 62
     3
  5
4C0
 10
-2.3114
 20
-148.776127
 30
0.0
  0
VERTEX
  8
LY_1
  6
CONTINUOUS
 62
     3
  5
4C1
 10
-2.605513
 20
-149.699413
 30
0.0
  0
VERTEX
  8
LY_1
  6
CONTINUOUS
 62
     3
  5
4C2
 10
-2.91346
 20
-150.616474
 30
0.0
  0
VERTEX
  8
LY_1
  6
CONTINUOUS
 62
     3
  5
4C3
 10
-3.235164
 20
-151.526904
 30
0.0
  0
VERTEX
  8
LY_1
  6
CONTINUOUS
 62
     3
  5
4C4
 10
-3.570549
 20
-152.4303
 30
0.0
  0
VERTEX
  8
LY_1
  6
CONTINUOUS
 62
     3
  5
4C5
 10
-3.919533
 20
-153.32626
 30
0.0
  0
VERTEX
  8
LY_1
  6
CONTINUOUS
 62
     3
  5
4C6
 10
-4.282034
 20
-154.214385
 30
0.0
  0
VERTEX
  8
LY_1
  6
CONTINUOUS
 62
     3
  5
4C7
 10
-4.657966
 20
-155.094281
 30
0.0
  0
VERTEX
  8
LY_1
  6
CONTINUOUS
 62
     3
  5
4C8
 10
-5.047241
 20
-155.965554
 30
0.0
  0
VERTEX
  8
LY_1
  6
CONTINUOUS
 62
     3
  5
4C9
 10
-5.449767
 20
-156.827815
 30
0.0
  0
VERTEX
  8
LY_1
  6
CONTINUOUS
 62
     3
  5
4CA
 10
-5.865454
 20
-157.680677
 30
0.0
  0
VERTEX
  8
LY_1
  6
CONTINUOUS
 62
     3
  5
4CB
 10
-6.294204
 20
-158.523758
 30
0.0
  0
VERTEX
  8
LY_1
  6
CONTINUOUS
 62
     3
  5
4CC
 10
-6.735922
 20
-159.35668
 30
0.0
  0
VERTEX
  8
LY_1
  6
CONTINUOUS
 62
     3
  5
4CD
 10
-7.190508
 20
-160.179069
 30
0.0
  0
VERTEX
  8
LY_1
  6
CONTINUOUS
 62
     3
  5
4CE
 10
-7.657862
 20
-160.990555
 30
0.0
  0
VERTEX
  8
LY_1
  6
CONTINUOUS
 62
     3
  5
4CF
 10
-8.137881
 20
-161.790774
 30
0.0
  0
VERTEX
  8
LY_1
  6
CONTINUOUS
 62
     3
  5
4D0
 10
-8.630463
 20
-162.579366
 30
0.0
  0
VERTEX
  8
LY_1
  6
CONTINUOUS
 62
     3
  5
4D1
 10
-9.135504
 20
-163.355978
 30
0.0
  0
VERTEX
  8
LY_1
  6
CONTINUOUS
 62
     3
  5
4D2
 10
-9.6529
 20
-164.120262
 30
0.0
  0
VERTEX
  8
LY_1
  6
CONTINUOUS
 62
     3
  5
4D3
 10
-10.182546
 20
-164.871875
 30
0.0
  0
VERTEX
  8
LY_1
  6
CONTINUOUS
 62
     3
  5
4D4
 10
-10.724338
 20
-165.610483
 30
0.0
  0
VERTEX
  8
LY_1
  6
CONTINUOUS
 62
     3
  5
4D5
 10
-11.278173
 20
-166.335757
 30
0.0
  0
VERTEX
  8
LY_1
  6
CONTINUOUS
 62
     3
  5
4D6
 10
-11.843951
 20
-167.047376
 30
0.0
  0
VERTEX
  8
LY_1
  6
CONTINUOUS
 62
     3
  5
4D7
 10
-12.421571
 20
-167.745024
 30
0.0
  0
VERTEX
  8
LY_1
  6
CONTINUOUS
 62
     3
  5
4D8
 10
-13.010937
 20
-168.428395
 30
0.0
  0
VERTEX
  8
LY_1
  6
CONTINUOUS
 62
     3
  5
4D9
 10
-13.611956
 20
-169.09719
 30
0.0
  0
VERTEX
  8
LY_1
  6
CONTINUOUS
 62
     3
  5
4DA
 10
-14.224539
 20
-169.751117
 30
0.0
  0
VERTEX
  8
LY_1
  6
CONTINUOUS
 62
     3
  5
4DB
 10
-14.848603
 20
-170.389892
 30
0.0
  0
VERTEX
  8
LY_1
  6
CONTINUOUS
 62
     3
  5
4DC
 10
-15.484069
 20
-171.013239
 30
0.0
  0
VERTEX
  8
LY_1
  6
CONTINUOUS
 62
     3
  5
4DD
 10
-16.130867
 20
-171.620891
 30
0.0
  0
VERTEX
  8
LY_1
  6
CONTINUOUS
 62
     3
  5
4DE
 10
-16.788932
 20
-172.212584
 30
0.0
  0
VERTEX
  8
LY_1
  6
CONTINUOUS
 62
     3
  5
4DF
 10
-17.458212
 20
-172.788066
 30
0.0
  0
VERTEX
  8
LY_1
  6
CONTINUOUS
 62
     3
  5
4E0
 10
-18.13866
 20
-173.347089
 30
0.0
  0
VERTEX
  8
LY_1
  6
CONTINUOUS
 62
     3
  5
4E1
 10
-18.218615
 20
-173.411101
 30
0.0
  0
VERTEX
  8
LY_1
  6
CONTINUOUS
 62
     3
  5
4E2
 10
-18.298768
 20
-173.474924
 30
0.0
  0
VERTEX
  8
LY_1
  6
CONTINUOUS
 62
     3
  5
4E3
 10
-18.379117
 20
-173.538559
 30
0.0
  0
VERTEX
  8
LY_1
  6
CONTINUOUS
 62
     3
  5
4E4
 10
-18.459662
 20
-173.602006
 30
0.0
  0
VERTEX
  8
LY_1
  6
CONTINUOUS
 62
     3
  5
4E5
 10
-18.540403
 20
-173.665265
 30
0.0
  0
VERTEX
  8
LY_1
  6
CONTINUOUS
 62
     3
  5
4E6
 10
-18.621339
 20
-173.728336
 30
0.0
  0
VERTEX
  8
LY_1
  6
CONTINUOUS
 62
     3
  5
4E7
 10
-18.70247
 20
-173.79122
 30
0.0
  0
VERTEX
  8
LY_1
  6
CONTINUOUS
 62
     3
  5
4E8
 10
-18.783794
 20
-173.853917
 30
0.0
  0
VERTEX
  8
LY_1
  6
CONTINUOUS
 62
     3
  5
4E9
 10
-18.865312
 20
-173.916427
 30
0.0
  0
VERTEX
  8
LY_1
  6
CONTINUOUS
 62
     3
  5
4EA
 10
-18.947022
 20
-173.978749
 30
0.0
  0
VERTEX
  8
LY_1
  6
CONTINUOUS
 62
     3
  5
4EB
 10
-19.028925
 20
-174.040885
 30
0.0
  0
VERTEX
  8
LY_1
  6
CONTINUOUS
 62
     3
  5
4EC
 10
-19.111019
 20
-174.102834
 30
0.0
  0
VERTEX
  8
LY_1
  6
CONTINUOUS
 62
     3
  5
4ED
 10
-19.193304
 20
-174.164597
 30
0.0
  0
VERTEX
  8
LY_1
  6
CONTINUOUS
 62
     3
  5
4EE
 10
-19.275779
 20
-174.226173
 30
0.0
  0
VERTEX
  8
LY_1
  6
CONTINUOUS
 62
     3
  5
4EF
 10
-19.358445
 20
-174.287563
 30
0.0
  0
VERTEX
  8
LY_1
  6
CONTINUOUS
 62
     3
  5
4F0
 10
-19.441299
 20
-174.348767
 30
0.0
  0
SEQEND
  8
LY_1
  6
CONTINUOUS
 62
     3
  5
4F1
  0
POLYLINE
  8
LY_1
  6
CONTINUOUS
 62
     3
  5
CB
 66
     1
 10
0.0
 20
0.0
 30
0.0
  0
VERTEX
  8
LY_1
  6
CONTINUOUS
 62
     3
  5
4F2
 10
0.329094
 20
-149.599917
 30
0.0
  0
VERTEX
  8
LY_1
  6
CONTINUOUS
 62
     3
  5
4F3
 10
0.021923
 20
-150.563943
 30
0.0
  0
VERTEX
  8
LY_1
  6
CONTINUOUS
 62
     3
  5
4F4
 10
-0.299808
 20
-151.521826
 30
0.0
  0
VERTEX
  8
LY_1
  6
CONTINUOUS
 62
     3
  5
4F5
 10
-0.636045
 20
-152.473168
 30
0.0
  0
VERTEX
  8
LY_1
  6
CONTINUOUS
 62
     3
  5
4F6
 10
-0.98673
 20
-153.417576
 30
0.0
  0
VERTEX
  8
LY_1
  6
CONTINUOUS
 62
     3
  5
4F7
 10
-1.351804
 20
-154.354656
 30
0.0
  0
VERTEX
  8
LY_1
  6
CONTINUOUS
 62
     3
  5
4F8
 10
-1.731207
 20
-155.284017
 30
0.0
  0
VERTEX
  8
LY_1
  6
CONTINUOUS
 62
     3
  5
4F9
 10
-2.124878
 20
-156.205268
 30
0.0
  0
VERTEX
  8
LY_1
  6
CONTINUOUS
 62
     3
  5
4FA
 10
-2.532753
 20
-157.11802
 30
0.0
  0
VERTEX
  8
LY_1
  6
CONTINUOUS
 62
     3
  5
4FB
 10
-2.954768
 20
-158.021885
 30
0.0
  0
VERTEX
  8
LY_1
  6
CONTINUOUS
 62
     3
  5
4FC
 10
-3.39086
 20
-158.916479
 30
0.0
  0
VERTEX
  8
LY_1
  6
CONTINUOUS
 62
     3
  5
4FD
 10
-3.84096
 20
-159.801418
 30
0.0
  0
VERTEX
  8
LY_1
  6
CONTINUOUS
 62
     3
  5
4FE
 10
-4.305002
 20
-160.67632
 30
0.0
  0
VERTEX
  8
LY_1
  6
CONTINUOUS
 62
     3
  5
4FF
 10
-4.782917
 20
-161.540805
 30
0.0
  0
VERTEX
  8
LY_1
  6
CONTINUOUS
 62
     3
  5
500
 10
-5.274636
 20
-162.394498
 30
0.0
  0
VERTEX
  8
LY_1
  6
CONTINUOUS
 62
     3
  5
501
 10
-5.78009
 20
-163.237024
 30
0.0
  0
VERTEX
  8
LY_1
  6
CONTINUOUS
 62
     3
  5
502
 10
-6.299207
 20
-164.068011
 30
0.0
  0
VERTEX
  8
LY_1
  6
CONTINUOUS
 62
     3
  5
503
 10
-6.831917
 20
-164.887091
 30
0.0
  0
VERTEX
  8
LY_1
  6
CONTINUOUS
 62
     3
  5
504
 10
-7.378149
 20
-165.693897
 30
0.0
  0
VERTEX
  8
LY_1
  6
CONTINUOUS
 62
     3
  5
505
 10
-7.937832
 20
-166.488068
 30
0.0
  0
VERTEX
  8
LY_1
  6
CONTINUOUS
 62
     3
  5
506
 10
-8.510894
 20
-167.269243
 30
0.0
  0
VERTEX
  8
LY_1
  6
CONTINUOUS
 62
     3
  5
507
 10
-9.097266
 20
-168.037068
 30
0.0
  0
VERTEX
  8
LY_1
  6
CONTINUOUS
 62
     3
  5
508
 10
-9.696877
 20
-168.79119
 30
0.0
  0
VERTEX
  8
LY_1
  6
CONTINUOUS
 62
     3
  5
509
 10
-10.309659
 20
-169.531261
 30
0.0
  0
VERTEX
  8
LY_1
  6
CONTINUOUS
 62
     3
  5
50A
 10
-10.935546
 20
-170.256937
 30
0.0
  0
VERTEX
  8
LY_1
  6
CONTINUOUS
 62
     3
  5
50B
 10
-11.574471
 20
-170.967876
 30
0.0
  0
VERTEX
  8
LY_1
  6
CONTINUOUS
 62
     3
  5
50C
 10
-12.226371
 20
-171.663743
 30
0.0
  0
VERTEX
  8
LY_1
  6
CONTINUOUS
 62
     3
  5
50D
 10
-12.891186
 20
-172.344204
 30
0.0
  0
VERTEX
  8
LY_1
  6
CONTINUOUS
 62
     3
  5
50E
 10
-13.56886
 20
-173.008932
 30
0.0
  0
VERTEX
  8
LY_1
  6
CONTINUOUS
 62
     3
  5
50F
 10
-14.259336
 20
-173.657601
 30
0.0
  0
VERTEX
  8
LY_1
  6
CONTINUOUS
 62
     3
  5
510
 10
-14.962567
 20
-174.289891
 30
0.0
  0
VERTEX
  8
LY_1
  6
CONTINUOUS
 62
     3
  5
511
 10
-15.678506
 20
-174.905485
 30
0.0
  0
VERTEX
  8
LY_1
  6
CONTINUOUS
 62
     3
  5
512
 10
-16.407114
 20
-175.504068
 30
0.0
  0
VERTEX
  8
LY_1
  6
CONTINUOUS
 62
     3
  5
513
 10
-16.549369
 20
-175.617755
 30
0.0
  0
VERTEX
  8
LY_1
  6
CONTINUOUS
 62
     3
  5
514
 10
-16.692161
 20
-175.730849
 30
0.0
  0
VERTEX
  8
LY_1
  6
CONTINUOUS
 62
     3
  5
515
 10
-16.835484
 20
-175.843353
 30
0.0
  0
VERTEX
  8
LY_1
  6
CONTINUOUS
 62
     3
  5
516
 10
-16.979336
 20
-175.955268
 30
0.0
  0
VERTEX
  8
LY_1
  6
CONTINUOUS
 62
     3
  5
517
 10
-17.123714
 20
-176.066595
 30
0.0
  0
VERTEX
  8
LY_1
  6
CONTINUOUS
 62
     3
  5
518
 10
-17.268614
 20
-176.177335
 30
0.0
  0
VERTEX
  8
LY_1
  6
CONTINUOUS
 62
     3
  5
519
 10
-17.414033
 20
-176.287489
 30
0.0
  0
VERTEX
  8
LY_1
  6
CONTINUOUS
 62
     3
  5
51A
 10
-17.559968
 20
-176.397059
 30
0.0
  0
VERTEX
  8
LY_1
  6
CONTINUOUS
 62
     3
  5
51B
 10
-17.706415
 20
-176.506045
 30
0.0
  0
VERTEX
  8
LY_1
  6
CONTINUOUS
 62
     3
  5
51C
 10
-17.853372
 20
-176.614448
 30
0.0
  0
VERTEX
  8
LY_1
  6
CONTINUOUS
 62
     3
  5
51D
 10
-18.000834
 20
-176.72227
 30
0.0
  0
VERTEX
  8
LY_1
  6
CONTINUOUS
 62
     3
  5
51E
 10
-18.148798
 20
-176.829511
 30
0.0
  0
VERTEX
  8
LY_1
  6
CONTINUOUS
 62
     3
  5
51F
 10
-18.297261
 20
-176.936173
 30
0.0
  0
VERTEX
  8
LY_1
  6
CONTINUOUS
 62
     3
  5
520
 10
-18.44622
 20
-177.042257
 30
0.0
  0
VERTEX
  8
LY_1
  6
CONTINUOUS
 62
     3
  5
521
 10
-18.595672
 20
-177.147764
 30
0.0
  0
VERTEX
  8
LY_1
  6
CONTINUOUS
 62
     3
  5
522
 10
-18.745612
 20
-177.252694
 30
0.0
  0
SEQEND
  8
LY_1
  6
CONTINUOUS
 62
     3
  5
523
  0
POLYLINE
  8
LY_1
  6
CONTINUOUS
 62
     3
  5
CC
 66
     1
 10
0.0
 20
0.0
 30
0.0
  0
VERTEX
  8
LY_1
  6
CONTINUOUS
 62
     3
  5
524
 10
3.190177
 20
-150.406902
 30
0.0
  0
VERTEX
  8
LY_1
  6
CONTINUOUS
 62
     3
  5
525
 10
2.869372
 20
-151.417581
 30
0.0
  0
VERTEX
  8
LY_1
  6
CONTINUOUS
 62
     3
  5
526
 10
2.533147
 20
-152.422202
 30
0.0
  0
VERTEX
  8
LY_1
  6
CONTINUOUS
 62
     3
  5
527
 10
2.181538
 20
-153.420378
 30
0.0
  0
VERTEX
  8
LY_1
  6
CONTINUOUS
 62
     3
  5
528
 10
1.814579
 20
-154.411722
 30
0.0
  0
VERTEX
  8
LY_1
  6
CONTINUOUS
 62
     3
  5
529
 10
1.432306
 20
-155.395845
 30
0.0
  0
VERTEX
  8
LY_1
  6
CONTINUOUS
 62
     3
  5
52A
 10
1.034757
 20
-156.372361
 30
0.0
  0
VERTEX
  8
LY_1
  6
CONTINUOUS
 62
     3
  5
52B
 10
0.621965
 20
-157.34088
 30
0.0
  0
VERTEX
  8
LY_1
  6
CONTINUOUS
 62
     3
  5
52C
 10
0.193967
 20
-158.301017
 30
0.0
  0
VERTEX
  8
LY_1
  6
CONTINUOUS
 62
     3
  5
52D
 10
-0.2492
 20
-159.252382
 30
0.0
  0
VERTEX
  8
LY_1
  6
CONTINUOUS
 62
     3
  5
52E
 10
-0.707503
 20
-160.194589
 30
0.0
  0
VERTEX
  8
LY_1
  6
CONTINUOUS
 62
     3
  5
52F
 10
-1.180903
 20
-161.12725
 30
0.0
  0
VERTEX
  8
LY_1
  6
CONTINUOUS
 62
     3
  5
530
 10
-1.669367
 20
-162.049978
 30
0.0
  0
VERTEX
  8
LY_1
  6
CONTINUOUS
 62
     3
  5
531
 10
-2.172858
 20
-162.962384
 30
0.0
  0
VERTEX
  8
LY_1
  6
CONTINUOUS
 62
     3
  5
532
 10
-2.69134
 20
-163.86408
 30
0.0
  0
VERTEX
  8
LY_1
  6
CONTINUOUS
 62
     3
  5
533
 10
-3.224778
 20
-164.754681
 30
0.0
  0
VERTEX
  8
LY_1
  6
CONTINUOUS
 62
     3
  5
534
 10
-3.773136
 20
-165.633797
 30
0.0
  0
VERTEX
  8
LY_1
  6
CONTINUOUS
 62
     3
  5
535
 10
-4.336378
 20
-166.501041
 30
0.0
  0
VERTEX
  8
LY_1
  6
CONTINUOUS
 62
     3
  5
536
 10
-4.914468
 20
-167.356026
 30
0.0
  0
VERTEX
  8
LY_1
  6
CONTINUOUS
 62
     3
  5
537
 10
-5.50737
 20
-168.198364
 30
0.0
  0
VERTEX
  8
LY_1
  6
CONTINUOUS
 62
     3
  5
538
 10
-6.115049
 20
-169.027667
 30
0.0
  0
VERTEX
  8
LY_1
  6
CONTINUOUS
 62
     3
  5
539
 10
-6.737469
 20
-169.843547
 30
0.0
  0
VERTEX
  8
LY_1
  6
CONTINUOUS
 62
     3
  5
53A
 10
-7.374595
 20
-170.645618
 30
0.0
  0
VERTEX
  8
LY_1
  6
CONTINUOUS
 62
     3
  5
53B
 10
-8.026389
 20
-171.433491
 30
0.0
  0
VERTEX
  8
LY_1
  6
CONTINUOUS
 62
     3
  5
53C
 10
-8.692818
 20
-172.206779
 30
0.0
  0
VERTEX
  8
LY_1
  6
CONTINUOUS
 62
     3
  5
53D
 10
-9.373844
 20
-172.965094
 30
0.0
  0
VERTEX
  8
LY_1
  6
CONTINUOUS
 62
     3
  5
53E
 10
-10.069432
 20
-173.708049
 30
0.0
  0
VERTEX
  8
LY_1
  6
CONTINUOUS
 62
     3
  5
53F
 10
-10.779547
 20
-174.435255
 30
0.0
  0
VERTEX
  8
LY_1
  6
CONTINUOUS
 62
     3
  5
540
 10
-11.504152
 20
-175.146326
 30
0.0
  0
VERTEX
  8
LY_1
  6
CONTINUOUS
 62
     3
  5
541
 10
-12.243212
 20
-175.840873
 30
0.0
  0
VERTEX
  8
LY_1
  6
CONTINUOUS
 62
     3
  5
542
 10
-12.99669
 20
-176.51851
 30
0.0
  0
VERTEX
  8
LY_1
  6
CONTINUOUS
 62
     3
  5
543
 10
-13.764552
 20
-177.178848
 30
0.0
  0
VERTEX
  8
LY_1
  6
CONTINUOUS
 62
     3
  5
544
 10
-14.546762
 20
-177.821499
 30
0.0
  0
VERTEX
  8
LY_1
  6
CONTINUOUS
 62
     3
  5
545
 10
-14.742458
 20
-177.977695
 30
0.0
  0
VERTEX
  8
LY_1
  6
CONTINUOUS
 62
     3
  5
546
 10
-14.939021
 20
-178.132787
 30
0.0
  0
VERTEX
  8
LY_1
  6
CONTINUOUS
 62
     3
  5
547
 10
-15.136444
 20
-178.28678
 30
0.0
  0
VERTEX
  8
LY_1
  6
CONTINUOUS
 62
     3
  5
548
 10
-15.334717
 20
-178.439677
 30
0.0
  0
VERTEX
  8
LY_1
  6
CONTINUOUS
 62
     3
  5
549
 10
-15.533833
 20
-178.59148
 30
0.0
  0
VERTEX
  8
LY_1
  6
CONTINUOUS
 62
     3
  5
54A
 10
-15.733783
 20
-178.742194
 30
0.0
  0
VERTEX
  8
LY_1
  6
CONTINUOUS
 62
     3
  5
54B
 10
-15.934558
 20
-178.891821
 30
0.0
  0
VERTEX
  8
LY_1
  6
CONTINUOUS
 62
     3
  5
54C
 10
-16.136151
 20
-179.040364
 30
0.0
  0
VERTEX
  8
LY_1
  6
CONTINUOUS
 62
     3
  5
54D
 10
-16.338553
 20
-179.187827
 30
0.0
  0
VERTEX
  8
LY_1
  6
CONTINUOUS
 62
     3
  5
54E
 10
-16.541755
 20
-179.334213
 30
0.0
  0
VERTEX
  8
LY_1
  6
CONTINUOUS
 62
     3
  5
54F
 10
-16.74575
 20
-179.479525
 30
0.0
  0
VERTEX
  8
LY_1
  6
CONTINUOUS
 62
     3
  5
550
 10
-16.950529
 20
-179.623766
 30
0.0
  0
VERTEX
  8
LY_1
  6
CONTINUOUS
 62
     3
  5
551
 10
-17.156084
 20
-179.76694
 30
0.0
  0
VERTEX
  8
LY_1
  6
CONTINUOUS
 62
     3
  5
552
 10
-17.362406
 20
-179.909049
 30
0.0
  0
VERTEX
  8
LY_1
  6
CONTINUOUS
 62
     3
  5
553
 10
-17.569488
 20
-180.050097
 30
0.0
  0
VERTEX
  8
LY_1
  6
CONTINUOUS
 62
     3
  5
554
 10
-17.77732
 20
-180.190087
 30
0.0
  0
SEQEND
  8
LY_1
  6
CONTINUOUS
 62
     3
  5
555
  0
POLYLINE
  8
LY_1
  6
CONTINUOUS
 62
     3
  5
CD
 66
     1
 10
0.0
 20
0.0
 30
0.0
  0
VERTEX
  8
LY_1
  6
CONTINUOUS
 62
     3
  5
556
 10
-21.694127
 20
-173.770765
 30
0.0
  0
VERTEX
  8
LY_1
  6
CONTINUOUS
 62
     3
  5
557
 10
-21.479144
 20
-173.785659
 30
0.0
  0
VERTEX
  8
LY_1
  6
CONTINUOUS
 62
     3
  5
558
 10
-21.255796
 20
-173.809487
 30
0.0
  0
VERTEX
  8
LY_1
  6
CONTINUOUS
 62
     3
  5
559
 10
-21.026541
 20
-173.842378
 30
0.0
  0
VERTEX
  8
LY_1
  6
CONTINUOUS
 62
     3
  5
55A
 10
-20.793837
 20
-173.884459
 30
0.0
  0
VERTEX
  8
LY_1
  6
CONTINUOUS
 62
     3
  5
55B
 10
-20.560142
 20
-173.935858
 30
0.0
  0
VERTEX
  8
LY_1
  6
CONTINUOUS
 62
     3
  5
55C
 10
-20.327916
 20
-173.996701
 30
0.0
  0
VERTEX
  8
LY_1
  6
CONTINUOUS
 62
     3
  5
55D
 10
-20.099615
 20
-174.067118
 30
0.0
  0
VERTEX
  8
LY_1
  6
CONTINUOUS
 62
     3
  5
55E
 10
-19.8777
 20
-174.147234
 30
0.0
  0
VERTEX
  8
LY_1
  6
CONTINUOUS
 62
     3
  5
55F
 10
-19.664628
 20
-174.237179
 30
0.0
  0
VERTEX
  8
LY_1
  6
CONTINUOUS
 62
     3
  5
560
 10
-19.462857
 20
-174.337078
 30
0.0
  0
VERTEX
  8
LY_1
  6
CONTINUOUS
 62
     3
  5
561
 10
-19.274846
 20
-174.447061
 30
0.0
  0
VERTEX
  8
LY_1
  6
CONTINUOUS
 62
     3
  5
562
 10
-19.103053
 20
-174.567254
 30
0.0
  0
VERTEX
  8
LY_1
  6
CONTINUOUS
 62
     3
  5
563
 10
-18.949938
 20
-174.697785
 30
0.0
  0
VERTEX
  8
LY_1
  6
CONTINUOUS
 62
     3
  5
564
 10
-18.817957
 20
-174.838782
 30
0.0
  0
VERTEX
  8
LY_1
  6
CONTINUOUS
 62
     3
  5
565
 10
-18.70957
 20
-174.990371
 30
0.0
  0
VERTEX
  8
LY_1
  6
CONTINUOUS
 62
     3
  5
566
 10
-18.627235
 20
-175.152682
 30
0.0
  0
VERTEX
  8
LY_1
  6
CONTINUOUS
 62
     3
  5
567
 10
-18.58409
 20
-175.279751
 30
0.0
  0
VERTEX
  8
LY_1
  6
CONTINUOUS
 62
     3
  5
568
 10
-18.555044
 20
-175.412382
 30
0.0
  0
VERTEX
  8
LY_1
  6
CONTINUOUS
 62
     3
  5
569
 10
-18.538571
 20
-175.550192
 30
0.0
  0
VERTEX
  8
LY_1
  6
CONTINUOUS
 62
     3
  5
56A
 10
-18.533146
 20
-175.692798
 30
0.0
  0
VERTEX
  8
LY_1
  6
CONTINUOUS
 62
     3
  5
56B
 10
-18.537243
 20
-175.839816
 30
0.0
  0
VERTEX
  8
LY_1
  6
CONTINUOUS
 62
     3
  5
56C
 10
-18.549334
 20
-175.990864
 30
0.0
  0
VERTEX
  8
LY_1
  6
CONTINUOUS
 62
     3
  5
56D
 10
-18.567896
 20
-176.145557
 30
0.0
  0
VERTEX
  8
LY_1
  6
CONTINUOUS
 62
     3
  5
56E
 10
-18.5914
 20
-176.303514
 30
0.0
  0
VERTEX
  8
LY_1
  6
CONTINUOUS
 62
     3
  5
56F
 10
-18.618323
 20
-176.46435
 30
0.0
  0
VERTEX
  8
LY_1
  6
CONTINUOUS
 62
     3
  5
570
 10
-18.647136
 20
-176.627682
 30
0.0
  0
VERTEX
  8
LY_1
  6
CONTINUOUS
 62
     3
  5
571
 10
-18.676316
 20
-176.793127
 30
0.0
  0
VERTEX
  8
LY_1
  6
CONTINUOUS
 62
     3
  5
572
 10
-18.704334
 20
-176.960302
 30
0.0
  0
VERTEX
  8
LY_1
  6
CONTINUOUS
 62
     3
  5
573
 10
-18.729666
 20
-177.128824
 30
0.0
  0
VERTEX
  8
LY_1
  6
CONTINUOUS
 62
     3
  5
574
 10
-18.750786
 20
-177.298309
 30
0.0
  0
VERTEX
  8
LY_1
  6
CONTINUOUS
 62
     3
  5
575
 10
-18.766167
 20
-177.468374
 30
0.0
  0
VERTEX
  8
LY_1
  6
CONTINUOUS
 62
     3
  5
576
 10
-18.774284
 20
-177.638636
 30
0.0
  0
VERTEX
  8
LY_1
  6
CONTINUOUS
 62
     3
  5
577
 10
-18.770322
 20
-177.896609
 30
0.0
  0
VERTEX
  8
LY_1
  6
CONTINUOUS
 62
     3
  5
578
 10
-18.746886
 20
-178.152907
 30
0.0
  0
VERTEX
  8
LY_1
  6
CONTINUOUS
 62
     3
  5
579
 10
-18.704753
 20
-178.406286
 30
0.0
  0
VERTEX
  8
LY_1
  6
CONTINUOUS
 62
     3
  5
57A
 10
-18.644703
 20
-178.655501
 30
0.0
  0
VERTEX
  8
LY_1
  6
CONTINUOUS
 62
     3
  5
57B
 10
-18.567514
 20
-178.899308
 30
0.0
  0
VERTEX
  8
LY_1
  6
CONTINUOUS
 62
     3
  5
57C
 10
-18.473965
 20
-179.13646
 30
0.0
  0
VERTEX
  8
LY_1
  6
CONTINUOUS
 62
     3
  5
57D
 10
-18.364834
 20
-179.365714
 30
0.0
  0
VERTEX
  8
LY_1
  6
CONTINUOUS
 62
     3
  5
57E
 10
-18.2409
 20
-179.585824
 30
0.0
  0
VERTEX
  8
LY_1
  6
CONTINUOUS
 62
     3
  5
57F
 10
-18.102941
 20
-179.795546
 30
0.0
  0
VERTEX
  8
LY_1
  6
CONTINUOUS
 62
     3
  5
580
 10
-17.951736
 20
-179.993635
 30
0.0
  0
VERTEX
  8
LY_1
  6
CONTINUOUS
 62
     3
  5
581
 10
-17.788063
 20
-180.178845
 30
0.0
  0
VERTEX
  8
LY_1
  6
CONTINUOUS
 62
     3
  5
582
 10
-17.612701
 20
-180.349933
 30
0.0
  0
VERTEX
  8
LY_1
  6
CONTINUOUS
 62
     3
  5
583
 10
-17.42643
 20
-180.505653
 30
0.0
  0
VERTEX
  8
LY_1
  6
CONTINUOUS
 62
     3
  5
584
 10
-17.230026
 20
-180.64476
 30
0.0
  0
VERTEX
  8
LY_1
  6
CONTINUOUS
 62
     3
  5
585
 10
-17.024269
 20
-180.76601
 30
0.0
  0
VERTEX
  8
LY_1
  6
CONTINUOUS
 62
     3
  5
586
 10
-16.809937
 20
-180.868158
 30
0.0
  0
VERTEX
  8
LY_1
  6
CONTINUOUS
 62
     3
  5
587
 10
-16.774148
 20
-180.882953
 30
0.0
  0
VERTEX
  8
LY_1
  6
CONTINUOUS
 62
     3
  5
588
 10
-16.738161
 20
-180.897217
 30
0.0
  0
VERTEX
  8
LY_1
  6
CONTINUOUS
 62
     3
  5
589
 10
-16.701983
 20
-180.910959
 30
0.0
  0
VERTEX
  8
LY_1
  6
CONTINUOUS
 62
     3
  5
58A
 10
-16.665626
 20
-180.924193
 30
0.0
  0
VERTEX
  8
LY_1
  6
CONTINUOUS
 62
     3
  5
58B
 10
-16.629099
 20
-180.936928
 30
0.0
  0
VERTEX
  8
LY_1
  6
CONTINUOUS
 62
     3
  5
58C
 10
-16.592411
 20
-180.949178
 30
0.0
  0
VERTEX
  8
LY_1
  6
CONTINUOUS
 62
     3
  5
58D
 10
-16.555571
 20
-180.960952
 30
0.0
  0
VERTEX
  8
LY_1
  6
CONTINUOUS
 62
     3
  5
58E
 10
-16.518589
 20
-180.972263
 30
0.0
  0
VERTEX
  8
LY_1
  6
CONTINUOUS
 62
     3
  5
58F
 10
-16.481474
 20
-180.983122
 30
0.0
  0
VERTEX
  8
LY_1
  6
CONTINUOUS
 62
     3
  5
590
 10
-16.444237
 20
-180.99354
 30
0.0
  0
VERTEX
  8
LY_1
  6
CONTINUOUS
 62
     3
  5
591
 10
-16.406886
 20
-181.003529
 30
0.0
  0
VERTEX
  8
LY_1
  6
CONTINUOUS
 62
     3
  5
592
 10
-16.36943
 20
-181.0131
 30
0.0
  0
VERTEX
  8
LY_1
  6
CONTINUOUS
 62
     3
  5
593
 10
-16.33188
 20
-181.022264
 30
0.0
  0
VERTEX
  8
LY_1
  6
CONTINUOUS
 62
     3
  5
594
 10
-16.294244
 20
-181.031034
 30
0.0
  0
VERTEX
  8
LY_1
  6
CONTINUOUS
 62
     3
  5
595
 10
-16.256533
 20
-181.03942
 30
0.0
  0
VERTEX
  8
LY_1
  6
CONTINUOUS
 62
     3
  5
596
 10
-16.218755
 20
-181.047434
 30
0.0
  0
SEQEND
  8
LY_1
  6
CONTINUOUS
 62
     3
  5
597
  0
ARC
  8
LY_1
  6
CONTINUOUS
 62
     3
  5
CE
 10
0.0
 20
-115.0
 30
0.0
 40
54.85248
 50
263.246245
 51
256.388587
  0
ARC
  8
LY_1
  6
CONTINUOUS
 62
     3
  5
CF
 10
0.0
 20
-115.0
 30
0.0
 40
48.5
 50
267.111642
 51
259.64893
  0
ARC
  8
LY_1
  6
CONTINUOUS
 62
     3
  5
D0
 10
0.0
 20
-115.0
 30
0.0
 40
58.0
 50
261.272905
 51
254.613986
  0
LINE
  8
LY_1
  6
CONTINUOUS
 62
     3
  5
D1
 10
-54.864
 20
45.0
 30
0.0
 11
-54.112989
 21
5.884821
 31
0.0
  0
ARC
  8
LY_1
  6
CONTINUOUS
 62
     3
  5
D2
 10
-48.114094
 20
6.0
 30
0.0
 40
6.0
 50
181.099944
 51
270.0
  0
LINE
  8
LY_1
  6
CONTINUOUS
 62
     3
  5
D3
 10
54.864
 20
45.0
 30
0.0
 11
54.112989
 21
5.884821
 31
0.0
  0
ARC
  8
LY_1
  6
CONTINUOUS
 62
     3
  5
D4
 10
48.114094
 20
6.0
 30
0.0
 40
6.0
 50
270.0
 51
358.900056
  0
LINE
  8
LY_1
  6
CONTINUOUS
 62
     3
  5
D5
 10
32.810889
 20
-24.390757
 30
0.0
 11
27.810889
 21
-24.390757
 31
0.0
  0
LINE
  8
LY_1
  6
CONTINUOUS
 62
     3
  5
D6
 10
33.310889
 20
-16.860239
 30
0.0
 11
33.310889
 21
-23.890757
 31
0.0
  0
LINE
  8
LY_1
  6
CONTINUOUS
 62
     3
  5
D7
 10
27.310889
 20
-23.890757
 30
0.0
 11
27.310889
 21
-16.860239
 31
0.0
  0
LINE
  8
LY_1
  6
CONTINUOUS
 62
     3
  5
D8
 10
40.310898
 20
0.0
 30
0.0
 11
40.310898
 21
-10.0
 31
0.0
  0
LINE
  8
LY_1
  6
CONTINUOUS
 62
     3
  5
D9
 10
20.310898
 20
-10.0
 30
0.0
 11
20.310898
 21
0.0
 31
0.0
  0
LINE
  8
LY_1
  6
CONTINUOUS
 62
     3
  5
DA
 10
20.310898
 20
-10.0
 30
0.0
 11
40.310898
 21
-10.0
 31
0.0
  0
LINE
  8
LY_1
  6
CONTINUOUS
 62
     3
  5
DB
 10
-48.114094
 20
0.0
 30
0.0
 11
48.114094
 21
0.0
 31
0.0
  0
LINE
  8
LY_1
  6
CONTINUOUS
 62
     3
  5
DC
 10
36.810898
 20
-11.5
 30
0.0
 11
23.810898
 21
-11.5
 31
0.0
  0
LINE
  8
LY_1
  6
CONTINUOUS
 62
     3
  5
DD
 10
36.810898
 20
-10.0
 30
0.0
 11
23.810898
 21
-10.0
 31
0.0
  0
LINE
  8
LY_1
  6
CONTINUOUS
 62
     3
  5
DE
 10
36.810898
 20
-10.0
 30
0.0
 11
36.810898
 21
-11.5
 31
0.0
  0
LINE
  8
LY_1
  6
CONTINUOUS
 62
     3
  5
DF
 10
23.810898
 20
-11.5
 30
0.0
 11
23.810898
 21
-10.0
 31
0.0
  0
LINE
  8
LY_1
  6
CONTINUOUS
 62
     3
  5
E0
 10
24.610898
 20
-10.0
 30
0.0
 11
36.010898
 21
-10.0
 31
0.0
  0
LINE
  8
LY_1
  6
CONTINUOUS
 62
     3
  5
E1
 10
30.2915
 20
-16.860239
 30
0.0
 11
30.330284
 21
-16.860239
 31
0.0
  0
LINE
  8
LY_1
  6
CONTINUOUS
 62
    80
  5
E2
 10
33.197646
 20
-11.5
 30
0.0
 11
33.197646
 21
-16.413678
 31
0.0
  0
LINE
  8
LY_1
  6
CONTINUOUS
 62
    80
  5
E3
 10
27.42415
 20
-11.5
 30
0.0
 11
27.42415
 21
-16.413681
 31
0.0
  0
LINE
  8
LY_1
  6
CONTINUOUS
 62
     3
  5
E4
 10
30.330284
 20
-16.860239
 30
0.0
 11
34.631828
 21
-16.860239
 31
0.0
  0
LINE
  8
LY_1
  6
CONTINUOUS
 62
     3
  5
E5
 10
25.991181
 20
-16.860239
 30
0.0
 11
30.2915
 21
-16.860239
 31
0.0
  0
LINE
  8
LY_1
  6
CONTINUOUS
 62
     3
  5
E6
 10
24.537395
 20
-11.5
 30
0.0
 11
24.537395
 21
-16.41368
 31
0.0
  0
LINE
  8
LY_1
  6
CONTINUOUS
 62
     3
  5
E7
 10
25.970366
 20
-16.860239
 30
0.0
 11
25.991181
 21
-16.860239
 31
0.0
  0
LINE
  8
LY_1
  6
CONTINUOUS
 62
     3
  5
E8
 10
36.0844
 20
-11.5
 30
0.0
 11
36.0844
 21
-16.413673
 31
0.0
  0
LINE
  8
LY_1
  6
CONTINUOUS
 62
     3
  5
E9
 10
34.631828
 20
-16.860239
 30
0.0
 11
34.65021
 21
-16.860239
 31
0.0
  0
LINE
  8
LY_1
  6
CONTINUOUS
 62
     3
  5
EA
 10
36.084395
 20
-16.413676
 30
0.0
 11
35.310926
 21
-16.860239
 31
0.0
  0
LINE
  8
LY_1
  6
CONTINUOUS
 62
     3
  5
EB
 10
34.65021
 20
-16.860239
 30
0.0
 11
35.310926
 21
-16.860239
 31
0.0
  0
LINE
  8
LY_1
  6
CONTINUOUS
 62
     3
  5
EC
 10
25.310858
 20
-16.860239
 30
0.0
 11
25.970366
 21
-16.860239
 31
0.0
  0
LINE
  8
LY_1
  6
CONTINUOUS
 62
     3
  5
ED
 10
25.310858
 20
-16.860239
 30
0.0
 11
24.537389
 21
-16.413676
 31
0.0
  0
LINE
  8
LY_1
  6
CONTINUOUS
 62
     3
  5
EE
 10
36.0844
 20
-11.5
 30
0.0
 11
24.537395
 21
-11.5
 31
0.0
  0
POLYLINE
  8
LY_1
  6
CONTINUOUS
 62
    80
  5
EF
 66
     1
 10
0.0
 20
0.0
 30
0.0
  0
VERTEX
  8
LY_1
  6
CONTINUOUS
 62
    80
  5
598
 10
30.330284
 20
-16.860239
 30
0.0
  0
VERTEX
  8
LY_1
  6
CONTINUOUS
 62
    80
  5
599
 10
30.341899
 20
-16.860204
 30
0.0
  0
VERTEX
  8
LY_1
  6
CONTINUOUS
 62
    80
  5
59A
 10
30.353513
 20
-16.860153
 30
0.0
  0
VERTEX
  8
LY_1
  6
CONTINUOUS
 62
    80
  5
59B
 10
30.365127
 20
-16.860087
 30
0.0
  0
VERTEX
  8
LY_1
  6
CONTINUOUS
 62
    80
  5
59C
 10
30.376741
 20
-16.860006
 30
0.0
  0
VERTEX
  8
LY_1
  6
CONTINUOUS
 62
    80
  5
59D
 10
30.388356
 20
-16.85991
 30
0.0
  0
VERTEX
  8
LY_1
  6
CONTINUOUS
 62
    80
  5
59E
 10
30.39997
 20
-16.859798
 30
0.0
  0
VERTEX
  8
LY_1
  6
CONTINUOUS
 62
    80
  5
59F
 10
30.411583
 20
-16.859671
 30
0.0
  0
VERTEX
  8
LY_1
  6
CONTINUOUS
 62
    80
  5
5A0
 10
30.423197
 20
-16.859529
 30
0.0
  0
VERTEX
  8
LY_1
  6
CONTINUOUS
 62
    80
  5
5A1
 10
30.434811
 20
-16.859371
 30
0.0
  0
VERTEX
  8
LY_1
  6
CONTINUOUS
 62
    80
  5
5A2
 10
30.446424
 20
-16.859197
 30
0.0
  0
VERTEX
  8
LY_1
  6
CONTINUOUS
 62
    80
  5
5A3
 10
30.458037
 20
-16.859008
 30
0.0
  0
VERTEX
  8
LY_1
  6
CONTINUOUS
 62
    80
  5
5A4
 10
30.46965
 20
-16.858804
 30
0.0
  0
VERTEX
  8
LY_1
  6
CONTINUOUS
 62
    80
  5
5A5
 10
30.481263
 20
-16.858584
 30
0.0
  0
VERTEX
  8
LY_1
  6
CONTINUOUS
 62
    80
  5
5A6
 10
30.492876
 20
-16.858348
 30
0.0
  0
VERTEX
  8
LY_1
  6
CONTINUOUS
 62
    80
  5
5A7
 10
30.504488
 20
-16.858097
 30
0.0
  0
VERTEX
  8
LY_1
  6
CONTINUOUS
 62
    80
  5
5A8
 10
30.5161
 20
-16.85783
 30
0.0
  0
VERTEX
  8
LY_1
  6
CONTINUOUS
 62
    80
  5
5A9
 10
30.558171
 20
-16.856733
 30
0.0
  0
VERTEX
  8
LY_1
  6
CONTINUOUS
 62
    80
  5
5AA
 10
30.600238
 20
-16.85543
 30
0.0
  0
VERTEX
  8
LY_1
  6
CONTINUOUS
 62
    80
  5
5AB
 10
30.6423
 20
-16.853923
 30
0.0
  0
VERTEX
  8
LY_1
  6
CONTINUOUS
 62
    80
  5
5AC
 10
30.684355
 20
-16.852214
 30
0.0
  0
VERTEX
  8
LY_1
  6
CONTINUOUS
 62
    80
  5
5AD
 10
30.726402
 20
-16.850302
 30
0.0
  0
VERTEX
  8
LY_1
  6
CONTINUOUS
 62
    80
  5
5AE
 10
30.768441
 20
-16.848188
 30
0.0
  0
VERTEX
  8
LY_1
  6
CONTINUOUS
 62
    80
  5
5AF
 10
30.81047
 20
-16.845874
 30
0.0
  0
VERTEX
  8
LY_1
  6
CONTINUOUS
 62
    80
  5
5B0
 10
30.852488
 20
-16.843361
 30
0.0
  0
VERTEX
  8
LY_1
  6
CONTINUOUS
 62
    80
  5
5B1
 10
30.894495
 20
-16.840648
 30
0.0
  0
VERTEX
  8
LY_1
  6
CONTINUOUS
 62
    80
  5
5B2
 10
30.936489
 20
-16.837738
 30
0.0
  0
VERTEX
  8
LY_1
  6
CONTINUOUS
 62
    80
  5
5B3
 10
30.978469
 20
-16.834631
 30
0.0
  0
VERTEX
  8
LY_1
  6
CONTINUOUS
 62
    80
  5
5B4
 10
31.020435
 20
-16.831327
 30
0.0
  0
VERTEX
  8
LY_1
  6
CONTINUOUS
 62
    80
  5
5B5
 10
31.062385
 20
-16.827828
 30
0.0
  0
VERTEX
  8
LY_1
  6
CONTINUOUS
 62
    80
  5
5B6
 10
31.104318
 20
-16.824135
 30
0.0
  0
VERTEX
  8
LY_1
  6
CONTINUOUS
 62
    80
  5
5B7
 10
31.146233
 20
-16.820248
 30
0.0
  0
VERTEX
  8
LY_1
  6
CONTINUOUS
 62
    80
  5
5B8
 10
31.188129
 20
-16.816168
 30
0.0
  0
VERTEX
  8
LY_1
  6
CONTINUOUS
 62
    80
  5
5B9
 10
31.230235
 20
-16.811872
 30
0.0
  0
VERTEX
  8
LY_1
  6
CONTINUOUS
 62
    80
  5
5BA
 10
31.272321
 20
-16.807383
 30
0.0
  0
VERTEX
  8
LY_1
  6
CONTINUOUS
 62
    80
  5
5BB
 10
31.314385
 20
-16.802704
 30
0.0
  0
VERTEX
  8
LY_1
  6
CONTINUOUS
 62
    80
  5
5BC
 10
31.356427
 20
-16.797834
 30
0.0
  0
VERTEX
  8
LY_1
  6
CONTINUOUS
 62
    80
  5
5BD
 10
31.398447
 20
-16.792775
 30
0.0
  0
VERTEX
  8
LY_1
  6
CONTINUOUS
 62
    80
  5
5BE
 10
31.440443
 20
-16.787529
 30
0.0
  0
VERTEX
  8
LY_1
  6
CONTINUOUS
 62
    80
  5
5BF
 10
31.482416
 20
-16.782098
 30
0.0
  0
VERTEX
  8
LY_1
  6
CONTINUOUS
 62
    80
  5
5C0
 10
31.524364
 20
-16.776481
 30
0.0
  0
VERTEX
  8
LY_1
  6
CONTINUOUS
 62
    80
  5
5C1
 10
31.566286
 20
-16.770681
 30
0.0
  0
VERTEX
  8
LY_1
  6
CONTINUOUS
 62
    80
  5
5C2
 10
31.608183
 20
-16.764699
 30
0.0
  0
VERTEX
  8
LY_1
  6
CONTINUOUS
 62
    80
  5
5C3
 10
31.650054
 20
-16.758536
 30
0.0
  0
VERTEX
  8
LY_1
  6
CONTINUOUS
 62
    80
  5
5C4
 10
31.691897
 20
-16.752194
 30
0.0
  0
VERTEX
  8
LY_1
  6
CONTINUOUS
 62
    80
  5
5C5
 10
31.733713
 20
-16.745674
 30
0.0
  0
VERTEX
  8
LY_1
  6
CONTINUOUS
 62
    80
  5
5C6
 10
31.7755
 20
-16.738977
 30
0.0
  0
VERTEX
  8
LY_1
  6
CONTINUOUS
 62
    80
  5
5C7
 10
31.817258
 20
-16.732105
 30
0.0
  0
VERTEX
  8
LY_1
  6
CONTINUOUS
 62
    80
  5
5C8
 10
31.858987
 20
-16.725059
 30
0.0
  0
VERTEX
  8
LY_1
  6
CONTINUOUS
 62
    80
  5
5C9
 10
31.901259
 20
-16.71774
 30
0.0
  0
VERTEX
  8
LY_1
  6
CONTINUOUS
 62
    80
  5
5CA
 10
31.943499
 20
-16.710246
 30
0.0
  0
VERTEX
  8
LY_1
  6
CONTINUOUS
 62
    80
  5
5CB
 10
31.985708
 20
-16.702579
 30
0.0
  0
VERTEX
  8
LY_1
  6
CONTINUOUS
 62
    80
  5
5CC
 10
32.027886
 20
-16.694743
 30
0.0
  0
VERTEX
  8
LY_1
  6
CONTINUOUS
 62
    80
  5
5CD
 10
32.070033
 20
-16.686739
 30
0.0
  0
VERTEX
  8
LY_1
  6
CONTINUOUS
 62
    80
  5
5CE
 10
32.112148
 20
-16.67857
 30
0.0
  0
VERTEX
  8
LY_1
  6
CONTINUOUS
 62
    80
  5
5CF
 10
32.154232
 20
-16.670238
 30
0.0
  0
VERTEX
  8
LY_1
  6
CONTINUOUS
 62
    80
  5
5D0
 10
32.196284
 20
-16.661747
 30
0.0
  0
VERTEX
  8
LY_1
  6
CONTINUOUS
 62
    80
  5
5D1
 10
32.238305
 20
-16.653098
 30
0.0
  0
VERTEX
  8
LY_1
  6
CONTINUOUS
 62
    80
  5
5D2
 10
32.280294
 20
-16.644294
 30
0.0
  0
VERTEX
  8
LY_1
  6
CONTINUOUS
 62
    80
  5
5D3
 10
32.322251
 20
-16.635337
 30
0.0
  0
VERTEX
  8
LY_1
  6
CONTINUOUS
 62
    80
  5
5D4
 10
32.364176
 20
-16.62623
 30
0.0
  0
VERTEX
  8
LY_1
  6
CONTINUOUS
 62
    80
  5
5D5
 10
32.40607
 20
-16.616976
 30
0.0
  0
VERTEX
  8
LY_1
  6
CONTINUOUS
 62
    80
  5
5D6
 10
32.447931
 20
-16.607577
 30
0.0
  0
VERTEX
  8
LY_1
  6
CONTINUOUS
 62
    80
  5
5D7
 10
32.489761
 20
-16.598036
 30
0.0
  0
VERTEX
  8
LY_1
  6
CONTINUOUS
 62
    80
  5
5D8
 10
32.531558
 20
-16.588354
 30
0.0
  0
VERTEX
  8
LY_1
  6
CONTINUOUS
 62
    80
  5
5D9
 10
32.573463
 20
-16.578501
 30
0.0
  0
VERTEX
  8
LY_1
  6
CONTINUOUS
 62
    80
  5
5DA
 10
32.615334
 20
-16.568509
 30
0.0
  0
VERTEX
  8
LY_1
  6
CONTINUOUS
 62
    80
  5
5DB
 10
32.657171
 20
-16.558378
 30
0.0
  0
VERTEX
  8
LY_1
  6
CONTINUOUS
 62
    80
  5
5DC
 10
32.698974
 20
-16.548106
 30
0.0
  0
VERTEX
  8
LY_1
  6
CONTINUOUS
 62
    80
  5
5DD
 10
32.740742
 20
-16.537694
 30
0.0
  0
VERTEX
  8
LY_1
  6
CONTINUOUS
 62
    80
  5
5DE
 10
32.782474
 20
-16.527139
 30
0.0
  0
VERTEX
  8
LY_1
  6
CONTINUOUS
 62
    80
  5
5DF
 10
32.824168
 20
-16.516443
 30
0.0
  0
VERTEX
  8
LY_1
  6
CONTINUOUS
 62
    80
  5
5E0
 10
32.865826
 20
-16.505604
 30
0.0
  0
VERTEX
  8
LY_1
  6
CONTINUOUS
 62
    80
  5
5E1
 10
32.907445
 20
-16.494621
 30
0.0
  0
VERTEX
  8
LY_1
  6
CONTINUOUS
 62
    80
  5
5E2
 10
32.949025
 20
-16.483495
 30
0.0
  0
VERTEX
  8
LY_1
  6
CONTINUOUS
 62
    80
  5
5E3
 10
32.990565
 20
-16.472224
 30
0.0
  0
VERTEX
  8
LY_1
  6
CONTINUOUS
 62
    80
  5
5E4
 10
33.032065
 20
-16.460807
 30
0.0
  0
VERTEX
  8
LY_1
  6
CONTINUOUS
 62
    80
  5
5E5
 10
33.073524
 20
-16.449245
 30
0.0
  0
VERTEX
  8
LY_1
  6
CONTINUOUS
 62
    80
  5
5E6
 10
33.114941
 20
-16.437537
 30
0.0
  0
VERTEX
  8
LY_1
  6
CONTINUOUS
 62
    80
  5
5E7
 10
33.156315
 20
-16.425681
 30
0.0
  0
VERTEX
  8
LY_1
  6
CONTINUOUS
 62
    80
  5
5E8
 10
33.197646
 20
-16.413678
 30
0.0
  0
SEQEND
  8
LY_1
  6
CONTINUOUS
 62
    80
  5
5E9
  0
POLYLINE
  8
LY_1
  6
CONTINUOUS
 62
    80
  5
F0
 66
     1
 10
0.0
 20
0.0
 30
0.0
  0
VERTEX
  8
LY_1
  6
CONTINUOUS
 62
    80
  5
5EA
 10
27.42415
 20
-16.413681
 30
0.0
  0
VERTEX
  8
LY_1
  6
CONTINUOUS
 62
    80
  5
5EB
 10
27.467357
 20
-16.42624
 30
0.0
  0
VERTEX
  8
LY_1
  6
CONTINUOUS
 62
    80
  5
5EC
 10
27.510611
 20
-16.438636
 30
0.0
  0
VERTEX
  8
LY_1
  6
CONTINUOUS
 62
    80
  5
5ED
 10
27.553913
 20
-16.45087
 30
0.0
  0
VERTEX
  8
LY_1
  6
CONTINUOUS
 62
    80
  5
5EE
 10
27.597262
 20
-16.462943
 30
0.0
  0
VERTEX
  8
LY_1
  6
CONTINUOUS
 62
    80
  5
5EF
 10
27.640655
 20
-16.474855
 30
0.0
  0
VERTEX
  8
LY_1
  6
CONTINUOUS
 62
    80
  5
5F0
 10
27.684094
 20
-16.486607
 30
0.0
  0
VERTEX
  8
LY_1
  6
CONTINUOUS
 62
    80
  5
5F1
 10
27.727575
 20
-16.498199
 30
0.0
  0
VERTEX
  8
LY_1
  6
CONTINUOUS
 62
    80
  5
5F2
 10
27.7711
 20
-16.509632
 30
0.0
  0
VERTEX
  8
LY_1
  6
CONTINUOUS
 62
    80
  5
5F3
 10
27.814667
 20
-16.520908
 30
0.0
  0
VERTEX
  8
LY_1
  6
CONTINUOUS
 62
    80
  5
5F4
 10
27.858275
 20
-16.532026
 30
0.0
  0
VERTEX
  8
LY_1
  6
CONTINUOUS
 62
    80
  5
5F5
 10
27.901923
 20
-16.542987
 30
0.0
  0
VERTEX
  8
LY_1
  6
CONTINUOUS
 62
    80
  5
5F6
 10
27.945611
 20
-16.553792
 30
0.0
  0
VERTEX
  8
LY_1
  6
CONTINUOUS
 62
    80
  5
5F7
 10
27.989337
 20
-16.564441
 30
0.0
  0
VERTEX
  8
LY_1
  6
CONTINUOUS
 62
    80
  5
5F8
 10
28.033101
 20
-16.574936
 30
0.0
  0
VERTEX
  8
LY_1
  6
CONTINUOUS
 62
    80
  5
5F9
 10
28.076902
 20
-16.585276
 30
0.0
  0
VERTEX
  8
LY_1
  6
CONTINUOUS
 62
    80
  5
5FA
 10
28.120739
 20
-16.595463
 30
0.0
  0
VERTEX
  8
LY_1
  6
CONTINUOUS
 62
    80
  5
5FB
 10
28.164755
 20
-16.60553
 30
0.0
  0
VERTEX
  8
LY_1
  6
CONTINUOUS
 62
    80
  5
5FC
 10
28.208807
 20
-16.61544
 30
0.0
  0
VERTEX
  8
LY_1
  6
CONTINUOUS
 62
    80
  5
5FD
 10
28.252894
 20
-16.62519
 30
0.0
  0
VERTEX
  8
LY_1
  6
CONTINUOUS
 62
    80
  5
5FE
 10
28.297017
 20
-16.634778
 30
0.0
  0
VERTEX
  8
LY_1
  6
CONTINUOUS
 62
    80
  5
5FF
 10
28.341174
 20
-16.644202
 30
0.0
  0
VERTEX
  8
LY_1
  6
CONTINUOUS
 62
    80
  5
600
 10
28.385366
 20
-16.653457
 30
0.0
  0
VERTEX
  8
LY_1
  6
CONTINUOUS
 62
    80
  5
601
 10
28.429593
 20
-16.662542
 30
0.0
  0
VERTEX
  8
LY_1
  6
CONTINUOUS
 62
    80
  5
602
 10
28.473855
 20
-16.671454
 30
0.0
  0
VERTEX
  8
LY_1
  6
CONTINUOUS
 62
    80
  5
603
 10
28.518151
 20
-16.68019
 30
0.0
  0
VERTEX
  8
LY_1
  6
CONTINUOUS
 62
    80
  5
604
 10
28.562482
 20
-16.688746
 30
0.0
  0
VERTEX
  8
LY_1
  6
CONTINUOUS
 62
    80
  5
605
 10
28.606847
 20
-16.697121
 30
0.0
  0
VERTEX
  8
LY_1
  6
CONTINUOUS
 62
    80
  5
606
 10
28.651246
 20
-16.705312
 30
0.0
  0
VERTEX
  8
LY_1
  6
CONTINUOUS
 62
    80
  5
607
 10
28.69568
 20
-16.713315
 30
0.0
  0
VERTEX
  8
LY_1
  6
CONTINUOUS
 62
    80
  5
608
 10
28.740148
 20
-16.721128
 30
0.0
  0
VERTEX
  8
LY_1
  6
CONTINUOUS
 62
    80
  5
609
 10
28.784649
 20
-16.728748
 30
0.0
  0
VERTEX
  8
LY_1
  6
CONTINUOUS
 62
    80
  5
60A
 10
28.829185
 20
-16.736173
 30
0.0
  0
VERTEX
  8
LY_1
  6
CONTINUOUS
 62
    80
  5
60B
 10
28.874358
 20
-16.743496
 30
0.0
  0
VERTEX
  8
LY_1
  6
CONTINUOUS
 62
    80
  5
60C
 10
28.919565
 20
-16.750613
 30
0.0
  0
VERTEX
  8
LY_1
  6
CONTINUOUS
 62
    80
  5
60D
 10
28.964804
 20
-16.757522
 30
0.0
  0
VERTEX
  8
LY_1
  6
CONTINUOUS
 62
    80
  5
60E
 10
29.010076
 20
-16.764221
 30
0.0
  0
VERTEX
  8
LY_1
  6
CONTINUOUS
 62
    80
  5
60F
 10
29.05538
 20
-16.770708
 30
0.0
  0
VERTEX
  8
LY_1
  6
CONTINUOUS
 62
    80
  5
610
 10
29.100713
 20
-16.776981
 30
0.0
  0
VERTEX
  8
LY_1
  6
CONTINUOUS
 62
    80
  5
611
 10
29.146076
 20
-16.783039
 30
0.0
  0
VERTEX
  8
LY_1
  6
CONTINUOUS
 62
    80
  5
612
 10
29.191468
 20
-16.788878
 30
0.0
  0
VERTEX
  8
LY_1
  6
CONTINUOUS
 62
    80
  5
613
 10
29.236888
 20
-16.794498
 30
0.0
  0
VERTEX
  8
LY_1
  6
CONTINUOUS
 62
    80
  5
614
 10
29.282335
 20
-16.799895
 30
0.0
  0
VERTEX
  8
LY_1
  6
CONTINUOUS
 62
    80
  5
615
 10
29.327808
 20
-16.805069
 30
0.0
  0
VERTEX
  8
LY_1
  6
CONTINUOUS
 62
    80
  5
616
 10
29.373306
 20
-16.810016
 30
0.0
  0
VERTEX
  8
LY_1
  6
CONTINUOUS
 62
    80
  5
617
 10
29.418829
 20
-16.814735
 30
0.0
  0
VERTEX
  8
LY_1
  6
CONTINUOUS
 62
    80
  5
618
 10
29.464375
 20
-16.819225
 30
0.0
  0
VERTEX
  8
LY_1
  6
CONTINUOUS
 62
    80
  5
619
 10
29.509945
 20
-16.823482
 30
0.0
  0
VERTEX
  8
LY_1
  6
CONTINUOUS
 62
    80
  5
61A
 10
29.555536
 20
-16.827505
 30
0.0
  0
VERTEX
  8
LY_1
  6
CONTINUOUS
 62
    80
  5
61B
 10
29.601436
 20
-16.831316
 30
0.0
  0
VERTEX
  8
LY_1
  6
CONTINUOUS
 62
    80
  5
61C
 10
29.647356
 20
-16.834888
 30
0.0
  0
VERTEX
  8
LY_1
  6
CONTINUOUS
 62
    80
  5
61D
 10
29.693295
 20
-16.838222
 30
0.0
  0
VERTEX
  8
LY_1
  6
CONTINUOUS
 62
    80
  5
61E
 10
29.73925
 20
-16.841319
 30
0.0
  0
VERTEX
  8
LY_1
  6
CONTINUOUS
 62
    80
  5
61F
 10
29.785221
 20
-16.84418
 30
0.0
  0
VERTEX
  8
LY_1
  6
CONTINUOUS
 62
    80
  5
620
 10
29.831206
 20
-16.846805
 30
0.0
  0
VERTEX
  8
LY_1
  6
CONTINUOUS
 62
    80
  5
621
 10
29.877203
 20
-16.849196
 30
0.0
  0
VERTEX
  8
LY_1
  6
CONTINUOUS
 62
    80
  5
622
 10
29.923212
 20
-16.851351
 30
0.0
  0
VERTEX
  8
LY_1
  6
CONTINUOUS
 62
    80
  5
623
 10
29.96923
 20
-16.853273
 30
0.0
  0
VERTEX
  8
LY_1
  6
CONTINUOUS
 62
    80
  5
624
 10
30.015256
 20
-16.854962
 30
0.0
  0
VERTEX
  8
LY_1
  6
CONTINUOUS
 62
    80
  5
625
 10
30.061289
 20
-16.856419
 30
0.0
  0
VERTEX
  8
LY_1
  6
CONTINUOUS
 62
    80
  5
626
 10
30.107326
 20
-16.857643
 30
0.0
  0
VERTEX
  8
LY_1
  6
CONTINUOUS
 62
    80
  5
627
 10
30.153368
 20
-16.858637
 30
0.0
  0
VERTEX
  8
LY_1
  6
CONTINUOUS
 62
    80
  5
628
 10
30.199412
 20
-16.859401
 30
0.0
  0
VERTEX
  8
LY_1
  6
CONTINUOUS
 62
    80
  5
629
 10
30.245456
 20
-16.859934
 30
0.0
  0
VERTEX
  8
LY_1
  6
CONTINUOUS
 62
    80
  5
62A
 10
30.2915
 20
-16.860239
 30
0.0
  0
SEQEND
  8
LY_1
  6
CONTINUOUS
 62
    80
  5
62B
  0
POLYLINE
  8
LY_1
  6
CONTINUOUS
 62
    80
  5
F1
 66
     1
 10
0.0
 20
0.0
 30
0.0
  0
VERTEX
  8
LY_1
  6
CONTINUOUS
 62
    80
  5
62C
 10
33.197646
 20
-16.413678
 30
0.0
  0
VERTEX
  8
LY_1
  6
CONTINUOUS
 62
    80
  5
62D
 10
33.219558
 20
-16.426481
 30
0.0
  0
VERTEX
  8
LY_1
  6
CONTINUOUS
 62
    80
  5
62E
 10
33.241559
 20
-16.439136
 30
0.0
  0
VERTEX
  8
LY_1
  6
CONTINUOUS
 62
    80
  5
62F
 10
33.263646
 20
-16.451644
 30
0.0
  0
VERTEX
  8
LY_1
  6
CONTINUOUS
 62
    80
  5
630
 10
33.285818
 20
-16.464006
 30
0.0
  0
VERTEX
  8
LY_1
  6
CONTINUOUS
 62
    80
  5
631
 10
33.308073
 20
-16.47622
 30
0.0
  0
VERTEX
  8
LY_1
  6
CONTINUOUS
 62
    80
  5
632
 10
33.330409
 20
-16.488288
 30
0.0
  0
VERTEX
  8
LY_1
  6
CONTINUOUS
 62
    80
  5
633
 10
33.352826
 20
-16.50021
 30
0.0
  0
VERTEX
  8
LY_1
  6
CONTINUOUS
 62
    80
  5
634
 10
33.375321
 20
-16.511986
 30
0.0
  0
VERTEX
  8
LY_1
  6
CONTINUOUS
 62
    80
  5
635
 10
33.397892
 20
-16.523617
 30
0.0
  0
VERTEX
  8
LY_1
  6
CONTINUOUS
 62
    80
  5
636
 10
33.420539
 20
-16.535102
 30
0.0
  0
VERTEX
  8
LY_1
  6
CONTINUOUS
 62
    80
  5
637
 10
33.44326
 20
-16.546442
 30
0.0
  0
VERTEX
  8
LY_1
  6
CONTINUOUS
 62
    80
  5
638
 10
33.466053
 20
-16.557638
 30
0.0
  0
VERTEX
  8
LY_1
  6
CONTINUOUS
 62
    80
  5
639
 10
33.488916
 20
-16.56869
 30
0.0
  0
VERTEX
  8
LY_1
  6
CONTINUOUS
 62
    80
  5
63A
 10
33.511848
 20
-16.579597
 30
0.0
  0
VERTEX
  8
LY_1
  6
CONTINUOUS
 62
    80
  5
63B
 10
33.534847
 20
-16.590361
 30
0.0
  0
VERTEX
  8
LY_1
  6
CONTINUOUS
 62
    80
  5
63C
 10
33.557912
 20
-16.600982
 30
0.0
  0
VERTEX
  8
LY_1
  6
CONTINUOUS
 62
    80
  5
63D
 10
33.57413
 20
-16.608345
 30
0.0
  0
VERTEX
  8
LY_1
  6
CONTINUOUS
 62
    80
  5
63E
 10
33.59038
 20
-16.615637
 30
0.0
  0
VERTEX
  8
LY_1
  6
CONTINUOUS
 62
    80
  5
63F
 10
33.606661
 20
-16.622855
 30
0.0
  0
VERTEX
  8
LY_1
  6
CONTINUOUS
 62
    80
  5
640
 10
33.622976
 20
-16.629996
 30
0.0
  0
VERTEX
  8
LY_1
  6
CONTINUOUS
 62
    80
  5
641
 10
33.639323
 20
-16.63706
 30
0.0
  0
VERTEX
  8
LY_1
  6
CONTINUOUS
 62
    80
  5
642
 10
33.655704
 20
-16.644044
 30
0.0
  0
VERTEX
  8
LY_1
  6
CONTINUOUS
 62
    80
  5
643
 10
33.672119
 20
-16.650946
 30
0.0
  0
VERTEX
  8
LY_1
  6
CONTINUOUS
 62
    80
  5
644
 10
33.688567
 20
-16.657764
 30
0.0
  0
VERTEX
  8
LY_1
  6
CONTINUOUS
 62
    80
  5
645
 10
33.70505
 20
-16.664498
 30
0.0
  0
VERTEX
  8
LY_1
  6
CONTINUOUS
 62
    80
  5
646
 10
33.721568
 20
-16.671144
 30
0.0
  0
VERTEX
  8
LY_1
  6
CONTINUOUS
 62
    80
  5
647
 10
33.738121
 20
-16.677701
 30
0.0
  0
VERTEX
  8
LY_1
  6
CONTINUOUS
 62
    80
  5
648
 10
33.754709
 20
-16.684167
 30
0.0
  0
VERTEX
  8
LY_1
  6
CONTINUOUS
 62
    80
  5
649
 10
33.771333
 20
-16.690541
 30
0.0
  0
VERTEX
  8
LY_1
  6
CONTINUOUS
 62
    80
  5
64A
 10
33.787993
 20
-16.69682
 30
0.0
  0
VERTEX
  8
LY_1
  6
CONTINUOUS
 62
    80
  5
64B
 10
33.80469
 20
-16.703002
 30
0.0
  0
VERTEX
  8
LY_1
  6
CONTINUOUS
 62
    80
  5
64C
 10
33.821423
 20
-16.709086
 30
0.0
  0
VERTEX
  8
LY_1
  6
CONTINUOUS
 62
    80
  5
64D
 10
33.837834
 20
-16.714942
 30
0.0
  0
VERTEX
  8
LY_1
  6
CONTINUOUS
 62
    80
  5
64E
 10
33.854281
 20
-16.720702
 30
0.0
  0
VERTEX
  8
LY_1
  6
CONTINUOUS
 62
    80
  5
64F
 10
33.870762
 20
-16.726363
 30
0.0
  0
VERTEX
  8
LY_1
  6
CONTINUOUS
 62
    80
  5
650
 10
33.887277
 20
-16.731924
 30
0.0
  0
VERTEX
  8
LY_1
  6
CONTINUOUS
 62
    80
  5
651
 10
33.903827
 20
-16.737385
 30
0.0
  0
VERTEX
  8
LY_1
  6
CONTINUOUS
 62
    80
  5
652
 10
33.92041
 20
-16.742744
 30
0.0
  0
VERTEX
  8
LY_1
  6
CONTINUOUS
 62
    80
  5
653
 10
33.937026
 20
-16.748
 30
0.0
  0
VERTEX
  8
LY_1
  6
CONTINUOUS
 62
    80
  5
654
 10
33.953676
 20
-16.753152
 30
0.0
  0
VERTEX
  8
LY_1
  6
CONTINUOUS
 62
    80
  5
655
 10
33.970357
 20
-16.758198
 30
0.0
  0
VERTEX
  8
LY_1
  6
CONTINUOUS
 62
    80
  5
656
 10
33.987071
 20
-16.763138
 30
0.0
  0
VERTEX
  8
LY_1
  6
CONTINUOUS
 62
    80
  5
657
 10
34.003816
 20
-16.76797
 30
0.0
  0
VERTEX
  8
LY_1
  6
CONTINUOUS
 62
    80
  5
658
 10
34.020592
 20
-16.772693
 30
0.0
  0
VERTEX
  8
LY_1
  6
CONTINUOUS
 62
    80
  5
659
 10
34.037399
 20
-16.777306
 30
0.0
  0
VERTEX
  8
LY_1
  6
CONTINUOUS
 62
    80
  5
65A
 10
34.054236
 20
-16.781808
 30
0.0
  0
VERTEX
  8
LY_1
  6
CONTINUOUS
 62
    80
  5
65B
 10
34.071103
 20
-16.786198
 30
0.0
  0
VERTEX
  8
LY_1
  6
CONTINUOUS
 62
    80
  5
65C
 10
34.088
 20
-16.790474
 30
0.0
  0
VERTEX
  8
LY_1
  6
CONTINUOUS
 62
    80
  5
65D
 10
34.104744
 20
-16.794591
 30
0.0
  0
VERTEX
  8
LY_1
  6
CONTINUOUS
 62
    80
  5
65E
 10
34.121515
 20
-16.798594
 30
0.0
  0
VERTEX
  8
LY_1
  6
CONTINUOUS
 62
    80
  5
65F
 10
34.138314
 20
-16.802482
 30
0.0
  0
VERTEX
  8
LY_1
  6
CONTINUOUS
 62
    80
  5
660
 10
34.155139
 20
-16.806254
 30
0.0
  0
VERTEX
  8
LY_1
  6
CONTINUOUS
 62
    80
  5
661
 10
34.171991
 20
-16.809908
 30
0.0
  0
VERTEX
  8
LY_1
  6
CONTINUOUS
 62
    80
  5
662
 10
34.188867
 20
-16.813443
 30
0.0
  0
VERTEX
  8
LY_1
  6
CONTINUOUS
 62
    80
  5
663
 10
34.205768
 20
-16.816857
 30
0.0
  0
VERTEX
  8
LY_1
  6
CONTINUOUS
 62
    80
  5
664
 10
34.222693
 20
-16.820149
 30
0.0
  0
VERTEX
  8
LY_1
  6
CONTINUOUS
 62
    80
  5
665
 10
34.239642
 20
-16.823318
 30
0.0
  0
VERTEX
  8
LY_1
  6
CONTINUOUS
 62
    80
  5
666
 10
34.256613
 20
-16.826363
 30
0.0
  0
VERTEX
  8
LY_1
  6
CONTINUOUS
 62
    80
  5
667
 10
34.273606
 20
-16.829281
 30
0.0
  0
VERTEX
  8
LY_1
  6
CONTINUOUS
 62
    80
  5
668
 10
34.290621
 20
-16.832072
 30
0.0
  0
VERTEX
  8
LY_1
  6
CONTINUOUS
 62
    80
  5
669
 10
34.307656
 20
-16.834734
 30
0.0
  0
VERTEX
  8
LY_1
  6
CONTINUOUS
 62
    80
  5
66A
 10
34.324712
 20
-16.837266
 30
0.0
  0
VERTEX
  8
LY_1
  6
CONTINUOUS
 62
    80
  5
66B
 10
34.341787
 20
-16.839666
 30
0.0
  0
VERTEX
  8
LY_1
  6
CONTINUOUS
 62
    80
  5
66C
 10
34.358881
 20
-16.841933
 30
0.0
  0
VERTEX
  8
LY_1
  6
CONTINUOUS
 62
    80
  5
66D
 10
34.375858
 20
-16.84405
 30
0.0
  0
VERTEX
  8
LY_1
  6
CONTINUOUS
 62
    80
  5
66E
 10
34.392852
 20
-16.846036
 30
0.0
  0
VERTEX
  8
LY_1
  6
CONTINUOUS
 62
    80
  5
66F
 10
34.409862
 20
-16.847889
 30
0.0
  0
VERTEX
  8
LY_1
  6
CONTINUOUS
 62
    80
  5
670
 10
34.426885
 20
-16.849612
 30
0.0
  0
VERTEX
  8
LY_1
  6
CONTINUOUS
 62
    80
  5
671
 10
34.443922
 20
-16.851205
 30
0.0
  0
VERTEX
  8
LY_1
  6
CONTINUOUS
 62
    80
  5
672
 10
34.46097
 20
-16.852667
 30
0.0
  0
VERTEX
  8
LY_1
  6
CONTINUOUS
 62
    80
  5
673
 10
34.478029
 20
-16.854
 30
0.0
  0
VERTEX
  8
LY_1
  6
CONTINUOUS
 62
    80
  5
674
 10
34.495098
 20
-16.855204
 30
0.0
  0
VERTEX
  8
LY_1
  6
CONTINUOUS
 62
    80
  5
675
 10
34.512174
 20
-16.856279
 30
0.0
  0
VERTEX
  8
LY_1
  6
CONTINUOUS
 62
    80
  5
676
 10
34.529257
 20
-16.857226
 30
0.0
  0
VERTEX
  8
LY_1
  6
CONTINUOUS
 62
    80
  5
677
 10
34.546345
 20
-16.858045
 30
0.0
  0
VERTEX
  8
LY_1
  6
CONTINUOUS
 62
    80
  5
678
 10
34.563438
 20
-16.858737
 30
0.0
  0
VERTEX
  8
LY_1
  6
CONTINUOUS
 62
    80
  5
679
 10
34.580534
 20
-16.859302
 30
0.0
  0
VERTEX
  8
LY_1
  6
CONTINUOUS
 62
    80
  5
67A
 10
34.597632
 20
-16.85974
 30
0.0
  0
VERTEX
  8
LY_1
  6
CONTINUOUS
 62
    80
  5
67B
 10
34.61473
 20
-16.860052
 30
0.0
  0
VERTEX
  8
LY_1
  6
CONTINUOUS
 62
    80
  5
67C
 10
34.631828
 20
-16.860239
 30
0.0
  0
SEQEND
  8
LY_1
  6
CONTINUOUS
 62
    80
  5
67D
  0
POLYLINE
  8
LY_1
  6
CONTINUOUS
 62
    80
  5
F2
 66
     1
 10
0.0
 20
0.0
 30
0.0
  0
VERTEX
  8
LY_1
  6
CONTINUOUS
 62
    80
  5
67E
 10
25.991181
 20
-16.860239
 30
0.0
  0
VERTEX
  8
LY_1
  6
CONTINUOUS
 62
    80
  5
67F
 10
25.996945
 20
-16.860201
 30
0.0
  0
VERTEX
  8
LY_1
  6
CONTINUOUS
 62
    80
  5
680
 10
26.002708
 20
-16.860148
 30
0.0
  0
VERTEX
  8
LY_1
  6
CONTINUOUS
 62
    80
  5
681
 10
26.008472
 20
-16.860081
 30
0.0
  0
VERTEX
  8
LY_1
  6
CONTINUOUS
 62
    80
  5
682
 10
26.014235
 20
-16.859998
 30
0.0
  0
VERTEX
  8
LY_1
  6
CONTINUOUS
 62
    80
  5
683
 10
26.019998
 20
-16.859901
 30
0.0
  0
VERTEX
  8
LY_1
  6
CONTINUOUS
 62
    80
  5
684
 10
26.025761
 20
-16.859789
 30
0.0
  0
VERTEX
  8
LY_1
  6
CONTINUOUS
 62
    80
  5
685
 10
26.031523
 20
-16.859662
 30
0.0
  0
VERTEX
  8
LY_1
  6
CONTINUOUS
 62
    80
  5
686
 10
26.037286
 20
-16.85952
 30
0.0
  0
VERTEX
  8
LY_1
  6
CONTINUOUS
 62
    80
  5
687
 10
26.043048
 20
-16.859362
 30
0.0
  0
VERTEX
  8
LY_1
  6
CONTINUOUS
 62
    80
  5
688
 10
26.048809
 20
-16.85919
 30
0.0
  0
VERTEX
  8
LY_1
  6
CONTINUOUS
 62
    80
  5
689
 10
26.054571
 20
-16.859002
 30
0.0
  0
VERTEX
  8
LY_1
  6
CONTINUOUS
 62
    80
  5
68A
 10
26.060331
 20
-16.858799
 30
0.0
  0
VERTEX
  8
LY_1
  6
CONTINUOUS
 62
    80
  5
68B
 10
26.066092
 20
-16.858581
 30
0.0
  0
VERTEX
  8
LY_1
  6
CONTINUOUS
 62
    80
  5
68C
 10
26.071852
 20
-16.858347
 30
0.0
  0
VERTEX
  8
LY_1
  6
CONTINUOUS
 62
    80
  5
68D
 10
26.077611
 20
-16.858098
 30
0.0
  0
VERTEX
  8
LY_1
  6
CONTINUOUS
 62
    80
  5
68E
 10
26.08337
 20
-16.857834
 30
0.0
  0
VERTEX
  8
LY_1
  6
CONTINUOUS
 62
    80
  5
68F
 10
26.104509
 20
-16.85673
 30
0.0
  0
VERTEX
  8
LY_1
  6
CONTINUOUS
 62
    80
  5
690
 10
26.125639
 20
-16.855419
 30
0.0
  0
VERTEX
  8
LY_1
  6
CONTINUOUS
 62
    80
  5
691
 10
26.146758
 20
-16.853902
 30
0.0
  0
VERTEX
  8
LY_1
  6
CONTINUOUS
 62
    80
  5
692
 10
26.167863
 20
-16.852181
 30
0.0
  0
VERTEX
  8
LY_1
  6
CONTINUOUS
 62
    80
  5
693
 10
26.188953
 20
-16.850257
 30
0.0
  0
VERTEX
  8
LY_1
  6
CONTINUOUS
 62
    80
  5
694
 10
26.210026
 20
-16.848132
 30
0.0
  0
VERTEX
  8
LY_1
  6
CONTINUOUS
 62
    80
  5
695
 10
26.23108
 20
-16.845808
 30
0.0
  0
VERTEX
  8
LY_1
  6
CONTINUOUS
 62
    80
  5
696
 10
26.252113
 20
-16.843285
 30
0.0
  0
VERTEX
  8
LY_1
  6
CONTINUOUS
 62
    80
  5
697
 10
26.273123
 20
-16.840566
 30
0.0
  0
VERTEX
  8
LY_1
  6
CONTINUOUS
 62
    80
  5
698
 10
26.294109
 20
-16.837653
 30
0.0
  0
VERTEX
  8
LY_1
  6
CONTINUOUS
 62
    80
  5
699
 10
26.315067
 20
-16.834546
 30
0.0
  0
VERTEX
  8
LY_1
  6
CONTINUOUS
 62
    80
  5
69A
 10
26.335996
 20
-16.831248
 30
0.0
  0
VERTEX
  8
LY_1
  6
CONTINUOUS
 62
    80
  5
69B
 10
26.356895
 20
-16.82776
 30
0.0
  0
VERTEX
  8
LY_1
  6
CONTINUOUS
 62
    80
  5
69C
 10
26.377761
 20
-16.824083
 30
0.0
  0
VERTEX
  8
LY_1
  6
CONTINUOUS
 62
    80
  5
69D
 10
26.398592
 20
-16.82022
 30
0.0
  0
VERTEX
  8
LY_1
  6
CONTINUOUS
 62
    80
  5
69E
 10
26.419386
 20
-16.816172
 30
0.0
  0
VERTEX
  8
LY_1
  6
CONTINUOUS
 62
    80
  5
69F
 10
26.440693
 20
-16.811825
 30
0.0
  0
VERTEX
  8
LY_1
  6
CONTINUOUS
 62
    80
  5
6A0
 10
26.461959
 20
-16.807288
 30
0.0
  0
VERTEX
  8
LY_1
  6
CONTINUOUS
 62
    80
  5
6A1
 10
26.483182
 20
-16.802561
 30
0.0
  0
VERTEX
  8
LY_1
  6
CONTINUOUS
 62
    80
  5
6A2
 10
26.504362
 20
-16.797649
 30
0.0
  0
VERTEX
  8
LY_1
  6
CONTINUOUS
 62
    80
  5
6A3
 10
26.525497
 20
-16.792553
 30
0.0
  0
VERTEX
  8
LY_1
  6
CONTINUOUS
 62
    80
  5
6A4
 10
26.546587
 20
-16.787276
 30
0.0
  0
VERTEX
  8
LY_1
  6
CONTINUOUS
 62
    80
  5
6A5
 10
26.567632
 20
-16.781819
 30
0.0
  0
VERTEX
  8
LY_1
  6
CONTINUOUS
 62
    80
  5
6A6
 10
26.58863
 20
-16.776187
 30
0.0
  0
VERTEX
  8
LY_1
  6
CONTINUOUS
 62
    80
  5
6A7
 10
26.609579
 20
-16.77038
 30
0.0
  0
VERTEX
  8
LY_1
  6
CONTINUOUS
 62
    80
  5
6A8
 10
26.630481
 20
-16.764401
 30
0.0
  0
VERTEX
  8
LY_1
  6
CONTINUOUS
 62
    80
  5
6A9
 10
26.651332
 20
-16.758254
 30
0.0
  0
VERTEX
  8
LY_1
  6
CONTINUOUS
 62
    80
  5
6AA
 10
26.672134
 20
-16.75194
 30
0.0
  0
VERTEX
  8
LY_1
  6
CONTINUOUS
 62
    80
  5
6AB
 10
26.692884
 20
-16.745461
 30
0.0
  0
VERTEX
  8
LY_1
  6
CONTINUOUS
 62
    80
  5
6AC
 10
26.713581
 20
-16.73882
 30
0.0
  0
VERTEX
  8
LY_1
  6
CONTINUOUS
 62
    80
  5
6AD
 10
26.734226
 20
-16.73202
 30
0.0
  0
VERTEX
  8
LY_1
  6
CONTINUOUS
 62
    80
  5
6AE
 10
26.754817
 20
-16.725063
 30
0.0
  0
VERTEX
  8
LY_1
  6
CONTINUOUS
 62
    80
  5
6AF
 10
26.776264
 20
-16.717633
 30
0.0
  0
VERTEX
  8
LY_1
  6
CONTINUOUS
 62
    80
  5
6B0
 10
26.797651
 20
-16.710037
 30
0.0
  0
VERTEX
  8
LY_1
  6
CONTINUOUS
 62
    80
  5
6B1
 10
26.818979
 20
-16.70228
 30
0.0
  0
VERTEX
  8
LY_1
  6
CONTINUOUS
 62
    80
  5
6B2
 10
26.840249
 20
-16.694364
 30
0.0
  0
VERTEX
  8
LY_1
  6
CONTINUOUS
 62
    80
  5
6B3
 10
26.861461
 20
-16.686295
 30
0.0
  0
VERTEX
  8
LY_1
  6
CONTINUOUS
 62
    80
  5
6B4
 10
26.882615
 20
-16.678074
 30
0.0
  0
VERTEX
  8
LY_1
  6
CONTINUOUS
 62
    80
  5
6B5
 10
26.903713
 20
-16.669706
 30
0.0
  0
VERTEX
  8
LY_1
  6
CONTINUOUS
 62
    80
  5
6B6
 10
26.924754
 20
-16.661195
 30
0.0
  0
VERTEX
  8
LY_1
  6
CONTINUOUS
 62
    80
  5
6B7
 10
26.945739
 20
-16.652543
 30
0.0
  0
VERTEX
  8
LY_1
  6
CONTINUOUS
 62
    80
  5
6B8
 10
26.966668
 20
-16.643755
 30
0.0
  0
VERTEX
  8
LY_1
  6
CONTINUOUS
 62
    80
  5
6B9
 10
26.987543
 20
-16.634834
 30
0.0
  0
VERTEX
  8
LY_1
  6
CONTINUOUS
 62
    80
  5
6BA
 10
27.008362
 20
-16.625783
 30
0.0
  0
VERTEX
  8
LY_1
  6
CONTINUOUS
 62
    80
  5
6BB
 10
27.029128
 20
-16.616607
 30
0.0
  0
VERTEX
  8
LY_1
  6
CONTINUOUS
 62
    80
  5
6BC
 10
27.04984
 20
-16.607308
 30
0.0
  0
VERTEX
  8
LY_1
  6
CONTINUOUS
 62
    80
  5
6BD
 10
27.070498
 20
-16.597891
 30
0.0
  0
VERTEX
  8
LY_1
  6
CONTINUOUS
 62
    80
  5
6BE
 10
27.091104
 20
-16.588358
 30
0.0
  0
VERTEX
  8
LY_1
  6
CONTINUOUS
 62
    80
  5
6BF
 10
27.112396
 20
-16.578364
 30
0.0
  0
VERTEX
  8
LY_1
  6
CONTINUOUS
 62
    80
  5
6C0
 10
27.133631
 20
-16.568249
 30
0.0
  0
VERTEX
  8
LY_1
  6
CONTINUOUS
 62
    80
  5
6C1
 10
27.154806
 20
-16.558014
 30
0.0
  0
VERTEX
  8
LY_1
  6
CONTINUOUS
 62
    80
  5
6C2
 10
27.175922
 20
-16.547657
 30
0.0
  0
VERTEX
  8
LY_1
  6
CONTINUOUS
 62
    80
  5
6C3
 10
27.196976
 20
-16.537178
 30
0.0
  0
VERTEX
  8
LY_1
  6
CONTINUOUS
 62
    80
  5
6C4
 10
27.217968
 20
-16.526576
 30
0.0
  0
VERTEX
  8
LY_1
  6
CONTINUOUS
 62
    80
  5
6C5
 10
27.238896
 20
-16.515851
 30
0.0
  0
VERTEX
  8
LY_1
  6
CONTINUOUS
 62
    80
  5
6C6
 10
27.259758
 20
-16.505002
 30
0.0
  0
VERTEX
  8
LY_1
  6
CONTINUOUS
 62
    80
  5
6C7
 10
27.280554
 20
-16.494029
 30
0.0
  0
VERTEX
  8
LY_1
  6
CONTINUOUS
 62
    80
  5
6C8
 10
27.301282
 20
-16.482931
 30
0.0
  0
VERTEX
  8
LY_1
  6
CONTINUOUS
 62
    80
  5
6C9
 10
27.32194
 20
-16.471706
 30
0.0
  0
VERTEX
  8
LY_1
  6
CONTINUOUS
 62
    80
  5
6CA
 10
27.342529
 20
-16.460356
 30
0.0
  0
VERTEX
  8
LY_1
  6
CONTINUOUS
 62
    80
  5
6CB
 10
27.363045
 20
-16.448879
 30
0.0
  0
VERTEX
  8
LY_1
  6
CONTINUOUS
 62
    80
  5
6CC
 10
27.383488
 20
-16.437274
 30
0.0
  0
VERTEX
  8
LY_1
  6
CONTINUOUS
 62
    80
  5
6CD
 10
27.403857
 20
-16.425542
 30
0.0
  0
VERTEX
  8
LY_1
  6
CONTINUOUS
 62
    80
  5
6CE
 10
27.42415
 20
-16.413681
 30
0.0
  0
SEQEND
  8
LY_1
  6
CONTINUOUS
 62
    80
  5
6CF
  0
POLYLINE
  8
LY_1
  6
CONTINUOUS
 62
    80
  5
F3
 66
     1
 10
0.0
 20
0.0
 30
0.0
  0
VERTEX
  8
LY_1
  6
CONTINUOUS
 62
    80
  5
6D0
 10
24.537395
 20
-16.41368
 30
0.0
  0
VERTEX
  8
LY_1
  6
CONTINUOUS
 62
    80
  5
6D1
 10
24.558577
 20
-16.426079
 30
0.0
  0
VERTEX
  8
LY_1
  6
CONTINUOUS
 62
    80
  5
6D2
 10
24.579842
 20
-16.438337
 30
0.0
  0
VERTEX
  8
LY_1
  6
CONTINUOUS
 62
    80
  5
6D3
 10
24.60119
 20
-16.450453
 30
0.0
  0
VERTEX
  8
LY_1
  6
CONTINUOUS
 62
    80
  5
6D4
 10
24.622619
 20
-16.462429
 30
0.0
  0
VERTEX
  8
LY_1
  6
CONTINUOUS
 62
    80
  5
6D5
 10
24.644128
 20
-16.474265
 30
0.0
  0
VERTEX
  8
LY_1
  6
CONTINUOUS
 62
    80
  5
6D6
 10
24.665714
 20
-16.485961
 30
0.0
  0
VERTEX
  8
LY_1
  6
CONTINUOUS
 62
    80
  5
6D7
 10
24.687376
 20
-16.497519
 30
0.0
  0
VERTEX
  8
LY_1
  6
CONTINUOUS
 62
    80
  5
6D8
 10
24.709113
 20
-16.508938
 30
0.0
  0
VERTEX
  8
LY_1
  6
CONTINUOUS
 62
    80
  5
6D9
 10
24.730924
 20
-16.52022
 30
0.0
  0
VERTEX
  8
LY_1
  6
CONTINUOUS
 62
    80
  5
6DA
 10
24.752806
 20
-16.531364
 30
0.0
  0
VERTEX
  8
LY_1
  6
CONTINUOUS
 62
    80
  5
6DB
 10
24.774759
 20
-16.542372
 30
0.0
  0
VERTEX
  8
LY_1
  6
CONTINUOUS
 62
    80
  5
6DC
 10
24.796781
 20
-16.553245
 30
0.0
  0
VERTEX
  8
LY_1
  6
CONTINUOUS
 62
    80
  5
6DD
 10
24.818869
 20
-16.563981
 30
0.0
  0
VERTEX
  8
LY_1
  6
CONTINUOUS
 62
    80
  5
6DE
 10
24.841024
 20
-16.574584
 30
0.0
  0
VERTEX
  8
LY_1
  6
CONTINUOUS
 62
    80
  5
6DF
 10
24.863243
 20
-16.585052
 30
0.0
  0
VERTEX
  8
LY_1
  6
CONTINUOUS
 62
    80
  5
6E0
 10
24.885524
 20
-16.595387
 30
0.0
  0
VERTEX
  8
LY_1
  6
CONTINUOUS
 62
    80
  5
6E1
 10
24.9072
 20
-16.605285
 30
0.0
  0
VERTEX
  8
LY_1
  6
CONTINUOUS
 62
    80
  5
6E2
 10
24.928933
 20
-16.615054
 30
0.0
  0
VERTEX
  8
LY_1
  6
CONTINUOUS
 62
    80
  5
6E3
 10
24.950725
 20
-16.624691
 30
0.0
  0
VERTEX
  8
LY_1
  6
CONTINUOUS
 62
    80
  5
6E4
 10
24.972576
 20
-16.63419
 30
0.0
  0
VERTEX
  8
LY_1
  6
CONTINUOUS
 62
    80
  5
6E5
 10
24.994487
 20
-16.643549
 30
0.0
  0
VERTEX
  8
LY_1
  6
CONTINUOUS
 62
    80
  5
6E6
 10
25.016457
 20
-16.652763
 30
0.0
  0
VERTEX
  8
LY_1
  6
CONTINUOUS
 62
    80
  5
6E7
 10
25.038489
 20
-16.661827
 30
0.0
  0
VERTEX
  8
LY_1
  6
CONTINUOUS
 62
    80
  5
6E8
 10
25.060581
 20
-16.67074
 30
0.0
  0
VERTEX
  8
LY_1
  6
CONTINUOUS
 62
    80
  5
6E9
 10
25.082735
 20
-16.679495
 30
0.0
  0
VERTEX
  8
LY_1
  6
CONTINUOUS
 62
    80
  5
6EA
 10
25.104951
 20
-16.68809
 30
0.0
  0
VERTEX
  8
LY_1
  6
CONTINUOUS
 62
    80
  5
6EB
 10
25.127229
 20
-16.69652
 30
0.0
  0
VERTEX
  8
LY_1
  6
CONTINUOUS
 62
    80
  5
6EC
 10
25.149571
 20
-16.704782
 30
0.0
  0
VERTEX
  8
LY_1
  6
CONTINUOUS
 62
    80
  5
6ED
 10
25.171976
 20
-16.712871
 30
0.0
  0
VERTEX
  8
LY_1
  6
CONTINUOUS
 62
    80
  5
6EE
 10
25.194444
 20
-16.720783
 30
0.0
  0
VERTEX
  8
LY_1
  6
CONTINUOUS
 62
    80
  5
6EF
 10
25.216978
 20
-16.728515
 30
0.0
  0
VERTEX
  8
LY_1
  6
CONTINUOUS
 62
    80
  5
6F0
 10
25.239576
 20
-16.736063
 30
0.0
  0
VERTEX
  8
LY_1
  6
CONTINUOUS
 62
    80
  5
6F1
 10
25.261842
 20
-16.743295
 30
0.0
  0
VERTEX
  8
LY_1
  6
CONTINUOUS
 62
    80
  5
6F2
 10
25.284171
 20
-16.750342
 30
0.0
  0
VERTEX
  8
LY_1
  6
CONTINUOUS
 62
    80
  5
6F3
 10
25.30656
 20
-16.7572
 30
0.0
  0
VERTEX
  8
LY_1
  6
CONTINUOUS
 62
    80
  5
6F4
 10
25.329008
 20
-16.763864
 30
0.0
  0
VERTEX
  8
LY_1
  6
CONTINUOUS
 62
    80
  5
6F5
 10
25.351514
 20
-16.770332
 30
0.0
  0
VERTEX
  8
LY_1
  6
CONTINUOUS
 62
    80
  5
6F6
 10
25.374078
 20
-16.776599
 30
0.0
  0
VERTEX
  8
LY_1
  6
CONTINUOUS
 62
    80
  5
6F7
 10
25.396697
 20
-16.782662
 30
0.0
  0
VERTEX
  8
LY_1
  6
CONTINUOUS
 62
    80
  5
6F8
 10
25.419371
 20
-16.788516
 30
0.0
  0
VERTEX
  8
LY_1
  6
CONTINUOUS
 62
    80
  5
6F9
 10
25.442098
 20
-16.794159
 30
0.0
  0
VERTEX
  8
LY_1
  6
CONTINUOUS
 62
    80
  5
6FA
 10
25.464876
 20
-16.799587
 30
0.0
  0
VERTEX
  8
LY_1
  6
CONTINUOUS
 62
    80
  5
6FB
 10
25.487706
 20
-16.804795
 30
0.0
  0
VERTEX
  8
LY_1
  6
CONTINUOUS
 62
    80
  5
6FC
 10
25.510584
 20
-16.809781
 30
0.0
  0
VERTEX
  8
LY_1
  6
CONTINUOUS
 62
    80
  5
6FD
 10
25.533511
 20
-16.814539
 30
0.0
  0
VERTEX
  8
LY_1
  6
CONTINUOUS
 62
    80
  5
6FE
 10
25.556485
 20
-16.819068
 30
0.0
  0
VERTEX
  8
LY_1
  6
CONTINUOUS
 62
    80
  5
6FF
 10
25.579505
 20
-16.823361
 30
0.0
  0
VERTEX
  8
LY_1
  6
CONTINUOUS
 62
    80
  5
700
 10
25.602569
 20
-16.827417
 30
0.0
  0
VERTEX
  8
LY_1
  6
CONTINUOUS
 62
    80
  5
701
 10
25.625364
 20
-16.831183
 30
0.0
  0
VERTEX
  8
LY_1
  6
CONTINUOUS
 62
    80
  5
702
 10
25.648198
 20
-16.834714
 30
0.0
  0
VERTEX
  8
LY_1
  6
CONTINUOUS
 62
    80
  5
703
 10
25.671068
 20
-16.838012
 30
0.0
  0
VERTEX
  8
LY_1
  6
CONTINUOUS
 62
    80
  5
704
 10
25.693972
 20
-16.841079
 30
0.0
  0
VERTEX
  8
LY_1
  6
CONTINUOUS
 62
    80
  5
705
 10
25.716906
 20
-16.843915
 30
0.0
  0
VERTEX
  8
LY_1
  6
CONTINUOUS
 62
    80
  5
706
 10
25.739867
 20
-16.846522
 30
0.0
  0
VERTEX
  8
LY_1
  6
CONTINUOUS
 62
    80
  5
707
 10
25.762854
 20
-16.848901
 30
0.0
  0
VERTEX
  8
LY_1
  6
CONTINUOUS
 62
    80
  5
708
 10
25.785862
 20
-16.851053
 30
0.0
  0
VERTEX
  8
LY_1
  6
CONTINUOUS
 62
    80
  5
709
 10
25.808889
 20
-16.852979
 30
0.0
  0
VERTEX
  8
LY_1
  6
CONTINUOUS
 62
    80
  5
70A
 10
25.831932
 20
-16.85468
 30
0.0
  0
VERTEX
  8
LY_1
  6
CONTINUOUS
 62
    80
  5
70B
 10
25.854988
 20
-16.856158
 30
0.0
  0
VERTEX
  8
LY_1
  6
CONTINUOUS
 62
    80
  5
70C
 10
25.878055
 20
-16.857414
 30
0.0
  0
VERTEX
  8
LY_1
  6
CONTINUOUS
 62
    80
  5
70D
 10
25.901129
 20
-16.858449
 30
0.0
  0
VERTEX
  8
LY_1
  6
CONTINUOUS
 62
    80
  5
70E
 10
25.924207
 20
-16.859264
 30
0.0
  0
VERTEX
  8
LY_1
  6
CONTINUOUS
 62
    80
  5
70F
 10
25.947287
 20
-16.85986
 30
0.0
  0
VERTEX
  8
LY_1
  6
CONTINUOUS
 62
    80
  5
710
 10
25.970366
 20
-16.860239
 30
0.0
  0
SEQEND
  8
LY_1
  6
CONTINUOUS
 62
    80
  5
711
  0
POLYLINE
  8
LY_1
  6
CONTINUOUS
 62
    80
  5
F4
 66
     1
 10
0.0
 20
0.0
 30
0.0
  0
VERTEX
  8
LY_1
  6
CONTINUOUS
 62
    80
  5
712
 10
34.65021
 20
-16.860239
 30
0.0
  0
VERTEX
  8
LY_1
  6
CONTINUOUS
 62
    80
  5
713
 10
34.662099
 20
-16.860144
 30
0.0
  0
VERTEX
  8
LY_1
  6
CONTINUOUS
 62
    80
  5
714
 10
34.673988
 20
-16.859987
 30
0.0
  0
VERTEX
  8
LY_1
  6
CONTINUOUS
 62
    80
  5
715
 10
34.685876
 20
-16.859766
 30
0.0
  0
VERTEX
  8
LY_1
  6
CONTINUOUS
 62
    80
  5
716
 10
34.697764
 20
-16.859482
 30
0.0
  0
VERTEX
  8
LY_1
  6
CONTINUOUS
 62
    80
  5
717
 10
34.70965
 20
-16.859135
 30
0.0
  0
VERTEX
  8
LY_1
  6
CONTINUOUS
 62
    80
  5
718
 10
34.721535
 20
-16.858724
 30
0.0
  0
VERTEX
  8
LY_1
  6
CONTINUOUS
 62
    80
  5
719
 10
34.733418
 20
-16.85825
 30
0.0
  0
VERTEX
  8
LY_1
  6
CONTINUOUS
 62
    80
  5
71A
 10
34.745299
 20
-16.857712
 30
0.0
  0
VERTEX
  8
LY_1
  6
CONTINUOUS
 62
    80
  5
71B
 10
34.757177
 20
-16.857111
 30
0.0
  0
VERTEX
  8
LY_1
  6
CONTINUOUS
 62
    80
  5
71C
 10
34.769052
 20
-16.856446
 30
0.0
  0
VERTEX
  8
LY_1
  6
CONTINUOUS
 62
    80
  5
71D
 10
34.780923
 20
-16.855717
 30
0.0
  0
VERTEX
  8
LY_1
  6
CONTINUOUS
 62
    80
  5
71E
 10
34.79279
 20
-16.854924
 30
0.0
  0
VERTEX
  8
LY_1
  6
CONTINUOUS
 62
    80
  5
71F
 10
34.804652
 20
-16.854067
 30
0.0
  0
VERTEX
  8
LY_1
  6
CONTINUOUS
 62
    80
  5
720
 10
34.81651
 20
-16.853145
 30
0.0
  0
VERTEX
  8
LY_1
  6
CONTINUOUS
 62
    80
  5
721
 10
34.828362
 20
-16.85216
 30
0.0
  0
VERTEX
  8
LY_1
  6
CONTINUOUS
 62
    80
  5
722
 10
34.840208
 20
-16.85111
 30
0.0
  0
VERTEX
  8
LY_1
  6
CONTINUOUS
 62
    80
  5
723
 10
34.852141
 20
-16.849987
 30
0.0
  0
VERTEX
  8
LY_1
  6
CONTINUOUS
 62
    80
  5
724
 10
34.864067
 20
-16.848798
 30
0.0
  0
VERTEX
  8
LY_1
  6
CONTINUOUS
 62
    80
  5
725
 10
34.875986
 20
-16.847545
 30
0.0
  0
VERTEX
  8
LY_1
  6
CONTINUOUS
 62
    80
  5
726
 10
34.887898
 20
-16.846227
 30
0.0
  0
VERTEX
  8
LY_1
  6
CONTINUOUS
 62
    80
  5
727
 10
34.899803
 20
-16.844845
 30
0.0
  0
VERTEX
  8
LY_1
  6
CONTINUOUS
 62
    80
  5
728
 10
34.9117
 20
-16.843399
 30
0.0
  0
VERTEX
  8
LY_1
  6
CONTINUOUS
 62
    80
  5
729
 10
34.923589
 20
-16.84189
 30
0.0
  0
VERTEX
  8
LY_1
  6
CONTINUOUS
 62
    80
  5
72A
 10
34.93547
 20
-16.840317
 30
0.0
  0
VERTEX
  8
LY_1
  6
CONTINUOUS
 62
    80
  5
72B
 10
34.947342
 20
-16.838681
 30
0.0
  0
VERTEX
  8
LY_1
  6
CONTINUOUS
 62
    80
  5
72C
 10
34.959206
 20
-16.836982
 30
0.0
  0
VERTEX
  8
LY_1
  6
CONTINUOUS
 62
    80
  5
72D
 10
34.97106
 20
-16.835221
 30
0.0
  0
VERTEX
  8
LY_1
  6
CONTINUOUS
 62
    80
  5
72E
 10
34.982906
 20
-16.833398
 30
0.0
  0
VERTEX
  8
LY_1
  6
CONTINUOUS
 62
    80
  5
72F
 10
34.994742
 20
-16.831513
 30
0.0
  0
VERTEX
  8
LY_1
  6
CONTINUOUS
 62
    80
  5
730
 10
35.006567
 20
-16.829567
 30
0.0
  0
VERTEX
  8
LY_1
  6
CONTINUOUS
 62
    80
  5
731
 10
35.018383
 20
-16.82756
 30
0.0
  0
VERTEX
  8
LY_1
  6
CONTINUOUS
 62
    80
  5
732
 10
35.030188
 20
-16.825491
 30
0.0
  0
VERTEX
  8
LY_1
  6
CONTINUOUS
 62
    80
  5
733
 10
35.046983
 20
-16.822441
 30
0.0
  0
VERTEX
  8
LY_1
  6
CONTINUOUS
 62
    80
  5
734
 10
35.063756
 20
-16.81927
 30
0.0
  0
VERTEX
  8
LY_1
  6
CONTINUOUS
 62
    80
  5
735
 10
35.080506
 20
-16.815978
 30
0.0
  0
VERTEX
  8
LY_1
  6
CONTINUOUS
 62
    80
  5
736
 10
35.097233
 20
-16.812567
 30
0.0
  0
VERTEX
  8
LY_1
  6
CONTINUOUS
 62
    80
  5
737
 10
35.113935
 20
-16.809038
 30
0.0
  0
VERTEX
  8
LY_1
  6
CONTINUOUS
 62
    80
  5
738
 10
35.130613
 20
-16.805393
 30
0.0
  0
VERTEX
  8
LY_1
  6
CONTINUOUS
 62
    80
  5
739
 10
35.147266
 20
-16.801633
 30
0.0
  0
VERTEX
  8
LY_1
  6
CONTINUOUS
 62
    80
  5
73A
 10
35.163894
 20
-16.797759
 30
0.0
  0
VERTEX
  8
LY_1
  6
CONTINUOUS
 62
    80
  5
73B
 10
35.180495
 20
-16.793772
 30
0.0
  0
VERTEX
  8
LY_1
  6
CONTINUOUS
 62
    80
  5
73C
 10
35.197069
 20
-16.789674
 30
0.0
  0
VERTEX
  8
LY_1
  6
CONTINUOUS
 62
    80
  5
73D
 10
35.213616
 20
-16.785465
 30
0.0
  0
VERTEX
  8
LY_1
  6
CONTINUOUS
 62
    80
  5
73E
 10
35.230135
 20
-16.781148
 30
0.0
  0
VERTEX
  8
LY_1
  6
CONTINUOUS
 62
    80
  5
73F
 10
35.246626
 20
-16.776722
 30
0.0
  0
VERTEX
  8
LY_1
  6
CONTINUOUS
 62
    80
  5
740
 10
35.263087
 20
-16.772191
 30
0.0
  0
VERTEX
  8
LY_1
  6
CONTINUOUS
 62
    80
  5
741
 10
35.279519
 20
-16.767554
 30
0.0
  0
VERTEX
  8
LY_1
  6
CONTINUOUS
 62
    80
  5
742
 10
35.295921
 20
-16.762813
 30
0.0
  0
VERTEX
  8
LY_1
  6
CONTINUOUS
 62
    80
  5
743
 10
35.312651
 20
-16.757863
 30
0.0
  0
VERTEX
  8
LY_1
  6
CONTINUOUS
 62
    80
  5
744
 10
35.32935
 20
-16.752806
 30
0.0
  0
VERTEX
  8
LY_1
  6
CONTINUOUS
 62
    80
  5
745
 10
35.346015
 20
-16.747644
 30
0.0
  0
VERTEX
  8
LY_1
  6
CONTINUOUS
 62
    80
  5
746
 10
35.362648
 20
-16.742379
 30
0.0
  0
VERTEX
  8
LY_1
  6
CONTINUOUS
 62
    80
  5
747
 10
35.379248
 20
-16.737011
 30
0.0
  0
VERTEX
  8
LY_1
  6
CONTINUOUS
 62
    80
  5
748
 10
35.395814
 20
-16.731543
 30
0.0
  0
VERTEX
  8
LY_1
  6
CONTINUOUS
 62
    80
  5
749
 10
35.412348
 20
-16.725974
 30
0.0
  0
VERTEX
  8
LY_1
  6
CONTINUOUS
 62
    80
  5
74A
 10
35.428847
 20
-16.720307
 30
0.0
  0
VERTEX
  8
LY_1
  6
CONTINUOUS
 62
    80
  5
74B
 10
35.445313
 20
-16.714542
 30
0.0
  0
VERTEX
  8
LY_1
  6
CONTINUOUS
 62
    80
  5
74C
 10
35.461744
 20
-16.708681
 30
0.0
  0
VERTEX
  8
LY_1
  6
CONTINUOUS
 62
    80
  5
74D
 10
35.478141
 20
-16.702725
 30
0.0
  0
VERTEX
  8
LY_1
  6
CONTINUOUS
 62
    80
  5
74E
 10
35.494503
 20
-16.696674
 30
0.0
  0
VERTEX
  8
LY_1
  6
CONTINUOUS
 62
    80
  5
74F
 10
35.510831
 20
-16.690532
 30
0.0
  0
VERTEX
  8
LY_1
  6
CONTINUOUS
 62
    80
  5
750
 10
35.527123
 20
-16.684298
 30
0.0
  0
VERTEX
  8
LY_1
  6
CONTINUOUS
 62
    80
  5
751
 10
35.543381
 20
-16.677973
 30
0.0
  0
VERTEX
  8
LY_1
  6
CONTINUOUS
 62
    80
  5
752
 10
35.559602
 20
-16.67156
 30
0.0
  0
VERTEX
  8
LY_1
  6
CONTINUOUS
 62
    80
  5
753
 10
35.57636
 20
-16.664827
 30
0.0
  0
VERTEX
  8
LY_1
  6
CONTINUOUS
 62
    80
  5
754
 10
35.593079
 20
-16.658002
 30
0.0
  0
VERTEX
  8
LY_1
  6
CONTINUOUS
 62
    80
  5
755
 10
35.609761
 20
-16.651087
 30
0.0
  0
VERTEX
  8
LY_1
  6
CONTINUOUS
 62
    80
  5
756
 10
35.626405
 20
-16.644082
 30
0.0
  0
VERTEX
  8
LY_1
  6
CONTINUOUS
 62
    80
  5
757
 10
35.643012
 20
-16.63699
 30
0.0
  0
VERTEX
  8
LY_1
  6
CONTINUOUS
 62
    80
  5
758
 10
35.659583
 20
-16.629812
 30
0.0
  0
VERTEX
  8
LY_1
  6
CONTINUOUS
 62
    80
  5
759
 10
35.676118
 20
-16.622551
 30
0.0
  0
VERTEX
  8
LY_1
  6
CONTINUOUS
 62
    80
  5
75A
 10
35.692616
 20
-16.615207
 30
0.0
  0
VERTEX
  8
LY_1
  6
CONTINUOUS
 62
    80
  5
75B
 10
35.709079
 20
-16.607783
 30
0.0
  0
VERTEX
  8
LY_1
  6
CONTINUOUS
 62
    80
  5
75C
 10
35.725507
 20
-16.60028
 30
0.0
  0
VERTEX
  8
LY_1
  6
CONTINUOUS
 62
    80
  5
75D
 10
35.7419
 20
-16.5927
 30
0.0
  0
VERTEX
  8
LY_1
  6
CONTINUOUS
 62
    80
  5
75E
 10
35.758258
 20
-16.585045
 30
0.0
  0
VERTEX
  8
LY_1
  6
CONTINUOUS
 62
    80
  5
75F
 10
35.774582
 20
-16.577316
 30
0.0
  0
VERTEX
  8
LY_1
  6
CONTINUOUS
 62
    80
  5
760
 10
35.790872
 20
-16.569515
 30
0.0
  0
VERTEX
  8
LY_1
  6
CONTINUOUS
 62
    80
  5
761
 10
35.807128
 20
-16.561643
 30
0.0
  0
VERTEX
  8
LY_1
  6
CONTINUOUS
 62
    80
  5
762
 10
35.823351
 20
-16.553703
 30
0.0
  0
VERTEX
  8
LY_1
  6
CONTINUOUS
 62
    80
  5
763
 10
35.839952
 20
-16.545492
 30
0.0
  0
VERTEX
  8
LY_1
  6
CONTINUOUS
 62
    80
  5
764
 10
35.856518
 20
-16.537209
 30
0.0
  0
VERTEX
  8
LY_1
  6
CONTINUOUS
 62
    80
  5
765
 10
35.873049
 20
-16.528856
 30
0.0
  0
VERTEX
  8
LY_1
  6
CONTINUOUS
 62
    80
  5
766
 10
35.889543
 20
-16.520431
 30
0.0
  0
VERTEX
  8
LY_1
  6
CONTINUOUS
 62
    80
  5
767
 10
35.905999
 20
-16.511935
 30
0.0
  0
VERTEX
  8
LY_1
  6
CONTINUOUS
 62
    80
  5
768
 10
35.922419
 20
-16.503368
 30
0.0
  0
VERTEX
  8
LY_1
  6
CONTINUOUS
 62
    80
  5
769
 10
35.938799
 20
-16.494728
 30
0.0
  0
VERTEX
  8
LY_1
  6
CONTINUOUS
 62
    80
  5
76A
 10
35.955141
 20
-16.486015
 30
0.0
  0
VERTEX
  8
LY_1
  6
CONTINUOUS
 62
    80
  5
76B
 10
35.971443
 20
-16.47723
 30
0.0
  0
VERTEX
  8
LY_1
  6
CONTINUOUS
 62
    80
  5
76C
 10
35.987705
 20
-16.468372
 30
0.0
  0
VERTEX
  8
LY_1
  6
CONTINUOUS
 62
    80
  5
76D
 10
36.003927
 20
-16.459441
 30
0.0
  0
VERTEX
  8
LY_1
  6
CONTINUOUS
 62
    80
  5
76E
 10
36.020107
 20
-16.450436
 30
0.0
  0
VERTEX
  8
LY_1
  6
CONTINUOUS
 62
    80
  5
76F
 10
36.036245
 20
-16.441357
 30
0.0
  0
VERTEX
  8
LY_1
  6
CONTINUOUS
 62
    80
  5
770
 10
36.05234
 20
-16.432204
 30
0.0
  0
VERTEX
  8
LY_1
  6
CONTINUOUS
 62
    80
  5
771
 10
36.068392
 20
-16.422976
 30
0.0
  0
VERTEX
  8
LY_1
  6
CONTINUOUS
 62
    80
  5
772
 10
36.0844
 20
-16.413673
 30
0.0
  0
SEQEND
  8
LY_1
  6
CONTINUOUS
 62
    80
  5
773
  0
LINE
  8
LY_1
  6
CONTINUOUS
 62
     3
  5
F5
 10
28.350284
 20
-10.0
 30
0.0
 11
29.850284
 21
-11.5
 31
0.0
  0
LINE
  8
LY_1
  6
CONTINUOUS
 62
     3
  5
F6
 10
29.764498
 20
-10.0
 30
0.0
 11
31.264498
 21
-11.5
 31
0.0
  0
LINE
  8
LY_1
  6
CONTINUOUS
 62
     3
  5
F7
 10
54.5
 20
53.9
 30
0.0
 11
54.5
 21
55.6
 31
0.0
  0
LINE
  8
LY_1
  6
CONTINUOUS
 62
     3
  5
F8
 10
-54.5
 20
53.9
 30
0.0
 11
-54.5
 21
55.6
 31
0.0
  0
ARC
  8
LY_1
  6
CONTINUOUS
 62
     3
  5
F9
 10
-38.867265
 20
140.966661
 30
0.0
 40
6.0
 50
101.557235
 51
179.44087
  0
ARC
  8
LY_1
  6
CONTINUOUS
 62
     3
  5
FA
 10
-444.847933
 20
144.928617
 30
0.0
 40
400.0
 50
347.095802
 51
359.44087
  0
ARC
  8
LY_1
  6
CONTINUOUS
 62
     3
  5
FB
 10
38.867265
 20
140.966661
 30
0.0
 40
6.0
 50
0.55913
 51
78.442765
  0
ARC
  8
LY_1
  6
CONTINUOUS
 62
     3
  5
FC
 10
444.847933
 20
144.928617
 30
0.0
 40
400.0
 50
180.55913
 51
192.904198
  0
LINE
  8
LY_1
  6
CONTINUOUS
 62
     3
  5
FD
 10
-54.95
 20
55.6
 30
0.0
 11
54.95
 21
55.6
 31
0.0
  0
ARC
  8
LY_1
  6
CONTINUOUS
 62
     3
  5
FE
 10
0.0
 20
-49.1
 30
0.0
 40
200.0
 50
78.442765
 51
101.557235
  0
ARC
  8
LY_1
  6
CONTINUOUS
 62
     3
  5
FF
 10
-57.0
 20
52.9
 30
0.0
 40
1.0
 50
90.0
 51
180.0
  0
ARC
  8
LY_1
  6
CONTINUOUS
 62
     3
  5
100
 10
57.0
 20
52.9
 30
0.0
 40
1.0
 50
0.0
 51
90.0
  0
ARC
  8
LY_1
  6
CONTINUOUS
 62
     3
  5
101
 10
57.0
 20
46.0
 30
0.0
 40
1.0
 50
270.0
 51
0.0
  0
ARC
  8
LY_1
  6
CONTINUOUS
 62
     3
  5
102
 10
-57.0
 20
46.0
 30
0.0
 40
1.0
 50
180.0
 51
270.0
  0
LINE
  8
LY_1
  6
CONTINUOUS
 62
     3
  5
103
 10
58.0
 20
46.0
 30
0.0
 11
58.0
 21
52.9
 31
0.0
  0
LINE
  8
LY_1
  6
CONTINUOUS
 62
     3
  5
104
 10
-58.0
 20
46.0
 30
0.0
 11
-58.0
 21
52.9
 31
0.0
  0
LINE
  8
LY_1
  6
CONTINUOUS
 62
     3
  5
105
 10
-57.0
 20
45.0
 30
0.0
 11
57.0
 21
45.0
 31
0.0
  0
LINE
  8
LY_1
  6
CONTINUOUS
 62
     3
  5
106
 10
-57.0
 20
53.9
 30
0.0
 11
57.0
 21
53.9
 31
0.0
  0
ENDSEC
  0
EOF
