  0
SECTION
  2
HEADER
  9
$ACADVER
  1
AC1009
  9
$DWGCODEPAGE
  3
dos932
  9
$INSBASE
 10
0.0
 20
0.0
 30
0.0
  9
$EXTMIN
 10
-42.625
 20
-122.0
 30
0.0
  9
$EXTMAX
 10
42.625
 20
166.0
 30
0.0
  9
$LIMMIN
 10
-42.625
 20
-122.0
  9
$LIMMAX
 10
42.625
 20
166.0
  9
$ORTHOMODE
 70
     0
  9
$REGENMODE
 70
     1
  9
$FILLMODE
 70
     1
  9
$QTEXTMODE
 70
     0
  9
$MIRRTEXT
 70
     1
  9
$DRAGMODE
 70
     2
  9
$LTSCALE
 40
1.0
  9
$OSMODE
 70
     0
  9
$ATTMODE
 70
     1
  9
$TEXTSIZE
 40
4.1656
  9
$TRACEWID
 40
0.05
  9
$TEXTSTYLE
  7
MX_NOTE_STANDARD
  9
$CLAYER
  8
LY_1
  9
$CELTYPE
  6
CONTINUOUS
  9
$CECOLOR
 62
   256
  9
$DIMSCALE
 40
1.0
  9
$DIMASZ
 40
2.5
  9
$DIMEXO
 40
0.5
  9
$DIMDLI
 40
3.75
  9
$DIMRND
 40
0.0
  9
$DIMDLE
 40
0.0
  9
$DIMEXE
 40
1.0
  9
$DIMTP
 40
0.0
  9
$DIMTM
 40
0.0
  9
$DIMTXT
 40
2.5
  9
$DIMCEN
 40
2.5
  9
$DIMTSZ
 40
0.0
  9
$DIMTOL
 70
     0
  9
$DIMLIM
 70
     0
  9
$DIMTIH
 70
     0
  9
$DIMTOH
 70
     0
  9
$DIMSE1
 70
     0
  9
$DIMSE2
 70
     0
  9
$DIMTAD
 70
     1
  9
$DIMZIN
 70
     8
  9
$DIMBLK
  1

  9
$DIMASO
 70
     1
  9
$DIMSHO
 70
     1
  9
$DIMPOST
  1

  9
$DIMAPOST
  1

  9
$DIMALT
 70
     0
  9
$DIMALTD
 70
     4
  9
$DIMALTF
 40
0.03937
  9
$DIMLFAC
 40
1.0
  9
$DIMTOFL
 70
     1
  9
$DIMTVP
 40
0.0
  9
$DIMTIX
 70
     0
  9
$DIMSOXD
 70
     0
  9
$DIMSAH
 70
     0
  9
$DIMBLK1
  1

  9
$DIMBLK2
  1

  9
$DIMSTYLE
  2
MXDIMSTYLE
  9
$DIMCLRD
 70
     0
  9
$DIMCLRE
 70
     0
  9
$DIMCLRT
 70
     0
  9
$DIMTFAC
 40
1.0
  9
$DIMGAP
 40
1.0
  9
$LUNITS
 70
     2
  9
$LUPREC
 70
     4
  9
$AXISMODE
 70
     0
  9
$AXISUNIT
 10
0.0
 20
0.0
  9
$SKETCHINC
 40
0.1
  9
$FILLETRAD
 40
0.0
  9
$AUNITS
 70
     0
  9
$AUPREC
 70
     0
  9
$MENU
  1
acad
  9
$ELEVATION
 40
0.0
  9
$PELEVATION
 40
0.0
  9
$THICKNESS
 40
0.0
  9
$LIMCHECK
 70
     0
  9
$BLIPMODE
 70
     1
  9
$CHAMFERA
 40
0.0
  9
$CHAMFERB
 40
0.0
  9
$SKPOLY
 70
     0
  9
$TDCREATE
 40
2454133.462395833
  9
$TDUPDATE
 40
2454133.462395833
  9
$TDINDWG
 40
0.0000000000
  9
$TDUSRTIMER
 40
0.0000000000
  9
$USRTIMER
 70
     1
  9
$ANGBASE
 50
0.0
  9
$ANGDIR
 70
     0
  9
$PDMODE
 70
     0
  9
$PDSIZE
 40
0.0
  9
$PLINEWID
 40
0.0
  9
$COORDS
 70
     1
  9
$SPLFRAME
 70
     0
  9
$SPLINETYPE
 70
     6
  9
$SPLINESEGS
 70
     8
  9
$ATTDIA
 70
     0
  9
$ATTREQ
 70
     1
  9
$HANDLING
 70
     1
  9
$HANDSEED
  5
F8
  9
$SURFTAB1
 70
     6
  9
$SURFTAB2
 70
     6
  9
$SURFTYPE
 70
     6
  9
$SURFU
 70
     6
  9
$SURFV
 70
     6
  9
$UCSNAME
  2

  9
$UCSORG
 10
0.0
 20
0.0
 30
0.0
  9
$UCSXDIR
 10
1.0
 20
0.0
 30
0.0
  9
$UCSYDIR
 10
0.0
 20
1.0
 30
0.0
  9
$PUCSNAME
  2

  9
$PUCSORG
 10
0.0
 20
0.0
 30
0.0
  9
$PUCSXDIR
 10
1.0
 20
0.0
 30
0.0
  9
$PUCSYDIR
 10
0.0
 20
1.0
 30
0.0
  9
$USERI1
 70
     0
  9
$USERI2
 70
     0
  9
$USERI3
 70
     0
  9
$USERI4
 70
     0
  9
$USERI5
 70
     0
  9
$USERR1
 40
0.0
  9
$USERR2
 40
0.0
  9
$USERR3
 40
0.0
  9
$USERR4
 40
0.0
  9
$USERR5
 40
0.0
  9
$WORLDVIEW
 70
     1
  9
$SHADEDGE
 70
     3
  9
$SHADEDIF
 70
    70
  9
$TILEMODE
 70
     1
  9
$MAXACTVP
 70
    16
  9
$PINSBASE
 10
0.0
 20
0.0
 30
0.0
  9
$PLIMCHECK
 70
     0
  9
$PEXTMIN
 10
1.000000E+20
 20
1.000000E+20
 30
1.000000E+20
  9
$PEXTMAX
 10
-1.000000E+20
 20
-1.000000E+20
 30
-1.000000E+20
  9
$PLIMMIN
 10
0.0
 20
0.0
  9
$PLIMMAX
 10
12.0
 20
9.0
  9
$UNITMODE
 70
     0
  9
$VISRETAIN
 70
     0
  9
$PLINEGEN
 70
     1
  9
$PSLTSCALE
 70
     0
  9
$TREEDEPTH
 70
  3020
  9
$DWGCODEPAGE
  3
dos932
  0
ENDSEC
  0
SECTION
  2
TABLES
  0
TABLE
  2
VPORT
 70
     1
  0
VPORT
  2
*ACTIVE
 70
     0
 10
0.0
 20
0.0
 11
1.0
 21
1.0
 12
0.0
 22
22.0
 13
0.0
 23
0.0
 14
1.0
 24
1.0
 15
0.0
 25
0.0
 16
0.0
 26
0.0
 36
1.0
 17
0.0
 27
0.0
 37
0.0
 40
290.88
 41
1.732051
 42
50.0
 43
0.0
 44
0.0
 50
0.0
 51
0.0
 71
     0
 72
   100
 73
     1
 74
     1
 75
     0
 76
     0
 77
     0
 78
     0
  0
ENDTAB
  0
TABLE
  2
LTYPE
 70
     2
  0
LTYPE
  2
CONTINUOUS
 70
    64
  3
Solid line
 72
    65
 73
     0
 40
0.0
  0
LTYPE
  2
DASHED
 70
    64
  3
Dashed __ __ __ __ __ __ __ __ __ __ __ __ __ _
 72
    65
 73
     2
 40
19.05
 49
12.7
 49
-6.35
  0
ENDTAB
  0
TABLE
  2
LAYER
 70
     3
  0
LAYER
  2
0
 70
     0
 62
     7
  6
CONTINUOUS
  0
LAYER
  2
LY_1
 70
     0
 62
     7
  6
CONTINUOUS
  0
LAYER
  2
DEFPOINTS
 70
     0
 62
     7
  6
CONTINUOUS
  0
ENDTAB
  0
TABLE
  2
STYLE
 70
     1
  0
STYLE
  2
MX_NOTE_STANDARD
 70
     0
 40
0.0
 41
1.0
 50
0.0
 71
     0
 42
4.1656
  3
txt.shx
  4
extfont.shx
  0
ENDTAB
  0
TABLE
  2
VIEW
 70
     0
  0
ENDTAB
  0
TABLE
  2
UCS
 70
     0
  0
ENDTAB
  0
TABLE
  2
APPID
 70
     1
  0
APPID
  2
ACAD
 70
     0
  0
ENDTAB
  0
TABLE
  2
DIMSTYLE
 70
     1
  0
DIMSTYLE
  2
MXDIMSTYLE
 70
     0
  3

  4

  5

  6

  7

 40
1.0
 41
2.5
 42
0.5
 43
3.75
 44
1.0
 45
0.0
 46
0.0
 47
0.0
 48
0.0
 71
     0
 72
     0
 73
     0
 74
     0
 75
     0
 76
     0
 77
     1
 78
     8
140
2.5
141
2.5
142
0.0
143
0.03937
144
1.0
145
0.0
146
1.0
147
1.0
170
     0
171
     4
172
     1
173
     0
174
     0
175
     0
176
     0
177
     0
178
     0
  0
ENDTAB
  0
ENDSEC
  0
SECTION
  2
BLOCKS
  0
ENDSEC
  0
SECTION
  2
ENTITIES
  0
LINE
  8
LY_1
  6
CONTINUOUS
 62
     3
  5
1F
 10
-6.971175
 20
-45.701272
 30
0.0
 11
-5.983879
 21
-39.522312
 31
0.0
  0
LINE
  8
LY_1
  6
CONTINUOUS
 62
     3
  5
20
 10
-5.985799
 20
-45.515653
 30
0.0
 11
-5.983879
 21
-39.522312
 31
0.0
  0
LINE
  8
LY_1
  6
CONTINUOUS
 62
     3
  5
21
 10
2.110776
 20
-46.374348
 30
0.0
 11
2.111656
 21
-43.627001
 31
0.0
  0
ARC
  8
LY_1
  6
CONTINUOUS
 62
     3
  5
22
 10
0.011216
 20
-45.000002
 30
0.0
 40
2.509378
 50
33.171556
 51
146.791723
  0
LINE
  8
LY_1
  6
CONTINUOUS
 62
     3
  5
23
 10
6.993156
 20
-45.705747
 30
0.0
 11
6.00982
 21
-39.526156
 31
0.0
  0
LINE
  8
LY_1
  6
CONTINUOUS
 62
     3
  5
24
 10
6.007899
 20
-45.519496
 30
0.0
 11
6.00982
 21
-39.526156
 31
0.0
  0
ARC
  8
LY_1
  6
CONTINUOUS
 62
     3
  5
25
 10
0.0
 20
-80.0
 30
0.0
 40
40.9176
 50
81.554062
 51
98.409217
  0
LINE
  8
LY_1
  6
CONTINUOUS
 62
     3
  5
26
 10
-2.089224
 20
-46.373003
 30
0.0
 11
-2.088344
 21
-43.625655
 31
0.0
  0
ARC
  8
LY_1
  6
CONTINUOUS
 62
     3
  5
27
 10
0.011216
 20
-45.000002
 30
0.0
 40
2.509378
 50
213.171556
 51
326.791723
  0
ARC
  8
LY_1
  6
CONTINUOUS
 62
     3
  5
28
 10
0.011216
 20
-45.000002
 30
0.0
 40
7.017519
 50
185.735222
 51
354.228057
  0
ARC
  8
LY_1
  6
CONTINUOUS
 62
     3
  5
29
 10
0.011216
 20
-45.000002
 30
0.0
 40
6.019143
 50
184.914467
 51
355.048812
  0
LINE
  8
LY_1
  6
CONTINUOUS
 62
     3
  5
2A
 10
33.189157
 20
-91.112149
 30
0.0
 11
38.046645
 21
-95.056653
 31
0.0
  0
LINE
  8
LY_1
  6
CONTINUOUS
 62
     3
  5
2B
 10
32.85722
 20
-92.058319
 30
0.0
 11
38.046645
 21
-95.056653
 31
0.0
  0
LINE
  8
LY_1
  6
CONTINUOUS
 62
     3
  5
2C
 10
28.065281
 20
-98.640811
 30
0.0
 11
30.444113
 21
-100.015247
 31
0.0
  0
ARC
  8
LY_1
  6
CONTINUOUS
 62
     3
  5
2D
 10
30.30528
 20
-97.509712
 30
0.0
 40
2.509378
 50
273.171556
 51
26.791723
  0
LINE
  8
LY_1
  6
CONTINUOUS
 62
     3
  5
2E
 10
26.203116
 20
-103.203377
 30
0.0
 11
32.046467
 21
-105.441579
 31
0.0
  0
LINE
  8
LY_1
  6
CONTINUOUS
 62
     3
  5
2F
 10
26.857043
 20
-102.443245
 30
0.0
 11
32.046467
 21
-105.441579
 31
0.0
  0
ARC
  8
LY_1
  6
CONTINUOUS
 62
     3
  5
30
 10
0.0
 20
-80.0
 30
0.0
 40
40.9176
 50
321.554062
 51
338.409217
  0
LINE
  8
LY_1
  6
CONTINUOUS
 62
     3
  5
31
 10
30.166446
 20
-95.004178
 30
0.0
 11
32.545279
 21
-96.378614
 31
0.0
  0
ARC
  8
LY_1
  6
CONTINUOUS
 62
     3
  5
32
 10
30.30528
 20
-97.509712
 30
0.0
 40
2.509378
 50
93.171556
 51
206.791723
  0
ARC
  8
LY_1
  6
CONTINUOUS
 62
     3
  5
33
 10
30.30528
 20
-97.509712
 30
0.0
 40
7.017519
 50
65.735222
 51
234.228057
  0
ARC
  8
LY_1
  6
CONTINUOUS
 62
     3
  5
34
 10
30.30528
 20
-97.509712
 30
0.0
 40
6.019143
 50
64.914467
 51
235.048812
  0
ARC
  8
LY_1
  6
CONTINUOUS
 62
     3
  5
35
 10
-30.316496
 20
-97.490286
 30
0.0
 40
2.509378
 50
153.171556
 51
266.791723
  0
LINE
  8
LY_1
  6
CONTINUOUS
 62
     3
  5
36
 10
-30.176056
 20
-94.984841
 30
0.0
 11
-32.555769
 21
-96.357752
 31
0.0
  0
LINE
  8
LY_1
  6
CONTINUOUS
 62
     3
  5
37
 10
-28.077222
 20
-98.62282
 30
0.0
 11
-30.456935
 21
-99.995731
 31
0.0
  0
ARC
  8
LY_1
  6
CONTINUOUS
 62
     3
  5
38
 10
-30.316496
 20
-97.490286
 30
0.0
 40
2.509378
 50
333.171556
 51
86.791723
  0
LINE
  8
LY_1
  6
CONTINUOUS
 62
     3
  5
39
 10
-33.196272
 20
-91.090875
 30
0.0
 11
-38.056287
 21
-95.032265
 31
0.0
  0
LINE
  8
LY_1
  6
CONTINUOUS
 62
     3
  5
3A
 10
-26.217982
 20
-103.186579
 30
0.0
 11
-32.062766
 21
-105.421035
 31
0.0
  0
ARC
  8
LY_1
  6
CONTINUOUS
 62
     3
  5
3B
 10
-30.316496
 20
-97.490286
 30
0.0
 40
7.017519
 50
305.735222
 51
114.228057
  0
LINE
  8
LY_1
  6
CONTINUOUS
 62
     3
  5
3C
 10
-32.864942
 20
-92.037259
 30
0.0
 11
-38.056287
 21
-95.032265
 31
0.0
  0
LINE
  8
LY_1
  6
CONTINUOUS
 62
     3
  5
3D
 10
-26.871421
 20
-102.426028
 30
0.0
 11
-32.062766
 21
-105.421035
 31
0.0
  0
ARC
  8
LY_1
  6
CONTINUOUS
 62
     3
  5
3E
 10
-30.316496
 20
-97.490286
 30
0.0
 40
6.019143
 50
304.914467
 51
115.048812
  0
ARC
  8
LY_1
  6
CONTINUOUS
 62
     3
  5
3F
 10
0.0
 20
-80.0
 30
0.0
 40
40.9176
 50
201.554062
 51
218.409217
  0
ARC
  8
LY_1
  6
DASHED
 62
    80
  5
41
 10
-0.001168
 20
3.0
 30
0.0
 40
3.5
 50
0.0
 51
180.0
  0
LINE
  8
LY_1
  6
DASHED
 62
    80
  5
42
 10
-3.501168
 20
0.0
 30
0.0
 11
-3.501168
 21
3.0
 31
0.0
  0
LINE
  8
LY_1
  6
DASHED
 62
    80
  5
43
 10
3.498832
 20
0.0
 30
0.0
 11
3.498832
 21
3.0
 31
0.0
  0
LINE
  8
LY_1
  6
CONTINUOUS
 62
     3
  5
44
 10
-38.082728
 20
7.451675
 30
0.0
 11
-32.071269
 21
7.451675
 31
0.0
  0
LINE
  8
LY_1
  6
CONTINUOUS
 62
     3
  5
45
 10
-32.071269
 20
8.694895
 30
0.0
 11
-32.071269
 21
7.451675
 31
0.0
  0
LINE
  8
LY_1
  6
CONTINUOUS
 62
     3
  5
46
 10
-38.082728
 20
8.694895
 30
0.0
 11
-38.082728
 21
7.451675
 31
0.0
  0
LINE
  8
LY_1
  6
CONTINUOUS
 62
     3
  5
47
 10
-39.662717
 20
8.694895
 30
0.0
 11
-38.082728
 21
8.694895
 31
0.0
  0
LINE
  8
LY_1
  6
CONTINUOUS
 62
     3
  5
48
 10
-38.082728
 20
8.694895
 30
0.0
 11
-31.005902
 21
11.998251
 31
0.0
  0
POLYLINE
  8
LY_1
  6
CONTINUOUS
 62
     3
  5
49
 66
     1
 10
0.0
 20
0.0
 30
0.0
  0
VERTEX
  8
LY_1
  6
CONTINUOUS
 62
     3
  5
93
 10
-31.005902
 20
11.998251
 30
0.0
  0
VERTEX
  8
LY_1
  6
CONTINUOUS
 62
     3
  5
94
 10
-30.792858
 20
12.113392
 30
0.0
  0
VERTEX
  8
LY_1
  6
CONTINUOUS
 62
     3
  5
95
 10
-30.582048
 20
12.225765
 30
0.0
  0
VERTEX
  8
LY_1
  6
CONTINUOUS
 62
     3
  5
96
 10
-30.372763
 20
12.335624
 30
0.0
  0
VERTEX
  8
LY_1
  6
CONTINUOUS
 62
     3
  5
97
 10
-30.164291
 20
12.443222
 30
0.0
  0
VERTEX
  8
LY_1
  6
CONTINUOUS
 62
     3
  5
98
 10
-29.955923
 20
12.54881
 30
0.0
  0
VERTEX
  8
LY_1
  6
CONTINUOUS
 62
     3
  5
99
 10
-29.746948
 20
12.652642
 30
0.0
  0
VERTEX
  8
LY_1
  6
CONTINUOUS
 62
     3
  5
9A
 10
-29.536654
 20
12.75497
 30
0.0
  0
VERTEX
  8
LY_1
  6
CONTINUOUS
 62
     3
  5
9B
 10
-29.324333
 20
12.856047
 30
0.0
  0
VERTEX
  8
LY_1
  6
CONTINUOUS
 62
     3
  5
9C
 10
-29.109273
 20
12.956125
 30
0.0
  0
VERTEX
  8
LY_1
  6
CONTINUOUS
 62
     3
  5
9D
 10
-28.890764
 20
13.055457
 30
0.0
  0
VERTEX
  8
LY_1
  6
CONTINUOUS
 62
     3
  5
9E
 10
-28.668095
 20
13.154296
 30
0.0
  0
VERTEX
  8
LY_1
  6
CONTINUOUS
 62
     3
  5
9F
 10
-28.440556
 20
13.252894
 30
0.0
  0
VERTEX
  8
LY_1
  6
CONTINUOUS
 62
     3
  5
A0
 10
-28.207436
 20
13.351503
 30
0.0
  0
VERTEX
  8
LY_1
  6
CONTINUOUS
 62
     3
  5
A1
 10
-27.968025
 20
13.450377
 30
0.0
  0
VERTEX
  8
LY_1
  6
CONTINUOUS
 62
     3
  5
A2
 10
-27.721613
 20
13.549768
 30
0.0
  0
VERTEX
  8
LY_1
  6
CONTINUOUS
 62
     3
  5
A3
 10
-27.467489
 20
13.649929
 30
0.0
  0
VERTEX
  8
LY_1
  6
CONTINUOUS
 62
     3
  5
A4
 10
-27.062566
 20
13.805098
 30
0.0
  0
VERTEX
  8
LY_1
  6
CONTINUOUS
 62
     3
  5
A5
 10
-26.642416
 20
13.961022
 30
0.0
  0
VERTEX
  8
LY_1
  6
CONTINUOUS
 62
     3
  5
A6
 10
-26.211596
 20
14.116057
 30
0.0
  0
VERTEX
  8
LY_1
  6
CONTINUOUS
 62
     3
  5
A7
 10
-25.774666
 20
14.268555
 30
0.0
  0
VERTEX
  8
LY_1
  6
CONTINUOUS
 62
     3
  5
A8
 10
-25.336185
 20
14.416871
 30
0.0
  0
VERTEX
  8
LY_1
  6
CONTINUOUS
 62
     3
  5
A9
 10
-24.900714
 20
14.559359
 30
0.0
  0
VERTEX
  8
LY_1
  6
CONTINUOUS
 62
     3
  5
AA
 10
-24.47281
 20
14.694373
 30
0.0
  0
VERTEX
  8
LY_1
  6
CONTINUOUS
 62
     3
  5
AB
 10
-24.057034
 20
14.820268
 30
0.0
  0
VERTEX
  8
LY_1
  6
CONTINUOUS
 62
     3
  5
AC
 10
-23.657945
 20
14.935397
 30
0.0
  0
VERTEX
  8
LY_1
  6
CONTINUOUS
 62
     3
  5
AD
 10
-23.280102
 20
15.038115
 30
0.0
  0
VERTEX
  8
LY_1
  6
CONTINUOUS
 62
     3
  5
AE
 10
-22.928065
 20
15.126775
 30
0.0
  0
VERTEX
  8
LY_1
  6
CONTINUOUS
 62
     3
  5
AF
 10
-22.606392
 20
15.199731
 30
0.0
  0
VERTEX
  8
LY_1
  6
CONTINUOUS
 62
     3
  5
B0
 10
-22.319644
 20
15.255339
 30
0.0
  0
VERTEX
  8
LY_1
  6
CONTINUOUS
 62
     3
  5
B1
 10
-22.072379
 20
15.291951
 30
0.0
  0
VERTEX
  8
LY_1
  6
CONTINUOUS
 62
     3
  5
B2
 10
-21.869156
 20
15.307923
 30
0.0
  0
VERTEX
  8
LY_1
  6
CONTINUOUS
 62
     3
  5
B3
 10
-21.714536
 20
15.301607
 30
0.0
  0
VERTEX
  8
LY_1
  6
CONTINUOUS
 62
     3
  5
B4
 10
-21.558718
 20
15.215921
 30
0.0
  0
VERTEX
  8
LY_1
  6
CONTINUOUS
 62
     3
  5
B5
 10
-21.60622
 20
15.039509
 30
0.0
  0
VERTEX
  8
LY_1
  6
CONTINUOUS
 62
     3
  5
B6
 10
-21.836419
 20
14.782464
 30
0.0
  0
VERTEX
  8
LY_1
  6
CONTINUOUS
 62
     3
  5
B7
 10
-22.228693
 20
14.454877
 30
0.0
  0
VERTEX
  8
LY_1
  6
CONTINUOUS
 62
     3
  5
B8
 10
-22.76242
 20
14.066839
 30
0.0
  0
VERTEX
  8
LY_1
  6
CONTINUOUS
 62
     3
  5
B9
 10
-23.416977
 20
13.628442
 30
0.0
  0
VERTEX
  8
LY_1
  6
CONTINUOUS
 62
     3
  5
BA
 10
-24.171742
 20
13.149778
 30
0.0
  0
VERTEX
  8
LY_1
  6
CONTINUOUS
 62
     3
  5
BB
 10
-25.006092
 20
12.640939
 30
0.0
  0
VERTEX
  8
LY_1
  6
CONTINUOUS
 62
     3
  5
BC
 10
-25.899405
 20
12.112015
 30
0.0
  0
VERTEX
  8
LY_1
  6
CONTINUOUS
 62
     3
  5
BD
 10
-26.831058
 20
11.573099
 30
0.0
  0
VERTEX
  8
LY_1
  6
CONTINUOUS
 62
     3
  5
BE
 10
-27.780429
 20
11.034283
 30
0.0
  0
VERTEX
  8
LY_1
  6
CONTINUOUS
 62
     3
  5
BF
 10
-28.726896
 20
10.505657
 30
0.0
  0
VERTEX
  8
LY_1
  6
CONTINUOUS
 62
     3
  5
C0
 10
-29.649836
 20
9.997314
 30
0.0
  0
VERTEX
  8
LY_1
  6
CONTINUOUS
 62
     3
  5
C1
 10
-30.528626
 20
9.519345
 30
0.0
  0
VERTEX
  8
LY_1
  6
CONTINUOUS
 62
     3
  5
C2
 10
-31.342645
 20
9.081841
 30
0.0
  0
VERTEX
  8
LY_1
  6
CONTINUOUS
 62
     3
  5
C3
 10
-32.071269
 20
8.694895
 30
0.0
  0
SEQEND
  8
LY_1
  6
CONTINUOUS
 62
     3
  5
C4
  0
LINE
  8
LY_1
  6
CONTINUOUS
 62
     3
  5
4A
 10
38.084151
 20
7.450708
 30
0.0
 11
32.072692
 21
7.45086
 31
0.0
  0
LINE
  8
LY_1
  6
CONTINUOUS
 62
     3
  5
4B
 10
32.072724
 20
8.69408
 30
0.0
 11
32.072692
 21
7.45086
 31
0.0
  0
LINE
  8
LY_1
  6
CONTINUOUS
 62
     3
  5
4C
 10
38.084182
 20
8.693928
 30
0.0
 11
38.084151
 21
7.450708
 31
0.0
  0
LINE
  8
LY_1
  6
CONTINUOUS
 62
     3
  5
4D
 10
-32.071269
 20
8.694895
 30
0.0
 11
32.072724
 21
8.694895
 31
0.0
  0
LINE
  8
LY_1
  6
CONTINUOUS
 62
     3
  5
4E
 10
38.084182
 20
8.693928
 30
0.0
 11
31.00744
 21
11.997463
 31
0.0
  0
POLYLINE
  8
LY_1
  6
CONTINUOUS
 62
     3
  5
4F
 66
     1
 10
0.0
 20
0.0
 30
0.0
  0
VERTEX
  8
LY_1
  6
CONTINUOUS
 62
     3
  5
C5
 10
31.00744
 20
11.997463
 30
0.0
  0
VERTEX
  8
LY_1
  6
CONTINUOUS
 62
     3
  5
C6
 10
30.794399
 20
12.112609
 30
0.0
  0
VERTEX
  8
LY_1
  6
CONTINUOUS
 62
     3
  5
C7
 10
30.583593
 20
12.224988
 30
0.0
  0
VERTEX
  8
LY_1
  6
CONTINUOUS
 62
     3
  5
C8
 10
30.37431
 20
12.334853
 30
0.0
  0
VERTEX
  8
LY_1
  6
CONTINUOUS
 62
     3
  5
C9
 10
30.165841
 20
12.442456
 30
0.0
  0
VERTEX
  8
LY_1
  6
CONTINUOUS
 62
     3
  5
CA
 10
29.957476
 20
12.548049
 30
0.0
  0
VERTEX
  8
LY_1
  6
CONTINUOUS
 62
     3
  5
CB
 10
29.748503
 20
12.651887
 30
0.0
  0
VERTEX
  8
LY_1
  6
CONTINUOUS
 62
     3
  5
CC
 10
29.538212
 20
12.75422
 30
0.0
  0
VERTEX
  8
LY_1
  6
CONTINUOUS
 62
     3
  5
CD
 10
29.325893
 20
12.855302
 30
0.0
  0
VERTEX
  8
LY_1
  6
CONTINUOUS
 62
     3
  5
CE
 10
29.110836
 20
12.955386
 30
0.0
  0
VERTEX
  8
LY_1
  6
CONTINUOUS
 62
     3
  5
CF
 10
28.892329
 20
13.054723
 30
0.0
  0
VERTEX
  8
LY_1
  6
CONTINUOUS
 62
     3
  5
D0
 10
28.669663
 20
13.153568
 30
0.0
  0
VERTEX
  8
LY_1
  6
CONTINUOUS
 62
     3
  5
D1
 10
28.442126
 20
13.252171
 30
0.0
  0
VERTEX
  8
LY_1
  6
CONTINUOUS
 62
     3
  5
D2
 10
28.209009
 20
13.350787
 30
0.0
  0
VERTEX
  8
LY_1
  6
CONTINUOUS
 62
     3
  5
D3
 10
27.969601
 20
13.449667
 30
0.0
  0
VERTEX
  8
LY_1
  6
CONTINUOUS
 62
     3
  5
D4
 10
27.723191
 20
13.549064
 30
0.0
  0
VERTEX
  8
LY_1
  6
CONTINUOUS
 62
     3
  5
D5
 10
27.469069
 20
13.649231
 30
0.0
  0
VERTEX
  8
LY_1
  6
CONTINUOUS
 62
     3
  5
D6
 10
27.064151
 20
13.80441
 30
0.0
  0
VERTEX
  8
LY_1
  6
CONTINUOUS
 62
     3
  5
D7
 10
26.644004
 20
13.960345
 30
0.0
  0
VERTEX
  8
LY_1
  6
CONTINUOUS
 62
     3
  5
D8
 10
26.213188
 20
14.115391
 30
0.0
  0
VERTEX
  8
LY_1
  6
CONTINUOUS
 62
     3
  5
D9
 10
25.776262
 20
14.2679
 30
0.0
  0
VERTEX
  8
LY_1
  6
CONTINUOUS
 62
     3
  5
DA
 10
25.337785
 20
14.416227
 30
0.0
  0
VERTEX
  8
LY_1
  6
CONTINUOUS
 62
     3
  5
DB
 10
24.902317
 20
14.558726
 30
0.0
  0
VERTEX
  8
LY_1
  6
CONTINUOUS
 62
     3
  5
DC
 10
24.474417
 20
14.693752
 30
0.0
  0
VERTEX
  8
LY_1
  6
CONTINUOUS
 62
     3
  5
DD
 10
24.058645
 20
14.819657
 30
0.0
  0
VERTEX
  8
LY_1
  6
CONTINUOUS
 62
     3
  5
DE
 10
23.659559
 20
14.934796
 30
0.0
  0
VERTEX
  8
LY_1
  6
CONTINUOUS
 62
     3
  5
DF
 10
23.281718
 20
15.037523
 30
0.0
  0
VERTEX
  8
LY_1
  6
CONTINUOUS
 62
     3
  5
E0
 10
22.929683
 20
15.126192
 30
0.0
  0
VERTEX
  8
LY_1
  6
CONTINUOUS
 62
     3
  5
E1
 10
22.608012
 20
15.199157
 30
0.0
  0
VERTEX
  8
LY_1
  6
CONTINUOUS
 62
     3
  5
E2
 10
22.321265
 20
15.254772
 30
0.0
  0
VERTEX
  8
LY_1
  6
CONTINUOUS
 62
     3
  5
E3
 10
22.074001
 20
15.29139
 30
0.0
  0
VERTEX
  8
LY_1
  6
CONTINUOUS
 62
     3
  5
E4
 10
21.870779
 20
15.307367
 30
0.0
  0
VERTEX
  8
LY_1
  6
CONTINUOUS
 62
     3
  5
E5
 10
21.716159
 20
15.301055
 30
0.0
  0
VERTEX
  8
LY_1
  6
CONTINUOUS
 62
     3
  5
E6
 10
21.560338
 20
15.215373
 30
0.0
  0
VERTEX
  8
LY_1
  6
CONTINUOUS
 62
     3
  5
E7
 10
21.607836
 20
15.03896
 30
0.0
  0
VERTEX
  8
LY_1
  6
CONTINUOUS
 62
     3
  5
E8
 10
21.838028
 20
14.781909
 30
0.0
  0
VERTEX
  8
LY_1
  6
CONTINUOUS
 62
     3
  5
E9
 10
22.230294
 20
14.454312
 30
0.0
  0
VERTEX
  8
LY_1
  6
CONTINUOUS
 62
     3
  5
EA
 10
22.764011
 20
14.066261
 30
0.0
  0
VERTEX
  8
LY_1
  6
CONTINUOUS
 62
     3
  5
EB
 10
23.418557
 20
13.627847
 30
0.0
  0
VERTEX
  8
LY_1
  6
CONTINUOUS
 62
     3
  5
EC
 10
24.17331
 20
13.149164
 30
0.0
  0
VERTEX
  8
LY_1
  6
CONTINUOUS
 62
     3
  5
ED
 10
25.007647
 20
12.640303
 30
0.0
  0
VERTEX
  8
LY_1
  6
CONTINUOUS
 62
     3
  5
EE
 10
25.900946
 20
12.111357
 30
0.0
  0
VERTEX
  8
LY_1
  6
CONTINUOUS
 62
     3
  5
EF
 10
26.832586
 20
11.572418
 30
0.0
  0
VERTEX
  8
LY_1
  6
CONTINUOUS
 62
     3
  5
F0
 10
27.781943
 20
11.033577
 30
0.0
  0
VERTEX
  8
LY_1
  6
CONTINUOUS
 62
     3
  5
F1
 10
28.728397
 20
10.504927
 30
0.0
  0
VERTEX
  8
LY_1
  6
CONTINUOUS
 62
     3
  5
F2
 10
29.651324
 20
9.996561
 30
0.0
  0
VERTEX
  8
LY_1
  6
CONTINUOUS
 62
     3
  5
F3
 10
30.530102
 20
9.518569
 30
0.0
  0
VERTEX
  8
LY_1
  6
CONTINUOUS
 62
     3
  5
F4
 10
31.344109
 20
9.081045
 30
0.0
  0
VERTEX
  8
LY_1
  6
CONTINUOUS
 62
     3
  5
F5
 10
32.072724
 20
8.69408
 30
0.0
  0
SEQEND
  8
LY_1
  6
CONTINUOUS
 62
     3
  5
F6
  0
LINE
  8
LY_1
  6
CONTINUOUS
 62
     3
  5
50
 10
38.084183
 20
8.694895
 30
0.0
 11
39.662717
 21
8.694895
 31
0.0
  0
CIRCLE
  8
LY_1
  6
CONTINUOUS
 62
     3
  5
51
 10
0.0
 20
-80.0
 30
0.0
 40
14.0
  0
CIRCLE
  8
LY_1
  6
CONTINUOUS
 62
     3
  5
52
 10
0.0
 20
-80.0
 30
0.0
 40
42.0
  0
CIRCLE
  8
LY_1
  6
CONTINUOUS
 62
     3
  5
53
 10
0.0
 20
-80.0
 30
0.0
 40
7.5
  0
CIRCLE
  8
LY_1
  6
CONTINUOUS
 62
     3
  5
54
 10
0.0
 20
-80.0
 30
0.0
 40
14.5
  0
LINE
  8
LY_1
  6
CONTINUOUS
 62
     3
  5
55
 10
-42.0
 20
0.0
 30
0.0
 11
42.0
 21
0.0
 31
0.0
  0
LINE
  8
LY_1
  6
CONTINUOUS
 62
     3
  5
56
 10
-42.0
 20
0.0
 30
0.0
 11
-41.2
 21
7.7
 31
0.0
  0
ARC
  8
LY_1
  6
CONTINUOUS
 62
     3
  5
57
 10
-39.2
 20
7.5
 30
0.0
 40
2.0
 50
130.9
 51
174.3
  0
LINE
  8
LY_1
  6
CONTINUOUS
 62
     3
  5
58
 10
-14.5
 20
24.0
 30
0.0
 11
-14.0
 21
24.5
 31
0.0
  0
LINE
  8
LY_1
  6
CONTINUOUS
 62
     3
  5
59
 10
-14.5
 20
24.0
 30
0.0
 11
14.5
 21
24.0
 31
0.0
  0
LINE
  8
LY_1
  6
CONTINUOUS
 62
     3
  5
5A
 10
-14.5
 20
24.5
 30
0.0
 11
14.5
 21
24.5
 31
0.0
  0
LINE
  8
LY_1
  6
CONTINUOUS
 62
     3
  5
5B
 10
-14.5
 20
24.5
 30
0.0
 11
-14.9
 21
33.6
 31
0.0
  0
LINE
  8
LY_1
  6
CONTINUOUS
 62
     3
  5
5C
 10
-17.4
 20
36.0
 30
0.0
 11
-22.0
 21
36.0
 31
0.0
  0
ARC
  8
LY_1
  6
CONTINUOUS
 62
     3
  5
5D
 10
-17.4
 20
33.5
 30
0.0
 40
2.5
 50
2.3
 51
90.0
  0
LINE
  8
LY_1
  6
CONTINUOUS
 62
     3
  5
5E
 10
-40.0
 20
54.0
 30
0.0
 11
-40.0
 21
79.0
 31
0.0
  0
ARC
  8
LY_1
  6
CONTINUOUS
 62
     3
  5
5F
 10
-22.0
 20
54.0
 30
0.0
 40
18.0
 50
180.0
 51
270.0
  0
LINE
  8
LY_1
  6
CONTINUOUS
 62
     3
  5
60
 10
-42.0
 20
82.0
 30
0.0
 11
42.0
 21
82.0
 31
0.0
  0
LINE
  8
LY_1
  6
CONTINUOUS
 62
     3
  5
61
 10
42.0
 20
94.0
 30
0.0
 11
42.0
 21
84.5
 31
0.0
  0
LINE
  8
LY_1
  6
CONTINUOUS
 62
     3
  5
62
 10
-42.0
 20
94.0
 30
0.0
 11
-42.0
 21
84.5
 31
0.0
  0
LINE
  8
LY_1
  6
CONTINUOUS
 62
     3
  5
63
 10
42.0
 20
80.0
 30
0.0
 11
-42.0
 21
80.0
 31
0.0
  0
LINE
  8
LY_1
  6
CONTINUOUS
 62
     3
  5
64
 10
-42.0
 20
80.0
 30
0.0
 11
-40.0
 21
79.0
 31
0.0
  0
LINE
  8
LY_1
  6
CONTINUOUS
 62
     3
  5
65
 10
-40.0
 20
79.0
 30
0.0
 11
-20.6
 21
79.0
 31
0.0
  0
LINE
  8
LY_1
  6
CONTINUOUS
 62
     3
  5
66
 10
14.5
 20
24.5
 30
0.0
 11
14.9
 21
33.6
 31
0.0
  0
LINE
  8
LY_1
  6
CONTINUOUS
 62
     3
  5
67
 10
17.4
 20
36.0
 30
0.0
 11
22.0
 21
36.0
 31
0.0
  0
ARC
  8
LY_1
  6
CONTINUOUS
 62
     3
  5
68
 10
17.4
 20
33.5
 30
0.0
 40
2.5
 50
90.0
 51
177.7
  0
LINE
  8
LY_1
  6
CONTINUOUS
 62
     3
  5
69
 10
40.0
 20
54.0
 30
0.0
 11
40.0
 21
79.0
 31
0.0
  0
ARC
  8
LY_1
  6
CONTINUOUS
 62
     3
  5
6A
 10
22.0
 20
54.0
 30
0.0
 40
18.0
 50
270.0
 51
0.0
  0
LINE
  8
LY_1
  6
CONTINUOUS
 62
     3
  5
6B
 10
42.0
 20
80.0
 30
0.0
 11
40.0
 21
79.0
 31
0.0
  0
LINE
  8
LY_1
  6
CONTINUOUS
 62
     3
  5
6C
 10
-42.0
 20
94.0
 30
0.0
 11
-41.0
 21
95.0
 31
0.0
  0
LINE
  8
LY_1
  6
CONTINUOUS
 62
     3
  5
6D
 10
-41.0
 20
95.0
 30
0.0
 11
41.0
 21
95.0
 31
0.0
  0
LINE
  8
LY_1
  6
CONTINUOUS
 62
     3
  5
6E
 10
-42.0
 20
94.0
 30
0.0
 11
42.0
 21
94.0
 31
0.0
  0
LINE
  8
LY_1
  6
CONTINUOUS
 62
     3
  5
6F
 10
42.0
 20
94.0
 30
0.0
 11
41.0
 21
95.0
 31
0.0
  0
LINE
  8
LY_1
  6
CONTINUOUS
 62
     3
  5
70
 10
-41.0
 20
95.0
 30
0.0
 11
-40.0
 21
126.0
 31
0.0
  0
ARC
  8
LY_1
  6
CONTINUOUS
 62
     3
  5
71
 10
0.0
 20
126.0
 30
0.0
 40
40.0
 50
0.0
 51
180.0
  0
LINE
  8
LY_1
  6
CONTINUOUS
 62
     3
  5
72
 10
41.0
 20
95.0
 30
0.0
 11
40.0
 21
126.0
 31
0.0
  0
LINE
  8
LY_1
  6
CONTINUOUS
 62
     3
  5
73
 10
14.9
 20
33.0
 30
0.0
 11
15.8
 21
33.0
 31
0.0
  0
LINE
  8
LY_1
  6
CONTINUOUS
 62
     3
  5
74
 10
15.8
 20
29.0
 30
0.0
 11
14.7
 21
29.0
 31
0.0
  0
LINE
  8
LY_1
  6
CONTINUOUS
 62
     3
  5
75
 10
15.8
 20
33.0
 30
0.0
 11
15.8
 21
29.0
 31
0.0
  0
ARC
  8
LY_1
  6
CONTINUOUS
 62
     3
  5
76
 10
-16.0
 20
24.0
 30
0.0
 40
1.5
 50
306.9
 51
0.0
  0
LINE
  8
LY_1
  6
CONTINUOUS
 62
     3
  5
77
 10
42.0
 20
0.0
 30
0.0
 11
41.2
 21
7.7
 31
0.0
  0
ARC
  8
LY_1
  6
CONTINUOUS
 62
     3
  5
78
 10
39.2
 20
7.5
 30
0.0
 40
2.0
 50
5.7
 51
49.1
  0
LINE
  8
LY_1
  6
CONTINUOUS
 62
     3
  5
79
 10
14.5
 20
24.0
 30
0.0
 11
14.0
 21
24.5
 31
0.0
  0
ARC
  8
LY_1
  6
CONTINUOUS
 62
     3
  5
7A
 10
16.0
 20
24.0
 30
0.0
 40
1.5
 50
180.0
 51
233.1
  0
ARC
  8
LY_1
  6
CONTINUOUS
 62
     3
  5
7B
 10
-75.0
 20
102.8
 30
0.0
 40
100.0
 50
290.2
 51
306.8
  0
ARC
  8
LY_1
  6
CONTINUOUS
 62
     3
  5
7C
 10
75.0
 20
102.8
 30
0.0
 40
100.0
 50
233.2
 51
249.8
  0
ARC
  8
LY_1
  6
CONTINUOUS
 62
     3
  5
7D
 10
-117.893581
 20
35.618486
 30
0.0
 40
120.0
 50
332.072671
 51
342.733253
  0
ARC
  8
LY_1
  6
CONTINUOUS
 62
     3
  5
7E
 10
-122.81762
 20
36.486726
 30
0.0
 40
120.0
 50
332.685568
 51
342.298617
  0
ARC
  8
LY_1
  6
CONTINUOUS
 62
     3
  5
7F
 10
-122.81762
 20
36.486726
 30
0.0
 40
122.374342
 50
332.82834
 51
342.653078
  0
ARC
  8
LY_1
  6
CONTINUOUS
 62
     3
  5
80
 10
-41.375
 20
83.25
 30
0.0
 40
1.25
 50
90.0
 51
270.0
  0
LINE
  8
LY_1
  6
CONTINUOUS
 62
     3
  5
81
 10
-42.0
 20
84.5
 30
0.0
 11
42.0
 21
84.5
 31
0.0
  0
ARC
  8
LY_1
  6
CONTINUOUS
 62
     3
  5
82
 10
41.375
 20
83.25
 30
0.0
 40
1.25
 50
270.0
 51
90.0
  0
LINE
  8
LY_1
  6
CONTINUOUS
 62
     3
  5
83
 10
-42.0
 20
82.0
 30
0.0
 11
-42.0
 21
80.0
 31
0.0
  0
LINE
  8
LY_1
  6
CONTINUOUS
 62
     3
  5
84
 10
42.0
 20
82.0
 30
0.0
 11
42.0
 21
80.0
 31
0.0
  0
LINE
  8
LY_1
  6
CONTINUOUS
 62
     3
  5
85
 10
19.6
 20
78.0
 30
0.0
 11
19.6
 21
53.0
 31
0.0
  0
LINE
  8
LY_1
  6
CONTINUOUS
 62
     3
  5
86
 10
-19.6
 20
78.0
 30
0.0
 11
-19.6
 21
53.0
 31
0.0
  0
LINE
  8
LY_1
  6
CONTINUOUS
 62
     3
  5
87
 10
20.6
 20
79.146341
 30
0.0
 11
20.6
 21
75.0
 31
0.0
  0
LINE
  8
LY_1
  6
CONTINUOUS
 62
     3
  5
88
 10
-20.6
 20
79.146341
 30
0.0
 11
-20.6
 21
75.0
 31
0.0
  0
LINE
  8
LY_1
  6
CONTINUOUS
 62
     3
  5
89
 10
-20.6
 20
75.0
 30
0.0
 11
-19.6
 21
75.0
 31
0.0
  0
LINE
  8
LY_1
  6
CONTINUOUS
 62
     3
  5
8A
 10
-20.6
 20
79.146341
 30
0.0
 11
20.6
 21
79.146341
 31
0.0
  0
LINE
  8
LY_1
  6
CONTINUOUS
 62
     3
  5
8B
 10
-19.6
 20
78.0
 30
0.0
 11
19.6
 21
78.0
 31
0.0
  0
LINE
  8
LY_1
  6
CONTINUOUS
 62
     3
  5
8C
 10
19.6
 20
75.0
 30
0.0
 11
20.6
 21
75.0
 31
0.0
  0
LINE
  8
LY_1
  6
CONTINUOUS
 62
     3
  5
8D
 10
20.6
 20
79.0
 30
0.0
 11
40.0
 21
79.0
 31
0.0
  0
LINE
  8
LY_1
  6
CONTINUOUS
 62
     3
  5
8E
 10
-19.6
 20
53.0
 30
0.0
 11
19.6
 21
53.0
 31
0.0
  0
LINE
  8
LY_1
  6
CONTINUOUS
 62
     3
  5
8F
 10
-14.9
 20
33.0
 30
0.0
 11
-15.8
 21
33.0
 31
0.0
  0
LINE
  8
LY_1
  6
CONTINUOUS
 62
     3
  5
90
 10
-15.8
 20
29.0
 30
0.0
 11
-14.7
 21
29.0
 31
0.0
  0
LINE
  8
LY_1
  6
CONTINUOUS
 62
     3
  5
91
 10
-15.8
 20
33.0
 30
0.0
 11
-15.8
 21
29.0
 31
0.0
  0
ENDSEC
  0
EOF
