  0
SECTION
  2
HEADER
  9
$ACADVER
  1
AC1009
  9
$DWGCODEPAGE
  3
dos932
  9
$INSBASE
 10
0.0
 20
0.0
 30
0.0
  9
$EXTMIN
 10
272.100001
 20
313.000013
 30
0.0
  9
$EXTMAX
 10
1128.100001
 20
1059.000013
 30
0.0
  9
$LIMMIN
 10
272.100001
 20
313.000013
  9
$LIMMAX
 10
1128.100001
 20
1059.000013
  9
$ORTHOMODE
 70
     0
  9
$REGENMODE
 70
     1
  9
$FILLMODE
 70
     1
  9
$QTEXTMODE
 70
     0
  9
$MIRRTEXT
 70
     1
  9
$DRAGMODE
 70
     2
  9
$LTSCALE
 40
1.0
  9
$OSMODE
 70
     0
  9
$ATTMODE
 70
     1
  9
$TEXTSIZE
 40
4.1656
  9
$TRACEWID
 40
0.05
  9
$TEXTSTYLE
  7
MX_NOTE_STANDARD
  9
$CLAYER
  8
LY_1
  9
$CELTYPE
  6
CONTINUOUS
  9
$CECOLOR
 62
   256
  9
$DIMSCALE
 40
1.0
  9
$DIMASZ
 40
2.5
  9
$DIMEXO
 40
0.5
  9
$DIMDLI
 40
3.75
  9
$DIMRND
 40
0.0
  9
$DIMDLE
 40
0.0
  9
$DIMEXE
 40
1.0
  9
$DIMTP
 40
0.0
  9
$DIMTM
 40
0.0
  9
$DIMTXT
 40
2.5
  9
$DIMCEN
 40
2.5
  9
$DIMTSZ
 40
0.0
  9
$DIMTOL
 70
     0
  9
$DIMLIM
 70
     0
  9
$DIMTIH
 70
     0
  9
$DIMTOH
 70
     0
  9
$DIMSE1
 70
     0
  9
$DIMSE2
 70
     0
  9
$DIMTAD
 70
     1
  9
$DIMZIN
 70
     8
  9
$DIMBLK
  1

  9
$DIMASO
 70
     1
  9
$DIMSHO
 70
     1
  9
$DIMPOST
  1

  9
$DIMAPOST
  1

  9
$DIMALT
 70
     0
  9
$DIMALTD
 70
     4
  9
$DIMALTF
 40
0.03937
  9
$DIMLFAC
 40
1.0
  9
$DIMTOFL
 70
     1
  9
$DIMTVP
 40
0.0
  9
$DIMTIX
 70
     0
  9
$DIMSOXD
 70
     0
  9
$DIMSAH
 70
     0
  9
$DIMBLK1
  1

  9
$DIMBLK2
  1

  9
$DIMSTYLE
  2
MXDIMSTYLE
  9
$DIMCLRD
 70
     0
  9
$DIMCLRE
 70
     0
  9
$DIMCLRT
 70
     0
  9
$DIMTFAC
 40
1.0
  9
$DIMGAP
 40
1.0
  9
$LUNITS
 70
     2
  9
$LUPREC
 70
     4
  9
$AXISMODE
 70
     0
  9
$AXISUNIT
 10
0.0
 20
0.0
  9
$SKETCHINC
 40
0.1
  9
$FILLETRAD
 40
0.0
  9
$AUNITS
 70
     0
  9
$AUPREC
 70
     0
  9
$MENU
  1
acad
  9
$ELEVATION
 40
0.0
  9
$PELEVATION
 40
0.0
  9
$THICKNESS
 40
0.0
  9
$LIMCHECK
 70
     0
  9
$BLIPMODE
 70
     1
  9
$CHAMFERA
 40
0.0
  9
$CHAMFERB
 40
0.0
  9
$SKPOLY
 70
     0
  9
$TDCREATE
 40
2453858.567268519
  9
$TDUPDATE
 40
2453858.567268519
  9
$TDINDWG
 40
0.0000000000
  9
$TDUSRTIMER
 40
0.0000000000
  9
$USRTIMER
 70
     1
  9
$ANGBASE
 50
0.0
  9
$ANGDIR
 70
     0
  9
$PDMODE
 70
     0
  9
$PDSIZE
 40
0.0
  9
$PLINEWID
 40
0.0
  9
$COORDS
 70
     1
  9
$SPLFRAME
 70
     0
  9
$SPLINETYPE
 70
     6
  9
$SPLINESEGS
 70
     8
  9
$ATTDIA
 70
     0
  9
$ATTREQ
 70
     1
  9
$HANDLING
 70
     1
  9
$HANDSEED
  5
3C1
  9
$SURFTAB1
 70
     6
  9
$SURFTAB2
 70
     6
  9
$SURFTYPE
 70
     6
  9
$SURFU
 70
     6
  9
$SURFV
 70
     6
  9
$UCSNAME
  2

  9
$UCSORG
 10
0.0
 20
0.0
 30
0.0
  9
$UCSXDIR
 10
1.0
 20
0.0
 30
0.0
  9
$UCSYDIR
 10
0.0
 20
1.0
 30
0.0
  9
$PUCSNAME
  2

  9
$PUCSORG
 10
0.0
 20
0.0
 30
0.0
  9
$PUCSXDIR
 10
1.0
 20
0.0
 30
0.0
  9
$PUCSYDIR
 10
0.0
 20
1.0
 30
0.0
  9
$USERI1
 70
     0
  9
$USERI2
 70
     0
  9
$USERI3
 70
     0
  9
$USERI4
 70
     0
  9
$USERI5
 70
     0
  9
$USERR1
 40
0.0
  9
$USERR2
 40
0.0
  9
$USERR3
 40
0.0
  9
$USERR4
 40
0.0
  9
$USERR5
 40
0.0
  9
$WORLDVIEW
 70
     1
  9
$SHADEDGE
 70
     3
  9
$SHADEDIF
 70
    70
  9
$TILEMODE
 70
     1
  9
$MAXACTVP
 70
    16
  9
$PINSBASE
 10
0.0
 20
0.0
 30
0.0
  9
$PLIMCHECK
 70
     0
  9
$PEXTMIN
 10
1.000000E+20
 20
1.000000E+20
 30
1.000000E+20
  9
$PEXTMAX
 10
-1.000000E+20
 20
-1.000000E+20
 30
-1.000000E+20
  9
$PLIMMIN
 10
0.0
 20
0.0
  9
$PLIMMAX
 10
12.0
 20
9.0
  9
$UNITMODE
 70
     0
  9
$VISRETAIN
 70
     0
  9
$PLINEGEN
 70
     1
  9
$PSLTSCALE
 70
     0
  9
$TREEDEPTH
 70
  3020
  9
$DWGCODEPAGE
  3
dos932
  0
ENDSEC
  0
SECTION
  2
TABLES
  0
TABLE
  2
VPORT
 70
     1
  0
VPORT
  2
*ACTIVE
 70
     0
 10
0.0
 20
0.0
 11
1.0
 21
1.0
 12
700.100001
 22
686.000013
 13
0.0
 23
0.0
 14
1.0
 24
1.0
 15
0.0
 25
0.0
 16
0.0
 26
0.0
 36
1.0
 17
0.0
 27
0.0
 37
0.0
 40
753.46
 41
1.732051
 42
50.0
 43
0.0
 44
0.0
 50
0.0
 51
0.0
 71
     0
 72
   100
 73
     1
 74
     1
 75
     0
 76
     0
 77
     0
 78
     0
  0
ENDTAB
  0
TABLE
  2
LTYPE
 70
     3
  0
LTYPE
  2
CONTINUOUS
 70
    64
  3
Solid line
 72
    65
 73
     0
 40
0.0
  0
LTYPE
  2
PHANTOM
 70
    64
  3
Phantom ______  __  __  ______  __  __  ______
 72
    65
 73
     6
 40
63.5
 49
31.75
 49
-6.35
 49
6.35
 49
-6.35
 49
6.35
 49
-6.35
  0
LTYPE
  2
CENTER
 70
    64
  3
Center ____ _ ____ _ ____ _ ____ _ ____ _ ____
 72
    65
 73
     4
 40
50.8
 49
31.75
 49
-6.35
 49
6.35
 49
-6.35
  0
ENDTAB
  0
TABLE
  2
LAYER
 70
     3
  0
LAYER
  2
0
 70
     0
 62
     7
  6
CONTINUOUS
  0
LAYER
  2
LY_1
 70
     0
 62
     7
  6
CONTINUOUS
  0
LAYER
  2
DEFPOINTS
 70
     0
 62
     7
  6
CONTINUOUS
  0
ENDTAB
  0
TABLE
  2
STYLE
 70
     1
  0
STYLE
  2
MX_NOTE_STANDARD
 70
     0
 40
0.0
 41
1.0
 50
0.0
 71
     0
 42
4.1656
  3
txt.shx
  4
extfont.shx
  0
ENDTAB
  0
TABLE
  2
VIEW
 70
     0
  0
ENDTAB
  0
TABLE
  2
UCS
 70
     0
  0
ENDTAB
  0
TABLE
  2
APPID
 70
     1
  0
APPID
  2
ACAD
 70
     0
  0
ENDTAB
  0
TABLE
  2
DIMSTYLE
 70
     1
  0
DIMSTYLE
  2
MXDIMSTYLE
 70
     0
  3

  4

  5

  6

  7

 40
1.0
 41
2.5
 42
0.5
 43
3.75
 44
1.0
 45
0.0
 46
0.0
 47
0.0
 48
0.0
 71
     0
 72
     0
 73
     0
 74
     0
 75
     0
 76
     0
 77
     1
 78
     8
140
2.5
141
2.5
142
0.0
143
0.03937
144
1.0
145
0.0
146
1.0
147
1.0
170
     0
171
     4
172
     1
173
     0
174
     0
175
     0
176
     0
177
     0
178
     0
  0
ENDTAB
  0
ENDSEC
  0
SECTION
  2
BLOCKS
  0
BLOCK
  8
0
  5
26
  2
MS_1
 70
     0
 10
0.0
 20
0.0
 30
0.0
  3
MS_1
  0
LINE
  8
0
  6
CONTINUOUS
 62
     3
  5
27
 10
-2.0
 20
-130.0
 30
0.0
 11
-2.0
 21
-134.5
 31
0.0
  0
LINE
  8
0
  6
CONTINUOUS
 62
     3
  5
28
 10
2.0
 20
-134.5
 30
0.0
 11
2.0
 21
-130.0
 31
0.0
  0
LINE
  8
0
  6
CONTINUOUS
 62
     3
  5
29
 10
4.5
 20
-125.8
 30
0.0
 11
-4.5
 21
-125.8
 31
0.0
  0
LINE
  8
0
  6
CONTINUOUS
 62
     3
  5
2A
 10
-3.8
 20
-125.8
 30
0.0
 11
-3.8
 21
-126.8
 31
0.0
  0
LINE
  8
0
  6
CONTINUOUS
 62
     3
  5
2B
 10
-3.8
 20
-126.8
 30
0.0
 11
3.8
 21
-126.8
 31
0.0
  0
LINE
  8
0
  6
CONTINUOUS
 62
     3
  5
2C
 10
3.8
 20
-126.8
 30
0.0
 11
3.8
 21
-125.8
 31
0.0
  0
LINE
  8
0
  6
CONTINUOUS
 62
    80
  5
2D
 10
0.0
 20
-125.8
 30
0.0
 11
2.0
 21
-126.8
 31
0.0
  0
LINE
  8
0
  6
CONTINUOUS
 62
     3
  5
2E
 10
-1.5
 20
-135.0
 30
0.0
 11
1.5
 21
-135.0
 31
0.0
  0
LINE
  8
0
  6
CONTINUOUS
 62
     3
  5
2F
 10
-2.0
 20
-134.5
 30
0.0
 11
-1.5
 21
-135.0
 31
0.0
  0
LINE
  8
0
  6
CONTINUOUS
 62
     3
  5
30
 10
1.5
 20
-135.0
 30
0.0
 11
2.0
 21
-134.5
 31
0.0
  0
LINE
  8
0
  6
CONTINUOUS
 62
     3
  5
31
 10
-4.041449
 20
-129.687427
 30
0.0
 11
-3.500025
 21
-130.000018
 31
0.0
  0
LINE
  8
0
  6
CONTINUOUS
 62
     3
  5
32
 10
-4.041443
 20
-126.8
 30
0.0
 11
-4.041443
 21
-129.687439
 31
0.0
  0
LINE
  8
0
  6
CONTINUOUS
 62
    80
  5
33
 10
-2.020752
 20
-126.8
 30
0.0
 11
-2.020752
 21
-129.687439
 31
0.0
  0
LINE
  8
0
  6
CONTINUOUS
 62
     3
  5
34
 10
-3.5
 20
-130.0
 30
0.0
 11
3.5
 21
-130.0
 31
0.0
  0
LINE
  8
0
  6
CONTINUOUS
 62
    80
  5
35
 10
2.020752
 20
-126.8
 30
0.0
 11
2.020752
 21
-129.687439
 31
0.0
  0
LINE
  8
0
  6
CONTINUOUS
 62
     3
  5
36
 10
4.041443
 20
-126.8
 30
0.0
 11
4.041443
 21
-129.687439
 31
0.0
  0
LINE
  8
0
  6
CONTINUOUS
 62
     3
  5
37
 10
4.041416
 20
-129.687384
 30
0.0
 11
3.49998
 21
-129.999982
 31
0.0
  0
LINE
  8
0
  6
CONTINUOUS
 62
     3
  5
38
 10
-4.041443
 20
-126.8
 30
0.0
 11
4.041443
 21
-126.8
 31
0.0
  0
ARC
  8
0
  6
CONTINUOUS
 62
    80
  5
39
 10
-3.031067
 20
-128.210937
 30
0.0
 40
1.789065
 50
235.616191
 51
304.383819
  0
ARC
  8
0
  6
CONTINUOUS
 62
    80
  5
3A
 10
0.0
 20
-123.312256
 30
0.0
 40
6.687757
 50
252.412801
 51
287.587196
  0
ARC
  8
0
  6
CONTINUOUS
 62
    80
  5
3B
 10
3.031067
 20
-128.210937
 30
0.0
 40
1.789065
 50
235.616191
 51
304.383819
  0
LINE
  8
0
  6
CONTINUOUS
 62
    80
  5
3C
 10
-2.0
 20
-134.5
 30
0.0
 11
2.0
 21
-134.5
 31
0.0
  0
LINE
  8
0
  6
CONTINUOUS
 62
    80
  5
3D
 10
-1.5
 20
-135.0
 30
0.0
 11
-1.5
 21
-130.0
 31
0.0
  0
LINE
  8
0
  6
CONTINUOUS
 62
    80
  5
3E
 10
1.5
 20
-135.0
 30
0.0
 11
1.5
 21
-130.0
 31
0.0
  0
LINE
  8
0
  6
CONTINUOUS
 62
     3
  5
3F
 10
4.5
 20
-125.8
 30
0.0
 11
4.5
 21
-125.0
 31
0.0
  0
LINE
  8
0
  6
CONTINUOUS
 62
     3
  5
40
 10
-4.5
 20
-125.0
 30
0.0
 11
-4.5
 21
-125.8
 31
0.0
  0
POINT
  8
0
  6
CONTINUOUS
 62
    80
  5
41
 10
17.3
 20
-125.0
 30
0.0
  0
LINE
  8
0
  6
CONTINUOUS
 62
     3
  5
42
 10
6.0
 20
-89.0
 30
0.0
 11
7.0
 21
-90.0
 31
0.0
  0
LINE
  8
0
  6
CONTINUOUS
 62
     3
  5
43
 10
6.0
 20
-87.0
 30
0.0
 11
7.0
 21
-86.0
 31
0.0
  0
LINE
  8
0
  6
CONTINUOUS
 62
     3
  5
44
 10
-6.0
 20
-89.0
 30
0.0
 11
-7.0
 21
-90.0
 31
0.0
  0
LINE
  8
0
  6
CONTINUOUS
 62
     3
  5
45
 10
-6.0
 20
-87.0
 30
0.0
 11
-7.0
 21
-86.0
 31
0.0
  0
LINE
  8
0
  6
CONTINUOUS
 62
     3
  5
46
 10
-6.0
 20
-82.0
 30
0.0
 11
-7.0
 21
-83.0
 31
0.0
  0
LINE
  8
0
  6
CONTINUOUS
 62
     3
  5
47
 10
-6.0
 20
-80.0
 30
0.0
 11
-7.0
 21
-79.0
 31
0.0
  0
LINE
  8
0
  6
CONTINUOUS
 62
     3
  5
48
 10
6.0
 20
-82.0
 30
0.0
 11
7.0
 21
-83.0
 31
0.0
  0
LINE
  8
0
  6
CONTINUOUS
 62
     3
  5
49
 10
6.0
 20
-80.0
 30
0.0
 11
7.0
 21
-79.0
 31
0.0
  0
LINE
  8
0
  6
CONTINUOUS
 62
     3
  5
4A
 10
-15.3
 20
-130.0
 30
0.0
 11
-15.3
 21
-134.5
 31
0.0
  0
LINE
  8
0
  6
CONTINUOUS
 62
     3
  5
4B
 10
-19.3
 20
-134.5
 30
0.0
 11
-19.3
 21
-130.0
 31
0.0
  0
LINE
  8
0
  6
CONTINUOUS
 62
     3
  5
4C
 10
-21.8
 20
-125.8
 30
0.0
 11
-12.8
 21
-125.8
 31
0.0
  0
LINE
  8
0
  6
CONTINUOUS
 62
     3
  5
4D
 10
-13.5
 20
-125.8
 30
0.0
 11
-13.5
 21
-126.8
 31
0.0
  0
LINE
  8
0
  6
CONTINUOUS
 62
     3
  5
4E
 10
-13.5
 20
-126.8
 30
0.0
 11
-21.1
 21
-126.8
 31
0.0
  0
LINE
  8
0
  6
CONTINUOUS
 62
     3
  5
4F
 10
-21.1
 20
-126.8
 30
0.0
 11
-21.1
 21
-125.8
 31
0.0
  0
LINE
  8
0
  6
CONTINUOUS
 62
    80
  5
50
 10
-17.3
 20
-125.8
 30
0.0
 11
-19.3
 21
-126.8
 31
0.0
  0
LINE
  8
0
  6
CONTINUOUS
 62
     3
  5
51
 10
-15.8
 20
-135.0
 30
0.0
 11
-18.8
 21
-135.0
 31
0.0
  0
LINE
  8
0
  6
CONTINUOUS
 62
     3
  5
52
 10
-15.3
 20
-134.5
 30
0.0
 11
-15.8
 21
-135.0
 31
0.0
  0
LINE
  8
0
  6
CONTINUOUS
 62
     3
  5
53
 10
-18.8
 20
-135.0
 30
0.0
 11
-19.3
 21
-134.5
 31
0.0
  0
ARC
  8
0
  6
CONTINUOUS
 62
    80
  5
54
 10
-20.331067
 20
-128.210937
 30
0.0
 40
1.789065
 50
235.616181
 51
304.383809
  0
ARC
  8
0
  6
CONTINUOUS
 62
    80
  5
55
 10
-17.3
 20
-123.312256
 30
0.0
 40
6.687757
 50
252.412804
 51
287.587199
  0
ARC
  8
0
  6
CONTINUOUS
 62
    80
  5
56
 10
-14.268933
 20
-128.210937
 30
0.0
 40
1.789065
 50
235.616181
 51
304.383809
  0
LINE
  8
0
  6
CONTINUOUS
 62
     3
  5
57
 10
-13.258557
 20
-126.8
 30
0.0
 11
-21.341443
 21
-126.8
 31
0.0
  0
LINE
  8
0
  6
CONTINUOUS
 62
     3
  5
58
 10
-21.341416
 20
-129.687384
 30
0.0
 11
-20.79998
 21
-129.999982
 31
0.0
  0
LINE
  8
0
  6
CONTINUOUS
 62
     3
  5
59
 10
-21.341443
 20
-126.8
 30
0.0
 11
-21.341443
 21
-129.687439
 31
0.0
  0
LINE
  8
0
  6
CONTINUOUS
 62
    80
  5
5A
 10
-19.320752
 20
-126.8
 30
0.0
 11
-19.320752
 21
-129.687439
 31
0.0
  0
LINE
  8
0
  6
CONTINUOUS
 62
     3
  5
5B
 10
-13.8
 20
-130.0
 30
0.0
 11
-20.8
 21
-130.0
 31
0.0
  0
LINE
  8
0
  6
CONTINUOUS
 62
    80
  5
5C
 10
-15.279248
 20
-126.8
 30
0.0
 11
-15.279248
 21
-129.687439
 31
0.0
  0
LINE
  8
0
  6
CONTINUOUS
 62
     3
  5
5D
 10
-13.258557
 20
-126.8
 30
0.0
 11
-13.258557
 21
-129.687439
 31
0.0
  0
LINE
  8
0
  6
CONTINUOUS
 62
     3
  5
5E
 10
-13.258551
 20
-129.687427
 30
0.0
 11
-13.799975
 21
-130.000018
 31
0.0
  0
LINE
  8
0
  6
CONTINUOUS
 62
    80
  5
5F
 10
-15.3
 20
-134.5
 30
0.0
 11
-19.3
 21
-134.5
 31
0.0
  0
LINE
  8
0
  6
CONTINUOUS
 62
    80
  5
60
 10
-15.8
 20
-135.0
 30
0.0
 11
-15.8
 21
-130.0
 31
0.0
  0
LINE
  8
0
  6
CONTINUOUS
 62
    80
  5
61
 10
-18.8
 20
-135.0
 30
0.0
 11
-18.8
 21
-130.0
 31
0.0
  0
LINE
  8
0
  6
CONTINUOUS
 62
     3
  5
62
 10
-21.8
 20
-125.8
 30
0.0
 11
-21.8
 21
-125.0
 31
0.0
  0
LINE
  8
0
  6
CONTINUOUS
 62
     3
  5
63
 10
-12.8
 20
-125.0
 30
0.0
 11
-12.8
 21
-125.8
 31
0.0
  0
LINE
  8
0
  6
CONTINUOUS
 62
    80
  5
64
 10
18.8
 20
-135.0
 30
0.0
 11
18.8
 21
-130.0
 31
0.0
  0
LINE
  8
0
  6
CONTINUOUS
 62
    80
  5
65
 10
15.8
 20
-135.0
 30
0.0
 11
15.8
 21
-130.0
 31
0.0
  0
LINE
  8
0
  6
CONTINUOUS
 62
    80
  5
66
 10
15.3
 20
-134.5
 30
0.0
 11
19.3
 21
-134.5
 31
0.0
  0
ARC
  8
0
  6
CONTINUOUS
 62
    80
  5
67
 10
20.331067
 20
-128.210937
 30
0.0
 40
1.789065
 50
235.616191
 51
304.383819
  0
ARC
  8
0
  6
CONTINUOUS
 62
    80
  5
68
 10
17.3
 20
-123.312256
 30
0.0
 40
6.687757
 50
252.412801
 51
287.587196
  0
ARC
  8
0
  6
CONTINUOUS
 62
    80
  5
69
 10
14.268933
 20
-128.210937
 30
0.0
 40
1.789065
 50
235.616191
 51
304.383819
  0
LINE
  8
0
  6
CONTINUOUS
 62
     3
  5
6A
 10
13.258557
 20
-126.8
 30
0.0
 11
21.341443
 21
-126.8
 31
0.0
  0
LINE
  8
0
  6
CONTINUOUS
 62
     3
  5
6B
 10
21.341416
 20
-129.687384
 30
0.0
 11
20.79998
 21
-129.999982
 31
0.0
  0
LINE
  8
0
  6
CONTINUOUS
 62
     3
  5
6C
 10
21.341443
 20
-126.8
 30
0.0
 11
21.341443
 21
-129.687439
 31
0.0
  0
LINE
  8
0
  6
CONTINUOUS
 62
    80
  5
6D
 10
19.320752
 20
-126.8
 30
0.0
 11
19.320752
 21
-129.687439
 31
0.0
  0
LINE
  8
0
  6
CONTINUOUS
 62
     3
  5
6E
 10
13.8
 20
-130.0
 30
0.0
 11
20.8
 21
-130.0
 31
0.0
  0
LINE
  8
0
  6
CONTINUOUS
 62
    80
  5
6F
 10
15.279248
 20
-126.8
 30
0.0
 11
15.279248
 21
-129.687439
 31
0.0
  0
LINE
  8
0
  6
CONTINUOUS
 62
     3
  5
70
 10
13.258557
 20
-126.8
 30
0.0
 11
13.258557
 21
-129.687439
 31
0.0
  0
LINE
  8
0
  6
CONTINUOUS
 62
     3
  5
71
 10
13.258551
 20
-129.687427
 30
0.0
 11
13.799975
 21
-130.000018
 31
0.0
  0
LINE
  8
0
  6
CONTINUOUS
 62
     3
  5
72
 10
18.8
 20
-135.0
 30
0.0
 11
19.3
 21
-134.5
 31
0.0
  0
LINE
  8
0
  6
CONTINUOUS
 62
     3
  5
73
 10
15.3
 20
-134.5
 30
0.0
 11
15.8
 21
-135.0
 31
0.0
  0
LINE
  8
0
  6
CONTINUOUS
 62
     3
  5
74
 10
15.8
 20
-135.0
 30
0.0
 11
18.8
 21
-135.0
 31
0.0
  0
LINE
  8
0
  6
CONTINUOUS
 62
    80
  5
75
 10
17.3
 20
-125.8
 30
0.0
 11
19.3
 21
-126.8
 31
0.0
  0
LINE
  8
0
  6
CONTINUOUS
 62
     3
  5
76
 10
21.1
 20
-126.8
 30
0.0
 11
21.1
 21
-125.8
 31
0.0
  0
LINE
  8
0
  6
CONTINUOUS
 62
     3
  5
77
 10
13.5
 20
-126.8
 30
0.0
 11
21.1
 21
-126.8
 31
0.0
  0
LINE
  8
0
  6
CONTINUOUS
 62
     3
  5
78
 10
13.5
 20
-125.8
 30
0.0
 11
13.5
 21
-126.8
 31
0.0
  0
LINE
  8
0
  6
CONTINUOUS
 62
     3
  5
79
 10
21.8
 20
-125.8
 30
0.0
 11
12.8
 21
-125.8
 31
0.0
  0
LINE
  8
0
  6
CONTINUOUS
 62
     3
  5
7A
 10
21.8
 20
-125.8
 30
0.0
 11
21.8
 21
-125.0
 31
0.0
  0
LINE
  8
0
  6
CONTINUOUS
 62
     3
  5
7B
 10
12.8
 20
-125.0
 30
0.0
 11
12.8
 21
-125.8
 31
0.0
  0
LINE
  8
0
  6
CONTINUOUS
 62
     3
  5
7C
 10
19.3
 20
-134.5
 30
0.0
 11
19.3
 21
-130.0
 31
0.0
  0
LINE
  8
0
  6
CONTINUOUS
 62
     3
  5
7D
 10
15.3
 20
-130.0
 30
0.0
 11
15.3
 21
-134.5
 31
0.0
  0
LINE
  8
0
  6
CONTINUOUS
 62
     3
  5
7E
 10
-28.0
 20
0.0
 30
0.0
 11
28.0
 21
0.0
 31
0.0
  0
LINE
  8
0
  6
CONTINUOUS
 62
     3
  5
7F
 10
-28.0
 20
-105.0
 30
0.0
 11
28.0
 21
-105.0
 31
0.0
  0
LINE
  8
0
  6
CONTINUOUS
 62
     3
  5
80
 10
-26.5
 20
-125.0
 30
0.0
 11
26.5
 21
-125.0
 31
0.0
  0
ARC
  8
0
  6
CONTINUOUS
 62
     3
  5
81
 10
26.5
 20
-123.5
 30
0.0
 40
1.5
 50
270.0
 51
0.0
  0
ARC
  8
0
  6
CONTINUOUS
 62
     3
  5
82
 10
-26.5
 20
-123.5
 30
0.0
 40
1.5
 50
180.0
 51
270.0
  0
LINE
  8
0
  6
CONTINUOUS
 62
     3
  5
83
 10
-22.0
 20
-79.0
 30
0.0
 11
-22.0
 21
-83.0
 31
0.0
  0
LINE
  8
0
  6
CONTINUOUS
 62
     3
  5
84
 10
-22.0
 20
-83.0
 30
0.0
 11
-10.5
 21
-83.0
 31
0.0
  0
LINE
  8
0
  6
CONTINUOUS
 62
     3
  5
85
 10
-10.5
 20
-83.0
 30
0.0
 11
-10.5
 21
-79.0
 31
0.0
  0
LINE
  8
0
  6
CONTINUOUS
 62
     3
  5
86
 10
-10.5
 20
-79.0
 30
0.0
 11
-22.0
 21
-79.0
 31
0.0
  0
LINE
  8
0
  6
CONTINUOUS
 62
     3
  5
87
 10
-22.0
 20
-86.0
 30
0.0
 11
-22.0
 21
-90.0
 31
0.0
  0
LINE
  8
0
  6
CONTINUOUS
 62
     3
  5
88
 10
-22.0
 20
-90.0
 30
0.0
 11
-10.5
 21
-90.0
 31
0.0
  0
LINE
  8
0
  6
CONTINUOUS
 62
     3
  5
89
 10
-10.5
 20
-90.0
 30
0.0
 11
-10.5
 21
-86.0
 31
0.0
  0
LINE
  8
0
  6
CONTINUOUS
 62
     3
  5
8A
 10
-10.5
 20
-86.0
 30
0.0
 11
-22.0
 21
-86.0
 31
0.0
  0
LINE
  8
0
  6
CONTINUOUS
 62
     3
  5
8B
 10
-7.0
 20
-79.0
 30
0.0
 11
7.0
 21
-79.0
 31
0.0
  0
LINE
  8
0
  6
CONTINUOUS
 62
     3
  5
8C
 10
7.0
 20
-79.0
 30
0.0
 11
7.0
 21
-83.0
 31
0.0
  0
LINE
  8
0
  6
CONTINUOUS
 62
     3
  5
8D
 10
7.0
 20
-83.0
 30
0.0
 11
-7.0
 21
-83.0
 31
0.0
  0
LINE
  8
0
  6
CONTINUOUS
 62
     3
  5
8E
 10
-7.0
 20
-83.0
 30
0.0
 11
-7.0
 21
-79.0
 31
0.0
  0
LINE
  8
0
  6
CONTINUOUS
 62
     3
  5
8F
 10
-7.0
 20
-86.0
 30
0.0
 11
7.0
 21
-86.0
 31
0.0
  0
LINE
  8
0
  6
CONTINUOUS
 62
     3
  5
90
 10
7.0
 20
-86.0
 30
0.0
 11
7.0
 21
-90.0
 31
0.0
  0
LINE
  8
0
  6
CONTINUOUS
 62
     3
  5
91
 10
7.0
 20
-90.0
 30
0.0
 11
-7.0
 21
-90.0
 31
0.0
  0
LINE
  8
0
  6
CONTINUOUS
 62
     3
  5
92
 10
-7.0
 20
-90.0
 30
0.0
 11
-7.0
 21
-86.0
 31
0.0
  0
LINE
  8
0
  6
CONTINUOUS
 62
     3
  5
93
 10
10.5
 20
-79.0
 30
0.0
 11
22.0
 21
-79.0
 31
0.0
  0
LINE
  8
0
  6
CONTINUOUS
 62
     3
  5
94
 10
22.0
 20
-79.0
 30
0.0
 11
22.0
 21
-83.0
 31
0.0
  0
LINE
  8
0
  6
CONTINUOUS
 62
     3
  5
95
 10
22.0
 20
-83.0
 30
0.0
 11
10.5
 21
-83.0
 31
0.0
  0
LINE
  8
0
  6
CONTINUOUS
 62
     3
  5
96
 10
10.5
 20
-83.0
 30
0.0
 11
10.5
 21
-79.0
 31
0.0
  0
LINE
  8
0
  6
CONTINUOUS
 62
     3
  5
97
 10
10.5
 20
-86.0
 30
0.0
 11
10.5
 21
-90.0
 31
0.0
  0
LINE
  8
0
  6
CONTINUOUS
 62
     3
  5
98
 10
10.5
 20
-90.0
 30
0.0
 11
22.0
 21
-90.0
 31
0.0
  0
LINE
  8
0
  6
CONTINUOUS
 62
     3
  5
99
 10
22.0
 20
-90.0
 30
0.0
 11
22.0
 21
-86.0
 31
0.0
  0
LINE
  8
0
  6
CONTINUOUS
 62
     3
  5
9A
 10
22.0
 20
-86.0
 30
0.0
 11
10.5
 21
-86.0
 31
0.0
  0
LINE
  8
0
  6
CONTINUOUS
 62
     3
  5
9B
 10
-19.5
 20
-89.0
 30
0.0
 11
-10.5
 21
-89.0
 31
0.0
  0
LINE
  8
0
  6
CONTINUOUS
 62
     3
  5
9C
 10
-6.0
 20
-80.0
 30
0.0
 11
6.0
 21
-80.0
 31
0.0
  0
LINE
  8
0
  6
CONTINUOUS
 62
     3
  5
9D
 10
-19.5
 20
-82.0
 30
0.0
 11
-10.5
 21
-82.0
 31
0.0
  0
LINE
  8
0
  6
CONTINUOUS
 62
     3
  5
9E
 10
-22.0
 20
-83.0
 30
0.0
 11
-19.5
 21
-82.0
 31
0.0
  0
LINE
  8
0
  6
CONTINUOUS
 62
     3
  5
9F
 10
6.0
 20
-82.0
 30
0.0
 11
-6.0
 21
-82.0
 31
0.0
  0
LINE
  8
0
  6
CONTINUOUS
 62
     3
  5
A0
 10
-22.0
 20
-90.0
 30
0.0
 11
-19.5
 21
-89.0
 31
0.0
  0
LINE
  8
0
  6
CONTINUOUS
 62
     3
  5
A1
 10
-19.5
 20
-87.0
 30
0.0
 11
-10.5
 21
-87.0
 31
0.0
  0
LINE
  8
0
  6
CONTINUOUS
 62
     3
  5
A2
 10
-6.0
 20
-87.0
 30
0.0
 11
6.0
 21
-87.0
 31
0.0
  0
LINE
  8
0
  6
CONTINUOUS
 62
     3
  5
A3
 10
-19.5
 20
-80.0
 30
0.0
 11
-10.5
 21
-80.0
 31
0.0
  0
LINE
  8
0
  6
CONTINUOUS
 62
     3
  5
A4
 10
-22.0
 20
-79.0
 30
0.0
 11
-19.5
 21
-80.0
 31
0.0
  0
LINE
  8
0
  6
CONTINUOUS
 62
     3
  5
A5
 10
6.0
 20
-89.0
 30
0.0
 11
-6.0
 21
-89.0
 31
0.0
  0
LINE
  8
0
  6
CONTINUOUS
 62
     3
  5
A6
 10
-22.0
 20
-86.0
 30
0.0
 11
-19.5
 21
-87.0
 31
0.0
  0
LINE
  8
0
  6
CONTINUOUS
 62
     3
  5
A7
 10
-6.0
 20
-80.0
 30
0.0
 11
-6.0
 21
-82.0
 31
0.0
  0
LINE
  8
0
  6
CONTINUOUS
 62
     3
  5
A8
 10
6.0
 20
-80.0
 30
0.0
 11
6.0
 21
-82.0
 31
0.0
  0
LINE
  8
0
  6
CONTINUOUS
 62
     3
  5
A9
 10
6.0
 20
-87.0
 30
0.0
 11
6.0
 21
-89.0
 31
0.0
  0
LINE
  8
0
  6
CONTINUOUS
 62
     3
  5
AA
 10
-6.0
 20
-87.0
 30
0.0
 11
-6.0
 21
-89.0
 31
0.0
  0
LINE
  8
0
  6
CONTINUOUS
 62
     3
  5
AB
 10
22.0
 20
-79.0
 30
0.0
 11
19.5
 21
-80.0
 31
0.0
  0
LINE
  8
0
  6
CONTINUOUS
 62
     3
  5
AC
 10
19.5
 20
-80.0
 30
0.0
 11
10.5
 21
-80.0
 31
0.0
  0
LINE
  8
0
  6
CONTINUOUS
 62
     3
  5
AD
 10
10.5
 20
-82.0
 30
0.0
 11
19.5
 21
-82.0
 31
0.0
  0
LINE
  8
0
  6
CONTINUOUS
 62
     3
  5
AE
 10
19.5
 20
-82.0
 30
0.0
 11
22.0
 21
-83.0
 31
0.0
  0
LINE
  8
0
  6
CONTINUOUS
 62
     3
  5
AF
 10
22.0
 20
-86.0
 30
0.0
 11
19.5
 21
-87.0
 31
0.0
  0
LINE
  8
0
  6
CONTINUOUS
 62
     3
  5
B0
 10
19.5
 20
-87.0
 30
0.0
 11
10.5
 21
-87.0
 31
0.0
  0
LINE
  8
0
  6
CONTINUOUS
 62
     3
  5
B1
 10
10.5
 20
-89.0
 30
0.0
 11
19.5
 21
-89.0
 31
0.0
  0
LINE
  8
0
  6
CONTINUOUS
 62
     3
  5
B2
 10
19.5
 20
-89.0
 30
0.0
 11
22.0
 21
-90.0
 31
0.0
  0
LINE
  8
0
  6
CONTINUOUS
 62
     3
  5
B3
 10
-19.5
 20
-80.0
 30
0.0
 11
-19.5
 21
-82.0
 31
0.0
  0
LINE
  8
0
  6
CONTINUOUS
 62
     3
  5
B4
 10
-19.5
 20
-87.0
 30
0.0
 11
-19.5
 21
-89.0
 31
0.0
  0
LINE
  8
0
  6
CONTINUOUS
 62
     3
  5
B5
 10
19.5
 20
-80.0
 30
0.0
 11
19.5
 21
-82.0
 31
0.0
  0
LINE
  8
0
  6
CONTINUOUS
 62
     3
  5
B6
 10
19.5
 20
-87.0
 30
0.0
 11
19.5
 21
-89.0
 31
0.0
  0
LINE
  8
0
  6
CONTINUOUS
 62
     3
  5
B7
 10
-28.0
 20
-123.5
 30
0.0
 11
-28.0
 21
-121.0
 31
0.0
  0
LINE
  8
0
  6
CONTINUOUS
 62
     3
  5
B8
 10
28.0
 20
-123.5
 30
0.0
 11
28.0
 21
-121.0
 31
0.0
  0
LINE
  8
0
  6
CONTINUOUS
 62
     3
  5
B9
 10
-28.0
 20
-107.0
 30
0.0
 11
28.0
 21
-107.0
 31
0.0
  0
LINE
  8
0
  6
CONTINUOUS
 62
     3
  5
BA
 10
-28.0
 20
-109.0
 30
0.0
 11
28.0
 21
-109.0
 31
0.0
  0
LINE
  8
0
  6
CONTINUOUS
 62
     3
  5
BB
 10
-28.0
 20
-115.0
 30
0.0
 11
28.0
 21
-115.0
 31
0.0
  0
LINE
  8
0
  6
CONTINUOUS
 62
     3
  5
BC
 10
27.0
 20
-109.0
 30
0.0
 11
27.0
 21
-107.0
 31
0.0
  0
LINE
  8
0
  6
CONTINUOUS
 62
     3
  5
BD
 10
28.0
 20
-107.0
 30
0.0
 11
28.0
 21
0.0
 31
0.0
  0
LINE
  8
0
  6
CONTINUOUS
 62
     3
  5
BE
 10
-28.0
 20
-113.0
 30
0.0
 11
28.0
 21
-113.0
 31
0.0
  0
LINE
  8
0
  6
CONTINUOUS
 62
     3
  5
BF
 10
-28.0
 20
-119.0
 30
0.0
 11
28.0
 21
-119.0
 31
0.0
  0
LINE
  8
0
  6
CONTINUOUS
 62
     3
  5
C0
 10
27.0
 20
-121.0
 30
0.0
 11
27.0
 21
-119.0
 31
0.0
  0
LINE
  8
0
  6
CONTINUOUS
 62
     3
  5
C1
 10
28.0
 20
-113.0
 30
0.0
 11
28.0
 21
-109.0
 31
0.0
  0
LINE
  8
0
  6
CONTINUOUS
 62
     3
  5
C2
 10
27.0
 20
-115.0
 30
0.0
 11
27.0
 21
-113.0
 31
0.0
  0
LINE
  8
0
  6
CONTINUOUS
 62
     3
  5
C3
 10
-28.0
 20
-121.0
 30
0.0
 11
28.0
 21
-121.0
 31
0.0
  0
LINE
  8
0
  6
CONTINUOUS
 62
     3
  5
C4
 10
28.0
 20
-119.0
 30
0.0
 11
28.0
 21
-115.0
 31
0.0
  0
LINE
  8
0
  6
CONTINUOUS
 62
     3
  5
C5
 10
-27.0
 20
-109.0
 30
0.0
 11
-27.0
 21
-107.0
 31
0.0
  0
LINE
  8
0
  6
CONTINUOUS
 62
     3
  5
C6
 10
-27.0
 20
-115.0
 30
0.0
 11
-27.0
 21
-113.0
 31
0.0
  0
LINE
  8
0
  6
CONTINUOUS
 62
     3
  5
C7
 10
-27.0
 20
-121.0
 30
0.0
 11
-27.0
 21
-119.0
 31
0.0
  0
LINE
  8
0
  6
CONTINUOUS
 62
     3
  5
C8
 10
-28.0
 20
-107.0
 30
0.0
 11
-28.0
 21
0.0
 31
0.0
  0
LINE
  8
0
  6
CONTINUOUS
 62
     3
  5
C9
 10
-28.0
 20
-113.0
 30
0.0
 11
-28.0
 21
-109.0
 31
0.0
  0
LINE
  8
0
  6
CONTINUOUS
 62
     3
  5
CA
 10
-28.0
 20
-119.0
 30
0.0
 11
-28.0
 21
-115.0
 31
0.0
  0
ENDBLK
  8
0
  5
CB
  0
BLOCK
  8
0
  5
CC
  2
MS_2
 70
     0
 10
0.0
 20
0.0
 30
0.0
  3
MS_2
  0
CIRCLE
  8
0
  6
CONTINUOUS
 62
     3
  5
CD
 10
0.0
 20
-20.0
 30
0.0
 40
3.5
  0
CIRCLE
  8
0
  6
CONTINUOUS
 62
     3
  5
CE
 10
0.0
 20
-20.0
 30
0.0
 40
2.0
  0
LINE
  8
0
  6
CONTINUOUS
 62
     3
  5
CF
 10
-3.499996
 20
-17.97926
 30
0.0
 11
-3.499996
 21
-22.020703
 31
0.0
  0
LINE
  8
0
  6
CONTINUOUS
 62
     3
  5
D0
 10
0.000023
 20
-24.041465
 30
0.0
 11
-3.500023
 21
-22.020713
 31
0.0
  0
LINE
  8
0
  6
CONTINUOUS
 62
     3
  5
D1
 10
0.000019
 20
-24.041452
 30
0.0
 11
3.499958
 21
-22.020761
 31
0.0
  0
LINE
  8
0
  6
CONTINUOUS
 62
     3
  5
D2
 10
-3.499981
 20
-17.979274
 30
0.0
 11
-0.000042
 21
-15.958583
 31
0.0
  0
LINE
  8
0
  6
CONTINUOUS
 62
     3
  5
D3
 10
3.500004
 20
-17.97926
 30
0.0
 11
3.500004
 21
-22.020703
 31
0.0
  0
LINE
  8
0
  6
CONTINUOUS
 62
     3
  5
D4
 10
3.500023
 20
-17.979287
 30
0.0
 11
-0.000023
 21
-15.958535
 31
0.0
  0
CIRCLE
  8
0
  6
CONTINUOUS
 62
     3
  5
D5
 10
0.0
 20
-20.0
 30
0.0
 40
4.5
  0
CIRCLE
  8
0
  6
CONTINUOUS
 62
     3
  5
D6
 10
-17.320508
 20
10.0
 30
0.0
 40
3.5
  0
CIRCLE
  8
0
  6
CONTINUOUS
 62
     3
  5
D7
 10
-17.320508
 20
10.0
 30
0.0
 40
2.0
  0
LINE
  8
0
  6
CONTINUOUS
 62
     3
  5
D8
 10
-13.820498
 20
12.020716
 30
0.0
 11
-17.32049
 21
14.041437
 31
0.0
  0
LINE
  8
0
  6
CONTINUOUS
 62
     3
  5
D9
 10
-20.820531
 20
12.020713
 30
0.0
 11
-17.320486
 21
14.041465
 31
0.0
  0
LINE
  8
0
  6
CONTINUOUS
 62
     3
  5
DA
 10
-20.820518
 20
12.02071
 30
0.0
 11
-20.820518
 21
7.979328
 31
0.0
  0
LINE
  8
0
  6
CONTINUOUS
 62
     3
  5
DB
 10
-13.820518
 20
12.02071
 30
0.0
 11
-13.820518
 21
7.979328
 31
0.0
  0
LINE
  8
0
  6
CONTINUOUS
 62
     3
  5
DC
 10
-17.320498
 20
5.958538
 30
0.0
 11
-20.82049
 21
7.979259
 31
0.0
  0
LINE
  8
0
  6
CONTINUOUS
 62
     3
  5
DD
 10
-17.320531
 20
5.958535
 30
0.0
 11
-13.820486
 21
7.979287
 31
0.0
  0
CIRCLE
  8
0
  6
CONTINUOUS
 62
     3
  5
DE
 10
-17.320508
 20
10.0
 30
0.0
 40
4.5
  0
CIRCLE
  8
0
  6
CONTINUOUS
 62
     3
  5
DF
 10
17.320508
 20
10.0
 30
0.0
 40
4.5
  0
LINE
  8
0
  6
CONTINUOUS
 62
     3
  5
E0
 10
13.820508
 20
12.020752
 30
0.0
 11
13.820508
 21
7.979248
 31
0.0
  0
LINE
  8
0
  6
CONTINUOUS
 62
     3
  5
E1
 10
13.820494
 20
12.020722
 30
0.0
 11
17.320486
 21
14.041444
 31
0.0
  0
LINE
  8
0
  6
CONTINUOUS
 62
     3
  5
E2
 10
17.320499
 20
5.958564
 30
0.0
 11
13.820559
 21
7.979255
 31
0.0
  0
LINE
  8
0
  6
CONTINUOUS
 62
     3
  5
E3
 10
20.820499
 20
12.020742
 30
0.0
 11
17.32056
 21
14.041433
 31
0.0
  0
LINE
  8
0
  6
CONTINUOUS
 62
     3
  5
E4
 10
20.820508
 20
12.020752
 30
0.0
 11
20.820508
 21
7.979248
 31
0.0
  0
LINE
  8
0
  6
CONTINUOUS
 62
     3
  5
E5
 10
17.320494
 20
5.958544
 30
0.0
 11
20.820486
 21
7.979266
 31
0.0
  0
CIRCLE
  8
0
  6
CONTINUOUS
 62
     3
  5
E6
 10
17.320508
 20
10.0
 30
0.0
 40
2.0
  0
CIRCLE
  8
0
  6
CONTINUOUS
 62
     3
  5
E7
 10
17.320508
 20
10.0
 30
0.0
 40
3.5
  0
CIRCLE
  8
0
  6
CONTINUOUS
 62
     3
  5
E8
 10
0.0
 20
0.0
 30
0.0
 40
6.5
  0
CIRCLE
  8
0
  6
CONTINUOUS
 62
     3
  5
E9
 10
0.0
 20
0.0
 30
0.0
 40
28.0
  0
ENDBLK
  8
0
  5
EA
  0
BLOCK
  8
0
  5
EB
  2
MS_3
 70
     0
 10
0.0
 20
0.0
 30
0.0
  3
MS_3
  0
LINE
  8
0
  6
CONTINUOUS
 62
   140
  5
EC
 10
-28.0
 20
0.0
 30
0.0
 11
28.0
 21
0.0
 31
0.0
  0
LINE
  8
0
  6
CONTINUOUS
 62
   140
  5
ED
 10
-28.0
 20
1.0
 30
0.0
 11
28.0
 21
1.0
 31
0.0
  0
LINE
  8
0
  6
CONTINUOUS
 62
   140
  5
EE
 10
27.5
 20
12.0
 30
0.0
 11
26.5
 21
12.0
 31
0.0
  0
LINE
  8
0
  6
CONTINUOUS
 62
   140
  5
EF
 10
26.5
 20
12.0
 30
0.0
 11
26.5
 21
14.5
 31
0.0
  0
LINE
  8
0
  6
CONTINUOUS
 62
   140
  5
F0
 10
26.0
 20
15.0
 30
0.0
 11
26.5
 21
14.5
 31
0.0
  0
LINE
  8
0
  6
CONTINUOUS
 62
   140
  5
F1
 10
27.5
 20
12.0
 30
0.0
 11
28.0
 21
11.5
 31
0.0
  0
LINE
  8
0
  6
CONTINUOUS
 62
   140
  5
F2
 10
-26.5
 20
14.5
 30
0.0
 11
-26.5
 21
12.0
 31
0.0
  0
LINE
  8
0
  6
CONTINUOUS
 62
   140
  5
F3
 10
-26.5
 20
12.0
 30
0.0
 11
-27.5
 21
12.0
 31
0.0
  0
LINE
  8
0
  6
CONTINUOUS
 62
   140
  5
F4
 10
-26.5
 20
14.5
 30
0.0
 11
-26.0
 21
15.0
 31
0.0
  0
LINE
  8
0
  6
CONTINUOUS
 62
   140
  5
F5
 10
-28.0
 20
11.5
 30
0.0
 11
-27.5
 21
12.0
 31
0.0
  0
LINE
  8
0
  6
CONTINUOUS
 62
   140
  5
F6
 10
26.5
 20
14.5
 30
0.0
 11
-26.5
 21
14.5
 31
0.0
  0
LINE
  8
0
  6
CONTINUOUS
 62
   140
  5
F7
 10
28.0
 20
11.5
 30
0.0
 11
-28.0
 21
11.5
 31
0.0
  0
LINE
  8
0
  6
CONTINUOUS
 62
   140
  5
F8
 10
26.5
 20
12.0
 30
0.0
 11
-26.5
 21
12.0
 31
0.0
  0
LINE
  8
0
  6
CONTINUOUS
 62
   140
  5
F9
 10
26.0
 20
15.0
 30
0.0
 11
-26.0
 21
15.0
 31
0.0
  0
LINE
  8
0
  6
CONTINUOUS
 62
   140
  5
FA
 10
-28.0
 20
11.5
 30
0.0
 11
-28.0
 21
0.0
 31
0.0
  0
LINE
  8
0
  6
CONTINUOUS
 62
   140
  5
FB
 10
28.0
 20
0.0
 30
0.0
 11
28.0
 21
11.5
 31
0.0
  0
ENDBLK
  8
0
  5
FC
  0
BLOCK
  8
0
  5
FD
  2
MS_4
 70
     0
 10
0.0
 20
0.0
 30
0.0
  3
MS_4
  0
LINE
  8
0
  6
CONTINUOUS
 62
    80
  5
FE
 10
-14.0
 20
10.0
 30
0.0
 11
-14.0
 21
70.0
 31
0.0
  0
LINE
  8
0
  6
CONTINUOUS
 62
    80
  5
FF
 10
-7.0
 20
10.0
 30
0.0
 11
-7.0
 21
70.0
 31
0.0
  0
LINE
  8
0
  6
CONTINUOUS
 62
    80
  5
100
 10
-3.5
 20
10.0
 30
0.0
 11
-3.5
 21
70.0
 31
0.0
  0
LINE
  8
0
  6
CONTINUOUS
 62
    80
  5
101
 10
-10.5
 20
10.0
 30
0.0
 11
-10.5
 21
70.0
 31
0.0
  0
LINE
  8
0
  6
CONTINUOUS
 62
    80
  5
102
 10
-21.0
 20
10.0
 30
0.0
 11
-21.0
 21
70.0
 31
0.0
  0
LINE
  8
0
  6
CONTINUOUS
 62
    80
  5
103
 10
-24.5
 20
10.0
 30
0.0
 11
-24.5
 21
70.0
 31
0.0
  0
LINE
  8
0
  6
CONTINUOUS
 62
    80
  5
104
 10
-17.5
 20
10.0
 30
0.0
 11
-17.5
 21
70.0
 31
0.0
  0
LINE
  8
0
  6
CONTINUOUS
 62
    80
  5
105
 10
14.0
 20
10.0
 30
0.0
 11
14.0
 21
70.0
 31
0.0
  0
LINE
  8
0
  6
CONTINUOUS
 62
    80
  5
106
 10
7.0
 20
10.0
 30
0.0
 11
7.0
 21
70.0
 31
0.0
  0
LINE
  8
0
  6
CONTINUOUS
 62
    80
  5
107
 10
3.5
 20
10.0
 30
0.0
 11
3.5
 21
70.0
 31
0.0
  0
LINE
  8
0
  6
CONTINUOUS
 62
    80
  5
108
 10
10.5
 20
10.0
 30
0.0
 11
10.5
 21
70.0
 31
0.0
  0
LINE
  8
0
  6
CONTINUOUS
 62
    80
  5
109
 10
21.0
 20
10.0
 30
0.0
 11
21.0
 21
70.0
 31
0.0
  0
LINE
  8
0
  6
CONTINUOUS
 62
    80
  5
10A
 10
17.5
 20
10.0
 30
0.0
 11
17.5
 21
70.0
 31
0.0
  0
LINE
  8
0
  6
CONTINUOUS
 62
    80
  5
10B
 10
0.0
 20
10.0
 30
0.0
 11
0.0
 21
70.0
 31
0.0
  0
LINE
  8
0
  6
CONTINUOUS
 62
    80
  5
10C
 10
24.5
 20
10.0
 30
0.0
 11
24.5
 21
70.0
 31
0.0
  0
LINE
  8
0
  6
CONTINUOUS
 62
    80
  5
10D
 10
28.0
 20
25.0
 30
0.0
 11
-28.0
 21
25.0
 31
0.0
  0
LINE
  8
0
  6
CONTINUOUS
 62
    80
  5
10E
 10
28.0
 20
17.5
 30
0.0
 11
-28.0
 21
17.5
 31
0.0
  0
LINE
  8
0
  6
CONTINUOUS
 62
    80
  5
10F
 10
28.0
 20
13.75
 30
0.0
 11
-28.0
 21
13.75
 31
0.0
  0
LINE
  8
0
  6
CONTINUOUS
 62
    80
  5
110
 10
28.0
 20
21.25
 30
0.0
 11
-28.0
 21
21.25
 31
0.0
  0
LINE
  8
0
  6
CONTINUOUS
 62
    80
  5
111
 10
28.0
 20
28.75
 30
0.0
 11
-28.0
 21
28.75
 31
0.0
  0
LINE
  8
0
  6
CONTINUOUS
 62
    80
  5
112
 10
28.0
 20
55.0
 30
0.0
 11
-28.0
 21
55.0
 31
0.0
  0
LINE
  8
0
  6
CONTINUOUS
 62
    80
  5
113
 10
28.0
 20
62.5
 30
0.0
 11
-28.0
 21
62.5
 31
0.0
  0
LINE
  8
0
  6
CONTINUOUS
 62
    80
  5
114
 10
28.0
 20
66.25
 30
0.0
 11
-28.0
 21
66.25
 31
0.0
  0
LINE
  8
0
  6
CONTINUOUS
 62
    80
  5
115
 10
28.0
 20
58.75
 30
0.0
 11
-28.0
 21
58.75
 31
0.0
  0
LINE
  8
0
  6
CONTINUOUS
 62
    80
  5
116
 10
28.0
 20
51.25
 30
0.0
 11
-28.0
 21
51.25
 31
0.0
  0
LINE
  8
0
  6
CONTINUOUS
 62
     3
  5
117
 10
28.0
 20
10.0
 30
0.0
 11
28.0
 21
0.0
 31
0.0
  0
LINE
  8
0
  6
CONTINUOUS
 62
     3
  5
118
 10
28.0
 20
70.0
 30
0.0
 11
28.0
 21
10.0
 31
0.0
  0
LINE
  8
0
  6
CONTINUOUS
 62
     3
  5
119
 10
-28.0
 20
70.0
 30
0.0
 11
-28.0
 21
10.0
 31
0.0
  0
LINE
  8
0
  6
CONTINUOUS
 62
     3
  5
11A
 10
-28.0
 20
0.0
 30
0.0
 11
28.0
 21
0.0
 31
0.0
  0
LINE
  8
0
  6
CONTINUOUS
 62
     3
  5
11B
 10
-28.0
 20
10.0
 30
0.0
 11
28.0
 21
10.0
 31
0.0
  0
LINE
  8
0
  6
CONTINUOUS
 62
     3
  5
11C
 10
-28.0
 20
70.0
 30
0.0
 11
28.0
 21
70.0
 31
0.0
  0
LINE
  8
0
  6
CONTINUOUS
 62
     3
  5
11D
 10
-28.0
 20
10.0
 30
0.0
 11
-28.0
 21
0.0
 31
0.0
  0
ENDBLK
  8
0
  5
11E
  0
BLOCK
  8
0
  5
11F
  2
MS_5
 70
     0
 10
0.0
 20
0.0
 30
0.0
  3
MS_5
  0
ARC
  8
0
  6
CONTINUOUS
 62
     3
  5
120
 10
-5.05
 20
16.7
 30
0.0
 40
0.3
 50
0.0
 51
90.0
  0
ARC
  8
0
  6
CONTINUOUS
 62
     3
  5
121
 10
-14.95
 20
16.7
 30
0.0
 40
0.3
 50
90.0
 51
180.0
  0
ARC
  8
0
  6
CONTINUOUS
 62
     3
  5
122
 10
-10.0
 20
23.283033
 30
0.0
 40
7.577382
 50
254.533279
 51
285.466721
  0
ARC
  8
0
  6
CONTINUOUS
 62
     3
  5
123
 10
-6.588008
 20
19.369719
 30
0.0
 40
3.664068
 50
247.684578
 51
279.892068
  0
ARC
  8
0
  6
CONTINUOUS
 62
     3
  5
124
 10
-13.411992
 20
19.369719
 30
0.0
 40
3.664068
 50
260.107932
 51
292.315422
  0
POINT
  8
0
  6
CONTINUOUS
 62
    80
  5
125
 10
-12.020726
 20
15.980062
 30
0.0
  0
LINE
  8
0
  6
CONTINUOUS
 62
     3
  5
126
 10
-4.75
 20
16.2
 30
0.0
 11
-5.958548
 21
15.760124
 31
0.0
  0
LINE
  8
0
  6
CONTINUOUS
 62
     3
  5
127
 10
-15.25
 20
16.2
 30
0.0
 11
-14.041452
 21
15.760124
 31
0.0
  0
ARC
  8
0
  6
CONTINUOUS
 62
     3
  5
128
 10
-6.968911
 20
14.589076
 30
0.0
 40
1.789076
 50
235.615753
 51
295.615753
  0
ARC
  8
0
  6
CONTINUOUS
 62
     3
  5
129
 10
-13.031089
 20
14.589076
 30
0.0
 40
1.789076
 50
244.384247
 51
304.384247
  0
ARC
  8
0
  6
CONTINUOUS
 62
     3
  5
12A
 10
-10.0
 20
19.487393
 30
0.0
 40
6.687393
 50
252.412046
 51
287.587954
  0
LINE
  8
0
  6
CONTINUOUS
 62
     3
  5
12B
 10
-6.5
 20
12.8
 30
0.0
 11
-5.958548
 21
13.112607
 31
0.0
  0
LINE
  8
0
  6
CONTINUOUS
 62
     3
  5
12C
 10
-13.5
 20
12.8
 30
0.0
 11
-14.041452
 21
13.112607
 31
0.0
  0
LINE
  8
0
  6
CONTINUOUS
 62
     3
  5
12D
 10
-7.979274
 20
13.112607
 30
0.0
 11
-7.979274
 21
15.980062
 31
0.0
  0
LINE
  8
0
  6
CONTINUOUS
 62
     3
  5
12E
 10
-12.020726
 20
13.112607
 30
0.0
 11
-12.020726
 21
15.980062
 31
0.0
  0
LINE
  8
0
  6
CONTINUOUS
 62
     3
  5
12F
 10
-5.958548
 20
13.112607
 30
0.0
 11
-5.958548
 21
15.760124
 31
0.0
  0
LINE
  8
0
  6
CONTINUOUS
 62
     3
  5
130
 10
-14.041452
 20
13.112607
 30
0.0
 11
-14.041452
 21
15.760124
 31
0.0
  0
LINE
  8
0
  6
CONTINUOUS
 62
     3
  5
131
 10
-4.75
 20
16.2
 30
0.0
 11
-4.75
 21
16.7
 31
0.0
  0
LINE
  8
0
  6
CONTINUOUS
 62
     3
  5
132
 10
-15.25
 20
16.2
 30
0.0
 11
-15.25
 21
16.7
 31
0.0
  0
LINE
  8
0
  6
CONTINUOUS
 62
     3
  5
133
 10
-15.25
 20
16.2
 30
0.0
 11
-4.75
 21
16.2
 31
0.0
  0
LINE
  8
0
  6
CONTINUOUS
 62
     3
  5
134
 10
-13.5
 20
12.8
 30
0.0
 11
-6.5
 21
12.8
 31
0.0
  0
LINE
  8
0
  6
CONTINUOUS
 62
     3
  5
135
 10
-14.95
 20
17.0
 30
0.0
 11
-5.05
 21
17.0
 31
0.0
  0
LINE
  8
0
  6
CONTINUOUS
 62
     3
  5
136
 10
-28.0
 20
26.0
 30
0.0
 11
-28.0
 21
30.0
 31
0.0
  0
LINE
  8
0
  6
CONTINUOUS
 62
     3
  5
137
 10
-28.0
 20
32.0
 30
0.0
 11
-28.0
 21
36.0
 31
0.0
  0
LINE
  8
0
  6
CONTINUOUS
 62
     3
  5
138
 10
-28.0
 20
38.0
 30
0.0
 11
-28.0
 21
105.0
 31
0.0
  0
LINE
  8
0
  6
CONTINUOUS
 62
     3
  5
139
 10
-27.0
 20
24.0
 30
0.0
 11
-27.0
 21
26.0
 31
0.0
  0
LINE
  8
0
  6
CONTINUOUS
 62
     3
  5
13A
 10
-27.0
 20
30.0
 30
0.0
 11
-27.0
 21
32.0
 31
0.0
  0
LINE
  8
0
  6
CONTINUOUS
 62
     3
  5
13B
 10
-27.0
 20
36.0
 30
0.0
 11
-27.0
 21
38.0
 31
0.0
  0
LINE
  8
0
  6
CONTINUOUS
 62
     3
  5
13C
 10
28.0
 20
26.0
 30
0.0
 11
28.0
 21
30.0
 31
0.0
  0
LINE
  8
0
  6
CONTINUOUS
 62
     3
  5
13D
 10
-28.0
 20
24.0
 30
0.0
 11
28.0
 21
24.0
 31
0.0
  0
LINE
  8
0
  6
CONTINUOUS
 62
     3
  5
13E
 10
27.0
 20
30.0
 30
0.0
 11
27.0
 21
32.0
 31
0.0
  0
LINE
  8
0
  6
CONTINUOUS
 62
     3
  5
13F
 10
28.0
 20
32.0
 30
0.0
 11
28.0
 21
36.0
 31
0.0
  0
LINE
  8
0
  6
CONTINUOUS
 62
     3
  5
140
 10
27.0
 20
24.0
 30
0.0
 11
27.0
 21
26.0
 31
0.0
  0
LINE
  8
0
  6
CONTINUOUS
 62
     3
  5
141
 10
-28.0
 20
26.0
 30
0.0
 11
28.0
 21
26.0
 31
0.0
  0
LINE
  8
0
  6
CONTINUOUS
 62
     3
  5
142
 10
-28.0
 20
32.0
 30
0.0
 11
28.0
 21
32.0
 31
0.0
  0
LINE
  8
0
  6
CONTINUOUS
 62
     3
  5
143
 10
28.0
 20
38.0
 30
0.0
 11
28.0
 21
105.0
 31
0.0
  0
LINE
  8
0
  6
CONTINUOUS
 62
     3
  5
144
 10
27.0
 20
36.0
 30
0.0
 11
27.0
 21
38.0
 31
0.0
  0
LINE
  8
0
  6
CONTINUOUS
 62
     3
  5
145
 10
-28.0
 20
30.0
 30
0.0
 11
28.0
 21
30.0
 31
0.0
  0
LINE
  8
0
  6
CONTINUOUS
 62
     3
  5
146
 10
-28.0
 20
36.0
 30
0.0
 11
28.0
 21
36.0
 31
0.0
  0
LINE
  8
0
  6
CONTINUOUS
 62
     3
  5
147
 10
-28.0
 20
38.0
 30
0.0
 11
28.0
 21
38.0
 31
0.0
  0
LINE
  8
0
  6
CONTINUOUS
 62
     3
  5
148
 10
28.0
 20
21.5
 30
0.0
 11
28.0
 21
24.0
 31
0.0
  0
LINE
  8
0
  6
CONTINUOUS
 62
     3
  5
149
 10
-28.0
 20
21.5
 30
0.0
 11
-28.0
 21
24.0
 31
0.0
  0
LINE
  8
0
  6
CONTINUOUS
 62
     3
  5
14A
 10
19.5
 20
58.0
 30
0.0
 11
19.5
 21
56.0
 31
0.0
  0
LINE
  8
0
  6
CONTINUOUS
 62
     3
  5
14B
 10
19.5
 20
65.0
 30
0.0
 11
19.5
 21
63.0
 31
0.0
  0
LINE
  8
0
  6
CONTINUOUS
 62
     3
  5
14C
 10
-19.5
 20
58.0
 30
0.0
 11
-19.5
 21
56.0
 31
0.0
  0
LINE
  8
0
  6
CONTINUOUS
 62
     3
  5
14D
 10
-19.5
 20
65.0
 30
0.0
 11
-19.5
 21
63.0
 31
0.0
  0
LINE
  8
0
  6
CONTINUOUS
 62
     3
  5
14E
 10
19.5
 20
56.0
 30
0.0
 11
22.0
 21
55.0
 31
0.0
  0
LINE
  8
0
  6
CONTINUOUS
 62
     3
  5
14F
 10
10.5
 20
56.0
 30
0.0
 11
19.5
 21
56.0
 31
0.0
  0
LINE
  8
0
  6
CONTINUOUS
 62
     3
  5
150
 10
19.5
 20
58.0
 30
0.0
 11
10.5
 21
58.0
 31
0.0
  0
LINE
  8
0
  6
CONTINUOUS
 62
     3
  5
151
 10
22.0
 20
59.0
 30
0.0
 11
19.5
 21
58.0
 31
0.0
  0
LINE
  8
0
  6
CONTINUOUS
 62
     3
  5
152
 10
19.5
 20
63.0
 30
0.0
 11
22.0
 21
62.0
 31
0.0
  0
LINE
  8
0
  6
CONTINUOUS
 62
     3
  5
153
 10
10.5
 20
63.0
 30
0.0
 11
19.5
 21
63.0
 31
0.0
  0
LINE
  8
0
  6
CONTINUOUS
 62
     3
  5
154
 10
19.5
 20
65.0
 30
0.0
 11
10.5
 21
65.0
 31
0.0
  0
LINE
  8
0
  6
CONTINUOUS
 62
     3
  5
155
 10
22.0
 20
66.0
 30
0.0
 11
19.5
 21
65.0
 31
0.0
  0
LINE
  8
0
  6
CONTINUOUS
 62
     3
  5
156
 10
-6.0
 20
58.0
 30
0.0
 11
-6.0
 21
56.0
 31
0.0
  0
LINE
  8
0
  6
CONTINUOUS
 62
     3
  5
157
 10
6.0
 20
58.0
 30
0.0
 11
6.0
 21
56.0
 31
0.0
  0
LINE
  8
0
  6
CONTINUOUS
 62
     3
  5
158
 10
6.0
 20
65.0
 30
0.0
 11
6.0
 21
63.0
 31
0.0
  0
LINE
  8
0
  6
CONTINUOUS
 62
     3
  5
159
 10
-6.0
 20
65.0
 30
0.0
 11
-6.0
 21
63.0
 31
0.0
  0
LINE
  8
0
  6
CONTINUOUS
 62
     3
  5
15A
 10
-22.0
 20
59.0
 30
0.0
 11
-19.5
 21
58.0
 31
0.0
  0
LINE
  8
0
  6
CONTINUOUS
 62
     3
  5
15B
 10
7.0
 20
56.0
 30
0.0
 11
-7.0
 21
56.0
 31
0.0
  0
LINE
  8
0
  6
CONTINUOUS
 62
     3
  5
15C
 10
-22.0
 20
66.0
 30
0.0
 11
-19.5
 21
65.0
 31
0.0
  0
LINE
  8
0
  6
CONTINUOUS
 62
     3
  5
15D
 10
-19.5
 20
65.0
 30
0.0
 11
-10.5
 21
65.0
 31
0.0
  0
LINE
  8
0
  6
CONTINUOUS
 62
     3
  5
15E
 10
-7.0
 20
58.0
 30
0.0
 11
7.0
 21
58.0
 31
0.0
  0
LINE
  8
0
  6
CONTINUOUS
 62
     3
  5
15F
 10
-19.5
 20
58.0
 30
0.0
 11
-10.5
 21
58.0
 31
0.0
  0
LINE
  8
0
  6
CONTINUOUS
 62
     3
  5
160
 10
-22.0
 20
55.0
 30
0.0
 11
-19.5
 21
56.0
 31
0.0
  0
LINE
  8
0
  6
CONTINUOUS
 62
     3
  5
161
 10
7.0
 20
63.0
 30
0.0
 11
-7.0
 21
63.0
 31
0.0
  0
LINE
  8
0
  6
CONTINUOUS
 62
     3
  5
162
 10
-22.0
 20
62.0
 30
0.0
 11
-19.5
 21
63.0
 31
0.0
  0
LINE
  8
0
  6
CONTINUOUS
 62
     3
  5
163
 10
-19.5
 20
63.0
 30
0.0
 11
-10.5
 21
63.0
 31
0.0
  0
LINE
  8
0
  6
CONTINUOUS
 62
     3
  5
164
 10
-7.0
 20
65.0
 30
0.0
 11
7.0
 21
65.0
 31
0.0
  0
LINE
  8
0
  6
CONTINUOUS
 62
     3
  5
165
 10
-19.5
 20
56.0
 30
0.0
 11
-10.5
 21
56.0
 31
0.0
  0
LINE
  8
0
  6
CONTINUOUS
 62
     3
  5
166
 10
22.0
 20
59.0
 30
0.0
 11
10.5
 21
59.0
 31
0.0
  0
LINE
  8
0
  6
CONTINUOUS
 62
     3
  5
167
 10
22.0
 20
55.0
 30
0.0
 11
22.0
 21
59.0
 31
0.0
  0
LINE
  8
0
  6
CONTINUOUS
 62
     3
  5
168
 10
10.5
 20
55.0
 30
0.0
 11
22.0
 21
55.0
 31
0.0
  0
LINE
  8
0
  6
CONTINUOUS
 62
     3
  5
169
 10
10.5
 20
59.0
 30
0.0
 11
10.5
 21
55.0
 31
0.0
  0
LINE
  8
0
  6
CONTINUOUS
 62
     3
  5
16A
 10
10.5
 20
62.0
 30
0.0
 11
10.5
 21
66.0
 31
0.0
  0
LINE
  8
0
  6
CONTINUOUS
 62
     3
  5
16B
 10
22.0
 20
62.0
 30
0.0
 11
10.5
 21
62.0
 31
0.0
  0
LINE
  8
0
  6
CONTINUOUS
 62
     3
  5
16C
 10
22.0
 20
66.0
 30
0.0
 11
22.0
 21
62.0
 31
0.0
  0
LINE
  8
0
  6
CONTINUOUS
 62
     3
  5
16D
 10
10.5
 20
66.0
 30
0.0
 11
22.0
 21
66.0
 31
0.0
  0
LINE
  8
0
  6
CONTINUOUS
 62
     3
  5
16E
 10
-7.0
 20
55.0
 30
0.0
 11
-7.0
 21
59.0
 31
0.0
  0
LINE
  8
0
  6
CONTINUOUS
 62
     3
  5
16F
 10
7.0
 20
55.0
 30
0.0
 11
-7.0
 21
55.0
 31
0.0
  0
LINE
  8
0
  6
CONTINUOUS
 62
     3
  5
170
 10
7.0
 20
59.0
 30
0.0
 11
7.0
 21
55.0
 31
0.0
  0
LINE
  8
0
  6
CONTINUOUS
 62
     3
  5
171
 10
-7.0
 20
59.0
 30
0.0
 11
7.0
 21
59.0
 31
0.0
  0
LINE
  8
0
  6
CONTINUOUS
 62
     3
  5
172
 10
-7.0
 20
62.0
 30
0.0
 11
-7.0
 21
66.0
 31
0.0
  0
LINE
  8
0
  6
CONTINUOUS
 62
     3
  5
173
 10
7.0
 20
62.0
 30
0.0
 11
-7.0
 21
62.0
 31
0.0
  0
LINE
  8
0
  6
CONTINUOUS
 62
     3
  5
174
 10
7.0
 20
66.0
 30
0.0
 11
7.0
 21
62.0
 31
0.0
  0
LINE
  8
0
  6
CONTINUOUS
 62
     3
  5
175
 10
-7.0
 20
66.0
 30
0.0
 11
7.0
 21
66.0
 31
0.0
  0
LINE
  8
0
  6
CONTINUOUS
 62
     3
  5
176
 10
-10.5
 20
59.0
 30
0.0
 11
-22.0
 21
59.0
 31
0.0
  0
LINE
  8
0
  6
CONTINUOUS
 62
     3
  5
177
 10
-10.5
 20
55.0
 30
0.0
 11
-10.5
 21
59.0
 31
0.0
  0
LINE
  8
0
  6
CONTINUOUS
 62
     3
  5
178
 10
-22.0
 20
55.0
 30
0.0
 11
-10.5
 21
55.0
 31
0.0
  0
LINE
  8
0
  6
CONTINUOUS
 62
     3
  5
179
 10
-22.0
 20
59.0
 30
0.0
 11
-22.0
 21
55.0
 31
0.0
  0
LINE
  8
0
  6
CONTINUOUS
 62
     3
  5
17A
 10
-10.5
 20
66.0
 30
0.0
 11
-22.0
 21
66.0
 31
0.0
  0
LINE
  8
0
  6
CONTINUOUS
 62
     3
  5
17B
 10
-10.5
 20
62.0
 30
0.0
 11
-10.5
 21
66.0
 31
0.0
  0
LINE
  8
0
  6
CONTINUOUS
 62
     3
  5
17C
 10
-22.0
 20
62.0
 30
0.0
 11
-10.5
 21
62.0
 31
0.0
  0
LINE
  8
0
  6
CONTINUOUS
 62
     3
  5
17D
 10
-22.0
 20
66.0
 30
0.0
 11
-22.0
 21
62.0
 31
0.0
  0
ARC
  8
0
  6
CONTINUOUS
 62
     3
  5
17E
 10
45.582316
 20
-0.440605
 30
0.0
 40
40.0
 50
154.150094
 51
179.368866
  0
ARC
  8
0
  6
CONTINUOUS
 62
     3
  5
17F
 10
43.39076
 20
3.934586
 30
0.0
 40
40.0
 50
160.935319
 51
185.645008
  0
CIRCLE
  8
0
  6
CONTINUOUS
 62
     3
  5
180
 10
0.0
 20
10.0
 30
0.0
 40
1.5
  0
ARC
  8
0
  6
CONTINUOUS
 62
     3
  5
181
 10
-26.5
 20
21.5
 30
0.0
 40
1.5
 50
180.0
 51
270.0
  0
ARC
  8
0
  6
CONTINUOUS
 62
     3
  5
182
 10
26.5
 20
21.5
 30
0.0
 40
1.5
 50
270.0
 51
0.0
  0
LINE
  8
0
  6
CONTINUOUS
 62
     3
  5
183
 10
-11.221501
 20
0.0
 30
0.0
 11
11.221501
 21
0.0
 31
0.0
  0
LINE
  8
0
  6
CONTINUOUS
 62
     3
  5
184
 10
23.5
 20
18.0
 30
0.0
 11
23.5
 21
20.0
 31
0.0
  0
LINE
  8
0
  6
CONTINUOUS
 62
     3
  5
185
 10
16.333874
 20
17.0
 30
0.0
 11
22.5
 21
17.0
 31
0.0
  0
ARC
  8
0
  6
CONTINUOUS
 62
     3
  5
186
 10
-16.333874
 20
15.5
 30
0.0
 40
1.5
 50
6.709837
 51
90.0
  0
ARC
  8
0
  6
CONTINUOUS
 62
     3
  5
187
 10
16.333874
 20
15.5
 30
0.0
 40
1.5
 50
90.0
 51
173.290163
  0
LINE
  8
0
  6
CONTINUOUS
 62
     3
  5
188
 10
-16.333874
 20
17.0
 30
0.0
 11
16.333874
 21
17.0
 31
0.0
  0
LINE
  8
0
  6
CONTINUOUS
 62
     3
  5
189
 10
-26.5
 20
20.0
 30
0.0
 11
26.5
 21
20.0
 31
0.0
  0
LINE
  8
0
  6
CONTINUOUS
 62
     3
  5
18A
 10
-28.0
 20
40.0
 30
0.0
 11
28.0
 21
40.0
 31
0.0
  0
LINE
  8
0
  6
CONTINUOUS
 62
     3
  5
18B
 10
-28.0
 20
105.0
 30
0.0
 11
28.0
 21
105.0
 31
0.0
  0
ARC
  8
0
  6
CONTINUOUS
 62
     3
  5
18C
 10
-51.142085
 20
-10.921872
 30
0.0
 40
40.0
 50
18.493964
 51
44.270508
  0
ARC
  8
0
  6
CONTINUOUS
 62
     3
  5
18D
 10
-22.5
 20
18.0
 30
0.0
 40
1.0
 50
180.0
 51
270.0
  0
CIRCLE
  8
0
  6
CONTINUOUS
 62
     3
  5
18E
 10
0.0
 20
10.0
 30
0.0
 40
2.0
  0
ARC
  8
0
  6
CONTINUOUS
 62
     3
  5
18F
 10
11.221501
 20
2.0
 30
0.0
 40
2.0
 50
270.0
 51
353.290163
  0
ARC
  8
0
  6
CONTINUOUS
 62
     3
  5
190
 10
22.5
 20
18.0
 30
0.0
 40
1.0
 50
270.0
 51
0.0
  0
ARC
  8
0
  6
CONTINUOUS
 62
     3
  5
191
 10
-11.221501
 20
2.0
 30
0.0
 40
2.0
 50
186.709837
 51
270.0
  0
LINE
  8
0
  6
CONTINUOUS
 62
     3
  5
192
 10
13.207802
 20
1.766318
 30
0.0
 11
14.844148
 21
15.675262
 31
0.0
  0
LINE
  8
0
  6
CONTINUOUS
 62
     3
  5
193
 10
-22.5
 20
17.0
 30
0.0
 11
-16.333874
 21
17.0
 31
0.0
  0
LINE
  8
0
  6
CONTINUOUS
 62
     3
  5
194
 10
-23.5
 20
20.0
 30
0.0
 11
-23.5
 21
18.0
 31
0.0
  0
LINE
  8
0
  6
CONTINUOUS
 62
     3
  5
195
 10
-13.207802
 20
1.766318
 30
0.0
 11
-14.844148
 21
15.675262
 31
0.0
  0
ENDBLK
  8
0
  5
196
  0
BLOCK
  8
0
  5
197
  2
MS_6
 70
     0
 10
0.0
 20
0.0
 30
0.0
  3
MS_6
  0
LINE
  8
0
  6
CONTINUOUS
 62
     3
  5
198
 10
-11.221501
 20
0.0
 30
0.0
 11
11.221501
 21
0.0
 31
0.0
  0
POLYLINE
  8
0
  6
CONTINUOUS
 62
     3
  5
199
 66
     1
 10
0.0
 20
0.0
 30
0.0
  0
VERTEX
  8
0
  6
CONTINUOUS
 62
     3
  5
228
 10
-18.475209
 20
-272.570938
 30
0.0
  0
VERTEX
  8
0
  6
CONTINUOUS
 62
     3
  5
229
 10
-18.215339
 20
-272.726738
 30
0.0
  0
VERTEX
  8
0
  6
CONTINUOUS
 62
     3
  5
22A
 10
-17.949893
 20
-272.875821
 30
0.0
  0
VERTEX
  8
0
  6
CONTINUOUS
 62
     3
  5
22B
 10
-17.679245
 20
-273.017726
 30
0.0
  0
VERTEX
  8
0
  6
CONTINUOUS
 62
     3
  5
22C
 10
-17.403764
 20
-273.151993
 30
0.0
  0
VERTEX
  8
0
  6
CONTINUOUS
 62
     3
  5
22D
 10
-17.123823
 20
-273.278162
 30
0.0
  0
VERTEX
  8
0
  6
CONTINUOUS
 62
     3
  5
22E
 10
-16.839794
 20
-273.395773
 30
0.0
  0
VERTEX
  8
0
  6
CONTINUOUS
 62
     3
  5
22F
 10
-16.552048
 20
-273.504367
 30
0.0
  0
VERTEX
  8
0
  6
CONTINUOUS
 62
     3
  5
230
 10
-16.260957
 20
-273.603482
 30
0.0
  0
VERTEX
  8
0
  6
CONTINUOUS
 62
     3
  5
231
 10
-15.966893
 20
-273.692659
 30
0.0
  0
VERTEX
  8
0
  6
CONTINUOUS
 62
     3
  5
232
 10
-15.670227
 20
-273.771439
 30
0.0
  0
VERTEX
  8
0
  6
CONTINUOUS
 62
     3
  5
233
 10
-15.37133
 20
-273.83936
 30
0.0
  0
VERTEX
  8
0
  6
CONTINUOUS
 62
     3
  5
234
 10
-15.070576
 20
-273.895964
 30
0.0
  0
VERTEX
  8
0
  6
CONTINUOUS
 62
     3
  5
235
 10
-14.768334
 20
-273.94079
 30
0.0
  0
VERTEX
  8
0
  6
CONTINUOUS
 62
     3
  5
236
 10
-14.464978
 20
-273.973378
 30
0.0
  0
VERTEX
  8
0
  6
CONTINUOUS
 62
     3
  5
237
 10
-14.160878
 20
-273.993268
 30
0.0
  0
VERTEX
  8
0
  6
CONTINUOUS
 62
     3
  5
238
 10
-13.856406
 20
-274.0
 30
0.0
  0
VERTEX
  8
0
  6
CONTINUOUS
 62
     3
  5
239
 10
-13.551935
 20
-273.993268
 30
0.0
  0
VERTEX
  8
0
  6
CONTINUOUS
 62
     3
  5
23A
 10
-13.247835
 20
-273.973378
 30
0.0
  0
VERTEX
  8
0
  6
CONTINUOUS
 62
     3
  5
23B
 10
-12.944479
 20
-273.94079
 30
0.0
  0
VERTEX
  8
0
  6
CONTINUOUS
 62
     3
  5
23C
 10
-12.642237
 20
-273.895964
 30
0.0
  0
VERTEX
  8
0
  6
CONTINUOUS
 62
     3
  5
23D
 10
-12.341483
 20
-273.83936
 30
0.0
  0
VERTEX
  8
0
  6
CONTINUOUS
 62
     3
  5
23E
 10
-12.042586
 20
-273.771439
 30
0.0
  0
VERTEX
  8
0
  6
CONTINUOUS
 62
     3
  5
23F
 10
-11.74592
 20
-273.692659
 30
0.0
  0
VERTEX
  8
0
  6
CONTINUOUS
 62
     3
  5
240
 10
-11.451856
 20
-273.603482
 30
0.0
  0
VERTEX
  8
0
  6
CONTINUOUS
 62
     3
  5
241
 10
-11.160765
 20
-273.504367
 30
0.0
  0
VERTEX
  8
0
  6
CONTINUOUS
 62
     3
  5
242
 10
-10.873019
 20
-273.395773
 30
0.0
  0
VERTEX
  8
0
  6
CONTINUOUS
 62
     3
  5
243
 10
-10.588989
 20
-273.278162
 30
0.0
  0
VERTEX
  8
0
  6
CONTINUOUS
 62
     3
  5
244
 10
-10.309049
 20
-273.151993
 30
0.0
  0
VERTEX
  8
0
  6
CONTINUOUS
 62
     3
  5
245
 10
-10.033568
 20
-273.017726
 30
0.0
  0
VERTEX
  8
0
  6
CONTINUOUS
 62
     3
  5
246
 10
-9.76292
 20
-272.875821
 30
0.0
  0
VERTEX
  8
0
  6
CONTINUOUS
 62
     3
  5
247
 10
-9.497474
 20
-272.726738
 30
0.0
  0
VERTEX
  8
0
  6
CONTINUOUS
 62
     3
  5
248
 10
-9.237604
 20
-272.570938
 30
0.0
  0
SEQEND
  8
0
  6
CONTINUOUS
 62
     3
  5
249
  0
POLYLINE
  8
0
  6
CONTINUOUS
 62
     3
  5
19A
 66
     1
 10
0.0
 20
0.0
 30
0.0
  0
VERTEX
  8
0
  6
CONTINUOUS
 62
     3
  5
24A
 10
-9.237604
 20
-262.429062
 30
0.0
  0
VERTEX
  8
0
  6
CONTINUOUS
 62
     3
  5
24B
 10
-8.677724
 20
-262.261243
 30
0.0
  0
VERTEX
  8
0
  6
CONTINUOUS
 62
     3
  5
24C
 10
-8.114462
 20
-262.103239
 30
0.0
  0
VERTEX
  8
0
  6
CONTINUOUS
 62
     3
  5
24D
 10
-7.548045
 20
-261.955191
 30
0.0
  0
VERTEX
  8
0
  6
CONTINUOUS
 62
     3
  5
24E
 10
-6.978697
 20
-261.817239
 30
0.0
  0
VERTEX
  8
0
  6
CONTINUOUS
 62
     3
  5
24F
 10
-6.406644
 20
-261.68952
 30
0.0
  0
VERTEX
  8
0
  6
CONTINUOUS
 62
     3
  5
250
 10
-5.832111
 20
-261.572176
 30
0.0
  0
VERTEX
  8
0
  6
CONTINUOUS
 62
     3
  5
251
 10
-5.255325
 20
-261.465346
 30
0.0
  0
VERTEX
  8
0
  6
CONTINUOUS
 62
     3
  5
252
 10
-4.676509
 20
-261.369169
 30
0.0
  0
VERTEX
  8
0
  6
CONTINUOUS
 62
     3
  5
253
 10
-4.09589
 20
-261.283784
 30
0.0
  0
VERTEX
  8
0
  6
CONTINUOUS
 62
     3
  5
254
 10
-3.513694
 20
-261.209331
 30
0.0
  0
VERTEX
  8
0
  6
CONTINUOUS
 62
     3
  5
255
 10
-2.930144
 20
-261.14595
 30
0.0
  0
VERTEX
  8
0
  6
CONTINUOUS
 62
     3
  5
256
 10
-2.345468
 20
-261.09378
 30
0.0
  0
VERTEX
  8
0
  6
CONTINUOUS
 62
     3
  5
257
 10
-1.75989
 20
-261.052961
 30
0.0
  0
VERTEX
  8
0
  6
CONTINUOUS
 62
     3
  5
258
 10
-1.173636
 20
-261.023631
 30
0.0
  0
VERTEX
  8
0
  6
CONTINUOUS
 62
     3
  5
259
 10
-0.586931
 20
-261.005931
 30
0.0
  0
VERTEX
  8
0
  6
CONTINUOUS
 62
     3
  5
25A
 10
0.0
 20
-261.0
 30
0.0
  0
VERTEX
  8
0
  6
CONTINUOUS
 62
     3
  5
25B
 10
0.586931
 20
-261.005931
 30
0.0
  0
VERTEX
  8
0
  6
CONTINUOUS
 62
     3
  5
25C
 10
1.173636
 20
-261.023631
 30
0.0
  0
VERTEX
  8
0
  6
CONTINUOUS
 62
     3
  5
25D
 10
1.75989
 20
-261.052961
 30
0.0
  0
VERTEX
  8
0
  6
CONTINUOUS
 62
     3
  5
25E
 10
2.345468
 20
-261.09378
 30
0.0
  0
VERTEX
  8
0
  6
CONTINUOUS
 62
     3
  5
25F
 10
2.930144
 20
-261.14595
 30
0.0
  0
VERTEX
  8
0
  6
CONTINUOUS
 62
     3
  5
260
 10
3.513694
 20
-261.209331
 30
0.0
  0
VERTEX
  8
0
  6
CONTINUOUS
 62
     3
  5
261
 10
4.09589
 20
-261.283784
 30
0.0
  0
VERTEX
  8
0
  6
CONTINUOUS
 62
     3
  5
262
 10
4.676509
 20
-261.369169
 30
0.0
  0
VERTEX
  8
0
  6
CONTINUOUS
 62
     3
  5
263
 10
5.255325
 20
-261.465346
 30
0.0
  0
VERTEX
  8
0
  6
CONTINUOUS
 62
     3
  5
264
 10
5.832111
 20
-261.572176
 30
0.0
  0
VERTEX
  8
0
  6
CONTINUOUS
 62
     3
  5
265
 10
6.406644
 20
-261.68952
 30
0.0
  0
VERTEX
  8
0
  6
CONTINUOUS
 62
     3
  5
266
 10
6.978697
 20
-261.817239
 30
0.0
  0
VERTEX
  8
0
  6
CONTINUOUS
 62
     3
  5
267
 10
7.548045
 20
-261.955191
 30
0.0
  0
VERTEX
  8
0
  6
CONTINUOUS
 62
     3
  5
268
 10
8.114462
 20
-262.103239
 30
0.0
  0
VERTEX
  8
0
  6
CONTINUOUS
 62
     3
  5
269
 10
8.677724
 20
-262.261243
 30
0.0
  0
VERTEX
  8
0
  6
CONTINUOUS
 62
     3
  5
26A
 10
9.237604
 20
-262.429062
 30
0.0
  0
SEQEND
  8
0
  6
CONTINUOUS
 62
     3
  5
26B
  0
POLYLINE
  8
0
  6
CONTINUOUS
 62
     3
  5
19B
 66
     1
 10
0.0
 20
0.0
 30
0.0
  0
VERTEX
  8
0
  6
CONTINUOUS
 62
     3
  5
26C
 10
-18.475209
 20
-262.429062
 30
0.0
  0
VERTEX
  8
0
  6
CONTINUOUS
 62
     3
  5
26D
 10
-18.215339
 20
-262.273262
 30
0.0
  0
VERTEX
  8
0
  6
CONTINUOUS
 62
     3
  5
26E
 10
-17.949893
 20
-262.124179
 30
0.0
  0
VERTEX
  8
0
  6
CONTINUOUS
 62
     3
  5
26F
 10
-17.679245
 20
-261.982274
 30
0.0
  0
VERTEX
  8
0
  6
CONTINUOUS
 62
     3
  5
270
 10
-17.403764
 20
-261.848007
 30
0.0
  0
VERTEX
  8
0
  6
CONTINUOUS
 62
     3
  5
271
 10
-17.123823
 20
-261.721838
 30
0.0
  0
VERTEX
  8
0
  6
CONTINUOUS
 62
     3
  5
272
 10
-16.839794
 20
-261.604227
 30
0.0
  0
VERTEX
  8
0
  6
CONTINUOUS
 62
     3
  5
273
 10
-16.552048
 20
-261.495633
 30
0.0
  0
VERTEX
  8
0
  6
CONTINUOUS
 62
     3
  5
274
 10
-16.260957
 20
-261.396518
 30
0.0
  0
VERTEX
  8
0
  6
CONTINUOUS
 62
     3
  5
275
 10
-15.966893
 20
-261.307341
 30
0.0
  0
VERTEX
  8
0
  6
CONTINUOUS
 62
     3
  5
276
 10
-15.670227
 20
-261.228561
 30
0.0
  0
VERTEX
  8
0
  6
CONTINUOUS
 62
     3
  5
277
 10
-15.37133
 20
-261.16064
 30
0.0
  0
VERTEX
  8
0
  6
CONTINUOUS
 62
     3
  5
278
 10
-15.070576
 20
-261.104036
 30
0.0
  0
VERTEX
  8
0
  6
CONTINUOUS
 62
     3
  5
279
 10
-14.768334
 20
-261.05921
 30
0.0
  0
VERTEX
  8
0
  6
CONTINUOUS
 62
     3
  5
27A
 10
-14.464978
 20
-261.026622
 30
0.0
  0
VERTEX
  8
0
  6
CONTINUOUS
 62
     3
  5
27B
 10
-14.160878
 20
-261.006732
 30
0.0
  0
VERTEX
  8
0
  6
CONTINUOUS
 62
     3
  5
27C
 10
-13.856406
 20
-261.0
 30
0.0
  0
VERTEX
  8
0
  6
CONTINUOUS
 62
     3
  5
27D
 10
-13.551935
 20
-261.006732
 30
0.0
  0
VERTEX
  8
0
  6
CONTINUOUS
 62
     3
  5
27E
 10
-13.247835
 20
-261.026622
 30
0.0
  0
VERTEX
  8
0
  6
CONTINUOUS
 62
     3
  5
27F
 10
-12.944479
 20
-261.05921
 30
0.0
  0
VERTEX
  8
0
  6
CONTINUOUS
 62
     3
  5
280
 10
-12.642237
 20
-261.104036
 30
0.0
  0
VERTEX
  8
0
  6
CONTINUOUS
 62
     3
  5
281
 10
-12.341483
 20
-261.16064
 30
0.0
  0
VERTEX
  8
0
  6
CONTINUOUS
 62
     3
  5
282
 10
-12.042586
 20
-261.228561
 30
0.0
  0
VERTEX
  8
0
  6
CONTINUOUS
 62
     3
  5
283
 10
-11.74592
 20
-261.307341
 30
0.0
  0
VERTEX
  8
0
  6
CONTINUOUS
 62
     3
  5
284
 10
-11.451856
 20
-261.396518
 30
0.0
  0
VERTEX
  8
0
  6
CONTINUOUS
 62
     3
  5
285
 10
-11.160765
 20
-261.495633
 30
0.0
  0
VERTEX
  8
0
  6
CONTINUOUS
 62
     3
  5
286
 10
-10.873019
 20
-261.604227
 30
0.0
  0
VERTEX
  8
0
  6
CONTINUOUS
 62
     3
  5
287
 10
-10.588989
 20
-261.721838
 30
0.0
  0
VERTEX
  8
0
  6
CONTINUOUS
 62
     3
  5
288
 10
-10.309049
 20
-261.848007
 30
0.0
  0
VERTEX
  8
0
  6
CONTINUOUS
 62
     3
  5
289
 10
-10.033568
 20
-261.982274
 30
0.0
  0
VERTEX
  8
0
  6
CONTINUOUS
 62
     3
  5
28A
 10
-9.76292
 20
-262.124179
 30
0.0
  0
VERTEX
  8
0
  6
CONTINUOUS
 62
     3
  5
28B
 10
-9.497474
 20
-262.273262
 30
0.0
  0
VERTEX
  8
0
  6
CONTINUOUS
 62
     3
  5
28C
 10
-9.237604
 20
-262.429062
 30
0.0
  0
SEQEND
  8
0
  6
CONTINUOUS
 62
     3
  5
28D
  0
POLYLINE
  8
0
  6
CONTINUOUS
 62
     3
  5
19C
 66
     1
 10
0.0
 20
0.0
 30
0.0
  0
VERTEX
  8
0
  6
CONTINUOUS
 62
     3
  5
28E
 10
-9.237604
 20
-272.570938
 30
0.0
  0
VERTEX
  8
0
  6
CONTINUOUS
 62
     3
  5
28F
 10
-8.677724
 20
-272.738757
 30
0.0
  0
VERTEX
  8
0
  6
CONTINUOUS
 62
     3
  5
290
 10
-8.114462
 20
-272.896761
 30
0.0
  0
VERTEX
  8
0
  6
CONTINUOUS
 62
     3
  5
291
 10
-7.548045
 20
-273.044809
 30
0.0
  0
VERTEX
  8
0
  6
CONTINUOUS
 62
     3
  5
292
 10
-6.978697
 20
-273.182761
 30
0.0
  0
VERTEX
  8
0
  6
CONTINUOUS
 62
     3
  5
293
 10
-6.406644
 20
-273.31048
 30
0.0
  0
VERTEX
  8
0
  6
CONTINUOUS
 62
     3
  5
294
 10
-5.832111
 20
-273.427824
 30
0.0
  0
VERTEX
  8
0
  6
CONTINUOUS
 62
     3
  5
295
 10
-5.255325
 20
-273.534654
 30
0.0
  0
VERTEX
  8
0
  6
CONTINUOUS
 62
     3
  5
296
 10
-4.676509
 20
-273.630831
 30
0.0
  0
VERTEX
  8
0
  6
CONTINUOUS
 62
     3
  5
297
 10
-4.09589
 20
-273.716216
 30
0.0
  0
VERTEX
  8
0
  6
CONTINUOUS
 62
     3
  5
298
 10
-3.513694
 20
-273.790669
 30
0.0
  0
VERTEX
  8
0
  6
CONTINUOUS
 62
     3
  5
299
 10
-2.930144
 20
-273.85405
 30
0.0
  0
VERTEX
  8
0
  6
CONTINUOUS
 62
     3
  5
29A
 10
-2.345468
 20
-273.90622
 30
0.0
  0
VERTEX
  8
0
  6
CONTINUOUS
 62
     3
  5
29B
 10
-1.75989
 20
-273.947039
 30
0.0
  0
VERTEX
  8
0
  6
CONTINUOUS
 62
     3
  5
29C
 10
-1.173636
 20
-273.976369
 30
0.0
  0
VERTEX
  8
0
  6
CONTINUOUS
 62
     3
  5
29D
 10
-0.586931
 20
-273.994069
 30
0.0
  0
VERTEX
  8
0
  6
CONTINUOUS
 62
     3
  5
29E
 10
0.0
 20
-274.0
 30
0.0
  0
VERTEX
  8
0
  6
CONTINUOUS
 62
     3
  5
29F
 10
0.586931
 20
-273.994069
 30
0.0
  0
VERTEX
  8
0
  6
CONTINUOUS
 62
     3
  5
2A0
 10
1.173636
 20
-273.976369
 30
0.0
  0
VERTEX
  8
0
  6
CONTINUOUS
 62
     3
  5
2A1
 10
1.75989
 20
-273.947039
 30
0.0
  0
VERTEX
  8
0
  6
CONTINUOUS
 62
     3
  5
2A2
 10
2.345468
 20
-273.90622
 30
0.0
  0
VERTEX
  8
0
  6
CONTINUOUS
 62
     3
  5
2A3
 10
2.930144
 20
-273.85405
 30
0.0
  0
VERTEX
  8
0
  6
CONTINUOUS
 62
     3
  5
2A4
 10
3.513694
 20
-273.790669
 30
0.0
  0
VERTEX
  8
0
  6
CONTINUOUS
 62
     3
  5
2A5
 10
4.09589
 20
-273.716216
 30
0.0
  0
VERTEX
  8
0
  6
CONTINUOUS
 62
     3
  5
2A6
 10
4.676509
 20
-273.630831
 30
0.0
  0
VERTEX
  8
0
  6
CONTINUOUS
 62
     3
  5
2A7
 10
5.255325
 20
-273.534654
 30
0.0
  0
VERTEX
  8
0
  6
CONTINUOUS
 62
     3
  5
2A8
 10
5.832111
 20
-273.427824
 30
0.0
  0
VERTEX
  8
0
  6
CONTINUOUS
 62
     3
  5
2A9
 10
6.406644
 20
-273.31048
 30
0.0
  0
VERTEX
  8
0
  6
CONTINUOUS
 62
     3
  5
2AA
 10
6.978697
 20
-273.182761
 30
0.0
  0
VERTEX
  8
0
  6
CONTINUOUS
 62
     3
  5
2AB
 10
7.548045
 20
-273.044809
 30
0.0
  0
VERTEX
  8
0
  6
CONTINUOUS
 62
     3
  5
2AC
 10
8.114462
 20
-272.896761
 30
0.0
  0
VERTEX
  8
0
  6
CONTINUOUS
 62
     3
  5
2AD
 10
8.677724
 20
-272.738757
 30
0.0
  0
VERTEX
  8
0
  6
CONTINUOUS
 62
     3
  5
2AE
 10
9.237604
 20
-272.570938
 30
0.0
  0
SEQEND
  8
0
  6
CONTINUOUS
 62
     3
  5
2AF
  0
POLYLINE
  8
0
  6
CONTINUOUS
 62
     3
  5
19D
 66
     1
 10
0.0
 20
0.0
 30
0.0
  0
VERTEX
  8
0
  6
CONTINUOUS
 62
     3
  5
2B0
 10
18.475209
 20
-272.570938
 30
0.0
  0
VERTEX
  8
0
  6
CONTINUOUS
 62
     3
  5
2B1
 10
18.215339
 20
-272.726738
 30
0.0
  0
VERTEX
  8
0
  6
CONTINUOUS
 62
     3
  5
2B2
 10
17.949893
 20
-272.875821
 30
0.0
  0
VERTEX
  8
0
  6
CONTINUOUS
 62
     3
  5
2B3
 10
17.679245
 20
-273.017726
 30
0.0
  0
VERTEX
  8
0
  6
CONTINUOUS
 62
     3
  5
2B4
 10
17.403764
 20
-273.151993
 30
0.0
  0
VERTEX
  8
0
  6
CONTINUOUS
 62
     3
  5
2B5
 10
17.123823
 20
-273.278162
 30
0.0
  0
VERTEX
  8
0
  6
CONTINUOUS
 62
     3
  5
2B6
 10
16.839794
 20
-273.395773
 30
0.0
  0
VERTEX
  8
0
  6
CONTINUOUS
 62
     3
  5
2B7
 10
16.552048
 20
-273.504367
 30
0.0
  0
VERTEX
  8
0
  6
CONTINUOUS
 62
     3
  5
2B8
 10
16.260957
 20
-273.603482
 30
0.0
  0
VERTEX
  8
0
  6
CONTINUOUS
 62
     3
  5
2B9
 10
15.966893
 20
-273.692659
 30
0.0
  0
VERTEX
  8
0
  6
CONTINUOUS
 62
     3
  5
2BA
 10
15.670227
 20
-273.771439
 30
0.0
  0
VERTEX
  8
0
  6
CONTINUOUS
 62
     3
  5
2BB
 10
15.37133
 20
-273.83936
 30
0.0
  0
VERTEX
  8
0
  6
CONTINUOUS
 62
     3
  5
2BC
 10
15.070576
 20
-273.895964
 30
0.0
  0
VERTEX
  8
0
  6
CONTINUOUS
 62
     3
  5
2BD
 10
14.768334
 20
-273.94079
 30
0.0
  0
VERTEX
  8
0
  6
CONTINUOUS
 62
     3
  5
2BE
 10
14.464978
 20
-273.973378
 30
0.0
  0
VERTEX
  8
0
  6
CONTINUOUS
 62
     3
  5
2BF
 10
14.160878
 20
-273.993268
 30
0.0
  0
VERTEX
  8
0
  6
CONTINUOUS
 62
     3
  5
2C0
 10
13.856406
 20
-274.0
 30
0.0
  0
VERTEX
  8
0
  6
CONTINUOUS
 62
     3
  5
2C1
 10
13.551935
 20
-273.993268
 30
0.0
  0
VERTEX
  8
0
  6
CONTINUOUS
 62
     3
  5
2C2
 10
13.247835
 20
-273.973378
 30
0.0
  0
VERTEX
  8
0
  6
CONTINUOUS
 62
     3
  5
2C3
 10
12.944479
 20
-273.94079
 30
0.0
  0
VERTEX
  8
0
  6
CONTINUOUS
 62
     3
  5
2C4
 10
12.642237
 20
-273.895964
 30
0.0
  0
VERTEX
  8
0
  6
CONTINUOUS
 62
     3
  5
2C5
 10
12.341483
 20
-273.83936
 30
0.0
  0
VERTEX
  8
0
  6
CONTINUOUS
 62
     3
  5
2C6
 10
12.042586
 20
-273.771439
 30
0.0
  0
VERTEX
  8
0
  6
CONTINUOUS
 62
     3
  5
2C7
 10
11.74592
 20
-273.692659
 30
0.0
  0
VERTEX
  8
0
  6
CONTINUOUS
 62
     3
  5
2C8
 10
11.451856
 20
-273.603482
 30
0.0
  0
VERTEX
  8
0
  6
CONTINUOUS
 62
     3
  5
2C9
 10
11.160765
 20
-273.504367
 30
0.0
  0
VERTEX
  8
0
  6
CONTINUOUS
 62
     3
  5
2CA
 10
10.873019
 20
-273.395773
 30
0.0
  0
VERTEX
  8
0
  6
CONTINUOUS
 62
     3
  5
2CB
 10
10.588989
 20
-273.278162
 30
0.0
  0
VERTEX
  8
0
  6
CONTINUOUS
 62
     3
  5
2CC
 10
10.309049
 20
-273.151993
 30
0.0
  0
VERTEX
  8
0
  6
CONTINUOUS
 62
     3
  5
2CD
 10
10.033568
 20
-273.017726
 30
0.0
  0
VERTEX
  8
0
  6
CONTINUOUS
 62
     3
  5
2CE
 10
9.76292
 20
-272.875821
 30
0.0
  0
VERTEX
  8
0
  6
CONTINUOUS
 62
     3
  5
2CF
 10
9.497474
 20
-272.726738
 30
0.0
  0
VERTEX
  8
0
  6
CONTINUOUS
 62
     3
  5
2D0
 10
9.237604
 20
-272.570938
 30
0.0
  0
SEQEND
  8
0
  6
CONTINUOUS
 62
     3
  5
2D1
  0
POLYLINE
  8
0
  6
CONTINUOUS
 62
     3
  5
19E
 66
     1
 10
0.0
 20
0.0
 30
0.0
  0
VERTEX
  8
0
  6
CONTINUOUS
 62
     3
  5
2D2
 10
18.475209
 20
-262.429062
 30
0.0
  0
VERTEX
  8
0
  6
CONTINUOUS
 62
     3
  5
2D3
 10
18.215339
 20
-262.273262
 30
0.0
  0
VERTEX
  8
0
  6
CONTINUOUS
 62
     3
  5
2D4
 10
17.949893
 20
-262.124179
 30
0.0
  0
VERTEX
  8
0
  6
CONTINUOUS
 62
     3
  5
2D5
 10
17.679245
 20
-261.982274
 30
0.0
  0
VERTEX
  8
0
  6
CONTINUOUS
 62
     3
  5
2D6
 10
17.403764
 20
-261.848007
 30
0.0
  0
VERTEX
  8
0
  6
CONTINUOUS
 62
     3
  5
2D7
 10
17.123823
 20
-261.721838
 30
0.0
  0
VERTEX
  8
0
  6
CONTINUOUS
 62
     3
  5
2D8
 10
16.839794
 20
-261.604227
 30
0.0
  0
VERTEX
  8
0
  6
CONTINUOUS
 62
     3
  5
2D9
 10
16.552048
 20
-261.495633
 30
0.0
  0
VERTEX
  8
0
  6
CONTINUOUS
 62
     3
  5
2DA
 10
16.260957
 20
-261.396518
 30
0.0
  0
VERTEX
  8
0
  6
CONTINUOUS
 62
     3
  5
2DB
 10
15.966893
 20
-261.307341
 30
0.0
  0
VERTEX
  8
0
  6
CONTINUOUS
 62
     3
  5
2DC
 10
15.670227
 20
-261.228561
 30
0.0
  0
VERTEX
  8
0
  6
CONTINUOUS
 62
     3
  5
2DD
 10
15.37133
 20
-261.16064
 30
0.0
  0
VERTEX
  8
0
  6
CONTINUOUS
 62
     3
  5
2DE
 10
15.070576
 20
-261.104036
 30
0.0
  0
VERTEX
  8
0
  6
CONTINUOUS
 62
     3
  5
2DF
 10
14.768334
 20
-261.05921
 30
0.0
  0
VERTEX
  8
0
  6
CONTINUOUS
 62
     3
  5
2E0
 10
14.464978
 20
-261.026622
 30
0.0
  0
VERTEX
  8
0
  6
CONTINUOUS
 62
     3
  5
2E1
 10
14.160878
 20
-261.006732
 30
0.0
  0
VERTEX
  8
0
  6
CONTINUOUS
 62
     3
  5
2E2
 10
13.856406
 20
-261.0
 30
0.0
  0
VERTEX
  8
0
  6
CONTINUOUS
 62
     3
  5
2E3
 10
13.551935
 20
-261.006732
 30
0.0
  0
VERTEX
  8
0
  6
CONTINUOUS
 62
     3
  5
2E4
 10
13.247835
 20
-261.026622
 30
0.0
  0
VERTEX
  8
0
  6
CONTINUOUS
 62
     3
  5
2E5
 10
12.944479
 20
-261.05921
 30
0.0
  0
VERTEX
  8
0
  6
CONTINUOUS
 62
     3
  5
2E6
 10
12.642237
 20
-261.104036
 30
0.0
  0
VERTEX
  8
0
  6
CONTINUOUS
 62
     3
  5
2E7
 10
12.341483
 20
-261.16064
 30
0.0
  0
VERTEX
  8
0
  6
CONTINUOUS
 62
     3
  5
2E8
 10
12.042586
 20
-261.228561
 30
0.0
  0
VERTEX
  8
0
  6
CONTINUOUS
 62
     3
  5
2E9
 10
11.74592
 20
-261.307341
 30
0.0
  0
VERTEX
  8
0
  6
CONTINUOUS
 62
     3
  5
2EA
 10
11.451856
 20
-261.396518
 30
0.0
  0
VERTEX
  8
0
  6
CONTINUOUS
 62
     3
  5
2EB
 10
11.160765
 20
-261.495633
 30
0.0
  0
VERTEX
  8
0
  6
CONTINUOUS
 62
     3
  5
2EC
 10
10.873019
 20
-261.604227
 30
0.0
  0
VERTEX
  8
0
  6
CONTINUOUS
 62
     3
  5
2ED
 10
10.588989
 20
-261.721838
 30
0.0
  0
VERTEX
  8
0
  6
CONTINUOUS
 62
     3
  5
2EE
 10
10.309049
 20
-261.848007
 30
0.0
  0
VERTEX
  8
0
  6
CONTINUOUS
 62
     3
  5
2EF
 10
10.033568
 20
-261.982274
 30
0.0
  0
VERTEX
  8
0
  6
CONTINUOUS
 62
     3
  5
2F0
 10
9.76292
 20
-262.124179
 30
0.0
  0
VERTEX
  8
0
  6
CONTINUOUS
 62
     3
  5
2F1
 10
9.497474
 20
-262.273262
 30
0.0
  0
VERTEX
  8
0
  6
CONTINUOUS
 62
     3
  5
2F2
 10
9.237604
 20
-262.429062
 30
0.0
  0
SEQEND
  8
0
  6
CONTINUOUS
 62
     3
  5
2F3
  0
POLYLINE
  8
0
  6
CONTINUOUS
 62
     3
  5
19F
 66
     1
 10
0.0
 20
0.0
 30
0.0
  0
VERTEX
  8
0
  6
CONTINUOUS
 62
     3
  5
2F4
 10
18.475209
 20
-237.429062
 30
0.0
  0
VERTEX
  8
0
  6
CONTINUOUS
 62
     3
  5
2F5
 10
18.215339
 20
-237.273262
 30
0.0
  0
VERTEX
  8
0
  6
CONTINUOUS
 62
     3
  5
2F6
 10
17.949893
 20
-237.124179
 30
0.0
  0
VERTEX
  8
0
  6
CONTINUOUS
 62
     3
  5
2F7
 10
17.679245
 20
-236.982274
 30
0.0
  0
VERTEX
  8
0
  6
CONTINUOUS
 62
     3
  5
2F8
 10
17.403764
 20
-236.848007
 30
0.0
  0
VERTEX
  8
0
  6
CONTINUOUS
 62
     3
  5
2F9
 10
17.123823
 20
-236.721838
 30
0.0
  0
VERTEX
  8
0
  6
CONTINUOUS
 62
     3
  5
2FA
 10
16.839794
 20
-236.604227
 30
0.0
  0
VERTEX
  8
0
  6
CONTINUOUS
 62
     3
  5
2FB
 10
16.552048
 20
-236.495633
 30
0.0
  0
VERTEX
  8
0
  6
CONTINUOUS
 62
     3
  5
2FC
 10
16.260957
 20
-236.396518
 30
0.0
  0
VERTEX
  8
0
  6
CONTINUOUS
 62
     3
  5
2FD
 10
15.966893
 20
-236.307341
 30
0.0
  0
VERTEX
  8
0
  6
CONTINUOUS
 62
     3
  5
2FE
 10
15.670227
 20
-236.228561
 30
0.0
  0
VERTEX
  8
0
  6
CONTINUOUS
 62
     3
  5
2FF
 10
15.37133
 20
-236.16064
 30
0.0
  0
VERTEX
  8
0
  6
CONTINUOUS
 62
     3
  5
300
 10
15.070576
 20
-236.104036
 30
0.0
  0
VERTEX
  8
0
  6
CONTINUOUS
 62
     3
  5
301
 10
14.768334
 20
-236.05921
 30
0.0
  0
VERTEX
  8
0
  6
CONTINUOUS
 62
     3
  5
302
 10
14.464978
 20
-236.026622
 30
0.0
  0
VERTEX
  8
0
  6
CONTINUOUS
 62
     3
  5
303
 10
14.160878
 20
-236.006732
 30
0.0
  0
VERTEX
  8
0
  6
CONTINUOUS
 62
     3
  5
304
 10
13.856406
 20
-236.0
 30
0.0
  0
VERTEX
  8
0
  6
CONTINUOUS
 62
     3
  5
305
 10
13.551935
 20
-236.006732
 30
0.0
  0
VERTEX
  8
0
  6
CONTINUOUS
 62
     3
  5
306
 10
13.247835
 20
-236.026622
 30
0.0
  0
VERTEX
  8
0
  6
CONTINUOUS
 62
     3
  5
307
 10
12.944479
 20
-236.05921
 30
0.0
  0
VERTEX
  8
0
  6
CONTINUOUS
 62
     3
  5
308
 10
12.642237
 20
-236.104036
 30
0.0
  0
VERTEX
  8
0
  6
CONTINUOUS
 62
     3
  5
309
 10
12.341483
 20
-236.16064
 30
0.0
  0
VERTEX
  8
0
  6
CONTINUOUS
 62
     3
  5
30A
 10
12.042586
 20
-236.228561
 30
0.0
  0
VERTEX
  8
0
  6
CONTINUOUS
 62
     3
  5
30B
 10
11.74592
 20
-236.307341
 30
0.0
  0
VERTEX
  8
0
  6
CONTINUOUS
 62
     3
  5
30C
 10
11.451856
 20
-236.396518
 30
0.0
  0
VERTEX
  8
0
  6
CONTINUOUS
 62
     3
  5
30D
 10
11.160765
 20
-236.495633
 30
0.0
  0
VERTEX
  8
0
  6
CONTINUOUS
 62
     3
  5
30E
 10
10.873019
 20
-236.604227
 30
0.0
  0
VERTEX
  8
0
  6
CONTINUOUS
 62
     3
  5
30F
 10
10.588989
 20
-236.721838
 30
0.0
  0
VERTEX
  8
0
  6
CONTINUOUS
 62
     3
  5
310
 10
10.309049
 20
-236.848007
 30
0.0
  0
VERTEX
  8
0
  6
CONTINUOUS
 62
     3
  5
311
 10
10.033568
 20
-236.982274
 30
0.0
  0
VERTEX
  8
0
  6
CONTINUOUS
 62
     3
  5
312
 10
9.76292
 20
-237.124179
 30
0.0
  0
VERTEX
  8
0
  6
CONTINUOUS
 62
     3
  5
313
 10
9.497474
 20
-237.273262
 30
0.0
  0
VERTEX
  8
0
  6
CONTINUOUS
 62
     3
  5
314
 10
9.237604
 20
-237.429062
 30
0.0
  0
SEQEND
  8
0
  6
CONTINUOUS
 62
     3
  5
315
  0
POLYLINE
  8
0
  6
CONTINUOUS
 62
     3
  5
1A0
 66
     1
 10
0.0
 20
0.0
 30
0.0
  0
VERTEX
  8
0
  6
CONTINUOUS
 62
     3
  5
316
 10
18.475209
 20
-247.570938
 30
0.0
  0
VERTEX
  8
0
  6
CONTINUOUS
 62
     3
  5
317
 10
18.215339
 20
-247.726738
 30
0.0
  0
VERTEX
  8
0
  6
CONTINUOUS
 62
     3
  5
318
 10
17.949893
 20
-247.875821
 30
0.0
  0
VERTEX
  8
0
  6
CONTINUOUS
 62
     3
  5
319
 10
17.679245
 20
-248.017726
 30
0.0
  0
VERTEX
  8
0
  6
CONTINUOUS
 62
     3
  5
31A
 10
17.403764
 20
-248.151993
 30
0.0
  0
VERTEX
  8
0
  6
CONTINUOUS
 62
     3
  5
31B
 10
17.123823
 20
-248.278162
 30
0.0
  0
VERTEX
  8
0
  6
CONTINUOUS
 62
     3
  5
31C
 10
16.839794
 20
-248.395773
 30
0.0
  0
VERTEX
  8
0
  6
CONTINUOUS
 62
     3
  5
31D
 10
16.552048
 20
-248.504367
 30
0.0
  0
VERTEX
  8
0
  6
CONTINUOUS
 62
     3
  5
31E
 10
16.260957
 20
-248.603482
 30
0.0
  0
VERTEX
  8
0
  6
CONTINUOUS
 62
     3
  5
31F
 10
15.966893
 20
-248.692659
 30
0.0
  0
VERTEX
  8
0
  6
CONTINUOUS
 62
     3
  5
320
 10
15.670227
 20
-248.771439
 30
0.0
  0
VERTEX
  8
0
  6
CONTINUOUS
 62
     3
  5
321
 10
15.37133
 20
-248.83936
 30
0.0
  0
VERTEX
  8
0
  6
CONTINUOUS
 62
     3
  5
322
 10
15.070576
 20
-248.895964
 30
0.0
  0
VERTEX
  8
0
  6
CONTINUOUS
 62
     3
  5
323
 10
14.768334
 20
-248.94079
 30
0.0
  0
VERTEX
  8
0
  6
CONTINUOUS
 62
     3
  5
324
 10
14.464978
 20
-248.973378
 30
0.0
  0
VERTEX
  8
0
  6
CONTINUOUS
 62
     3
  5
325
 10
14.160878
 20
-248.993268
 30
0.0
  0
VERTEX
  8
0
  6
CONTINUOUS
 62
     3
  5
326
 10
13.856406
 20
-249.0
 30
0.0
  0
VERTEX
  8
0
  6
CONTINUOUS
 62
     3
  5
327
 10
13.551935
 20
-248.993268
 30
0.0
  0
VERTEX
  8
0
  6
CONTINUOUS
 62
     3
  5
328
 10
13.247835
 20
-248.973378
 30
0.0
  0
VERTEX
  8
0
  6
CONTINUOUS
 62
     3
  5
329
 10
12.944479
 20
-248.94079
 30
0.0
  0
VERTEX
  8
0
  6
CONTINUOUS
 62
     3
  5
32A
 10
12.642237
 20
-248.895964
 30
0.0
  0
VERTEX
  8
0
  6
CONTINUOUS
 62
     3
  5
32B
 10
12.341483
 20
-248.83936
 30
0.0
  0
VERTEX
  8
0
  6
CONTINUOUS
 62
     3
  5
32C
 10
12.042586
 20
-248.771439
 30
0.0
  0
VERTEX
  8
0
  6
CONTINUOUS
 62
     3
  5
32D
 10
11.74592
 20
-248.692659
 30
0.0
  0
VERTEX
  8
0
  6
CONTINUOUS
 62
     3
  5
32E
 10
11.451856
 20
-248.603482
 30
0.0
  0
VERTEX
  8
0
  6
CONTINUOUS
 62
     3
  5
32F
 10
11.160765
 20
-248.504367
 30
0.0
  0
VERTEX
  8
0
  6
CONTINUOUS
 62
     3
  5
330
 10
10.873019
 20
-248.395773
 30
0.0
  0
VERTEX
  8
0
  6
CONTINUOUS
 62
     3
  5
331
 10
10.588989
 20
-248.278162
 30
0.0
  0
VERTEX
  8
0
  6
CONTINUOUS
 62
     3
  5
332
 10
10.309049
 20
-248.151993
 30
0.0
  0
VERTEX
  8
0
  6
CONTINUOUS
 62
     3
  5
333
 10
10.033568
 20
-248.017726
 30
0.0
  0
VERTEX
  8
0
  6
CONTINUOUS
 62
     3
  5
334
 10
9.76292
 20
-247.875821
 30
0.0
  0
VERTEX
  8
0
  6
CONTINUOUS
 62
     3
  5
335
 10
9.497474
 20
-247.726738
 30
0.0
  0
VERTEX
  8
0
  6
CONTINUOUS
 62
     3
  5
336
 10
9.237604
 20
-247.570938
 30
0.0
  0
SEQEND
  8
0
  6
CONTINUOUS
 62
     3
  5
337
  0
POLYLINE
  8
0
  6
CONTINUOUS
 62
     3
  5
1A1
 66
     1
 10
0.0
 20
0.0
 30
0.0
  0
VERTEX
  8
0
  6
CONTINUOUS
 62
     3
  5
338
 10
-18.475209
 20
-247.570938
 30
0.0
  0
VERTEX
  8
0
  6
CONTINUOUS
 62
     3
  5
339
 10
-18.215339
 20
-247.726738
 30
0.0
  0
VERTEX
  8
0
  6
CONTINUOUS
 62
     3
  5
33A
 10
-17.949893
 20
-247.875821
 30
0.0
  0
VERTEX
  8
0
  6
CONTINUOUS
 62
     3
  5
33B
 10
-17.679245
 20
-248.017726
 30
0.0
  0
VERTEX
  8
0
  6
CONTINUOUS
 62
     3
  5
33C
 10
-17.403764
 20
-248.151993
 30
0.0
  0
VERTEX
  8
0
  6
CONTINUOUS
 62
     3
  5
33D
 10
-17.123823
 20
-248.278162
 30
0.0
  0
VERTEX
  8
0
  6
CONTINUOUS
 62
     3
  5
33E
 10
-16.839794
 20
-248.395773
 30
0.0
  0
VERTEX
  8
0
  6
CONTINUOUS
 62
     3
  5
33F
 10
-16.552048
 20
-248.504367
 30
0.0
  0
VERTEX
  8
0
  6
CONTINUOUS
 62
     3
  5
340
 10
-16.260957
 20
-248.603482
 30
0.0
  0
VERTEX
  8
0
  6
CONTINUOUS
 62
     3
  5
341
 10
-15.966893
 20
-248.692659
 30
0.0
  0
VERTEX
  8
0
  6
CONTINUOUS
 62
     3
  5
342
 10
-15.670227
 20
-248.771439
 30
0.0
  0
VERTEX
  8
0
  6
CONTINUOUS
 62
     3
  5
343
 10
-15.37133
 20
-248.83936
 30
0.0
  0
VERTEX
  8
0
  6
CONTINUOUS
 62
     3
  5
344
 10
-15.070576
 20
-248.895964
 30
0.0
  0
VERTEX
  8
0
  6
CONTINUOUS
 62
     3
  5
345
 10
-14.768334
 20
-248.94079
 30
0.0
  0
VERTEX
  8
0
  6
CONTINUOUS
 62
     3
  5
346
 10
-14.464978
 20
-248.973378
 30
0.0
  0
VERTEX
  8
0
  6
CONTINUOUS
 62
     3
  5
347
 10
-14.160878
 20
-248.993268
 30
0.0
  0
VERTEX
  8
0
  6
CONTINUOUS
 62
     3
  5
348
 10
-13.856406
 20
-249.0
 30
0.0
  0
VERTEX
  8
0
  6
CONTINUOUS
 62
     3
  5
349
 10
-13.551935
 20
-248.993268
 30
0.0
  0
VERTEX
  8
0
  6
CONTINUOUS
 62
     3
  5
34A
 10
-13.247835
 20
-248.973378
 30
0.0
  0
VERTEX
  8
0
  6
CONTINUOUS
 62
     3
  5
34B
 10
-12.944479
 20
-248.94079
 30
0.0
  0
VERTEX
  8
0
  6
CONTINUOUS
 62
     3
  5
34C
 10
-12.642237
 20
-248.895964
 30
0.0
  0
VERTEX
  8
0
  6
CONTINUOUS
 62
     3
  5
34D
 10
-12.341483
 20
-248.83936
 30
0.0
  0
VERTEX
  8
0
  6
CONTINUOUS
 62
     3
  5
34E
 10
-12.042586
 20
-248.771439
 30
0.0
  0
VERTEX
  8
0
  6
CONTINUOUS
 62
     3
  5
34F
 10
-11.74592
 20
-248.692659
 30
0.0
  0
VERTEX
  8
0
  6
CONTINUOUS
 62
     3
  5
350
 10
-11.451856
 20
-248.603482
 30
0.0
  0
VERTEX
  8
0
  6
CONTINUOUS
 62
     3
  5
351
 10
-11.160765
 20
-248.504367
 30
0.0
  0
VERTEX
  8
0
  6
CONTINUOUS
 62
     3
  5
352
 10
-10.873019
 20
-248.395773
 30
0.0
  0
VERTEX
  8
0
  6
CONTINUOUS
 62
     3
  5
353
 10
-10.588989
 20
-248.278162
 30
0.0
  0
VERTEX
  8
0
  6
CONTINUOUS
 62
     3
  5
354
 10
-10.309049
 20
-248.151993
 30
0.0
  0
VERTEX
  8
0
  6
CONTINUOUS
 62
     3
  5
355
 10
-10.033568
 20
-248.017726
 30
0.0
  0
VERTEX
  8
0
  6
CONTINUOUS
 62
     3
  5
356
 10
-9.76292
 20
-247.875821
 30
0.0
  0
VERTEX
  8
0
  6
CONTINUOUS
 62
     3
  5
357
 10
-9.497474
 20
-247.726738
 30
0.0
  0
VERTEX
  8
0
  6
CONTINUOUS
 62
     3
  5
358
 10
-9.237604
 20
-247.570938
 30
0.0
  0
SEQEND
  8
0
  6
CONTINUOUS
 62
     3
  5
359
  0
POLYLINE
  8
0
  6
CONTINUOUS
 62
     3
  5
1A2
 66
     1
 10
0.0
 20
0.0
 30
0.0
  0
VERTEX
  8
0
  6
CONTINUOUS
 62
     3
  5
35A
 10
-9.237604
 20
-247.570938
 30
0.0
  0
VERTEX
  8
0
  6
CONTINUOUS
 62
     3
  5
35B
 10
-8.677724
 20
-247.738757
 30
0.0
  0
VERTEX
  8
0
  6
CONTINUOUS
 62
     3
  5
35C
 10
-8.114462
 20
-247.896761
 30
0.0
  0
VERTEX
  8
0
  6
CONTINUOUS
 62
     3
  5
35D
 10
-7.548045
 20
-248.044809
 30
0.0
  0
VERTEX
  8
0
  6
CONTINUOUS
 62
     3
  5
35E
 10
-6.978697
 20
-248.182761
 30
0.0
  0
VERTEX
  8
0
  6
CONTINUOUS
 62
     3
  5
35F
 10
-6.406644
 20
-248.31048
 30
0.0
  0
VERTEX
  8
0
  6
CONTINUOUS
 62
     3
  5
360
 10
-5.832111
 20
-248.427824
 30
0.0
  0
VERTEX
  8
0
  6
CONTINUOUS
 62
     3
  5
361
 10
-5.255325
 20
-248.534654
 30
0.0
  0
VERTEX
  8
0
  6
CONTINUOUS
 62
     3
  5
362
 10
-4.676509
 20
-248.630831
 30
0.0
  0
VERTEX
  8
0
  6
CONTINUOUS
 62
     3
  5
363
 10
-4.09589
 20
-248.716216
 30
0.0
  0
VERTEX
  8
0
  6
CONTINUOUS
 62
     3
  5
364
 10
-3.513694
 20
-248.790669
 30
0.0
  0
VERTEX
  8
0
  6
CONTINUOUS
 62
     3
  5
365
 10
-2.930144
 20
-248.85405
 30
0.0
  0
VERTEX
  8
0
  6
CONTINUOUS
 62
     3
  5
366
 10
-2.345468
 20
-248.90622
 30
0.0
  0
VERTEX
  8
0
  6
CONTINUOUS
 62
     3
  5
367
 10
-1.75989
 20
-248.947039
 30
0.0
  0
VERTEX
  8
0
  6
CONTINUOUS
 62
     3
  5
368
 10
-1.173636
 20
-248.976369
 30
0.0
  0
VERTEX
  8
0
  6
CONTINUOUS
 62
     3
  5
369
 10
-0.586931
 20
-248.994069
 30
0.0
  0
VERTEX
  8
0
  6
CONTINUOUS
 62
     3
  5
36A
 10
0.0
 20
-249.0
 30
0.0
  0
VERTEX
  8
0
  6
CONTINUOUS
 62
     3
  5
36B
 10
0.586931
 20
-248.994069
 30
0.0
  0
VERTEX
  8
0
  6
CONTINUOUS
 62
     3
  5
36C
 10
1.173636
 20
-248.976369
 30
0.0
  0
VERTEX
  8
0
  6
CONTINUOUS
 62
     3
  5
36D
 10
1.75989
 20
-248.947039
 30
0.0
  0
VERTEX
  8
0
  6
CONTINUOUS
 62
     3
  5
36E
 10
2.345468
 20
-248.90622
 30
0.0
  0
VERTEX
  8
0
  6
CONTINUOUS
 62
     3
  5
36F
 10
2.930144
 20
-248.85405
 30
0.0
  0
VERTEX
  8
0
  6
CONTINUOUS
 62
     3
  5
370
 10
3.513694
 20
-248.790669
 30
0.0
  0
VERTEX
  8
0
  6
CONTINUOUS
 62
     3
  5
371
 10
4.09589
 20
-248.716216
 30
0.0
  0
VERTEX
  8
0
  6
CONTINUOUS
 62
     3
  5
372
 10
4.676509
 20
-248.630831
 30
0.0
  0
VERTEX
  8
0
  6
CONTINUOUS
 62
     3
  5
373
 10
5.255325
 20
-248.534654
 30
0.0
  0
VERTEX
  8
0
  6
CONTINUOUS
 62
     3
  5
374
 10
5.832111
 20
-248.427824
 30
0.0
  0
VERTEX
  8
0
  6
CONTINUOUS
 62
     3
  5
375
 10
6.406644
 20
-248.31048
 30
0.0
  0
VERTEX
  8
0
  6
CONTINUOUS
 62
     3
  5
376
 10
6.978697
 20
-248.182761
 30
0.0
  0
VERTEX
  8
0
  6
CONTINUOUS
 62
     3
  5
377
 10
7.548045
 20
-248.044809
 30
0.0
  0
VERTEX
  8
0
  6
CONTINUOUS
 62
     3
  5
378
 10
8.114462
 20
-247.896761
 30
0.0
  0
VERTEX
  8
0
  6
CONTINUOUS
 62
     3
  5
379
 10
8.677724
 20
-247.738757
 30
0.0
  0
VERTEX
  8
0
  6
CONTINUOUS
 62
     3
  5
37A
 10
9.237604
 20
-247.570938
 30
0.0
  0
SEQEND
  8
0
  6
CONTINUOUS
 62
     3
  5
37B
  0
POLYLINE
  8
0
  6
CONTINUOUS
 62
     3
  5
1A3
 66
     1
 10
0.0
 20
0.0
 30
0.0
  0
VERTEX
  8
0
  6
CONTINUOUS
 62
     3
  5
37C
 10
-9.237604
 20
-237.429062
 30
0.0
  0
VERTEX
  8
0
  6
CONTINUOUS
 62
     3
  5
37D
 10
-8.677724
 20
-237.261243
 30
0.0
  0
VERTEX
  8
0
  6
CONTINUOUS
 62
     3
  5
37E
 10
-8.114462
 20
-237.103239
 30
0.0
  0
VERTEX
  8
0
  6
CONTINUOUS
 62
     3
  5
37F
 10
-7.548045
 20
-236.955191
 30
0.0
  0
VERTEX
  8
0
  6
CONTINUOUS
 62
     3
  5
380
 10
-6.978697
 20
-236.817239
 30
0.0
  0
VERTEX
  8
0
  6
CONTINUOUS
 62
     3
  5
381
 10
-6.406644
 20
-236.68952
 30
0.0
  0
VERTEX
  8
0
  6
CONTINUOUS
 62
     3
  5
382
 10
-5.832111
 20
-236.572176
 30
0.0
  0
VERTEX
  8
0
  6
CONTINUOUS
 62
     3
  5
383
 10
-5.255325
 20
-236.465346
 30
0.0
  0
VERTEX
  8
0
  6
CONTINUOUS
 62
     3
  5
384
 10
-4.676509
 20
-236.369169
 30
0.0
  0
VERTEX
  8
0
  6
CONTINUOUS
 62
     3
  5
385
 10
-4.09589
 20
-236.283784
 30
0.0
  0
VERTEX
  8
0
  6
CONTINUOUS
 62
     3
  5
386
 10
-3.513694
 20
-236.209331
 30
0.0
  0
VERTEX
  8
0
  6
CONTINUOUS
 62
     3
  5
387
 10
-2.930144
 20
-236.14595
 30
0.0
  0
VERTEX
  8
0
  6
CONTINUOUS
 62
     3
  5
388
 10
-2.345468
 20
-236.09378
 30
0.0
  0
VERTEX
  8
0
  6
CONTINUOUS
 62
     3
  5
389
 10
-1.75989
 20
-236.052961
 30
0.0
  0
VERTEX
  8
0
  6
CONTINUOUS
 62
     3
  5
38A
 10
-1.173636
 20
-236.023631
 30
0.0
  0
VERTEX
  8
0
  6
CONTINUOUS
 62
     3
  5
38B
 10
-0.586931
 20
-236.005931
 30
0.0
  0
VERTEX
  8
0
  6
CONTINUOUS
 62
     3
  5
38C
 10
0.0
 20
-236.0
 30
0.0
  0
VERTEX
  8
0
  6
CONTINUOUS
 62
     3
  5
38D
 10
0.586931
 20
-236.005931
 30
0.0
  0
VERTEX
  8
0
  6
CONTINUOUS
 62
     3
  5
38E
 10
1.173636
 20
-236.023631
 30
0.0
  0
VERTEX
  8
0
  6
CONTINUOUS
 62
     3
  5
38F
 10
1.75989
 20
-236.052961
 30
0.0
  0
VERTEX
  8
0
  6
CONTINUOUS
 62
     3
  5
390
 10
2.345468
 20
-236.09378
 30
0.0
  0
VERTEX
  8
0
  6
CONTINUOUS
 62
     3
  5
391
 10
2.930144
 20
-236.14595
 30
0.0
  0
VERTEX
  8
0
  6
CONTINUOUS
 62
     3
  5
392
 10
3.513694
 20
-236.209331
 30
0.0
  0
VERTEX
  8
0
  6
CONTINUOUS
 62
     3
  5
393
 10
4.09589
 20
-236.283784
 30
0.0
  0
VERTEX
  8
0
  6
CONTINUOUS
 62
     3
  5
394
 10
4.676509
 20
-236.369169
 30
0.0
  0
VERTEX
  8
0
  6
CONTINUOUS
 62
     3
  5
395
 10
5.255325
 20
-236.465346
 30
0.0
  0
VERTEX
  8
0
  6
CONTINUOUS
 62
     3
  5
396
 10
5.832111
 20
-236.572176
 30
0.0
  0
VERTEX
  8
0
  6
CONTINUOUS
 62
     3
  5
397
 10
6.406644
 20
-236.68952
 30
0.0
  0
VERTEX
  8
0
  6
CONTINUOUS
 62
     3
  5
398
 10
6.978697
 20
-236.817239
 30
0.0
  0
VERTEX
  8
0
  6
CONTINUOUS
 62
     3
  5
399
 10
7.548045
 20
-236.955191
 30
0.0
  0
VERTEX
  8
0
  6
CONTINUOUS
 62
     3
  5
39A
 10
8.114462
 20
-237.103239
 30
0.0
  0
VERTEX
  8
0
  6
CONTINUOUS
 62
     3
  5
39B
 10
8.677724
 20
-237.261243
 30
0.0
  0
VERTEX
  8
0
  6
CONTINUOUS
 62
     3
  5
39C
 10
9.237604
 20
-237.429062
 30
0.0
  0
SEQEND
  8
0
  6
CONTINUOUS
 62
     3
  5
39D
  0
POLYLINE
  8
0
  6
CONTINUOUS
 62
     3
  5
1A4
 66
     1
 10
0.0
 20
0.0
 30
0.0
  0
VERTEX
  8
0
  6
CONTINUOUS
 62
     3
  5
39E
 10
-18.475209
 20
-237.429062
 30
0.0
  0
VERTEX
  8
0
  6
CONTINUOUS
 62
     3
  5
39F
 10
-18.215339
 20
-237.273262
 30
0.0
  0
VERTEX
  8
0
  6
CONTINUOUS
 62
     3
  5
3A0
 10
-17.949893
 20
-237.124179
 30
0.0
  0
VERTEX
  8
0
  6
CONTINUOUS
 62
     3
  5
3A1
 10
-17.679245
 20
-236.982274
 30
0.0
  0
VERTEX
  8
0
  6
CONTINUOUS
 62
     3
  5
3A2
 10
-17.403764
 20
-236.848007
 30
0.0
  0
VERTEX
  8
0
  6
CONTINUOUS
 62
     3
  5
3A3
 10
-17.123823
 20
-236.721838
 30
0.0
  0
VERTEX
  8
0
  6
CONTINUOUS
 62
     3
  5
3A4
 10
-16.839794
 20
-236.604227
 30
0.0
  0
VERTEX
  8
0
  6
CONTINUOUS
 62
     3
  5
3A5
 10
-16.552048
 20
-236.495633
 30
0.0
  0
VERTEX
  8
0
  6
CONTINUOUS
 62
     3
  5
3A6
 10
-16.260957
 20
-236.396518
 30
0.0
  0
VERTEX
  8
0
  6
CONTINUOUS
 62
     3
  5
3A7
 10
-15.966893
 20
-236.307341
 30
0.0
  0
VERTEX
  8
0
  6
CONTINUOUS
 62
     3
  5
3A8
 10
-15.670227
 20
-236.228561
 30
0.0
  0
VERTEX
  8
0
  6
CONTINUOUS
 62
     3
  5
3A9
 10
-15.37133
 20
-236.16064
 30
0.0
  0
VERTEX
  8
0
  6
CONTINUOUS
 62
     3
  5
3AA
 10
-15.070576
 20
-236.104036
 30
0.0
  0
VERTEX
  8
0
  6
CONTINUOUS
 62
     3
  5
3AB
 10
-14.768334
 20
-236.05921
 30
0.0
  0
VERTEX
  8
0
  6
CONTINUOUS
 62
     3
  5
3AC
 10
-14.464978
 20
-236.026622
 30
0.0
  0
VERTEX
  8
0
  6
CONTINUOUS
 62
     3
  5
3AD
 10
-14.160878
 20
-236.006732
 30
0.0
  0
VERTEX
  8
0
  6
CONTINUOUS
 62
     3
  5
3AE
 10
-13.856406
 20
-236.0
 30
0.0
  0
VERTEX
  8
0
  6
CONTINUOUS
 62
     3
  5
3AF
 10
-13.551935
 20
-236.006732
 30
0.0
  0
VERTEX
  8
0
  6
CONTINUOUS
 62
     3
  5
3B0
 10
-13.247835
 20
-236.026622
 30
0.0
  0
VERTEX
  8
0
  6
CONTINUOUS
 62
     3
  5
3B1
 10
-12.944479
 20
-236.05921
 30
0.0
  0
VERTEX
  8
0
  6
CONTINUOUS
 62
     3
  5
3B2
 10
-12.642237
 20
-236.104036
 30
0.0
  0
VERTEX
  8
0
  6
CONTINUOUS
 62
     3
  5
3B3
 10
-12.341483
 20
-236.16064
 30
0.0
  0
VERTEX
  8
0
  6
CONTINUOUS
 62
     3
  5
3B4
 10
-12.042586
 20
-236.228561
 30
0.0
  0
VERTEX
  8
0
  6
CONTINUOUS
 62
     3
  5
3B5
 10
-11.74592
 20
-236.307341
 30
0.0
  0
VERTEX
  8
0
  6
CONTINUOUS
 62
     3
  5
3B6
 10
-11.451856
 20
-236.396518
 30
0.0
  0
VERTEX
  8
0
  6
CONTINUOUS
 62
     3
  5
3B7
 10
-11.160765
 20
-236.495633
 30
0.0
  0
VERTEX
  8
0
  6
CONTINUOUS
 62
     3
  5
3B8
 10
-10.873019
 20
-236.604227
 30
0.0
  0
VERTEX
  8
0
  6
CONTINUOUS
 62
     3
  5
3B9
 10
-10.588989
 20
-236.721838
 30
0.0
  0
VERTEX
  8
0
  6
CONTINUOUS
 62
     3
  5
3BA
 10
-10.309049
 20
-236.848007
 30
0.0
  0
VERTEX
  8
0
  6
CONTINUOUS
 62
     3
  5
3BB
 10
-10.033568
 20
-236.982274
 30
0.0
  0
VERTEX
  8
0
  6
CONTINUOUS
 62
     3
  5
3BC
 10
-9.76292
 20
-237.124179
 30
0.0
  0
VERTEX
  8
0
  6
CONTINUOUS
 62
     3
  5
3BD
 10
-9.497474
 20
-237.273262
 30
0.0
  0
VERTEX
  8
0
  6
CONTINUOUS
 62
     3
  5
3BE
 10
-9.237604
 20
-237.429062
 30
0.0
  0
SEQEND
  8
0
  6
CONTINUOUS
 62
     3
  5
3BF
  0
LINE
  8
0
  6
CONTINUOUS
 62
    50
  5
1A5
 10
-16.0
 20
-274.0
 30
0.0
 11
-16.0
 21
-319.0
 31
0.0
  0
LINE
  8
0
  6
CONTINUOUS
 62
    50
  5
1A6
 10
16.0
 20
-274.0
 30
0.0
 11
16.0
 21
-319.0
 31
0.0
  0
LINE
  8
0
  6
CONTINUOUS
 62
    50
  5
1A7
 10
-16.0
 20
-254.0
 30
0.0
 11
-16.0
 21
-258.0
 31
0.0
  0
LINE
  8
0
  6
CONTINUOUS
 62
    50
  5
1A8
 10
16.0
 20
-254.0
 30
0.0
 11
16.0
 21
-258.0
 31
0.0
  0
ARC
  8
0
  6
CONTINUOUS
 62
    50
  5
1A9
 10
0.0
 20
-319.0
 30
0.0
 40
16.0
 50
180.0
 51
0.0
  0
CIRCLE
  8
0
  6
CONTINUOUS
 62
    50
  5
1AA
 10
0.0
 20
-319.0
 30
0.0
 40
5.5
  0
LINE
  8
0
  6
PHANTOM
 62
    50
  5
1AC
 10
18.5
 20
-254.0
 30
0.0
 11
52.0
 21
-254.0
 31
0.0
  0
LINE
  8
0
  6
PHANTOM
 62
    50
  5
1AD
 10
18.5
 20
-258.0
 30
0.0
 11
51.0
 21
-258.0
 31
0.0
  0
LINE
  8
0
  6
CONTINUOUS
 62
    50
  5
1AE
 10
16.0
 20
-254.0
 30
0.0
 11
-18.5
 21
-254.0
 31
0.0
  0
LINE
  8
0
  6
CONTINUOUS
 62
    50
  5
1AF
 10
16.0
 20
-258.0
 30
0.0
 11
-18.5
 21
-258.0
 31
0.0
  0
LINE
  8
0
  6
PHANTOM
 62
    50
  5
1B0
 10
60.0
 20
-262.0
 30
0.0
 11
60.0
 21
-335.0
 31
0.0
  0
LINE
  8
0
  6
PHANTOM
 62
    50
  5
1B1
 10
56.0
 20
-263.0
 30
0.0
 11
56.0
 21
-335.0
 31
0.0
  0
LINE
  8
0
  6
PHANTOM
 62
    50
  5
1B2
 10
56.0
 20
-335.0
 30
0.0
 11
60.0
 21
-335.0
 31
0.0
  0
ARC
  8
0
  6
PHANTOM
 62
    50
  5
1B3
 10
51.0
 20
-263.0
 30
0.0
 40
5.0
 50
0.0
 51
90.0
  0
ARC
  8
0
  6
PHANTOM
 62
    50
  5
1B4
 10
52.0
 20
-262.0
 30
0.0
 40
8.0
 50
0.0
 51
90.0
  0
LINE
  8
0
  6
CONTINUOUS
 62
     3
  5
1B5
 10
-18.5
 20
-258.0
 30
0.0
 11
18.5
 21
-258.0
 31
0.0
  0
LINE
  8
0
  6
CONTINUOUS
 62
     3
  5
1B6
 10
-18.5
 20
-254.0
 30
0.0
 11
18.5
 21
-254.0
 31
0.0
  0
LINE
  8
0
  6
CONTINUOUS
 62
     3
  5
1B7
 10
10.0
 20
-285.0
 30
0.0
 11
10.0
 21
-284.0
 31
0.0
  0
LINE
  8
0
  6
CONTINUOUS
 62
     3
  5
1B8
 10
9.0
 20
-286.0
 30
0.0
 11
9.0
 21
-287.0
 31
0.0
  0
LINE
  8
0
  6
CONTINUOUS
 62
     3
  5
1B9
 10
11.85
 20
-283.0
 30
0.0
 11
11.85
 21
-283.3
 31
0.0
  0
LINE
  8
0
  6
CONTINUOUS
 62
     3
  5
1BA
 10
10.0
 20
-284.0
 30
0.0
 11
11.85
 21
-283.3
 31
0.0
  0
LINE
  8
0
  6
CONTINUOUS
 62
     3
  5
1BB
 10
10.0
 20
-283.0
 30
0.0
 11
10.0
 21
-282.0
 31
0.0
  0
ARC
  8
0
  6
CONTINUOUS
 62
     3
  5
1BC
 10
9.0
 20
-285.0
 30
0.0
 40
1.0
 50
270.0
 51
0.0
  0
LINE
  8
0
  6
CONTINUOUS
 62
     3
  5
1BD
 10
-10.0
 20
-282.0
 30
0.0
 11
10.0
 21
-282.0
 31
0.0
  0
LINE
  8
0
  6
CONTINUOUS
 62
     3
  5
1BE
 10
-9.0
 20
-286.0
 30
0.0
 11
9.0
 21
-286.0
 31
0.0
  0
LINE
  8
0
  6
CONTINUOUS
 62
     3
  5
1BF
 10
-11.85
 20
-283.3
 30
0.0
 11
11.85
 21
-283.3
 31
0.0
  0
ARC
  8
0
  6
CONTINUOUS
 62
     3
  5
1C0
 10
-9.0
 20
-285.0
 30
0.0
 40
1.0
 50
180.0
 51
270.0
  0
LINE
  8
0
  6
CONTINUOUS
 62
     3
  5
1C1
 10
-10.0
 20
-283.0
 30
0.0
 11
-10.0
 21
-282.0
 31
0.0
  0
LINE
  8
0
  6
CONTINUOUS
 62
     3
  5
1C2
 10
-10.0
 20
-284.0
 30
0.0
 11
-11.85
 21
-283.3
 31
0.0
  0
LINE
  8
0
  6
CONTINUOUS
 62
     3
  5
1C3
 10
-11.85
 20
-283.0
 30
0.0
 11
-11.85
 21
-283.3
 31
0.0
  0
LINE
  8
0
  6
CONTINUOUS
 62
     3
  5
1C4
 10
-9.0
 20
-286.0
 30
0.0
 11
-9.0
 21
-287.0
 31
0.0
  0
LINE
  8
0
  6
CONTINUOUS
 62
     3
  5
1C5
 10
-11.85
 20
-283.0
 30
0.0
 11
11.85
 21
-283.0
 31
0.0
  0
LINE
  8
0
  6
CONTINUOUS
 62
     3
  5
1C6
 10
-10.0
 20
-285.0
 30
0.0
 11
-10.0
 21
-284.0
 31
0.0
  0
LINE
  8
0
  6
CONTINUOUS
 62
     3
  5
1C7
 10
-9.0
 20
-287.0
 30
0.0
 11
9.0
 21
-287.0
 31
0.0
  0
LINE
  8
0
  6
CONTINUOUS
 62
     3
  5
1C8
 10
-10.0
 20
-284.0
 30
0.0
 11
10.0
 21
-284.0
 31
0.0
  0
LINE
  8
0
  6
CONTINUOUS
 62
     3
  5
1C9
 10
-18.5
 20
-261.0
 30
0.0
 11
18.5
 21
-261.0
 31
0.0
  0
LINE
  8
0
  6
CONTINUOUS
 62
     3
  5
1CA
 10
9.237604
 20
-262.429062
 30
0.0
 11
9.237604
 21
-272.570938
 31
0.0
  0
LINE
  8
0
  6
CONTINUOUS
 62
     3
  5
1CB
 10
18.5
 20
-258.0
 30
0.0
 11
18.5
 21
-261.0
 31
0.0
  0
LINE
  8
0
  6
CONTINUOUS
 62
     3
  5
1CC
 10
-18.475209
 20
-262.429062
 30
0.0
 11
-18.475209
 21
-272.570938
 31
0.0
  0
LINE
  8
0
  6
CONTINUOUS
 62
     3
  5
1CD
 10
-18.475209
 20
-272.570938
 30
0.0
 11
-16.0
 21
-274.0
 31
0.0
  0
LINE
  8
0
  6
CONTINUOUS
 62
     3
  5
1CE
 10
-16.0
 20
-274.0
 30
0.0
 11
16.0
 21
-274.0
 31
0.0
  0
LINE
  8
0
  6
CONTINUOUS
 62
     3
  5
1CF
 10
-18.5
 20
-258.0
 30
0.0
 11
-18.5
 21
-261.0
 31
0.0
  0
LINE
  8
0
  6
CONTINUOUS
 62
     3
  5
1D0
 10
-9.237604
 20
-262.429062
 30
0.0
 11
-9.237604
 21
-272.570938
 31
0.0
  0
LINE
  8
0
  6
CONTINUOUS
 62
     3
  5
1D1
 10
-18.475209
 20
-262.429062
 30
0.0
 11
-16.0
 21
-261.0
 31
0.0
  0
LINE
  8
0
  6
CONTINUOUS
 62
     3
  5
1D2
 10
18.475209
 20
-262.429062
 30
0.0
 11
16.0
 21
-261.0
 31
0.0
  0
LINE
  8
0
  6
CONTINUOUS
 62
     3
  5
1D3
 10
18.475209
 20
-272.570938
 30
0.0
 11
16.0
 21
-274.0
 31
0.0
  0
LINE
  8
0
  6
CONTINUOUS
 62
     3
  5
1D4
 10
18.475209
 20
-262.429062
 30
0.0
 11
18.475209
 21
-272.570938
 31
0.0
  0
LINE
  8
0
  6
CONTINUOUS
 62
     3
  5
1D5
 10
18.5
 20
-254.0
 30
0.0
 11
18.5
 21
-249.0
 31
0.0
  0
LINE
  8
0
  6
CONTINUOUS
 62
     3
  5
1D6
 10
-18.5
 20
-254.0
 30
0.0
 11
-18.5
 21
-249.0
 31
0.0
  0
LINE
  8
0
  6
CONTINUOUS
 62
     3
  5
1D7
 10
18.475209
 20
-247.570938
 30
0.0
 11
18.475209
 21
-237.429062
 31
0.0
  0
LINE
  8
0
  6
CONTINUOUS
 62
     3
  5
1D8
 10
18.475209
 20
-237.429062
 30
0.0
 11
16.0
 21
-236.0
 31
0.0
  0
LINE
  8
0
  6
CONTINUOUS
 62
     3
  5
1D9
 10
18.475209
 20
-247.570938
 30
0.0
 11
16.0
 21
-249.0
 31
0.0
  0
LINE
  8
0
  6
CONTINUOUS
 62
     3
  5
1DA
 10
-18.475209
 20
-247.570938
 30
0.0
 11
-16.0
 21
-249.0
 31
0.0
  0
LINE
  8
0
  6
CONTINUOUS
 62
     3
  5
1DB
 10
9.237604
 20
-247.570938
 30
0.0
 11
9.237604
 21
-237.429062
 31
0.0
  0
LINE
  8
0
  6
CONTINUOUS
 62
     3
  5
1DC
 10
-18.475209
 20
-237.429062
 30
0.0
 11
-16.0
 21
-236.0
 31
0.0
  0
LINE
  8
0
  6
CONTINUOUS
 62
     3
  5
1DD
 10
-18.475209
 20
-247.570938
 30
0.0
 11
-18.475209
 21
-237.429062
 31
0.0
  0
LINE
  8
0
  6
CONTINUOUS
 62
     3
  5
1DE
 10
-9.237604
 20
-247.570938
 30
0.0
 11
-9.237604
 21
-237.429062
 31
0.0
  0
LINE
  8
0
  6
CONTINUOUS
 62
    80
  5
1DF
 10
-9.5
 20
-282.0
 30
0.0
 11
-9.5
 21
-274.0
 31
0.0
  0
LINE
  8
0
  6
CONTINUOUS
 62
    80
  5
1E0
 10
9.5
 20
-282.0
 30
0.0
 11
9.5
 21
-274.0
 31
0.0
  0
LINE
  8
0
  6
CONTINUOUS
 62
    80
  5
1E1
 10
-11.0
 20
-280.5
 30
0.0
 11
11.0
 21
-280.5
 31
0.0
  0
LINE
  8
0
  6
CONTINUOUS
 62
     3
  5
1E2
 10
-9.5
 20
-282.0
 30
0.0
 11
-11.0
 21
-280.5
 31
0.0
  0
LINE
  8
0
  6
CONTINUOUS
 62
     3
  5
1E3
 10
9.5
 20
-282.0
 30
0.0
 11
11.0
 21
-280.5
 31
0.0
  0
LINE
  8
0
  6
CONTINUOUS
 62
     3
  5
1E4
 10
-11.0
 20
-280.5
 30
0.0
 11
-11.0
 21
-274.0
 31
0.0
  0
LINE
  8
0
  6
CONTINUOUS
 62
     3
  5
1E5
 10
11.0
 20
-280.5
 30
0.0
 11
11.0
 21
-274.0
 31
0.0
  0
LINE
  8
0
  6
CONTINUOUS
 62
     3
  5
1E6
 10
-16.0
 20
-236.0
 30
0.0
 11
16.0
 21
-236.0
 31
0.0
  0
LINE
  8
0
  6
CONTINUOUS
 62
     3
  5
1E7
 10
-18.5
 20
-252.0
 30
0.0
 11
18.5
 21
-252.0
 31
0.0
  0
LINE
  8
0
  6
CONTINUOUS
 62
     3
  5
1E8
 10
-18.5
 20
-249.0
 30
0.0
 11
18.5
 21
-249.0
 31
0.0
  0
LINE
  8
0
  6
CENTER
 62
    50
  5
1EA
 10
-10.5
 20
-319.0
 30
0.0
 11
64.9
 21
-319.0
 31
0.0
  0
LINE
  8
0
  6
CENTER
 62
    50
  5
1EB
 10
-10.6
 20
-284.1
 30
0.0
 11
64.9
 21
-284.1
 31
0.0
  0
ARC
  8
0
  6
CONTINUOUS
 62
     3
  5
1EC
 10
-0.1
 20
-284.1
 30
0.0
 40
5.5
 50
178.958201
 51
1.041799
  0
LINE
  8
0
  6
CONTINUOUS
 62
     3
  5
1ED
 10
11.0
 20
-236.0
 30
0.0
 11
11.0
 21
0.0
 31
0.0
  0
LINE
  8
0
  6
CONTINUOUS
 62
     3
  5
1EE
 10
-11.0
 20
-236.0
 30
0.0
 11
-11.0
 21
0.0
 31
0.0
  0
ENDBLK
  8
0
  5
1EF
  0
BLOCK
  8
0
  5
1F0
  2
MS_7
 70
     0
 10
0.0
 20
0.0
 30
0.0
  3
MS_7
  0
CIRCLE
  8
0
  6
CONTINUOUS
 62
     3
  5
1F1
 10
0.0
 20
0.0
 30
0.0
 40
27.5
  0
CIRCLE
  8
0
  6
CONTINUOUS
 62
     3
  5
1F2
 10
0.0
 20
0.0
 30
0.0
 40
26.5
  0
CIRCLE
  8
0
  6
CONTINUOUS
 62
     3
  5
1F3
 10
0.0
 20
0.0
 30
0.0
 40
26.0
  0
CIRCLE
  8
0
  6
CONTINUOUS
 62
     3
  5
1F4
 10
0.0
 20
0.0
 30
0.0
 40
28.0
  0
CIRCLE
  8
0
  6
CONTINUOUS
 62
    80
  5
1F5
 10
0.0
 20
0.0
 30
0.0
 40
5.0
  0
CIRCLE
  8
0
  6
CONTINUOUS
 62
    80
  5
1F6
 10
0.0
 20
0.0
 30
0.0
 40
6.0
  0
CIRCLE
  8
0
  6
CONTINUOUS
 62
    80
  5
1F7
 10
0.0
 20
0.0
 30
0.0
 40
10.0
  0
CIRCLE
  8
0
  6
CONTINUOUS
 62
    80
  5
1F8
 10
0.0
 20
0.0
 30
0.0
 40
11.0
  0
CIRCLE
  8
0
  6
CONTINUOUS
 62
    80
  5
1F9
 10
0.0
 20
0.0
 30
0.0
 40
15.0
  0
CIRCLE
  8
0
  6
CONTINUOUS
 62
    80
  5
1FA
 10
0.0
 20
0.0
 30
0.0
 40
16.0
  0
CIRCLE
  8
0
  6
CONTINUOUS
 62
    80
  5
1FB
 10
0.0
 20
0.0
 30
0.0
 40
20.0
  0
CIRCLE
  8
0
  6
CONTINUOUS
 62
    80
  5
1FC
 10
0.0
 20
0.0
 30
0.0
 40
21.0
  0
CIRCLE
  8
0
  6
CONTINUOUS
 62
    80
  5
1FD
 10
0.0
 20
0.0
 30
0.0
 40
25.0
  0
ENDBLK
  8
0
  5
1FE
  0
ENDSEC
  0
SECTION
  2
ENTITIES
  0
INSERT
  8
LY_1
  6
BYBLOCK
  5
1FF
  2
MS_2
 10
300.100001
 20
341.000013
 30
0.0
  0
INSERT
  8
LY_1
  6
BYBLOCK
  5
200
  2
MS_2
 10
500.100001
 20
341.000013
 30
0.0
  0
INSERT
  8
LY_1
  6
BYBLOCK
  5
201
  2
MS_2
 10
700.100001
 20
341.000013
 30
0.0
  0
INSERT
  8
LY_1
  6
BYBLOCK
  5
202
  2
MS_2
 10
900.100001
 20
341.000013
 30
0.0
  0
INSERT
  8
LY_1
  6
BYBLOCK
  5
203
  2
MS_2
 10
1100.100001
 20
341.000013
 30
0.0
  0
INSERT
  8
LY_1
  6
BYBLOCK
  5
204
  2
MS_1
 10
1100.100001
 20
564.000013
 30
0.0
  0
INSERT
  8
LY_1
  6
BYBLOCK
  5
205
  2
MS_1
 10
900.100001
 20
564.000013
 30
0.0
  0
INSERT
  8
LY_1
  6
BYBLOCK
  5
206
  2
MS_1
 10
700.100001
 20
564.000013
 30
0.0
  0
INSERT
  8
LY_1
  6
BYBLOCK
  5
207
  2
MS_1
 10
500.100001
 20
564.000013
 30
0.0
  0
INSERT
  8
LY_1
  6
BYBLOCK
  5
208
  2
MS_1
 10
300.100001
 20
564.000013
 30
0.0
  0
POINT
  8
LY_1
  6
CONTINUOUS
 62
    80
  5
209
 10
300.100001
 20
1031.000013
 30
0.0
  0
INSERT
  8
LY_1
  6
BYBLOCK
  5
20A
  2
MS_7
 10
300.100001
 20
1031.000013
 30
0.0
  0
POINT
  8
LY_1
  6
CONTINUOUS
 62
    80
  5
20B
 10
500.100001
 20
1031.000013
 30
0.0
  0
INSERT
  8
LY_1
  6
BYBLOCK
  5
20C
  2
MS_7
 10
500.100001
 20
1031.000013
 30
0.0
  0
POINT
  8
LY_1
  6
CONTINUOUS
 62
    80
  5
20D
 10
700.100001
 20
1031.000013
 30
0.0
  0
INSERT
  8
LY_1
  6
BYBLOCK
  5
20E
  2
MS_7
 10
700.100001
 20
1031.000013
 30
0.0
  0
POINT
  8
LY_1
  6
CONTINUOUS
 62
    80
  5
20F
 10
900.100001
 20
1031.000013
 30
0.0
  0
INSERT
  8
LY_1
  6
BYBLOCK
  5
210
  2
MS_7
 10
900.100001
 20
1031.000013
 30
0.0
  0
INSERT
  8
LY_1
  6
BYBLOCK
  5
211
  2
MS_7
 10
1100.100001
 20
1031.000013
 30
0.0
  0
POINT
  8
LY_1
  6
CONTINUOUS
 62
    80
  5
212
 10
1100.100001
 20
1031.000013
 30
0.0
  0
INSERT
  8
LY_1
  6
BYBLOCK
  5
213
  2
MS_3
 10
1100.100001
 20
914.000013
 30
0.0
  0
INSERT
  8
LY_1
  6
BYBLOCK
  5
214
  2
MS_4
 10
1100.100001
 20
844.000013
 30
0.0
  0
INSERT
  8
LY_1
  6
BYBLOCK
  5
215
  2
MS_4
 10
1100.100001
 20
774.000013
 30
0.0
  0
INSERT
  8
LY_1
  6
BYBLOCK
  5
216
  2
MS_4
 10
1100.100001
 20
704.000013
 30
0.0
  0
INSERT
  8
LY_1
  6
BYBLOCK
  5
217
  2
MS_4
 10
1100.100001
 20
634.000013
 30
0.0
  0
INSERT
  8
LY_1
  6
BYBLOCK
  5
218
  2
MS_4
 10
1100.100001
 20
564.000013
 30
0.0
  0
INSERT
  8
LY_1
  6
BYBLOCK
  5
219
  2
MS_3
 10
900.100001
 20
844.000013
 30
0.0
  0
INSERT
  8
LY_1
  6
BYBLOCK
  5
21A
  2
MS_4
 10
900.100001
 20
774.000013
 30
0.0
  0
INSERT
  8
LY_1
  6
BYBLOCK
  5
21B
  2
MS_4
 10
900.100001
 20
704.000013
 30
0.0
  0
INSERT
  8
LY_1
  6
BYBLOCK
  5
21C
  2
MS_4
 10
900.100001
 20
634.000013
 30
0.0
  0
INSERT
  8
LY_1
  6
BYBLOCK
  5
21D
  2
MS_4
 10
900.100001
 20
564.000013
 30
0.0
  0
INSERT
  8
LY_1
  6
BYBLOCK
  5
21E
  2
MS_3
 10
700.100001
 20
774.000013
 30
0.0
  0
INSERT
  8
LY_1
  6
BYBLOCK
  5
21F
  2
MS_4
 10
700.100001
 20
704.000013
 30
0.0
  0
INSERT
  8
LY_1
  6
BYBLOCK
  5
220
  2
MS_4
 10
700.100001
 20
634.000013
 30
0.0
  0
INSERT
  8
LY_1
  6
BYBLOCK
  5
221
  2
MS_4
 10
700.100001
 20
564.000013
 30
0.0
  0
INSERT
  8
LY_1
  6
BYBLOCK
  5
222
  2
MS_3
 10
500.100001
 20
704.000013
 30
0.0
  0
INSERT
  8
LY_1
  6
BYBLOCK
  5
223
  2
MS_4
 10
500.100001
 20
634.000013
 30
0.0
  0
INSERT
  8
LY_1
  6
BYBLOCK
  5
224
  2
MS_4
 10
500.100001
 20
564.000013
 30
0.0
  0
INSERT
  8
LY_1
  6
BYBLOCK
  5
225
  2
MS_4
 10
300.100001
 20
564.000013
 30
0.0
  0
INSERT
  8
LY_1
  6
BYBLOCK
  5
226
  2
MS_3
 10
300.100001
 20
634.000013
 30
0.0
  0
ENDSEC
  0
EOF
