  0
SECTION
  2
HEADER
  9
$ACADVER
  1
AC1009
  9
$DWGCODEPAGE
  3
dos932
  9
$INSBASE
 10
0.0
 20
0.0
 30
0.0
  9
$EXTMIN
 10
44.769362
 20
180.952313
 30
0.0
  9
$EXTMAX
 10
896.769362
 20
720.952313
 30
0.0
  9
$LIMMIN
 10
44.769362
 20
180.952313
  9
$LIMMAX
 10
896.769362
 20
720.952313
  9
$ORTHOMODE
 70
     0
  9
$REGENMODE
 70
     1
  9
$FILLMODE
 70
     1
  9
$QTEXTMODE
 70
     0
  9
$MIRRTEXT
 70
     1
  9
$DRAGMODE
 70
     2
  9
$LTSCALE
 40
1.0
  9
$OSMODE
 70
     0
  9
$ATTMODE
 70
     1
  9
$TEXTSIZE
 40
4.1656
  9
$TRACEWID
 40
0.05
  9
$TEXTSTYLE
  7
MX_NOTE_STANDARD
  9
$CLAYER
  8
0
  9
$CELTYPE
  6
CONTINUOUS
  9
$CECOLOR
 62
   256
  9
$DIMSCALE
 40
1.0
  9
$DIMASZ
 40
2.5
  9
$DIMEXO
 40
0.5
  9
$DIMDLI
 40
3.75
  9
$DIMRND
 40
0.0
  9
$DIMDLE
 40
0.0
  9
$DIMEXE
 40
1.0
  9
$DIMTP
 40
0.0
  9
$DIMTM
 40
0.0
  9
$DIMTXT
 40
2.5
  9
$DIMCEN
 40
2.5
  9
$DIMTSZ
 40
0.0
  9
$DIMTOL
 70
     0
  9
$DIMLIM
 70
     0
  9
$DIMTIH
 70
     0
  9
$DIMTOH
 70
     0
  9
$DIMSE1
 70
     0
  9
$DIMSE2
 70
     0
  9
$DIMTAD
 70
     1
  9
$DIMZIN
 70
     8
  9
$DIMBLK
  1

  9
$DIMASO
 70
     1
  9
$DIMSHO
 70
     1
  9
$DIMPOST
  1

  9
$DIMAPOST
  1

  9
$DIMALT
 70
     0
  9
$DIMALTD
 70
     4
  9
$DIMALTF
 40
0.03937
  9
$DIMLFAC
 40
1.0
  9
$DIMTOFL
 70
     1
  9
$DIMTVP
 40
0.0
  9
$DIMTIX
 70
     0
  9
$DIMSOXD
 70
     0
  9
$DIMSAH
 70
     0
  9
$DIMBLK1
  1

  9
$DIMBLK2
  1

  9
$DIMSTYLE
  2
MXDIMSTYLE
  9
$DIMCLRD
 70
     0
  9
$DIMCLRE
 70
     0
  9
$DIMCLRT
 70
     0
  9
$DIMTFAC
 40
1.0
  9
$DIMGAP
 40
1.0
  9
$LUNITS
 70
     2
  9
$LUPREC
 70
     4
  9
$AXISMODE
 70
     0
  9
$AXISUNIT
 10
0.0
 20
0.0
  9
$SKETCHINC
 40
0.1
  9
$FILLETRAD
 40
0.0
  9
$AUNITS
 70
     0
  9
$AUPREC
 70
     0
  9
$MENU
  1
acad
  9
$ELEVATION
 40
0.0
  9
$PELEVATION
 40
0.0
  9
$THICKNESS
 40
0.0
  9
$LIMCHECK
 70
     0
  9
$BLIPMODE
 70
     1
  9
$CHAMFERA
 40
0.0
  9
$CHAMFERB
 40
0.0
  9
$SKPOLY
 70
     0
  9
$TDCREATE
 40
2453858.567268519
  9
$TDUPDATE
 40
2453858.567268519
  9
$TDINDWG
 40
0.0000000000
  9
$TDUSRTIMER
 40
0.0000000000
  9
$USRTIMER
 70
     1
  9
$ANGBASE
 50
0.0
  9
$ANGDIR
 70
     0
  9
$PDMODE
 70
     0
  9
$PDSIZE
 40
0.0
  9
$PLINEWID
 40
0.0
  9
$COORDS
 70
     1
  9
$SPLFRAME
 70
     0
  9
$SPLINETYPE
 70
     6
  9
$SPLINESEGS
 70
     8
  9
$ATTDIA
 70
     0
  9
$ATTREQ
 70
     1
  9
$HANDLING
 70
     1
  9
$HANDSEED
  5
232
  9
$SURFTAB1
 70
     6
  9
$SURFTAB2
 70
     6
  9
$SURFTYPE
 70
     6
  9
$SURFU
 70
     6
  9
$SURFV
 70
     6
  9
$UCSNAME
  2

  9
$UCSORG
 10
0.0
 20
0.0
 30
0.0
  9
$UCSXDIR
 10
1.0
 20
0.0
 30
0.0
  9
$UCSYDIR
 10
0.0
 20
1.0
 30
0.0
  9
$PUCSNAME
  2

  9
$PUCSORG
 10
0.0
 20
0.0
 30
0.0
  9
$PUCSXDIR
 10
1.0
 20
0.0
 30
0.0
  9
$PUCSYDIR
 10
0.0
 20
1.0
 30
0.0
  9
$USERI1
 70
     0
  9
$USERI2
 70
     0
  9
$USERI3
 70
     0
  9
$USERI4
 70
     0
  9
$USERI5
 70
     0
  9
$USERR1
 40
0.0
  9
$USERR2
 40
0.0
  9
$USERR3
 40
0.0
  9
$USERR4
 40
0.0
  9
$USERR5
 40
0.0
  9
$WORLDVIEW
 70
     1
  9
$SHADEDGE
 70
     3
  9
$SHADEDIF
 70
    70
  9
$TILEMODE
 70
     1
  9
$MAXACTVP
 70
    16
  9
$PINSBASE
 10
0.0
 20
0.0
 30
0.0
  9
$PLIMCHECK
 70
     0
  9
$PEXTMIN
 10
1.000000E+20
 20
1.000000E+20
 30
1.000000E+20
  9
$PEXTMAX
 10
-1.000000E+20
 20
-1.000000E+20
 30
-1.000000E+20
  9
$PLIMMIN
 10
0.0
 20
0.0
  9
$PLIMMAX
 10
12.0
 20
9.0
  9
$UNITMODE
 70
     0
  9
$VISRETAIN
 70
     0
  9
$PLINEGEN
 70
     1
  9
$PSLTSCALE
 70
     0
  9
$TREEDEPTH
 70
  3020
  9
$DWGCODEPAGE
  3
dos932
  0
ENDSEC
  0
SECTION
  2
TABLES
  0
TABLE
  2
VPORT
 70
     1
  0
VPORT
  2
*ACTIVE
 70
     0
 10
0.0
 20
0.0
 11
1.0
 21
1.0
 12
470.769362
 22
450.952313
 13
0.0
 23
0.0
 14
1.0
 24
1.0
 15
0.0
 25
0.0
 16
0.0
 26
0.0
 36
1.0
 17
0.0
 27
0.0
 37
0.0
 40
545.4
 41
1.732051
 42
50.0
 43
0.0
 44
0.0
 50
0.0
 51
0.0
 71
     0
 72
   100
 73
     1
 74
     1
 75
     0
 76
     0
 77
     0
 78
     0
  0
ENDTAB
  0
TABLE
  2
LTYPE
 70
     3
  0
LTYPE
  2
CONTINUOUS
 70
    64
  3
Solid line
 72
    65
 73
     0
 40
0.0
  0
LTYPE
  2
CENTER
 70
    64
  3
Center ____ _ ____ _ ____ _ ____ _ ____ _ ____
 72
    65
 73
     4
 40
50.8
 49
31.75
 49
-6.35
 49
6.35
 49
-6.35
  0
LTYPE
  2
PHANTOM
 70
    64
  3
Phantom ______  __  __  ______  __  __  ______
 72
    65
 73
     6
 40
63.5
 49
31.75
 49
-6.35
 49
6.35
 49
-6.35
 49
6.35
 49
-6.35
  0
ENDTAB
  0
TABLE
  2
LAYER
 70
     5
  0
LAYER
  2
0
 70
     0
 62
     7
  6
CONTINUOUS
  0
LAYER
  2
1
 70
     0
 62
     7
  6
CONTINUOUS
  0
LAYER
  2
30
 70
     0
 62
     7
  6
CONTINUOUS
  0
LAYER
  2
_CONSTR
 70
     0
 62
     5
  6
CONTINUOUS
  0
LAYER
  2
DEFPOINTS
 70
     0
 62
     7
  6
CONTINUOUS
  0
ENDTAB
  0
TABLE
  2
STYLE
 70
     1
  0
STYLE
  2
MX_NOTE_STANDARD
 70
     0
 40
0.0
 41
1.0
 50
0.0
 71
     0
 42
4.1656
  3
txt.shx
  4
extfont.shx
  0
ENDTAB
  0
TABLE
  2
VIEW
 70
     0
  0
ENDTAB
  0
TABLE
  2
UCS
 70
     0
  0
ENDTAB
  0
TABLE
  2
APPID
 70
     1
  0
APPID
  2
ACAD
 70
     0
  0
ENDTAB
  0
TABLE
  2
DIMSTYLE
 70
     1
  0
DIMSTYLE
  2
MXDIMSTYLE
 70
     0
  3

  4

  5

  6

  7

 40
1.0
 41
2.5
 42
0.5
 43
3.75
 44
1.0
 45
0.0
 46
0.0
 47
0.0
 48
0.0
 71
     0
 72
     0
 73
     0
 74
     0
 75
     0
 76
     0
 77
     1
 78
     8
140
2.5
141
2.5
142
0.0
143
0.03937
144
1.0
145
0.0
146
1.0
147
1.0
170
     0
171
     4
172
     1
173
     0
174
     0
175
     0
176
     0
177
     0
178
     0
  0
ENDTAB
  0
ENDSEC
  0
SECTION
  2
BLOCKS
  0
BLOCK
  8
0
  5
29
  2
MS_1
 70
     0
 10
0.0
 20
0.0
 30
0.0
  3
MS_1
  0
LINE
  8
0
  6
CONTINUOUS
 62
    80
  5
2A
 10
-10.0
 20
0.0
 30
0.0
 11
-10.0
 21
-45.5
 31
0.0
  0
LINE
  8
0
  6
CONTINUOUS
 62
    80
  5
2B
 10
-15.0
 20
0.0
 30
0.0
 11
-15.0
 21
-45.5
 31
0.0
  0
LINE
  8
0
  6
CONTINUOUS
 62
    80
  5
2C
 10
-5.0
 20
0.0
 30
0.0
 11
-5.0
 21
-45.5
 31
0.0
  0
LINE
  8
0
  6
CONTINUOUS
 62
    80
  5
2D
 10
-17.5
 20
0.0
 30
0.0
 11
-17.5
 21
-45.5
 31
0.0
  0
LINE
  8
0
  6
CONTINUOUS
 62
    80
  5
2E
 10
-12.5
 20
0.0
 30
0.0
 11
-12.5
 21
-45.5
 31
0.0
  0
LINE
  8
0
  6
CONTINUOUS
 62
    80
  5
2F
 10
-7.5
 20
0.0
 30
0.0
 11
-7.5
 21
-45.5
 31
0.0
  0
LINE
  8
0
  6
CONTINUOUS
 62
    80
  5
30
 10
-2.5
 20
0.0
 30
0.0
 11
-2.5
 21
-45.5
 31
0.0
  0
LINE
  8
0
  6
CONTINUOUS
 62
    80
  5
31
 10
10.0
 20
0.0
 30
0.0
 11
10.0
 21
-45.5
 31
0.0
  0
LINE
  8
0
  6
CONTINUOUS
 62
    80
  5
32
 10
15.0
 20
0.0
 30
0.0
 11
15.0
 21
-45.5
 31
0.0
  0
LINE
  8
0
  6
CONTINUOUS
 62
    80
  5
33
 10
5.0
 20
0.0
 30
0.0
 11
5.0
 21
-45.5
 31
0.0
  0
LINE
  8
0
  6
CONTINUOUS
 62
    80
  5
34
 10
17.5
 20
0.0
 30
0.0
 11
17.5
 21
-45.5
 31
0.0
  0
LINE
  8
0
  6
CONTINUOUS
 62
    80
  5
35
 10
12.5
 20
0.0
 30
0.0
 11
12.5
 21
-45.5
 31
0.0
  0
LINE
  8
0
  6
CONTINUOUS
 62
    80
  5
36
 10
7.5
 20
0.0
 30
0.0
 11
7.5
 21
-45.5
 31
0.0
  0
LINE
  8
0
  6
CONTINUOUS
 62
    80
  5
37
 10
2.5
 20
0.0
 30
0.0
 11
2.5
 21
-45.5
 31
0.0
  0
LINE
  8
0
  6
CONTINUOUS
 62
    80
  5
38
 10
0.0
 20
0.0
 30
0.0
 11
0.0
 21
-45.5
 31
0.0
  0
LINE
  8
0
  6
CONTINUOUS
 62
     3
  5
39
 10
-20.0
 20
0.0
 30
0.0
 11
20.0
 21
0.0
 31
0.0
  0
LINE
  8
0
  6
CONTINUOUS
 62
     3
  5
3A
 10
-20.0
 20
0.0
 30
0.0
 11
20.0
 21
0.0
 31
0.0
  0
LINE
  8
0
  6
CONTINUOUS
 62
     3
  5
3B
 10
-20.0
 20
-45.5
 30
0.0
 11
20.0
 21
-45.5
 31
0.0
  0
LINE
  8
0
  6
CONTINUOUS
 62
     3
  5
3C
 10
-20.0
 20
-52.5
 30
0.0
 11
20.0
 21
-52.5
 31
0.0
  0
LINE
  8
0
  6
CONTINUOUS
 62
     3
  5
3D
 10
-20.0
 20
-52.5
 30
0.0
 11
-20.0
 21
0.0
 31
0.0
  0
LINE
  8
0
  6
CONTINUOUS
 62
     3
  5
3E
 10
20.0
 20
-52.5
 30
0.0
 11
20.0
 21
0.0
 31
0.0
  0
ENDBLK
  8
0
  5
3F
  0
BLOCK
  8
0
  5
40
  2
MS_2
 70
     0
 10
0.0
 20
0.0
 30
0.0
  3
MS_2
  0
LINE
  8
0
  6
CONTINUOUS
 62
     3
  5
41
 10
-20.0
 20
-52.75
 30
0.0
 11
20.0
 21
-52.75
 31
0.0
  0
LINE
  8
0
  6
CONTINUOUS
 62
     3
  5
42
 10
-20.0
 20
-51.25
 30
0.0
 11
20.0
 21
-51.25
 31
0.0
  0
LINE
  8
0
  6
CONTINUOUS
 62
     3
  5
43
 10
-20.0
 20
-48.75
 30
0.0
 11
20.0
 21
-48.75
 31
0.0
  0
LINE
  8
0
  6
CONTINUOUS
 62
     3
  5
44
 10
-20.0
 20
-47.25
 30
0.0
 11
20.0
 21
-47.25
 31
0.0
  0
LINE
  8
0
  6
CONTINUOUS
 62
     3
  5
45
 10
-20.0
 20
-44.75
 30
0.0
 11
20.0
 21
-44.75
 31
0.0
  0
LINE
  8
0
  6
CONTINUOUS
 62
     3
  5
46
 10
-20.0
 20
-43.25
 30
0.0
 11
20.0
 21
-43.25
 31
0.0
  0
ARC
  8
0
  6
CONTINUOUS
 62
     3
  5
47
 10
-6.75
 20
-29.25
 30
0.0
 40
0.75
 50
90.0
 51
270.0
  0
LINE
  8
0
  6
CONTINUOUS
 62
     3
  5
48
 10
20.0
 20
-44.75
 30
0.0
 11
20.0
 21
-47.25
 31
0.0
  0
LINE
  8
0
  6
CONTINUOUS
 62
     3
  5
49
 10
20.0
 20
-54.0
 30
0.0
 11
-20.0
 21
-54.0
 31
0.0
  0
LINE
  8
0
  6
CONTINUOUS
 62
     3
  5
4A
 10
-20.0
 20
-40.0
 30
0.0
 11
20.0
 21
-40.0
 31
0.0
  0
ARC
  8
0
  6
CONTINUOUS
 62
     3
  5
4B
 10
6.75
 20
-29.25
 30
0.0
 40
0.75
 50
270.0
 51
0.0
  0
LINE
  8
0
  6
CONTINUOUS
 62
     3
  5
4C
 10
-6.75
 20
-28.5
 30
0.0
 11
6.75
 21
-28.5
 31
0.0
  0
LINE
  8
0
  6
CONTINUOUS
 62
     3
  5
4D
 10
6.75
 20
-30.0
 30
0.0
 11
-6.75
 21
-30.0
 31
0.0
  0
ARC
  8
0
  6
CONTINUOUS
 62
     3
  5
4E
 10
6.75
 20
-29.25
 30
0.0
 40
0.75
 50
0.0
 51
90.0
  0
CIRCLE
  8
0
  6
CONTINUOUS
 62
     3
  5
4F
 10
0.0
 20
-64.0
 30
0.0
 40
1.0
  0
LINE
  8
0
  6
CONTINUOUS
 62
     3
  5
50
 10
-20.0
 20
-44.75
 30
0.0
 11
-20.0
 21
-47.25
 31
0.0
  0
LINE
  8
0
  6
CONTINUOUS
 62
     3
  5
51
 10
11.5
 20
-71.0
 30
0.0
 11
11.5
 21
-54.0
 31
0.0
  0
LINE
  8
0
  6
CONTINUOUS
 62
     3
  5
52
 10
-11.5
 20
-71.0
 30
0.0
 11
11.5
 21
-71.0
 31
0.0
  0
LINE
  8
0
  6
CONTINUOUS
 62
     3
  5
53
 10
-11.5
 20
-54.0
 30
0.0
 11
-11.5
 21
-71.0
 31
0.0
  0
LINE
  8
0
  6
CONTINUOUS
 62
     3
  5
54
 10
-20.0
 20
-48.75
 30
0.0
 11
-20.0
 21
-51.25
 31
0.0
  0
LINE
  8
0
  6
CONTINUOUS
 62
     3
  5
55
 10
-20.0
 20
-52.75
 30
0.0
 11
-20.0
 21
-54.0
 31
0.0
  0
LINE
  8
0
  6
CONTINUOUS
 62
     3
  5
56
 10
20.0
 20
-48.75
 30
0.0
 11
20.0
 21
-51.25
 31
0.0
  0
LINE
  8
0
  6
CONTINUOUS
 62
     3
  5
57
 10
20.0
 20
-52.75
 30
0.0
 11
20.0
 21
-54.0
 31
0.0
  0
ARC
  8
0
  6
CONTINUOUS
 62
     3
  5
58
 10
-20.0
 20
-44.0
 30
0.0
 40
0.75
 50
270.0
 51
90.0
  0
ARC
  8
0
  6
CONTINUOUS
 62
     3
  5
59
 10
-20.0
 20
-48.0
 30
0.0
 40
0.75
 50
270.0
 51
90.0
  0
ARC
  8
0
  6
CONTINUOUS
 62
     3
  5
5A
 10
-20.0
 20
-52.0
 30
0.0
 40
0.75
 50
270.0
 51
90.0
  0
ARC
  8
0
  6
CONTINUOUS
 62
     3
  5
5B
 10
20.0
 20
-44.0
 30
0.0
 40
0.75
 50
90.0
 51
270.0
  0
ARC
  8
0
  6
CONTINUOUS
 62
     3
  5
5C
 10
20.0
 20
-48.0
 30
0.0
 40
0.75
 50
90.0
 51
270.0
  0
ARC
  8
0
  6
CONTINUOUS
 62
     3
  5
5D
 10
20.0
 20
-52.0
 30
0.0
 40
0.75
 50
90.0
 51
270.0
  0
LINE
  8
0
  6
CONTINUOUS
 62
     3
  5
5E
 10
20.0
 20
0.0
 30
0.0
 11
-20.0
 21
0.0
 31
0.0
  0
LINE
  8
0
  6
CONTINUOUS
 62
     3
  5
5F
 10
-20.0
 20
-43.25
 30
0.0
 11
-20.0
 21
0.0
 31
0.0
  0
LINE
  8
0
  6
CONTINUOUS
 62
     3
  5
60
 10
20.0
 20
-43.25
 30
0.0
 11
20.0
 21
0.0
 31
0.0
  0
ENDBLK
  8
0
  5
61
  0
BLOCK
  8
0
  5
62
  2
MS_3
 70
     0
 10
0.0
 20
0.0
 30
0.0
  3
MS_3
  0
LINE
  8
0
  6
CONTINUOUS
 62
     3
  5
63
 10
-8.65
 20
0.0
 30
0.0
 11
8.65
 21
0.0
 31
0.0
  0
LINE
  8
0
  6
CONTINUOUS
 62
     3
  5
64
 10
15.999988
 20
-211.000003
 30
0.0
 11
-16.000012
 21
-211.000003
 31
0.0
  0
LINE
  8
0
  6
CONTINUOUS
 62
     3
  5
65
 10
15.999988
 20
-208.000003
 30
0.0
 11
-16.000012
 21
-208.000003
 31
0.0
  0
ARC
  8
0
  6
CONTINUOUS
 62
     3
  5
66
 10
-0.000012
 20
-235.000003
 30
0.0
 40
4.5
 50
153.6122
 51
27.268632
  0
LINE
  8
0
  6
CONTINUOUS
 62
     3
  5
67
 10
-16.000012
 20
-255.000003
 30
0.0
 11
-16.000012
 21
-208.000003
 31
0.0
  0
ARC
  8
0
  6
CONTINUOUS
 62
     3
  5
68
 10
-0.000012
 20
-255.000003
 30
0.0
 40
16.0
 50
180.0
 51
0.0
  0
LINE
  8
0
  6
CENTER
 62
    50
  5
6A
 10
40.499988
 20
-255.000003
 30
0.0
 11
-10.500012
 21
-255.000003
 31
0.0
  0
LINE
  8
0
  6
CENTER
 62
    50
  5
6B
 10
40.499988
 20
-235.000003
 30
0.0
 11
-10.500012
 21
-235.000003
 31
0.0
  0
CIRCLE
  8
0
  6
CONTINUOUS
 62
     3
  5
6C
 10
-0.000012
 20
-255.000003
 30
0.0
 40
4.5
  0
LINE
  8
0
  6
CONTINUOUS
 62
     3
  5
6D
 10
15.999988
 20
-208.000003
 30
0.0
 11
15.999988
 21
-255.000003
 31
0.0
  0
ARC
  8
0
  6
PHANTOM
 62
    80
  5
6F
 10
25.999988
 20
-218.000003
 30
0.0
 40
10.0
 50
0.0
 51
90.0
  0
ARC
  8
0
  6
PHANTOM
 62
    80
  5
70
 10
25.999988
 20
-218.000003
 30
0.0
 40
7.0
 50
0.0
 51
90.0
  0
LINE
  8
0
  6
PHANTOM
 62
    80
  5
71
 10
25.999988
 20
-211.000003
 30
0.0
 11
15.999988
 21
-211.000003
 31
0.0
  0
LINE
  8
0
  6
PHANTOM
 62
    80
  5
72
 10
32.999988
 20
-218.000003
 30
0.0
 11
32.999988
 21
-271.000003
 31
0.0
  0
LINE
  8
0
  6
PHANTOM
 62
    80
  5
73
 10
35.999988
 20
-218.000003
 30
0.0
 11
35.999988
 21
-271.000003
 31
0.0
  0
LINE
  8
0
  6
PHANTOM
 62
    80
  5
74
 10
35.999988
 20
-271.000003
 30
0.0
 11
32.999988
 21
-271.000003
 31
0.0
  0
LINE
  8
0
  6
PHANTOM
 62
    80
  5
75
 10
25.999988
 20
-208.000003
 30
0.0
 11
15.999988
 21
-208.000003
 31
0.0
  0
LINE
  8
0
  6
CONTINUOUS
 62
     3
  5
76
 10
14.99999
 20
-203.000003
 30
0.0
 11
14.99999
 21
-206.000003
 31
0.0
  0
LINE
  8
0
  6
CONTINUOUS
 62
     3
  5
77
 10
-15.00001
 20
-203.000003
 30
0.0
 11
-15.00001
 21
-206.000003
 31
0.0
  0
LINE
  8
0
  6
CONTINUOUS
 62
     3
  5
78
 10
14.99999
 20
-214.000003
 30
0.0
 11
-15.00001
 21
-214.000003
 31
0.0
  0
LINE
  8
0
  6
CONTINUOUS
 62
     3
  5
79
 10
14.99999
 20
-203.000003
 30
0.0
 11
-15.00001
 21
-203.000003
 31
0.0
  0
LINE
  8
0
  6
CONTINUOUS
 62
     3
  5
7A
 10
14.99999
 20
-211.000003
 30
0.0
 11
14.99999
 21
-214.000003
 31
0.0
  0
LINE
  8
0
  6
CONTINUOUS
 62
     3
  5
7B
 10
-15.00001
 20
-211.000003
 30
0.0
 11
-15.00001
 21
-214.000003
 31
0.0
  0
LINE
  8
0
  6
CONTINUOUS
 62
     3
  5
7C
 10
-15.50001
 20
-193.90587
 30
0.0
 11
-15.50001
 21
-201.094135
 31
0.0
  0
LINE
  8
0
  6
CONTINUOUS
 62
     3
  5
7D
 10
15.49999
 20
-193.90587
 30
0.0
 11
15.49999
 21
-201.094135
 31
0.0
  0
LINE
  8
0
  6
CONTINUOUS
 62
     3
  5
7E
 10
13.594123
 20
-192.000003
 30
0.0
 11
-13.594142
 21
-192.000003
 31
0.0
  0
LINE
  8
0
  6
CONTINUOUS
 62
    80
  5
7F
 10
7.74999
 20
-194.000003
 30
0.0
 11
7.74999
 21
-201.000003
 31
0.0
  0
LINE
  8
0
  6
CONTINUOUS
 62
    80
  5
80
 10
-7.75001
 20
-194.000003
 30
0.0
 11
-7.75001
 21
-201.000003
 31
0.0
  0
LINE
  8
0
  6
CONTINUOUS
 62
     3
  5
81
 10
15.49999
 20
-193.90587
 30
0.0
 11
13.594123
 21
-192.000003
 31
0.0
  0
LINE
  8
0
  6
CONTINUOUS
 62
     3
  5
82
 10
-15.50001
 20
-193.90587
 30
0.0
 11
-13.594142
 21
-192.000003
 31
0.0
  0
LINE
  8
0
  6
CONTINUOUS
 62
     3
  5
83
 10
15.49999
 20
-201.094135
 30
0.0
 11
13.594123
 21
-203.000003
 31
0.0
  0
LINE
  8
0
  6
CONTINUOUS
 62
     3
  5
84
 10
-15.50001
 20
-201.094135
 30
0.0
 11
-13.594142
 21
-203.000003
 31
0.0
  0
LINE
  8
0
  6
CONTINUOUS
 62
    80
  5
85
 10
7.74999
 20
-223.000003
 30
0.0
 11
7.74999
 21
-216.000003
 31
0.0
  0
LINE
  8
0
  6
CONTINUOUS
 62
     3
  5
86
 10
15.49999
 20
-223.094135
 30
0.0
 11
15.49999
 21
-215.90587
 31
0.0
  0
LINE
  8
0
  6
CONTINUOUS
 62
     3
  5
87
 10
-15.50001
 20
-223.094135
 30
0.0
 11
-15.50001
 21
-215.90587
 31
0.0
  0
LINE
  8
0
  6
CONTINUOUS
 62
     3
  5
88
 10
15.49999
 20
-223.094135
 30
0.0
 11
13.594123
 21
-225.000003
 31
0.0
  0
LINE
  8
0
  6
CONTINUOUS
 62
     3
  5
89
 10
-15.50001
 20
-223.094135
 30
0.0
 11
-13.594142
 21
-225.000003
 31
0.0
  0
LINE
  8
0
  6
CONTINUOUS
 62
     3
  5
8A
 10
-15.50001
 20
-215.90587
 30
0.0
 11
-13.594142
 21
-214.000003
 31
0.0
  0
LINE
  8
0
  6
CONTINUOUS
 62
     3
  5
8B
 10
13.594123
 20
-225.000003
 30
0.0
 11
-13.594142
 21
-225.000003
 31
0.0
  0
LINE
  8
0
  6
CONTINUOUS
 62
    80
  5
8C
 10
-7.75001
 20
-223.000003
 30
0.0
 11
-7.75001
 21
-216.000003
 31
0.0
  0
LINE
  8
0
  6
CONTINUOUS
 62
     3
  5
8D
 10
15.49999
 20
-215.90587
 30
0.0
 11
13.594123
 21
-214.000003
 31
0.0
  0
LINE
  8
0
  6
CONTINUOUS
 62
    80
  5
8E
 10
8.64999
 20
-227.000003
 30
0.0
 11
-8.65001
 21
-227.000003
 31
0.0
  0
LINE
  8
0
  6
CONTINUOUS
 62
     3
  5
8F
 10
7.99999
 20
-229.000003
 30
0.0
 11
-8.00001
 21
-229.000003
 31
0.0
  0
LINE
  8
0
  6
CONTINUOUS
 62
     3
  5
90
 10
8.64999
 20
-225.000003
 30
0.0
 11
8.64999
 21
-227.000003
 31
0.0
  0
LINE
  8
0
  6
CONTINUOUS
 62
     3
  5
91
 10
-8.65001
 20
-225.000003
 30
0.0
 11
-8.65001
 21
-227.000003
 31
0.0
  0
LINE
  8
0
  6
CONTINUOUS
 62
    80
  5
92
 10
6.64999
 20
-225.000003
 30
0.0
 11
6.64999
 21
-229.000003
 31
0.0
  0
LINE
  8
0
  6
CONTINUOUS
 62
    80
  5
93
 10
-6.65001
 20
-225.000003
 30
0.0
 11
-6.65001
 21
-229.000003
 31
0.0
  0
LINE
  8
0
  6
CONTINUOUS
 62
     3
  5
94
 10
6.64999
 20
-229.000003
 30
0.0
 11
8.64999
 21
-227.000003
 31
0.0
  0
LINE
  8
0
  6
CONTINUOUS
 62
     3
  5
95
 10
-6.65001
 20
-229.000003
 30
0.0
 11
-8.65001
 21
-227.000003
 31
0.0
  0
LINE
  8
0
  6
CONTINUOUS
 62
     3
  5
96
 10
-9.10001
 20
-230.000003
 30
0.0
 11
9.09999
 21
-230.000003
 31
0.0
  0
LINE
  8
0
  6
CONTINUOUS
 62
     3
  5
97
 10
7.99999
 20
-232.000003
 30
0.0
 11
7.99999
 21
-231.000003
 31
0.0
  0
LINE
  8
0
  6
CONTINUOUS
 62
     3
  5
98
 10
-9.10001
 20
-230.300003
 30
0.0
 11
-9.10001
 21
-230.000003
 31
0.0
  0
LINE
  8
0
  6
CONTINUOUS
 62
     3
  5
99
 10
-9.10001
 20
-230.300003
 30
0.0
 11
9.09999
 21
-230.300003
 31
0.0
  0
LINE
  8
0
  6
CONTINUOUS
 62
     3
  5
9A
 10
9.09999
 20
-230.300003
 30
0.0
 11
9.09999
 21
-230.000003
 31
0.0
  0
LINE
  8
0
  6
CONTINUOUS
 62
     3
  5
9B
 10
-7.00001
 20
-233.000003
 30
0.0
 11
6.99999
 21
-233.000003
 31
0.0
  0
LINE
  8
0
  6
CONTINUOUS
 62
     3
  5
9C
 10
7.99999
 20
-231.000003
 30
0.0
 11
9.09999
 21
-230.300003
 31
0.0
  0
LINE
  8
0
  6
CONTINUOUS
 62
     3
  5
9D
 10
-8.00001
 20
-231.000003
 30
0.0
 11
-9.10001
 21
-230.300003
 31
0.0
  0
LINE
  8
0
  6
CONTINUOUS
 62
     3
  5
9E
 10
-8.00001
 20
-231.000003
 30
0.0
 11
7.99999
 21
-231.000003
 31
0.0
  0
LINE
  8
0
  6
CONTINUOUS
 62
     3
  5
9F
 10
7.99999
 20
-230.000003
 30
0.0
 11
7.99999
 21
-229.000003
 31
0.0
  0
LINE
  8
0
  6
CONTINUOUS
 62
     3
  5
A0
 10
-8.00001
 20
-230.000003
 30
0.0
 11
-8.00001
 21
-229.000003
 31
0.0
  0
LINE
  8
0
  6
CONTINUOUS
 62
     3
  5
A1
 10
-8.00001
 20
-232.000003
 30
0.0
 11
-8.00001
 21
-231.000003
 31
0.0
  0
ARC
  8
0
  6
CONTINUOUS
 62
    80
  5
A2
 10
-0.00001
 20
-208.015628
 30
0.0
 40
16.015625
 50
61.059412
 51
118.940588
  0
ARC
  8
0
  6
CONTINUOUS
 62
    80
  5
A3
 10
11.62499
 20
-196.753909
 30
0.0
 40
4.753906
 50
35.400856
 51
144.599144
  0
ARC
  8
0
  6
CONTINUOUS
 62
    80
  5
A4
 10
-11.62501
 20
-196.753909
 30
0.0
 40
4.753906
 50
35.400856
 51
144.599144
  0
ARC
  8
0
  6
CONTINUOUS
 62
    80
  5
A5
 10
-11.62501
 20
-198.246096
 30
0.0
 40
4.753906
 50
215.400856
 51
324.599144
  0
ARC
  8
0
  6
CONTINUOUS
 62
    80
  5
A6
 10
-0.00001
 20
-186.984378
 30
0.0
 40
16.015625
 50
241.059412
 51
298.940588
  0
ARC
  8
0
  6
CONTINUOUS
 62
    80
  5
A7
 10
11.62499
 20
-198.246096
 30
0.0
 40
4.753906
 50
215.400856
 51
324.599144
  0
ARC
  8
0
  6
CONTINUOUS
 62
    80
  5
A8
 10
-11.62501
 20
-220.246096
 30
0.0
 40
4.753906
 50
215.400856
 51
324.599144
  0
ARC
  8
0
  6
CONTINUOUS
 62
    80
  5
A9
 10
-0.00001
 20
-208.984378
 30
0.0
 40
16.015625
 50
241.059412
 51
298.940588
  0
ARC
  8
0
  6
CONTINUOUS
 62
    80
  5
AA
 10
11.62499
 20
-220.246096
 30
0.0
 40
4.753906
 50
215.400856
 51
324.599144
  0
ARC
  8
0
  6
CONTINUOUS
 62
    80
  5
AB
 10
11.62499
 20
-218.753909
 30
0.0
 40
4.753906
 50
35.400856
 51
144.599144
  0
ARC
  8
0
  6
CONTINUOUS
 62
    80
  5
AC
 10
-0.00001
 20
-230.015628
 30
0.0
 40
16.015625
 50
61.059412
 51
118.940588
  0
ARC
  8
0
  6
CONTINUOUS
 62
    80
  5
AD
 10
-11.62501
 20
-218.753909
 30
0.0
 40
4.753906
 50
35.400856
 51
144.599144
  0
ARC
  8
0
  6
CONTINUOUS
 62
     3
  5
AE
 10
6.99999
 20
-232.000003
 30
0.0
 40
1.0
 50
270.0
 51
0.0
  0
ARC
  8
0
  6
CONTINUOUS
 62
     3
  5
AF
 10
-7.00001
 20
-232.000003
 30
0.0
 40
1.0
 50
180.0
 51
270.0
  0
LINE
  8
0
  6
CONTINUOUS
 62
     3
  5
B0
 10
14.99999
 20
-206.000003
 30
0.0
 11
-15.00001
 21
-206.000003
 31
0.0
  0
LINE
  8
0
  6
CONTINUOUS
 62
     3
  5
B1
 10
13.99999
 20
-208.000002
 30
0.0
 11
13.99999
 21
-206.000002
 31
0.0
  0
LINE
  8
0
  6
CONTINUOUS
 62
     3
  5
B2
 10
-14.00001
 20
-208.000002
 30
0.0
 11
-14.00001
 21
-206.000002
 31
0.0
  0
LINE
  8
0
  6
CONTINUOUS
 62
     3
  5
B3
 10
15.99999
 20
-208.000003
 30
0.0
 11
-16.00001
 21
-208.000003
 31
0.0
  0
LINE
  8
0
  6
CONTINUOUS
 62
     3
  5
B4
 10
-8.65
 20
0.0
 30
0.0
 11
-8.65
 21
-192.000003
 31
0.0
  0
LINE
  8
0
  6
CONTINUOUS
 62
     3
  5
B5
 10
8.65
 20
0.0
 30
0.0
 11
8.65
 21
-192.000003
 31
0.0
  0
ENDBLK
  8
0
  5
B6
  0
BLOCK
  8
0
  5
B7
  2
MS_4
 70
     0
 10
0.0
 20
0.0
 30
0.0
  3
MS_4
  0
LINE
  8
0
  6
CONTINUOUS
 62
     3
  5
B8
 10
-18.0
 20
10.0
 30
0.0
 11
-18.5
 21
9.5
 31
0.0
  0
LINE
  8
0
  6
CONTINUOUS
 62
     3
  5
B9
 10
-19.5
 20
7.0
 30
0.0
 11
-20.0
 21
6.5
 31
0.0
  0
LINE
  8
0
  6
CONTINUOUS
 62
     3
  5
BA
 10
-18.5
 20
9.5
 30
0.0
 11
18.5
 21
9.5
 31
0.0
  0
LINE
  8
0
  6
CONTINUOUS
 62
     3
  5
BB
 10
20.0
 20
6.5
 30
0.0
 11
19.5
 21
7.0
 31
0.0
  0
LINE
  8
0
  6
CONTINUOUS
 62
     3
  5
BC
 10
-20.0
 20
6.5
 30
0.0
 11
20.0
 21
6.5
 31
0.0
  0
LINE
  8
0
  6
CONTINUOUS
 62
     3
  5
BD
 10
-18.0
 20
10.0
 30
0.0
 11
18.0
 21
10.0
 31
0.0
  0
LINE
  8
0
  6
CONTINUOUS
 62
     3
  5
BE
 10
-19.5
 20
7.0
 30
0.0
 11
19.5
 21
7.0
 31
0.0
  0
LINE
  8
0
  6
CONTINUOUS
 62
     3
  5
BF
 10
18.5
 20
9.5
 30
0.0
 11
18.5
 21
7.0
 31
0.0
  0
LINE
  8
0
  6
CONTINUOUS
 62
     3
  5
C0
 10
-18.5
 20
9.5
 30
0.0
 11
-18.5
 21
7.0
 31
0.0
  0
LINE
  8
0
  6
CONTINUOUS
 62
     3
  5
C1
 10
18.5
 20
9.5
 30
0.0
 11
18.0
 21
10.0
 31
0.0
  0
LINE
  8
0
  6
CONTINUOUS
 62
     3
  5
C2
 10
-20.0
 20
0.0
 30
0.0
 11
20.0
 21
0.0
 31
0.0
  0
LINE
  8
0
  6
CONTINUOUS
 62
     3
  5
C3
 10
-20.0
 20
0.0
 30
0.0
 11
20.0
 21
0.0
 31
0.0
  0
LINE
  8
0
  6
CONTINUOUS
 62
     3
  5
C4
 10
18.5
 20
9.5
 30
0.0
 11
18.0
 21
10.0
 31
0.0
  0
LINE
  8
0
  6
CONTINUOUS
 62
     3
  5
C5
 10
-18.5
 20
9.5
 30
0.0
 11
-18.5
 21
7.0
 31
0.0
  0
LINE
  8
0
  6
CONTINUOUS
 62
     3
  5
C6
 10
18.5
 20
9.5
 30
0.0
 11
18.5
 21
7.0
 31
0.0
  0
LINE
  8
0
  6
CONTINUOUS
 62
     3
  5
C7
 10
-19.5
 20
7.0
 30
0.0
 11
19.5
 21
7.0
 31
0.0
  0
LINE
  8
0
  6
CONTINUOUS
 62
     3
  5
C8
 10
-18.0
 20
10.0
 30
0.0
 11
18.0
 21
10.0
 31
0.0
  0
LINE
  8
0
  6
CONTINUOUS
 62
     3
  5
C9
 10
-20.0
 20
6.5
 30
0.0
 11
20.0
 21
6.5
 31
0.0
  0
LINE
  8
0
  6
CONTINUOUS
 62
     3
  5
CA
 10
20.0
 20
6.5
 30
0.0
 11
19.5
 21
7.0
 31
0.0
  0
LINE
  8
0
  6
CONTINUOUS
 62
     3
  5
CB
 10
-18.5
 20
9.5
 30
0.0
 11
18.5
 21
9.5
 31
0.0
  0
LINE
  8
0
  6
CONTINUOUS
 62
     3
  5
CC
 10
-19.5
 20
7.0
 30
0.0
 11
-20.0
 21
6.5
 31
0.0
  0
LINE
  8
0
  6
CONTINUOUS
 62
     3
  5
CD
 10
-18.0
 20
10.0
 30
0.0
 11
-18.5
 21
9.5
 31
0.0
  0
LINE
  8
0
  6
CONTINUOUS
 62
     3
  5
CE
 10
-20.0
 20
0.0
 30
0.0
 11
-20.0
 21
6.5
 31
0.0
  0
LINE
  8
0
  6
CONTINUOUS
 62
     3
  5
CF
 10
20.0
 20
0.0
 30
0.0
 11
20.0
 21
6.5
 31
0.0
  0
ENDBLK
  8
0
  5
D0
  0
BLOCK
  8
0
  5
D1
  2
MS_5
 70
     0
 10
0.0
 20
0.0
 30
0.0
  3
MS_5
  0
LINE
  8
0
  6
CONTINUOUS
 62
     3
  5
D2
 10
-20.0
 20
-43.25
 30
0.0
 11
-20.0
 21
0.0
 31
0.0
  0
LINE
  8
0
  6
CONTINUOUS
 62
     3
  5
D3
 10
20.0
 20
-43.25
 30
0.0
 11
20.0
 21
0.0
 31
0.0
  0
LINE
  8
0
  6
CONTINUOUS
 62
     3
  5
D4
 10
20.0
 20
-43.25
 30
0.0
 11
20.0
 21
0.0
 31
0.0
  0
LINE
  8
0
  6
CONTINUOUS
 62
     3
  5
D5
 10
-20.0
 20
-43.25
 30
0.0
 11
-20.0
 21
0.0
 31
0.0
  0
LINE
  8
0
  6
CONTINUOUS
 62
     3
  5
D6
 10
0.990381
 20
-66.0
 30
0.0
 11
-1.009619
 21
-66.0
 31
0.0
  0
LINE
  8
0
  6
CONTINUOUS
 62
     3
  5
D7
 10
1.490381
 20
-65.5
 30
0.0
 11
1.490381
 21
-57.8
 31
0.0
  0
LINE
  8
0
  6
CONTINUOUS
 62
     3
  5
D8
 10
-1.509619
 20
-65.5
 30
0.0
 11
-1.509619
 21
-57.8
 31
0.0
  0
LINE
  8
0
  6
CONTINUOUS
 62
     3
  5
D9
 10
0.990381
 20
-66.0
 30
0.0
 11
1.490381
 21
-65.5
 31
0.0
  0
LINE
  8
0
  6
CONTINUOUS
 62
     3
  5
DA
 10
-1.509619
 20
-65.5
 30
0.0
 11
-1.009619
 21
-66.0
 31
0.0
  0
LINE
  8
0
  6
CONTINUOUS
 62
    80
  5
DB
 10
1.490381
 20
-65.5
 30
0.0
 11
-1.509619
 21
-65.5
 31
0.0
  0
LINE
  8
0
  6
CONTINUOUS
 62
    80
  5
DC
 10
0.990381
 20
-66.0
 30
0.0
 11
0.990381
 21
-57.8
 31
0.0
  0
LINE
  8
0
  6
CONTINUOUS
 62
    80
  5
DD
 10
-1.009619
 20
-66.0
 30
0.0
 11
-1.009619
 21
-57.8
 31
0.0
  0
LINE
  8
0
  6
CONTINUOUS
 62
     3
  5
DE
 10
3.990381
 20
-54.6
 30
0.0
 11
-4.009619
 21
-54.6
 31
0.0
  0
LINE
  8
0
  6
CONTINUOUS
 62
     3
  5
DF
 10
2.990381
 20
-55.4
 30
0.0
 11
-3.009619
 21
-55.4
 31
0.0
  0
LINE
  8
0
  6
CONTINUOUS
 62
     3
  5
E0
 10
2.990381
 20
-55.4
 30
0.0
 11
2.990381
 21
-54.6
 31
0.0
  0
LINE
  8
0
  6
CONTINUOUS
 62
     3
  5
E1
 10
-3.009619
 20
-55.4
 30
0.0
 11
-3.009619
 21
-54.6
 31
0.0
  0
LINE
  8
0
  6
CONTINUOUS
 62
     3
  5
E2
 10
0.390381
 20
-54.6
 30
0.0
 11
-0.409619
 21
-55.4
 31
0.0
  0
ARC
  8
0
  6
CONTINUOUS
 62
    80
  5
E3
 10
-2.39115
 20
-56.394238
 30
0.0
 40
1.405748
 50
235.617151
 51
304.382839
  0
ARC
  8
0
  6
CONTINUOUS
 62
    80
  5
E4
 10
-0.009619
 20
-52.545422
 30
0.0
 40
5.254578
 50
252.412791
 51
287.587199
  0
ARC
  8
0
  6
CONTINUOUS
 62
    80
  5
E5
 10
2.371912
 20
-56.394238
 30
0.0
 40
1.405748
 50
235.617151
 51
304.382839
  0
LINE
  8
0
  6
CONTINUOUS
 62
     3
  5
E6
 10
3.165796
 20
-55.4
 30
0.0
 11
-3.185034
 21
-55.4
 31
0.0
  0
LINE
  8
0
  6
CONTINUOUS
 62
    80
  5
E7
 10
-1.597326
 20
-55.4
 30
0.0
 11
-1.597326
 21
-57.554395
 31
0.0
  0
LINE
  8
0
  6
CONTINUOUS
 62
     3
  5
E8
 10
-3.185057
 20
-57.554433
 30
0.0
 11
-2.759649
 21
-57.800042
 31
0.0
  0
LINE
  8
0
  6
CONTINUOUS
 62
     3
  5
E9
 10
-3.185034
 20
-55.4
 30
0.0
 11
-3.185034
 21
-57.554395
 31
0.0
  0
LINE
  8
0
  6
CONTINUOUS
 62
    80
  5
EA
 10
1.578089
 20
-55.4
 30
0.0
 11
1.578089
 21
-57.554395
 31
0.0
  0
LINE
  8
0
  6
CONTINUOUS
 62
     3
  5
EB
 10
3.16577
 20
-57.554382
 30
0.0
 11
2.740369
 21
-57.799988
 31
0.0
  0
LINE
  8
0
  6
CONTINUOUS
 62
     3
  5
EC
 10
3.165796
 20
-55.4
 30
0.0
 11
3.165796
 21
-57.554395
 31
0.0
  0
LINE
  8
0
  6
CONTINUOUS
 62
     3
  5
ED
 10
2.740381
 20
-57.8
 30
0.0
 11
-2.759619
 21
-57.8
 31
0.0
  0
LINE
  8
0
  6
CONTINUOUS
 62
     3
  5
EE
 10
-4.009619
 20
-54.6
 30
0.0
 11
-4.009619
 21
-54.0
 31
0.0
  0
LINE
  8
0
  6
CONTINUOUS
 62
     3
  5
EF
 10
3.990381
 20
-54.6
 30
0.0
 11
3.990381
 21
-54.0
 31
0.0
  0
LINE
  8
0
  6
CONTINUOUS
 62
     3
  5
F0
 10
11.990381
 20
-66.0
 30
0.0
 11
13.990381
 21
-66.0
 31
0.0
  0
LINE
  8
0
  6
CONTINUOUS
 62
     3
  5
F1
 10
11.490381
 20
-65.5
 30
0.0
 11
11.490381
 21
-57.8
 31
0.0
  0
LINE
  8
0
  6
CONTINUOUS
 62
     3
  5
F2
 10
14.490381
 20
-65.5
 30
0.0
 11
14.490381
 21
-57.8
 31
0.0
  0
LINE
  8
0
  6
CONTINUOUS
 62
     3
  5
F3
 10
11.990381
 20
-66.0
 30
0.0
 11
11.490381
 21
-65.5
 31
0.0
  0
LINE
  8
0
  6
CONTINUOUS
 62
     3
  5
F4
 10
14.490381
 20
-65.5
 30
0.0
 11
13.990381
 21
-66.0
 31
0.0
  0
LINE
  8
0
  6
CONTINUOUS
 62
    80
  5
F5
 10
11.490381
 20
-65.5
 30
0.0
 11
14.490381
 21
-65.5
 31
0.0
  0
LINE
  8
0
  6
CONTINUOUS
 62
    80
  5
F6
 10
11.990381
 20
-66.0
 30
0.0
 11
11.990381
 21
-57.8
 31
0.0
  0
LINE
  8
0
  6
CONTINUOUS
 62
    80
  5
F7
 10
13.990381
 20
-66.0
 30
0.0
 11
13.990381
 21
-57.8
 31
0.0
  0
LINE
  8
0
  6
CONTINUOUS
 62
     3
  5
F8
 10
8.990381
 20
-54.6
 30
0.0
 11
16.990381
 21
-54.6
 31
0.0
  0
LINE
  8
0
  6
CONTINUOUS
 62
     3
  5
F9
 10
9.990381
 20
-55.4
 30
0.0
 11
15.990381
 21
-55.4
 31
0.0
  0
LINE
  8
0
  6
CONTINUOUS
 62
     3
  5
FA
 10
9.990381
 20
-55.4
 30
0.0
 11
9.990381
 21
-54.6
 31
0.0
  0
LINE
  8
0
  6
CONTINUOUS
 62
     3
  5
FB
 10
15.990381
 20
-55.4
 30
0.0
 11
15.990381
 21
-54.6
 31
0.0
  0
LINE
  8
0
  6
CONTINUOUS
 62
     3
  5
FC
 10
12.590381
 20
-55.4
 30
0.0
 11
13.390381
 21
-54.6
 31
0.0
  0
ARC
  8
0
  6
CONTINUOUS
 62
    80
  5
FD
 10
15.371912
 20
-56.394238
 30
0.0
 40
1.405748
 50
235.617161
 51
304.382849
  0
ARC
  8
0
  6
CONTINUOUS
 62
    80
  5
FE
 10
12.990381
 20
-52.545422
 30
0.0
 40
5.254578
 50
252.412801
 51
287.587209
  0
ARC
  8
0
  6
CONTINUOUS
 62
    80
  5
FF
 10
10.60885
 20
-56.394238
 30
0.0
 40
1.405748
 50
235.617161
 51
304.382849
  0
LINE
  8
0
  6
CONTINUOUS
 62
     3
  5
100
 10
9.814966
 20
-55.4
 30
0.0
 11
16.165796
 21
-55.4
 31
0.0
  0
LINE
  8
0
  6
CONTINUOUS
 62
    80
  5
101
 10
14.578089
 20
-55.4
 30
0.0
 11
14.578089
 21
-57.554395
 31
0.0
  0
LINE
  8
0
  6
CONTINUOUS
 62
     3
  5
102
 10
16.165819
 20
-57.554433
 30
0.0
 11
15.740411
 21
-57.800042
 31
0.0
  0
LINE
  8
0
  6
CONTINUOUS
 62
     3
  5
103
 10
16.165796
 20
-55.4
 30
0.0
 11
16.165796
 21
-57.554395
 31
0.0
  0
LINE
  8
0
  6
CONTINUOUS
 62
    80
  5
104
 10
11.402674
 20
-55.4
 30
0.0
 11
11.402674
 21
-57.554395
 31
0.0
  0
LINE
  8
0
  6
CONTINUOUS
 62
     3
  5
105
 10
9.814992
 20
-57.554382
 30
0.0
 11
10.240393
 21
-57.799988
 31
0.0
  0
LINE
  8
0
  6
CONTINUOUS
 62
     3
  5
106
 10
9.814966
 20
-55.4
 30
0.0
 11
9.814966
 21
-57.554395
 31
0.0
  0
LINE
  8
0
  6
CONTINUOUS
 62
     3
  5
107
 10
10.240381
 20
-57.8
 30
0.0
 11
15.740381
 21
-57.8
 31
0.0
  0
LINE
  8
0
  6
CONTINUOUS
 62
     3
  5
108
 10
16.990381
 20
-54.6
 30
0.0
 11
16.990381
 21
-54.0
 31
0.0
  0
LINE
  8
0
  6
CONTINUOUS
 62
     3
  5
109
 10
8.990381
 20
-54.6
 30
0.0
 11
8.990381
 21
-54.0
 31
0.0
  0
LINE
  8
0
  6
CONTINUOUS
 62
     3
  5
10A
 10
-10.25
 20
-57.8
 30
0.0
 11
-15.75
 21
-57.8
 31
0.0
  0
LINE
  8
0
  6
CONTINUOUS
 62
     3
  5
10B
 10
-9.824585
 20
-55.4
 30
0.0
 11
-9.824585
 21
-57.554395
 31
0.0
  0
LINE
  8
0
  6
CONTINUOUS
 62
     3
  5
10C
 10
-9.824611
 20
-57.554382
 30
0.0
 11
-10.250012
 21
-57.799988
 31
0.0
  0
LINE
  8
0
  6
CONTINUOUS
 62
    80
  5
10D
 10
-11.412292
 20
-55.4
 30
0.0
 11
-11.412292
 21
-57.554395
 31
0.0
  0
LINE
  8
0
  6
CONTINUOUS
 62
     3
  5
10E
 10
-16.175415
 20
-55.4
 30
0.0
 11
-16.175415
 21
-57.554395
 31
0.0
  0
LINE
  8
0
  6
CONTINUOUS
 62
     3
  5
10F
 10
-16.175438
 20
-57.554433
 30
0.0
 11
-15.75003
 21
-57.800042
 31
0.0
  0
LINE
  8
0
  6
CONTINUOUS
 62
    80
  5
110
 10
-14.587708
 20
-55.4
 30
0.0
 11
-14.587708
 21
-57.554395
 31
0.0
  0
LINE
  8
0
  6
CONTINUOUS
 62
     3
  5
111
 10
-9.824585
 20
-55.4
 30
0.0
 11
-16.175415
 21
-55.4
 31
0.0
  0
ARC
  8
0
  6
CONTINUOUS
 62
    80
  5
112
 10
-10.618469
 20
-56.394238
 30
0.0
 40
1.405748
 50
235.617151
 51
304.382839
  0
ARC
  8
0
  6
CONTINUOUS
 62
    80
  5
113
 10
-13.0
 20
-52.545422
 30
0.0
 40
5.254578
 50
252.412791
 51
287.587199
  0
ARC
  8
0
  6
CONTINUOUS
 62
    80
  5
114
 10
-15.381531
 20
-56.394238
 30
0.0
 40
1.405748
 50
235.617151
 51
304.382839
  0
LINE
  8
0
  6
CONTINUOUS
 62
     3
  5
115
 10
-12.6
 20
-54.6
 30
0.0
 11
-13.4
 21
-55.4
 31
0.0
  0
LINE
  8
0
  6
CONTINUOUS
 62
     3
  5
116
 10
-16.0
 20
-55.4
 30
0.0
 11
-16.0
 21
-54.6
 31
0.0
  0
LINE
  8
0
  6
CONTINUOUS
 62
     3
  5
117
 10
-10.0
 20
-55.4
 30
0.0
 11
-10.0
 21
-54.6
 31
0.0
  0
LINE
  8
0
  6
CONTINUOUS
 62
     3
  5
118
 10
-10.0
 20
-55.4
 30
0.0
 11
-16.0
 21
-55.4
 31
0.0
  0
LINE
  8
0
  6
CONTINUOUS
 62
     3
  5
119
 10
-9.0
 20
-54.6
 30
0.0
 11
-17.0
 21
-54.6
 31
0.0
  0
LINE
  8
0
  6
CONTINUOUS
 62
     3
  5
11A
 10
-17.0
 20
-54.6
 30
0.0
 11
-17.0
 21
-54.0
 31
0.0
  0
LINE
  8
0
  6
CONTINUOUS
 62
     3
  5
11B
 10
-9.0
 20
-54.6
 30
0.0
 11
-9.0
 21
-54.0
 31
0.0
  0
LINE
  8
0
  6
CONTINUOUS
 62
    80
  5
11C
 10
-14.0
 20
-66.0
 30
0.0
 11
-14.0
 21
-57.8
 31
0.0
  0
LINE
  8
0
  6
CONTINUOUS
 62
    80
  5
11D
 10
-12.0
 20
-66.0
 30
0.0
 11
-12.0
 21
-57.8
 31
0.0
  0
LINE
  8
0
  6
CONTINUOUS
 62
    80
  5
11E
 10
-11.5
 20
-65.5
 30
0.0
 11
-14.5
 21
-65.5
 31
0.0
  0
LINE
  8
0
  6
CONTINUOUS
 62
     3
  5
11F
 10
-14.5
 20
-65.5
 30
0.0
 11
-14.0
 21
-66.0
 31
0.0
  0
LINE
  8
0
  6
CONTINUOUS
 62
     3
  5
120
 10
-12.0
 20
-66.0
 30
0.0
 11
-11.5
 21
-65.5
 31
0.0
  0
LINE
  8
0
  6
CONTINUOUS
 62
     3
  5
121
 10
-14.5
 20
-65.5
 30
0.0
 11
-14.5
 21
-57.8
 31
0.0
  0
LINE
  8
0
  6
CONTINUOUS
 62
     3
  5
122
 10
-11.5
 20
-65.5
 30
0.0
 11
-11.5
 21
-57.8
 31
0.0
  0
LINE
  8
0
  6
CONTINUOUS
 62
     3
  5
123
 10
-12.0
 20
-66.0
 30
0.0
 11
-14.0
 21
-66.0
 31
0.0
  0
LINE
  8
0
  6
CONTINUOUS
 62
     3
  5
124
 10
20.0
 20
-52.75
 30
0.0
 11
-20.0
 21
-52.75
 31
0.0
  0
LINE
  8
0
  6
CONTINUOUS
 62
     3
  5
125
 10
20.0
 20
-51.25
 30
0.0
 11
-20.0
 21
-51.25
 31
0.0
  0
LINE
  8
0
  6
CONTINUOUS
 62
     3
  5
126
 10
20.0
 20
-48.75
 30
0.0
 11
-20.0
 21
-48.75
 31
0.0
  0
LINE
  8
0
  6
CONTINUOUS
 62
     3
  5
127
 10
20.0
 20
-47.25
 30
0.0
 11
-20.0
 21
-47.25
 31
0.0
  0
LINE
  8
0
  6
CONTINUOUS
 62
     3
  5
128
 10
20.0
 20
-44.75
 30
0.0
 11
-20.0
 21
-44.75
 31
0.0
  0
LINE
  8
0
  6
CONTINUOUS
 62
     3
  5
129
 10
20.0
 20
-43.25
 30
0.0
 11
-20.0
 21
-43.25
 31
0.0
  0
ARC
  8
0
  6
CONTINUOUS
 62
     3
  5
12A
 10
6.75
 20
-29.25
 30
0.0
 40
0.75
 50
270.0
 51
90.0
  0
LINE
  8
0
  6
CONTINUOUS
 62
     3
  5
12B
 10
-20.0
 20
0.0
 30
0.0
 11
20.0
 21
0.0
 31
0.0
  0
ARC
  8
0
  6
CONTINUOUS
 62
     3
  5
12C
 10
-20.0
 20
-52.0
 30
0.0
 40
0.75
 50
270.0
 51
90.0
  0
ARC
  8
0
  6
CONTINUOUS
 62
     3
  5
12D
 10
-20.0
 20
-48.0
 30
0.0
 40
0.75
 50
270.0
 51
90.0
  0
ARC
  8
0
  6
CONTINUOUS
 62
     3
  5
12E
 10
-20.0
 20
-44.0
 30
0.0
 40
0.75
 50
270.0
 51
90.0
  0
ARC
  8
0
  6
CONTINUOUS
 62
     3
  5
12F
 10
20.0
 20
-52.0
 30
0.0
 40
0.75
 50
90.0
 51
270.0
  0
ARC
  8
0
  6
CONTINUOUS
 62
     3
  5
130
 10
20.0
 20
-48.0
 30
0.0
 40
0.75
 50
90.0
 51
270.0
  0
ARC
  8
0
  6
CONTINUOUS
 62
     3
  5
131
 10
20.0
 20
-44.0
 30
0.0
 40
0.75
 50
90.0
 51
270.0
  0
LINE
  8
0
  6
CONTINUOUS
 62
     3
  5
132
 10
-20.0
 20
-52.75
 30
0.0
 11
-20.0
 21
-54.0
 31
0.0
  0
LINE
  8
0
  6
CONTINUOUS
 62
     3
  5
133
 10
-20.0
 20
-48.75
 30
0.0
 11
-20.0
 21
-51.25
 31
0.0
  0
LINE
  8
0
  6
CONTINUOUS
 62
     3
  5
134
 10
-20.0
 20
-44.75
 30
0.0
 11
-20.0
 21
-47.25
 31
0.0
  0
LINE
  8
0
  6
CONTINUOUS
 62
     3
  5
135
 10
20.0
 20
-52.75
 30
0.0
 11
20.0
 21
-54.0
 31
0.0
  0
LINE
  8
0
  6
CONTINUOUS
 62
     3
  5
136
 10
20.0
 20
-48.75
 30
0.0
 11
20.0
 21
-51.25
 31
0.0
  0
LINE
  8
0
  6
CONTINUOUS
 62
     3
  5
137
 10
20.0
 20
-44.75
 30
0.0
 11
20.0
 21
-47.25
 31
0.0
  0
LINE
  8
0
  6
CONTINUOUS
 62
     3
  5
138
 10
-20.0
 20
-54.0
 30
0.0
 11
20.0
 21
-54.0
 31
0.0
  0
LINE
  8
0
  6
CONTINUOUS
 62
     3
  5
139
 10
20.0
 20
-40.0
 30
0.0
 11
-20.0
 21
-40.0
 31
0.0
  0
ARC
  8
0
  6
CONTINUOUS
 62
     3
  5
13A
 10
-6.75
 20
-29.25
 30
0.0
 40
0.75
 50
180.0
 51
270.0
  0
ARC
  8
0
  6
CONTINUOUS
 62
     3
  5
13B
 10
-6.75
 20
-29.25
 30
0.0
 40
0.75
 50
90.0
 51
180.0
  0
LINE
  8
0
  6
CONTINUOUS
 62
     3
  5
13C
 10
-6.75
 20
-30.0
 30
0.0
 11
6.75
 21
-30.0
 31
0.0
  0
LINE
  8
0
  6
CONTINUOUS
 62
     3
  5
13D
 10
6.75
 20
-28.5
 30
0.0
 11
-6.75
 21
-28.5
 31
0.0
  0
LINE
  8
0
  6
CONTINUOUS
 62
     3
  5
13E
 10
6.75
 20
-28.5
 30
0.0
 11
-6.75
 21
-28.5
 31
0.0
  0
LINE
  8
0
  6
CONTINUOUS
 62
     3
  5
13F
 10
-6.75
 20
-30.0
 30
0.0
 11
6.75
 21
-30.0
 31
0.0
  0
ARC
  8
0
  6
CONTINUOUS
 62
     3
  5
140
 10
-6.75
 20
-29.25
 30
0.0
 40
0.75
 50
90.0
 51
180.0
  0
ARC
  8
0
  6
CONTINUOUS
 62
     3
  5
141
 10
-6.75
 20
-29.25
 30
0.0
 40
0.75
 50
180.0
 51
270.0
  0
LINE
  8
0
  6
CONTINUOUS
 62
     3
  5
142
 10
20.0
 20
-40.0
 30
0.0
 11
-20.0
 21
-40.0
 31
0.0
  0
LINE
  8
0
  6
CONTINUOUS
 62
     3
  5
143
 10
-20.0
 20
-54.0
 30
0.0
 11
20.0
 21
-54.0
 31
0.0
  0
LINE
  8
0
  6
CONTINUOUS
 62
     3
  5
144
 10
20.0
 20
-44.75
 30
0.0
 11
20.0
 21
-47.25
 31
0.0
  0
LINE
  8
0
  6
CONTINUOUS
 62
     3
  5
145
 10
20.0
 20
-48.75
 30
0.0
 11
20.0
 21
-51.25
 31
0.0
  0
LINE
  8
0
  6
CONTINUOUS
 62
     3
  5
146
 10
20.0
 20
-52.75
 30
0.0
 11
20.0
 21
-54.0
 31
0.0
  0
LINE
  8
0
  6
CONTINUOUS
 62
     3
  5
147
 10
-20.0
 20
-44.75
 30
0.0
 11
-20.0
 21
-47.25
 31
0.0
  0
LINE
  8
0
  6
CONTINUOUS
 62
     3
  5
148
 10
-20.0
 20
-48.75
 30
0.0
 11
-20.0
 21
-51.25
 31
0.0
  0
LINE
  8
0
  6
CONTINUOUS
 62
     3
  5
149
 10
-20.0
 20
-52.75
 30
0.0
 11
-20.0
 21
-54.0
 31
0.0
  0
ARC
  8
0
  6
CONTINUOUS
 62
     3
  5
14A
 10
20.0
 20
-44.0
 30
0.0
 40
0.75
 50
90.0
 51
270.0
  0
ARC
  8
0
  6
CONTINUOUS
 62
     3
  5
14B
 10
20.0
 20
-48.0
 30
0.0
 40
0.75
 50
90.0
 51
270.0
  0
ARC
  8
0
  6
CONTINUOUS
 62
     3
  5
14C
 10
20.0
 20
-52.0
 30
0.0
 40
0.75
 50
90.0
 51
270.0
  0
ARC
  8
0
  6
CONTINUOUS
 62
     3
  5
14D
 10
-20.0
 20
-44.0
 30
0.0
 40
0.75
 50
270.0
 51
90.0
  0
ARC
  8
0
  6
CONTINUOUS
 62
     3
  5
14E
 10
-20.0
 20
-48.0
 30
0.0
 40
0.75
 50
270.0
 51
90.0
  0
ARC
  8
0
  6
CONTINUOUS
 62
     3
  5
14F
 10
-20.0
 20
-52.0
 30
0.0
 40
0.75
 50
270.0
 51
90.0
  0
LINE
  8
0
  6
CONTINUOUS
 62
     3
  5
150
 10
-20.0
 20
0.0
 30
0.0
 11
20.0
 21
0.0
 31
0.0
  0
ARC
  8
0
  6
CONTINUOUS
 62
     3
  5
151
 10
6.75
 20
-29.25
 30
0.0
 40
0.75
 50
270.0
 51
90.0
  0
LINE
  8
0
  6
CONTINUOUS
 62
     3
  5
152
 10
20.0
 20
-43.25
 30
0.0
 11
-20.0
 21
-43.25
 31
0.0
  0
LINE
  8
0
  6
CONTINUOUS
 62
     3
  5
153
 10
20.0
 20
-44.75
 30
0.0
 11
-20.0
 21
-44.75
 31
0.0
  0
LINE
  8
0
  6
CONTINUOUS
 62
     3
  5
154
 10
20.0
 20
-47.25
 30
0.0
 11
-20.0
 21
-47.25
 31
0.0
  0
LINE
  8
0
  6
CONTINUOUS
 62
     3
  5
155
 10
20.0
 20
-48.75
 30
0.0
 11
-20.0
 21
-48.75
 31
0.0
  0
LINE
  8
0
  6
CONTINUOUS
 62
     3
  5
156
 10
20.0
 20
-51.25
 30
0.0
 11
-20.0
 21
-51.25
 31
0.0
  0
LINE
  8
0
  6
CONTINUOUS
 62
     3
  5
157
 10
20.0
 20
-52.75
 30
0.0
 11
-20.0
 21
-52.75
 31
0.0
  0
ENDBLK
  8
0
  5
158
  0
BLOCK
  8
0
  5
159
  2
MS_6
 70
     0
 10
0.0
 20
0.0
 30
0.0
  3
MS_6
  0
CIRCLE
  8
0
  6
CONTINUOUS
 62
    80
  5
15A
 10
12.990381
 20
-7.5
 30
0.0
 40
2.75
  0
CIRCLE
  8
0
  6
CONTINUOUS
 62
    80
  5
15B
 10
12.990381
 20
-7.5
 30
0.0
 40
0.990381
  0
CIRCLE
  8
0
  6
CONTINUOUS
 62
     3
  5
15C
 10
12.990381
 20
-7.5
 30
0.0
 40
1.5
  0
CIRCLE
  8
0
  6
CONTINUOUS
 62
    80
  5
15D
 10
-12.990381
 20
-7.5
 30
0.0
 40
2.75
  0
CIRCLE
  8
0
  6
CONTINUOUS
 62
    80
  5
15E
 10
-12.990381
 20
-7.5
 30
0.0
 40
0.990381
  0
CIRCLE
  8
0
  6
CONTINUOUS
 62
     3
  5
15F
 10
-12.990381
 20
-7.5
 30
0.0
 40
1.5
  0
CIRCLE
  8
0
  6
CONTINUOUS
 62
    80
  5
160
 10
0.0
 20
15.0
 30
0.0
 40
0.990381
  0
CIRCLE
  8
0
  6
CONTINUOUS
 62
     3
  5
161
 10
0.0
 20
0.0
 30
0.0
 40
2.254809
  0
ARC
  8
0
  6
CONTINUOUS
 62
     3
  5
162
 10
0.0
 20
0.0
 30
0.0
 40
17.5
 50
341.05948
 51
78.94052
  0
ARC
  8
0
  6
CONTINUOUS
 62
     3
  5
163
 10
0.0
 20
0.0
 30
0.0
 40
17.5
 50
221.05948
 51
318.94052
  0
LINE
  8
0
  6
CONTINUOUS
 62
     3
  5
164
 10
12.990376
 20
-10.675424
 30
0.0
 11
10.240386
 21
-9.087716
 31
0.0
  0
LINE
  8
0
  6
CONTINUOUS
 62
     3
  5
165
 10
12.990374
 20
-10.675441
 30
0.0
 11
15.740365
 21
-9.087734
 31
0.0
  0
LINE
  8
0
  6
CONTINUOUS
 62
     3
  5
166
 10
15.740385
 20
-5.912304
 30
0.0
 11
15.740385
 21
-9.087719
 31
0.0
  0
LINE
  8
0
  6
CONTINUOUS
 62
     3
  5
167
 10
15.740376
 20
-5.912284
 30
0.0
 11
12.990386
 21
-4.324576
 31
0.0
  0
LINE
  8
0
  6
CONTINUOUS
 62
     3
  5
168
 10
10.240385
 20
-5.912304
 30
0.0
 11
10.240385
 21
-9.087719
 31
0.0
  0
LINE
  8
0
  6
CONTINUOUS
 62
     3
  5
169
 10
10.240374
 20
-5.912302
 30
0.0
 11
12.990365
 21
-4.324594
 31
0.0
  0
CIRCLE
  8
0
  6
CONTINUOUS
 62
     3
  5
16A
 10
12.990381
 20
-7.5
 30
0.0
 40
4.0
  0
LINE
  8
0
  6
CONTINUOUS
 62
     3
  5
16B
 10
-15.740376
 20
-5.912284
 30
0.0
 11
-12.990386
 21
-4.324576
 31
0.0
  0
LINE
  8
0
  6
CONTINUOUS
 62
     3
  5
16C
 10
-15.740391
 20
-5.912274
 30
0.0
 11
-15.740391
 21
-9.087689
 31
0.0
  0
LINE
  8
0
  6
CONTINUOUS
 62
     3
  5
16D
 10
-12.990398
 20
-10.675421
 30
0.0
 11
-15.740388
 21
-9.087714
 31
0.0
  0
LINE
  8
0
  6
CONTINUOUS
 62
     3
  5
16E
 10
-12.990376
 20
-10.675424
 30
0.0
 11
-10.240386
 21
-9.087716
 31
0.0
  0
LINE
  8
0
  6
CONTINUOUS
 62
     3
  5
16F
 10
-10.240398
 20
-5.912281
 30
0.0
 11
-12.990388
 21
-4.324574
 31
0.0
  0
LINE
  8
0
  6
CONTINUOUS
 62
     3
  5
170
 10
-10.240391
 20
-5.912274
 30
0.0
 11
-10.240391
 21
-9.087689
 31
0.0
  0
CIRCLE
  8
0
  6
CONTINUOUS
 62
     3
  5
171
 10
-12.990381
 20
-7.5
 30
0.0
 40
4.0
  0
LINE
  8
0
  6
CONTINUOUS
 62
     3
  5
172
 10
-2.75
 20
16.587708
 30
0.0
 11
-2.75
 21
13.412292
 31
0.0
  0
LINE
  8
0
  6
CONTINUOUS
 62
     3
  5
173
 10
-2.749987
 20
16.587725
 30
0.0
 11
0.000003
 21
18.175433
 31
0.0
  0
LINE
  8
0
  6
CONTINUOUS
 62
     3
  5
174
 10
2.750016
 20
16.587715
 30
0.0
 11
0.000026
 21
18.175422
 31
0.0
  0
LINE
  8
0
  6
CONTINUOUS
 62
     3
  5
175
 10
2.75
 20
16.587708
 30
0.0
 11
2.75
 21
13.412292
 31
0.0
  0
LINE
  8
0
  6
CONTINUOUS
 62
     3
  5
176
 10
0.000013
 20
11.824585
 30
0.0
 11
2.750003
 21
13.412293
 31
0.0
  0
LINE
  8
0
  6
CONTINUOUS
 62
     3
  5
177
 10
0.000016
 20
11.824575
 30
0.0
 11
-2.749974
 21
13.412283
 31
0.0
  0
CIRCLE
  8
0
  6
CONTINUOUS
 62
     3
  5
178
 10
0.0
 20
15.0
 30
0.0
 40
1.5
  0
CIRCLE
  8
0
  6
CONTINUOUS
 62
    80
  5
179
 10
0.0
 20
15.0
 30
0.0
 40
2.75
  0
CIRCLE
  8
0
  6
CONTINUOUS
 62
     3
  5
17A
 10
0.0
 20
15.0
 30
0.0
 40
4.0
  0
CIRCLE
  8
0
  6
CONTINUOUS
 62
     3
  5
17B
 10
0.0
 20
0.0
 30
0.0
 40
8.5
  0
ARC
  8
0
  6
CONTINUOUS
 62
     3
  5
17C
 10
0.0
 20
0.0
 30
0.0
 40
17.5
 50
101.05948
 51
198.94052
  0
CIRCLE
  8
0
  6
CONTINUOUS
 62
     3
  5
17D
 10
0.0
 20
0.0
 30
0.0
 40
20.0
  0
ENDBLK
  8
0
  5
17E
  0
BLOCK
  8
0
  5
17F
  2
MS_7
 70
     0
 10
0.0
 20
0.0
 30
0.0
  3
MS_7
  0
CIRCLE
  8
0
  6
CONTINUOUS
 62
     3
  5
180
 10
0.0
 20
0.0
 30
0.0
 40
18.0
  0
CIRCLE
  8
0
  6
CONTINUOUS
 62
     3
  5
181
 10
0.0
 20
0.0
 30
0.0
 40
18.5
  0
CIRCLE
  8
0
  6
CONTINUOUS
 62
     3
  5
182
 10
0.0
 20
0.0
 30
0.0
 40
19.5
  0
CIRCLE
  8
0
  6
CONTINUOUS
 62
     3
  5
183
 10
0.0
 20
0.0
 30
0.0
 40
20.0
  0
CIRCLE
  8
0
  6
CONTINUOUS
 62
    80
  5
184
 10
0.0
 20
0.0
 30
0.0
 40
5.0
  0
CIRCLE
  8
0
  6
CONTINUOUS
 62
    80
  5
185
 10
0.0
 20
0.0
 30
0.0
 40
6.0
  0
CIRCLE
  8
0
  6
CONTINUOUS
 62
    80
  5
186
 10
0.0
 20
0.0
 30
0.0
 40
8.0
  0
CIRCLE
  8
0
  6
CONTINUOUS
 62
    80
  5
187
 10
0.0
 20
0.0
 30
0.0
 40
9.0
  0
CIRCLE
  8
0
  6
CONTINUOUS
 62
    80
  5
188
 10
0.0
 20
0.0
 30
0.0
 40
11.0
  0
CIRCLE
  8
0
  6
CONTINUOUS
 62
    80
  5
189
 10
0.0
 20
0.0
 30
0.0
 40
12.0
  0
CIRCLE
  8
0
  6
CONTINUOUS
 62
    80
  5
18A
 10
0.0
 20
0.0
 30
0.0
 40
14.0
  0
CIRCLE
  8
0
  6
CONTINUOUS
 62
    80
  5
18B
 10
0.0
 20
0.0
 30
0.0
 40
15.0
  0
CIRCLE
  8
0
  6
CONTINUOUS
 62
    80
  5
18C
 10
0.0
 20
0.0
 30
0.0
 40
17.0
  0
ENDBLK
  8
0
  5
18D
  0
BLOCK
  8
0
  5
18E
  2
MS_8
 70
     0
 10
0.0
 20
0.0
 30
0.0
  3
MS_8
  0
LINE
  8
0
  6
CONTINUOUS
 62
     3
  5
18F
 10
0.990381
 20
-108.5
 30
0.0
 11
-1.009619
 21
-108.5
 31
0.0
  0
LINE
  8
0
  6
CONTINUOUS
 62
     3
  5
190
 10
1.490381
 20
-108.0
 30
0.0
 11
1.490381
 21
-100.3
 31
0.0
  0
LINE
  8
0
  6
CONTINUOUS
 62
     3
  5
191
 10
-1.509619
 20
-108.0
 30
0.0
 11
-1.509619
 21
-100.3
 31
0.0
  0
LINE
  8
0
  6
CONTINUOUS
 62
     3
  5
192
 10
0.990381
 20
-108.5
 30
0.0
 11
1.490381
 21
-108.0
 31
0.0
  0
LINE
  8
0
  6
CONTINUOUS
 62
     3
  5
193
 10
-1.509619
 20
-108.0
 30
0.0
 11
-1.009619
 21
-108.5
 31
0.0
  0
LINE
  8
0
  6
CONTINUOUS
 62
    80
  5
194
 10
1.490381
 20
-108.0
 30
0.0
 11
-1.509619
 21
-108.0
 31
0.0
  0
LINE
  8
0
  6
CONTINUOUS
 62
    80
  5
195
 10
0.990381
 20
-108.5
 30
0.0
 11
0.990381
 21
-100.3
 31
0.0
  0
LINE
  8
0
  6
CONTINUOUS
 62
    80
  5
196
 10
-1.009619
 20
-108.5
 30
0.0
 11
-1.009619
 21
-100.3
 31
0.0
  0
LINE
  8
0
  6
CONTINUOUS
 62
     3
  5
197
 10
3.990381
 20
-97.1
 30
0.0
 11
-4.009619
 21
-97.1
 31
0.0
  0
LINE
  8
0
  6
CONTINUOUS
 62
     3
  5
198
 10
2.990381
 20
-97.9
 30
0.0
 11
-3.009619
 21
-97.9
 31
0.0
  0
LINE
  8
0
  6
CONTINUOUS
 62
     3
  5
199
 10
2.990381
 20
-97.9
 30
0.0
 11
2.990381
 21
-97.1
 31
0.0
  0
LINE
  8
0
  6
CONTINUOUS
 62
     3
  5
19A
 10
-3.009619
 20
-97.9
 30
0.0
 11
-3.009619
 21
-97.1
 31
0.0
  0
LINE
  8
0
  6
CONTINUOUS
 62
     3
  5
19B
 10
0.390381
 20
-97.1
 30
0.0
 11
-0.409619
 21
-97.9
 31
0.0
  0
ARC
  8
0
  6
CONTINUOUS
 62
    80
  5
19C
 10
-2.39115
 20
-98.894238
 30
0.0
 40
1.405748
 50
235.617151
 51
304.382839
  0
ARC
  8
0
  6
CONTINUOUS
 62
    80
  5
19D
 10
-0.009619
 20
-95.045422
 30
0.0
 40
5.254578
 50
252.412791
 51
287.587199
  0
ARC
  8
0
  6
CONTINUOUS
 62
    80
  5
19E
 10
2.371912
 20
-98.894238
 30
0.0
 40
1.405748
 50
235.617151
 51
304.382839
  0
LINE
  8
0
  6
CONTINUOUS
 62
     3
  5
19F
 10
3.165796
 20
-97.9
 30
0.0
 11
-3.185034
 21
-97.9
 31
0.0
  0
LINE
  8
0
  6
CONTINUOUS
 62
    80
  5
1A0
 10
-1.597326
 20
-97.9
 30
0.0
 11
-1.597326
 21
-100.054395
 31
0.0
  0
LINE
  8
0
  6
CONTINUOUS
 62
     3
  5
1A1
 10
-3.185057
 20
-100.054433
 30
0.0
 11
-2.759649
 21
-100.300042
 31
0.0
  0
LINE
  8
0
  6
CONTINUOUS
 62
     3
  5
1A2
 10
-3.185034
 20
-97.9
 30
0.0
 11
-3.185034
 21
-100.054395
 31
0.0
  0
LINE
  8
0
  6
CONTINUOUS
 62
    80
  5
1A3
 10
1.578089
 20
-97.9
 30
0.0
 11
1.578089
 21
-100.054395
 31
0.0
  0
LINE
  8
0
  6
CONTINUOUS
 62
     3
  5
1A4
 10
3.16577
 20
-100.054382
 30
0.0
 11
2.740369
 21
-100.299988
 31
0.0
  0
LINE
  8
0
  6
CONTINUOUS
 62
     3
  5
1A5
 10
3.165796
 20
-97.9
 30
0.0
 11
3.165796
 21
-100.054395
 31
0.0
  0
LINE
  8
0
  6
CONTINUOUS
 62
     3
  5
1A6
 10
2.740381
 20
-100.3
 30
0.0
 11
-2.759619
 21
-100.3
 31
0.0
  0
LINE
  8
0
  6
CONTINUOUS
 62
     3
  5
1A7
 10
11.990381
 20
-108.5
 30
0.0
 11
13.990381
 21
-108.5
 31
0.0
  0
LINE
  8
0
  6
CONTINUOUS
 62
     3
  5
1A8
 10
11.490381
 20
-108.0
 30
0.0
 11
11.490381
 21
-100.3
 31
0.0
  0
LINE
  8
0
  6
CONTINUOUS
 62
     3
  5
1A9
 10
14.490381
 20
-108.0
 30
0.0
 11
14.490381
 21
-100.3
 31
0.0
  0
LINE
  8
0
  6
CONTINUOUS
 62
     3
  5
1AA
 10
11.990381
 20
-108.5
 30
0.0
 11
11.490381
 21
-108.0
 31
0.0
  0
LINE
  8
0
  6
CONTINUOUS
 62
     3
  5
1AB
 10
14.490381
 20
-108.0
 30
0.0
 11
13.990381
 21
-108.5
 31
0.0
  0
LINE
  8
0
  6
CONTINUOUS
 62
    80
  5
1AC
 10
11.490381
 20
-108.0
 30
0.0
 11
14.490381
 21
-108.0
 31
0.0
  0
LINE
  8
0
  6
CONTINUOUS
 62
    80
  5
1AD
 10
11.990381
 20
-108.5
 30
0.0
 11
11.990381
 21
-100.3
 31
0.0
  0
LINE
  8
0
  6
CONTINUOUS
 62
    80
  5
1AE
 10
13.990381
 20
-108.5
 30
0.0
 11
13.990381
 21
-100.3
 31
0.0
  0
LINE
  8
0
  6
CONTINUOUS
 62
     3
  5
1AF
 10
8.990381
 20
-97.1
 30
0.0
 11
16.990381
 21
-97.1
 31
0.0
  0
LINE
  8
0
  6
CONTINUOUS
 62
     3
  5
1B0
 10
9.990381
 20
-97.9
 30
0.0
 11
15.990381
 21
-97.9
 31
0.0
  0
LINE
  8
0
  6
CONTINUOUS
 62
     3
  5
1B1
 10
9.990381
 20
-97.9
 30
0.0
 11
9.990381
 21
-97.1
 31
0.0
  0
LINE
  8
0
  6
CONTINUOUS
 62
     3
  5
1B2
 10
15.990381
 20
-97.9
 30
0.0
 11
15.990381
 21
-97.1
 31
0.0
  0
LINE
  8
0
  6
CONTINUOUS
 62
     3
  5
1B3
 10
12.590381
 20
-97.9
 30
0.0
 11
13.390381
 21
-97.1
 31
0.0
  0
ARC
  8
0
  6
CONTINUOUS
 62
    80
  5
1B4
 10
15.371912
 20
-98.894238
 30
0.0
 40
1.405748
 50
235.617161
 51
304.382849
  0
ARC
  8
0
  6
CONTINUOUS
 62
    80
  5
1B5
 10
12.990381
 20
-95.045422
 30
0.0
 40
5.254578
 50
252.412801
 51
287.587209
  0
ARC
  8
0
  6
CONTINUOUS
 62
    80
  5
1B6
 10
10.60885
 20
-98.894238
 30
0.0
 40
1.405748
 50
235.617161
 51
304.382849
  0
LINE
  8
0
  6
CONTINUOUS
 62
     3
  5
1B7
 10
9.814966
 20
-97.9
 30
0.0
 11
16.165796
 21
-97.9
 31
0.0
  0
LINE
  8
0
  6
CONTINUOUS
 62
    80
  5
1B8
 10
14.578089
 20
-97.9
 30
0.0
 11
14.578089
 21
-100.054395
 31
0.0
  0
LINE
  8
0
  6
CONTINUOUS
 62
     3
  5
1B9
 10
16.165819
 20
-100.054433
 30
0.0
 11
15.740411
 21
-100.300042
 31
0.0
  0
LINE
  8
0
  6
CONTINUOUS
 62
     3
  5
1BA
 10
16.165796
 20
-97.9
 30
0.0
 11
16.165796
 21
-100.054395
 31
0.0
  0
LINE
  8
0
  6
CONTINUOUS
 62
    80
  5
1BB
 10
11.402674
 20
-97.9
 30
0.0
 11
11.402674
 21
-100.054395
 31
0.0
  0
LINE
  8
0
  6
CONTINUOUS
 62
     3
  5
1BC
 10
9.814992
 20
-100.054382
 30
0.0
 11
10.240393
 21
-100.299988
 31
0.0
  0
LINE
  8
0
  6
CONTINUOUS
 62
     3
  5
1BD
 10
9.814966
 20
-97.9
 30
0.0
 11
9.814966
 21
-100.054395
 31
0.0
  0
LINE
  8
0
  6
CONTINUOUS
 62
     3
  5
1BE
 10
10.240381
 20
-100.3
 30
0.0
 11
15.740381
 21
-100.3
 31
0.0
  0
LINE
  8
0
  6
CONTINUOUS
 62
     3
  5
1BF
 10
-10.25
 20
-100.3
 30
0.0
 11
-15.75
 21
-100.3
 31
0.0
  0
LINE
  8
0
  6
CONTINUOUS
 62
     3
  5
1C0
 10
-9.824585
 20
-97.9
 30
0.0
 11
-9.824585
 21
-100.054395
 31
0.0
  0
LINE
  8
0
  6
CONTINUOUS
 62
     3
  5
1C1
 10
-9.824611
 20
-100.054382
 30
0.0
 11
-10.250012
 21
-100.299988
 31
0.0
  0
LINE
  8
0
  6
CONTINUOUS
 62
    80
  5
1C2
 10
-11.412292
 20
-97.9
 30
0.0
 11
-11.412292
 21
-100.054395
 31
0.0
  0
LINE
  8
0
  6
CONTINUOUS
 62
     3
  5
1C3
 10
-16.175415
 20
-97.9
 30
0.0
 11
-16.175415
 21
-100.054395
 31
0.0
  0
LINE
  8
0
  6
CONTINUOUS
 62
     3
  5
1C4
 10
-16.175438
 20
-100.054433
 30
0.0
 11
-15.75003
 21
-100.300042
 31
0.0
  0
LINE
  8
0
  6
CONTINUOUS
 62
    80
  5
1C5
 10
-14.587708
 20
-97.9
 30
0.0
 11
-14.587708
 21
-100.054395
 31
0.0
  0
LINE
  8
0
  6
CONTINUOUS
 62
     3
  5
1C6
 10
-9.824585
 20
-97.9
 30
0.0
 11
-16.175415
 21
-97.9
 31
0.0
  0
ARC
  8
0
  6
CONTINUOUS
 62
    80
  5
1C7
 10
-10.618469
 20
-98.894238
 30
0.0
 40
1.405748
 50
235.617151
 51
304.382839
  0
ARC
  8
0
  6
CONTINUOUS
 62
    80
  5
1C8
 10
-13.0
 20
-95.045422
 30
0.0
 40
5.254578
 50
252.412791
 51
287.587199
  0
ARC
  8
0
  6
CONTINUOUS
 62
    80
  5
1C9
 10
-15.381531
 20
-98.894238
 30
0.0
 40
1.405748
 50
235.617151
 51
304.382839
  0
LINE
  8
0
  6
CONTINUOUS
 62
     3
  5
1CA
 10
-12.6
 20
-97.1
 30
0.0
 11
-13.4
 21
-97.9
 31
0.0
  0
LINE
  8
0
  6
CONTINUOUS
 62
     3
  5
1CB
 10
-16.0
 20
-97.9
 30
0.0
 11
-16.0
 21
-97.1
 31
0.0
  0
LINE
  8
0
  6
CONTINUOUS
 62
     3
  5
1CC
 10
-10.0
 20
-97.9
 30
0.0
 11
-10.0
 21
-97.1
 31
0.0
  0
LINE
  8
0
  6
CONTINUOUS
 62
     3
  5
1CD
 10
-10.0
 20
-97.9
 30
0.0
 11
-16.0
 21
-97.9
 31
0.0
  0
LINE
  8
0
  6
CONTINUOUS
 62
     3
  5
1CE
 10
-9.0
 20
-97.1
 30
0.0
 11
-17.0
 21
-97.1
 31
0.0
  0
LINE
  8
0
  6
CONTINUOUS
 62
    80
  5
1CF
 10
-14.0
 20
-108.5
 30
0.0
 11
-14.0
 21
-100.3
 31
0.0
  0
LINE
  8
0
  6
CONTINUOUS
 62
    80
  5
1D0
 10
-12.0
 20
-108.5
 30
0.0
 11
-12.0
 21
-100.3
 31
0.0
  0
LINE
  8
0
  6
CONTINUOUS
 62
    80
  5
1D1
 10
-11.5
 20
-108.0
 30
0.0
 11
-14.5
 21
-108.0
 31
0.0
  0
LINE
  8
0
  6
CONTINUOUS
 62
     3
  5
1D2
 10
-14.5
 20
-108.0
 30
0.0
 11
-14.0
 21
-108.5
 31
0.0
  0
LINE
  8
0
  6
CONTINUOUS
 62
     3
  5
1D3
 10
-12.0
 20
-108.5
 30
0.0
 11
-11.5
 21
-108.0
 31
0.0
  0
LINE
  8
0
  6
CONTINUOUS
 62
     3
  5
1D4
 10
-14.5
 20
-108.0
 30
0.0
 11
-14.5
 21
-100.3
 31
0.0
  0
LINE
  8
0
  6
CONTINUOUS
 62
     3
  5
1D5
 10
-11.5
 20
-108.0
 30
0.0
 11
-11.5
 21
-100.3
 31
0.0
  0
LINE
  8
0
  6
CONTINUOUS
 62
     3
  5
1D6
 10
-12.0
 20
-108.5
 30
0.0
 11
-14.0
 21
-108.5
 31
0.0
  0
LINE
  8
0
  6
CONTINUOUS
 62
     3
  5
1D7
 10
-9.0
 20
-97.1
 30
0.0
 11
-9.0
 21
-96.5
 31
0.0
  0
LINE
  8
0
  6
CONTINUOUS
 62
     3
  5
1D8
 10
-17.0
 20
-97.1
 30
0.0
 11
-17.0
 21
-96.5
 31
0.0
  0
LINE
  8
0
  6
CONTINUOUS
 62
     3
  5
1D9
 10
8.990381
 20
-97.1
 30
0.0
 11
8.990381
 21
-96.5
 31
0.0
  0
LINE
  8
0
  6
CONTINUOUS
 62
     3
  5
1DA
 10
16.990381
 20
-97.1
 30
0.0
 11
16.990381
 21
-96.5
 31
0.0
  0
LINE
  8
0
  6
CONTINUOUS
 62
     3
  5
1DB
 10
3.990381
 20
-97.1
 30
0.0
 11
3.990381
 21
-96.5
 31
0.0
  0
LINE
  8
0
  6
CONTINUOUS
 62
     3
  5
1DC
 10
-4.009619
 20
-97.1
 30
0.0
 11
-4.009619
 21
-96.5
 31
0.0
  0
LINE
  8
0
  6
CONTINUOUS
 62
     3
  5
1DD
 10
-20.0
 20
0.0
 30
0.0
 11
20.0
 21
0.0
 31
0.0
  0
LINE
  8
0
  6
CONTINUOUS
 62
     3
  5
1DE
 10
26.0
 20
-57.5
 30
0.0
 11
26.0
 21
-60.0
 31
0.0
  0
LINE
  8
0
  6
CONTINUOUS
 62
     3
  5
1DF
 10
20.0
 20
-82.5
 30
0.0
 11
-20.0
 21
-82.5
 31
0.0
  0
ARC
  8
0
  6
CONTINUOUS
 62
     3
  5
1E0
 10
-0.000003
 20
-16.613252
 30
0.0
 40
26.0
 50
140.284851
 51
179.970797
  0
LINE
  8
0
  6
CONTINUOUS
 62
     3
  5
1E1
 10
20.0
 20
-82.5
 30
0.0
 11
20.0
 21
-85.75
 31
0.0
  0
LINE
  8
0
  6
CONTINUOUS
 62
     3
  5
1E2
 10
-20.0
 20
-96.5
 30
0.0
 11
20.0
 21
-96.5
 31
0.0
  0
LINE
  8
0
  6
CONTINUOUS
 62
     3
  5
1E3
 10
20.0
 20
-87.25
 30
0.0
 11
20.0
 21
-89.75
 31
0.0
  0
LINE
  8
0
  6
CONTINUOUS
 62
     3
  5
1E4
 10
20.0
 20
-91.25
 30
0.0
 11
20.0
 21
-93.75
 31
0.0
  0
LINE
  8
0
  6
CONTINUOUS
 62
     3
  5
1E5
 10
20.0
 20
-95.25
 30
0.0
 11
20.0
 21
-96.5
 31
0.0
  0
LINE
  8
0
  6
CONTINUOUS
 62
     3
  5
1E6
 10
-20.0
 20
-82.5
 30
0.0
 11
-20.0
 21
-85.75
 31
0.0
  0
LINE
  8
0
  6
CONTINUOUS
 62
     3
  5
1E7
 10
-20.0
 20
-87.25
 30
0.0
 11
-20.0
 21
-89.75
 31
0.0
  0
LINE
  8
0
  6
CONTINUOUS
 62
     3
  5
1E8
 10
-20.0
 20
-91.25
 30
0.0
 11
-20.0
 21
-93.75
 31
0.0
  0
LINE
  8
0
  6
CONTINUOUS
 62
     3
  5
1E9
 10
-20.0
 20
-95.25
 30
0.0
 11
-20.0
 21
-96.5
 31
0.0
  0
ARC
  8
0
  6
CONTINUOUS
 62
     3
  5
1EA
 10
20.0
 20
-86.5
 30
0.0
 40
0.75
 50
90.0
 51
270.0
  0
ARC
  8
0
  6
CONTINUOUS
 62
     3
  5
1EB
 10
20.0
 20
-90.5
 30
0.0
 40
0.75
 50
90.0
 51
270.0
  0
ARC
  8
0
  6
CONTINUOUS
 62
     3
  5
1EC
 10
20.0
 20
-94.5
 30
0.0
 40
0.75
 50
90.0
 51
270.0
  0
ARC
  8
0
  6
CONTINUOUS
 62
     3
  5
1ED
 10
-20.0
 20
-86.5
 30
0.0
 40
0.75
 50
270.0
 51
90.0
  0
ARC
  8
0
  6
CONTINUOUS
 62
     3
  5
1EE
 10
-20.0
 20
-90.5
 30
0.0
 40
0.75
 50
270.0
 51
90.0
  0
ARC
  8
0
  6
CONTINUOUS
 62
     3
  5
1EF
 10
-20.0
 20
-94.5
 30
0.0
 40
0.75
 50
270.0
 51
90.0
  0
LINE
  8
0
  6
CONTINUOUS
 62
     3
  5
1F0
 10
26.0
 20
-52.5
 30
0.0
 11
26.0
 21
-55.0
 31
0.0
  0
LINE
  8
0
  6
CONTINUOUS
 62
     3
  5
1F1
 10
26.0
 20
-50.0
 30
0.0
 11
26.0
 21
-16.6
 31
0.0
  0
LINE
  8
0
  6
CONTINUOUS
 62
     3
  5
1F2
 10
25.0
 20
-55.0
 30
0.0
 11
25.0
 21
-57.5
 31
0.0
  0
LINE
  8
0
  6
CONTINUOUS
 62
     3
  5
1F3
 10
-25.0
 20
-50.0
 30
0.0
 11
-25.0
 21
-52.5
 31
0.0
  0
LINE
  8
0
  6
CONTINUOUS
 62
     3
  5
1F4
 10
25.0
 20
-60.0
 30
0.0
 11
25.0
 21
-62.5
 31
0.0
  0
LINE
  8
0
  6
CONTINUOUS
 62
     3
  5
1F5
 10
25.0
 20
-50.0
 30
0.0
 11
25.0
 21
-52.5
 31
0.0
  0
LINE
  8
0
  6
CONTINUOUS
 62
     3
  5
1F6
 10
-26.0
 20
-52.5
 30
0.0
 11
-26.0
 21
-55.0
 31
0.0
  0
LINE
  8
0
  6
CONTINUOUS
 62
     3
  5
1F7
 10
-26.0
 20
-50.0
 30
0.0
 11
-26.0
 21
-16.6
 31
0.0
  0
LINE
  8
0
  6
CONTINUOUS
 62
     3
  5
1F8
 10
-26.0
 20
-62.5
 30
0.0
 11
-26.0
 21
-65.9
 31
0.0
  0
LINE
  8
0
  6
CONTINUOUS
 62
     3
  5
1F9
 10
-26.0
 20
-57.5
 30
0.0
 11
-26.0
 21
-60.0
 31
0.0
  0
LINE
  8
0
  6
CONTINUOUS
 62
     3
  5
1FA
 10
-26.0
 20
-60.0
 30
0.0
 11
26.0
 21
-60.0
 31
0.0
  0
LINE
  8
0
  6
CONTINUOUS
 62
     3
  5
1FB
 10
26.0
 20
-62.5
 30
0.0
 11
-26.0
 21
-62.5
 31
0.0
  0
LINE
  8
0
  6
CONTINUOUS
 62
     3
  5
1FC
 10
-25.0
 20
-55.0
 30
0.0
 11
-25.0
 21
-57.5
 31
0.0
  0
LINE
  8
0
  6
CONTINUOUS
 62
     3
  5
1FD
 10
26.0
 20
-50.0
 30
0.0
 11
-26.0
 21
-50.0
 31
0.0
  0
LINE
  8
0
  6
CONTINUOUS
 62
     3
  5
1FE
 10
-25.0
 20
-60.0
 30
0.0
 11
-25.0
 21
-62.5
 31
0.0
  0
LINE
  8
0
  6
CONTINUOUS
 62
     3
  5
1FF
 10
26.0
 20
-55.0
 30
0.0
 11
-26.0
 21
-55.0
 31
0.0
  0
LINE
  8
0
  6
CONTINUOUS
 62
     3
  5
200
 10
26.0
 20
-57.5
 30
0.0
 11
-26.0
 21
-57.5
 31
0.0
  0
LINE
  8
0
  6
CONTINUOUS
 62
     3
  5
201
 10
-26.0
 20
-52.5
 30
0.0
 11
26.0
 21
-52.5
 31
0.0
  0
ARC
  8
0
  6
CONTINUOUS
 62
     3
  5
202
 10
-0.000003
 20
-65.886748
 30
0.0
 40
26.0
 50
180.029203
 51
219.715149
  0
ARC
  8
0
  6
CONTINUOUS
 62
     3
  5
203
 10
0.000003
 20
-16.613252
 30
0.0
 40
26.0
 50
0.029203
 51
39.715149
  0
ARC
  8
0
  6
CONTINUOUS
 62
     3
  5
204
 10
0.000003
 20
-65.886748
 30
0.0
 40
26.0
 50
320.284851
 51
359.970797
  0
LINE
  8
0
  6
CONTINUOUS
 62
     3
  5
205
 10
26.0
 20
-62.5
 30
0.0
 11
26.0
 21
-65.9
 31
0.0
  0
LINE
  8
0
  6
CONTINUOUS
 62
     3
  5
206
 10
20.0
 20
-85.75
 30
0.0
 11
-20.0
 21
-85.75
 31
0.0
  0
LINE
  8
0
  6
CONTINUOUS
 62
     3
  5
207
 10
20.0
 20
-87.25
 30
0.0
 11
-20.0
 21
-87.25
 31
0.0
  0
LINE
  8
0
  6
CONTINUOUS
 62
     3
  5
208
 10
20.0
 20
-89.75
 30
0.0
 11
-20.0
 21
-89.75
 31
0.0
  0
LINE
  8
0
  6
CONTINUOUS
 62
     3
  5
209
 10
20.0
 20
-91.25
 30
0.0
 11
-20.0
 21
-91.25
 31
0.0
  0
LINE
  8
0
  6
CONTINUOUS
 62
     3
  5
20A
 10
20.0
 20
-93.75
 30
0.0
 11
-20.0
 21
-93.75
 31
0.0
  0
LINE
  8
0
  6
CONTINUOUS
 62
     3
  5
20B
 10
20.0
 20
-95.25
 30
0.0
 11
-20.0
 21
-95.25
 31
0.0
  0
ENDBLK
  8
0
  5
20C
  0
ENDSEC
  0
SECTION
  2
ENTITIES
  0
INSERT
  8
0
  6
BYBLOCK
  5
20D
  2
MS_8
 10
70.769362
 20
378.452313
 30
0.0
  0
INSERT
  8
0
  6
BYBLOCK
  5
20E
  2
MS_8
 10
270.769362
 20
378.452313
 30
0.0
  0
INSERT
  8
0
  6
BYBLOCK
  5
20F
  2
MS_8
 10
470.769362
 20
378.452313
 30
0.0
  0
INSERT
  8
0
  6
BYBLOCK
  5
210
  2
MS_8
 10
670.769362
 20
378.452313
 30
0.0
  0
INSERT
  8
0
  6
BYBLOCK
  5
211
  2
MS_8
 10
870.769362
 20
378.452313
 30
0.0
  0
INSERT
  8
0
  6
BYBLOCK
  5
212
  2
MS_6
 10
70.769362
 20
200.952313
 30
0.0
  0
INSERT
  8
0
  6
BYBLOCK
  5
213
  2
MS_6
 10
270.769362
 20
200.952313
 30
0.0
  0
INSERT
  8
0
  6
BYBLOCK
  5
214
  2
MS_6
 10
470.769362
 20
200.952313
 30
0.0
  0
INSERT
  8
0
  6
BYBLOCK
  5
215
  2
MS_6
 10
670.769362
 20
200.952313
 30
0.0
  0
INSERT
  8
0
  6
BYBLOCK
  5
216
  2
MS_7
 10
70.769362
 20
700.952313
 30
0.0
  0
INSERT
  8
0
  6
BYBLOCK
  5
217
  2
MS_7
 10
270.769362
 20
700.952313
 30
0.0
  0
INSERT
  8
0
  6
BYBLOCK
  5
218
  2
MS_7
 10
470.769362
 20
700.952313
 30
0.0
  0
INSERT
  8
0
  6
BYBLOCK
  5
219
  2
MS_7
 10
670.769362
 20
700.952313
 30
0.0
  0
INSERT
  8
0
  6
BYBLOCK
  5
21A
  2
MS_7
 10
870.769362
 20
700.952313
 30
0.0
  0
INSERT
  8
0
  6
BYBLOCK
  5
21B
  2
MS_6
 10
870.769362
 20
200.952313
 30
0.0
  0
INSERT
  8
0
  6
BYBLOCK
  5
21C
  2
MS_4
 10
870.769362
 20
640.952313
 30
0.0
  0
INSERT
  8
0
  6
BYBLOCK
  5
21D
  2
MS_1
 10
870.769362
 20
640.952313
 30
0.0
  0
INSERT
  8
0
  6
BYBLOCK
  5
21E
  2
MS_1
 10
870.769362
 20
588.452313
 30
0.0
  0
INSERT
  8
0
  6
BYBLOCK
  5
21F
  2
MS_1
 10
870.769362
 20
535.952313
 30
0.0
  0
INSERT
  8
0
  6
BYBLOCK
  5
220
  2
MS_1
 10
870.769362
 20
483.452313
 30
0.0
  0
INSERT
  8
0
  6
BYBLOCK
  5
221
  2
MS_1
 10
870.769362
 20
430.952313
 30
0.0
  0
INSERT
  8
0
  6
BYBLOCK
  5
222
  2
MS_4
 10
670.769362
 20
588.452313
 30
0.0
  0
INSERT
  8
0
  6
BYBLOCK
  5
223
  2
MS_1
 10
670.769362
 20
588.452313
 30
0.0
  0
INSERT
  8
0
  6
BYBLOCK
  5
224
  2
MS_1
 10
670.769362
 20
535.952313
 30
0.0
  0
INSERT
  8
0
  6
BYBLOCK
  5
225
  2
MS_1
 10
670.769362
 20
483.452313
 30
0.0
  0
INSERT
  8
0
  6
BYBLOCK
  5
226
  2
MS_1
 10
670.769362
 20
430.952313
 30
0.0
  0
INSERT
  8
0
  6
BYBLOCK
  5
227
  2
MS_4
 10
470.769362
 20
535.952313
 30
0.0
  0
INSERT
  8
0
  6
BYBLOCK
  5
228
  2
MS_1
 10
470.769362
 20
535.952313
 30
0.0
  0
INSERT
  8
0
  6
BYBLOCK
  5
229
  2
MS_1
 10
470.769362
 20
483.452313
 30
0.0
  0
INSERT
  8
0
  6
BYBLOCK
  5
22A
  2
MS_1
 10
470.769362
 20
430.952313
 30
0.0
  0
INSERT
  8
0
  6
BYBLOCK
  5
22B
  2
MS_4
 10
270.769362
 20
483.452313
 30
0.0
  0
INSERT
  8
0
  6
BYBLOCK
  5
22C
  2
MS_1
 10
270.769362
 20
483.452313
 30
0.0
  0
INSERT
  8
0
  6
BYBLOCK
  5
22D
  2
MS_1
 10
270.769362
 20
430.952313
 30
0.0
  0
INSERT
  8
0
  6
BYBLOCK
  5
22E
  2
MS_1
 10
70.769362
 20
430.952313
 30
0.0
  0
INSERT
  8
0
  6
BYBLOCK
  5
22F
  2
MS_4
 10
70.769362
 20
430.952313
 30
0.0
  0
ENDSEC
  0
EOF
