  0
SECTION
  2
HEADER
  9
$ACADVER
  1
AC1009
  9
$DWGCODEPAGE
  3
dos932
  9
$INSBASE
 10
0.0
 20
0.0
 30
0.0
  9
$EXTMIN
 10
45.0
 20
45.0
 30
0.0
  9
$EXTMAX
 10
947.0
 20
707.0
 30
0.0
  9
$LIMMIN
 10
45.0
 20
45.0
  9
$LIMMAX
 10
947.0
 20
707.0
  9
$ORTHOMODE
 70
     0
  9
$REGENMODE
 70
     1
  9
$FILLMODE
 70
     1
  9
$QTEXTMODE
 70
     0
  9
$MIRRTEXT
 70
     1
  9
$DRAGMODE
 70
     2
  9
$LTSCALE
 40
1.0
  9
$OSMODE
 70
     0
  9
$ATTMODE
 70
     1
  9
$TEXTSIZE
 40
4.1656
  9
$TRACEWID
 40
0.05
  9
$TEXTSTYLE
  7
MX_NOTE_STANDARD
  9
$CLAYER
  8
0
  9
$CELTYPE
  6
CONTINUOUS
  9
$CECOLOR
 62
   256
  9
$DIMSCALE
 40
1.0
  9
$DIMASZ
 40
2.5
  9
$DIMEXO
 40
0.5
  9
$DIMDLI
 40
3.75
  9
$DIMRND
 40
0.0
  9
$DIMDLE
 40
0.0
  9
$DIMEXE
 40
1.0
  9
$DIMTP
 40
0.0
  9
$DIMTM
 40
0.0
  9
$DIMTXT
 40
2.5
  9
$DIMCEN
 40
2.5
  9
$DIMTSZ
 40
0.0
  9
$DIMTOL
 70
     0
  9
$DIMLIM
 70
     0
  9
$DIMTIH
 70
     0
  9
$DIMTOH
 70
     0
  9
$DIMSE1
 70
     0
  9
$DIMSE2
 70
     0
  9
$DIMTAD
 70
     1
  9
$DIMZIN
 70
     8
  9
$DIMBLK
  1

  9
$DIMASO
 70
     1
  9
$DIMSHO
 70
     1
  9
$DIMPOST
  1

  9
$DIMAPOST
  1

  9
$DIMALT
 70
     0
  9
$DIMALTD
 70
     4
  9
$DIMALTF
 40
0.03937
  9
$DIMLFAC
 40
1.0
  9
$DIMTOFL
 70
     1
  9
$DIMTVP
 40
0.0
  9
$DIMTIX
 70
     0
  9
$DIMSOXD
 70
     0
  9
$DIMSAH
 70
     0
  9
$DIMBLK1
  1

  9
$DIMBLK2
  1

  9
$DIMSTYLE
  2
MXDIMSTYLE
  9
$DIMCLRD
 70
     0
  9
$DIMCLRE
 70
     0
  9
$DIMCLRT
 70
     0
  9
$DIMTFAC
 40
1.0
  9
$DIMGAP
 40
1.0
  9
$LUNITS
 70
     2
  9
$LUPREC
 70
     4
  9
$AXISMODE
 70
     0
  9
$AXISUNIT
 10
0.0
 20
0.0
  9
$SKETCHINC
 40
0.1
  9
$FILLETRAD
 40
0.0
  9
$AUNITS
 70
     0
  9
$AUPREC
 70
     0
  9
$MENU
  1
acad
  9
$ELEVATION
 40
0.0
  9
$PELEVATION
 40
0.0
  9
$THICKNESS
 40
0.0
  9
$LIMCHECK
 70
     0
  9
$BLIPMODE
 70
     1
  9
$CHAMFERA
 40
0.0
  9
$CHAMFERB
 40
0.0
  9
$SKPOLY
 70
     0
  9
$TDCREATE
 40
2453858.567442130
  9
$TDUPDATE
 40
2453858.567442130
  9
$TDINDWG
 40
0.0000000000
  9
$TDUSRTIMER
 40
0.0000000000
  9
$USRTIMER
 70
     1
  9
$ANGBASE
 50
0.0
  9
$ANGDIR
 70
     0
  9
$PDMODE
 70
     0
  9
$PDSIZE
 40
0.0
  9
$PLINEWID
 40
0.0
  9
$COORDS
 70
     1
  9
$SPLFRAME
 70
     0
  9
$SPLINETYPE
 70
     6
  9
$SPLINESEGS
 70
     8
  9
$ATTDIA
 70
     0
  9
$ATTREQ
 70
     1
  9
$HANDLING
 70
     1
  9
$HANDSEED
  5
407
  9
$SURFTAB1
 70
     6
  9
$SURFTAB2
 70
     6
  9
$SURFTYPE
 70
     6
  9
$SURFU
 70
     6
  9
$SURFV
 70
     6
  9
$UCSNAME
  2

  9
$UCSORG
 10
0.0
 20
0.0
 30
0.0
  9
$UCSXDIR
 10
1.0
 20
0.0
 30
0.0
  9
$UCSYDIR
 10
0.0
 20
1.0
 30
0.0
  9
$PUCSNAME
  2

  9
$PUCSORG
 10
0.0
 20
0.0
 30
0.0
  9
$PUCSXDIR
 10
1.0
 20
0.0
 30
0.0
  9
$PUCSYDIR
 10
0.0
 20
1.0
 30
0.0
  9
$USERI1
 70
     0
  9
$USERI2
 70
     0
  9
$USERI3
 70
     0
  9
$USERI4
 70
     0
  9
$USERI5
 70
     0
  9
$USERR1
 40
0.0
  9
$USERR2
 40
0.0
  9
$USERR3
 40
0.0
  9
$USERR4
 40
0.0
  9
$USERR5
 40
0.0
  9
$WORLDVIEW
 70
     1
  9
$SHADEDGE
 70
     3
  9
$SHADEDIF
 70
    70
  9
$TILEMODE
 70
     1
  9
$MAXACTVP
 70
    16
  9
$PINSBASE
 10
0.0
 20
0.0
 30
0.0
  9
$PLIMCHECK
 70
     0
  9
$PEXTMIN
 10
1.000000E+20
 20
1.000000E+20
 30
1.000000E+20
  9
$PEXTMAX
 10
-1.000000E+20
 20
-1.000000E+20
 30
-1.000000E+20
  9
$PLIMMIN
 10
0.0
 20
0.0
  9
$PLIMMAX
 10
12.0
 20
9.0
  9
$UNITMODE
 70
     0
  9
$VISRETAIN
 70
     0
  9
$PLINEGEN
 70
     1
  9
$PSLTSCALE
 70
     0
  9
$TREEDEPTH
 70
  3020
  9
$DWGCODEPAGE
  3
dos932
  0
ENDSEC
  0
SECTION
  2
TABLES
  0
TABLE
  2
VPORT
 70
     1
  0
VPORT
  2
*ACTIVE
 70
     0
 10
0.0
 20
0.0
 11
1.0
 21
1.0
 12
496.0
 22
376.0
 13
0.0
 23
0.0
 14
1.0
 24
1.0
 15
0.0
 25
0.0
 16
0.0
 26
0.0
 36
1.0
 17
0.0
 27
0.0
 37
0.0
 40
668.62
 41
1.732051
 42
50.0
 43
0.0
 44
0.0
 50
0.0
 51
0.0
 71
     0
 72
   100
 73
     1
 74
     1
 75
     0
 76
     0
 77
     0
 78
     0
  0
ENDTAB
  0
TABLE
  2
LTYPE
 70
     2
  0
LTYPE
  2
CONTINUOUS
 70
    64
  3
Solid line
 72
    65
 73
     0
 40
0.0
  0
LTYPE
  2
CENTER
 70
    64
  3
Center ____ _ ____ _ ____ _ ____ _ ____ _ ____
 72
    65
 73
     4
 40
50.8
 49
31.75
 49
-6.35
 49
6.35
 49
-6.35
  0
ENDTAB
  0
TABLE
  2
LAYER
 70
     5
  0
LAYER
  2
0
 70
     0
 62
     7
  6
CONTINUOUS
  0
LAYER
  2
1
 70
     0
 62
     7
  6
CONTINUOUS
  0
LAYER
  2
30
 70
     0
 62
     7
  6
CONTINUOUS
  0
LAYER
  2
_CONSTR
 70
     0
 62
     5
  6
CONTINUOUS
  0
LAYER
  2
DEFPOINTS
 70
     0
 62
     7
  6
CONTINUOUS
  0
ENDTAB
  0
TABLE
  2
STYLE
 70
     1
  0
STYLE
  2
MX_NOTE_STANDARD
 70
     0
 40
0.0
 41
1.0
 50
0.0
 71
     0
 42
4.1656
  3
txt.shx
  4
extfont.shx
  0
ENDTAB
  0
TABLE
  2
VIEW
 70
     0
  0
ENDTAB
  0
TABLE
  2
UCS
 70
     0
  0
ENDTAB
  0
TABLE
  2
APPID
 70
     1
  0
APPID
  2
ACAD
 70
     0
  0
ENDTAB
  0
TABLE
  2
DIMSTYLE
 70
     1
  0
DIMSTYLE
  2
MXDIMSTYLE
 70
     0
  3

  4

  5

  6

  7

 40
1.0
 41
2.5
 42
0.5
 43
3.75
 44
1.0
 45
0.0
 46
0.0
 47
0.0
 48
0.0
 71
     0
 72
     0
 73
     0
 74
     0
 75
     0
 76
     0
 77
     1
 78
     8
140
2.5
141
2.5
142
0.0
143
0.03937
144
1.0
145
0.0
146
1.0
147
1.0
170
     0
171
     4
172
     1
173
     0
174
     0
175
     0
176
     0
177
     0
178
     0
  0
ENDTAB
  0
ENDSEC
  0
SECTION
  2
BLOCKS
  0
ENDSEC
  0
SECTION
  2
ENTITIES
  0
LINE
  8
0
  6
CONTINUOUS
 62
     3
  5
21
 10
147.0
 20
50.0
 30
0.0
 11
147.0
 21
104.0
 31
0.0
  0
LINE
  8
0
  6
CONTINUOUS
 62
     3
  5
22
 10
142.0
 20
45.0
 30
0.0
 11
50.0
 21
45.0
 31
0.0
  0
LINE
  8
0
  6
CONTINUOUS
 62
     3
  5
23
 10
142.0
 20
46.0
 30
0.0
 11
50.0
 21
46.0
 31
0.0
  0
ARC
  8
0
  6
CONTINUOUS
 62
     3
  5
24
 10
142.0
 20
50.0
 30
0.0
 40
4.0
 50
270.0
 51
0.0
  0
ARC
  8
0
  6
CONTINUOUS
 62
     3
  5
25
 10
142.0
 20
50.0
 30
0.0
 40
5.0
 50
270.0
 51
0.0
  0
LINE
  8
0
  6
CONTINUOUS
 62
     3
  5
26
 10
142.0
 20
109.0
 30
0.0
 11
75.0
 21
109.0
 31
0.0
  0
LINE
  8
0
  6
CONTINUOUS
 62
     3
  5
27
 10
142.0
 20
108.0
 30
0.0
 11
50.0
 21
108.0
 31
0.0
  0
LINE
  8
0
  6
CENTER
 62
    80
  5
29
 10
71.0
 20
102.4
 30
0.0
 11
71.0
 21
113.6
 31
0.0
  0
LINE
  8
0
  6
CONTINUOUS
 62
     3
  5
2A
 10
75.0
 20
109.0
 30
0.0
 11
75.0
 21
108.0
 31
0.0
  0
LINE
  8
0
  6
CONTINUOUS
 62
     3
  5
2B
 10
67.0
 20
108.0
 30
0.0
 11
67.0
 21
109.0
 31
0.0
  0
LINE
  8
0
  6
CONTINUOUS
 62
     3
  5
2C
 10
67.0
 20
109.0
 30
0.0
 11
50.0
 21
109.0
 31
0.0
  0
LINE
  8
0
  6
CONTINUOUS
 62
     3
  5
2D
 10
46.0
 20
50.0
 30
0.0
 11
46.0
 21
104.0
 31
0.0
  0
CIRCLE
  8
0
  6
CONTINUOUS
 62
     3
  5
2E
 10
52.0
 20
76.0
 30
0.0
 40
2.6
  0
ARC
  8
0
  6
CONTINUOUS
 62
     3
  5
2F
 10
50.0
 20
50.0
 30
0.0
 40
4.0
 50
180.0
 51
270.0
  0
ARC
  8
0
  6
CONTINUOUS
 62
     3
  5
30
 10
50.0
 20
104.0
 30
0.0
 40
4.0
 50
90.0
 51
180.0
  0
ARC
  8
0
  6
CONTINUOUS
 62
     3
  5
31
 10
50.0
 20
50.0
 30
0.0
 40
5.0
 50
180.0
 51
270.0
  0
ARC
  8
0
  6
CONTINUOUS
 62
     3
  5
32
 10
50.0
 20
104.0
 30
0.0
 40
5.0
 50
90.0
 51
180.0
  0
LINE
  8
0
  6
CONTINUOUS
 62
     3
  5
33
 10
45.0
 20
50.0
 30
0.0
 11
45.0
 21
104.0
 31
0.0
  0
LINE
  8
0
  6
CONTINUOUS
 62
     3
  5
34
 10
146.0
 20
50.0
 30
0.0
 11
146.0
 21
104.0
 31
0.0
  0
ARC
  8
0
  6
CONTINUOUS
 62
     3
  5
35
 10
142.0
 20
104.0
 30
0.0
 40
4.0
 50
0.0
 51
90.0
  0
ARC
  8
0
  6
CONTINUOUS
 62
     3
  5
36
 10
142.0
 20
104.0
 30
0.0
 40
5.0
 50
0.0
 51
90.0
  0
LINE
  8
0
  6
CENTER
 62
    80
  5
37
 10
140.0
 20
81.6
 30
0.0
 11
140.0
 21
70.4
 31
0.0
  0
CIRCLE
  8
0
  6
CONTINUOUS
 62
     3
  5
38
 10
140.0
 20
76.0
 30
0.0
 40
2.6
  0
LINE
  8
0
  6
CENTER
 62
    80
  5
39
 10
134.4
 20
76.0
 30
0.0
 11
145.6
 21
76.0
 31
0.0
  0
LINE
  8
0
  6
CENTER
 62
    80
  5
3A
 10
52.0
 20
81.6
 30
0.0
 11
52.0
 21
70.4
 31
0.0
  0
LINE
  8
0
  6
CENTER
 62
    80
  5
3B
 10
46.4
 20
76.0
 30
0.0
 11
57.6
 21
76.0
 31
0.0
  0
LINE
  8
0
  6
CONTINUOUS
 62
     3
  5
3C
 10
347.0
 20
50.0
 30
0.0
 11
347.0
 21
104.0
 31
0.0
  0
LINE
  8
0
  6
CONTINUOUS
 62
     3
  5
3D
 10
342.0
 20
45.0
 30
0.0
 11
250.0
 21
45.0
 31
0.0
  0
LINE
  8
0
  6
CONTINUOUS
 62
     3
  5
3E
 10
342.0
 20
46.0
 30
0.0
 11
250.0
 21
46.0
 31
0.0
  0
ARC
  8
0
  6
CONTINUOUS
 62
     3
  5
3F
 10
342.0
 20
50.0
 30
0.0
 40
4.0
 50
270.0
 51
0.0
  0
ARC
  8
0
  6
CONTINUOUS
 62
     3
  5
40
 10
342.0
 20
50.0
 30
0.0
 40
5.0
 50
270.0
 51
0.0
  0
LINE
  8
0
  6
CONTINUOUS
 62
     3
  5
41
 10
342.0
 20
109.0
 30
0.0
 11
275.0
 21
109.0
 31
0.0
  0
LINE
  8
0
  6
CONTINUOUS
 62
     3
  5
42
 10
342.0
 20
108.0
 30
0.0
 11
250.0
 21
108.0
 31
0.0
  0
LINE
  8
0
  6
CENTER
 62
    80
  5
43
 10
271.0
 20
102.4
 30
0.0
 11
271.0
 21
113.6
 31
0.0
  0
LINE
  8
0
  6
CONTINUOUS
 62
     3
  5
44
 10
275.0
 20
109.0
 30
0.0
 11
275.0
 21
108.0
 31
0.0
  0
LINE
  8
0
  6
CONTINUOUS
 62
     3
  5
45
 10
267.0
 20
108.0
 30
0.0
 11
267.0
 21
109.0
 31
0.0
  0
LINE
  8
0
  6
CONTINUOUS
 62
     3
  5
46
 10
267.0
 20
109.0
 30
0.0
 11
250.0
 21
109.0
 31
0.0
  0
LINE
  8
0
  6
CONTINUOUS
 62
     3
  5
47
 10
246.0
 20
50.0
 30
0.0
 11
246.0
 21
104.0
 31
0.0
  0
CIRCLE
  8
0
  6
CONTINUOUS
 62
     3
  5
48
 10
252.0
 20
76.0
 30
0.0
 40
2.6
  0
ARC
  8
0
  6
CONTINUOUS
 62
     3
  5
49
 10
250.0
 20
50.0
 30
0.0
 40
4.0
 50
180.0
 51
270.0
  0
ARC
  8
0
  6
CONTINUOUS
 62
     3
  5
4A
 10
250.0
 20
104.0
 30
0.0
 40
4.0
 50
90.0
 51
180.0
  0
ARC
  8
0
  6
CONTINUOUS
 62
     3
  5
4B
 10
250.0
 20
50.0
 30
0.0
 40
5.0
 50
180.0
 51
270.0
  0
ARC
  8
0
  6
CONTINUOUS
 62
     3
  5
4C
 10
250.0
 20
104.0
 30
0.0
 40
5.0
 50
90.0
 51
180.0
  0
LINE
  8
0
  6
CONTINUOUS
 62
     3
  5
4D
 10
245.0
 20
50.0
 30
0.0
 11
245.0
 21
104.0
 31
0.0
  0
LINE
  8
0
  6
CONTINUOUS
 62
     3
  5
4E
 10
346.0
 20
50.0
 30
0.0
 11
346.0
 21
104.0
 31
0.0
  0
ARC
  8
0
  6
CONTINUOUS
 62
     3
  5
4F
 10
342.0
 20
104.0
 30
0.0
 40
4.0
 50
0.0
 51
90.0
  0
ARC
  8
0
  6
CONTINUOUS
 62
     3
  5
50
 10
342.0
 20
104.0
 30
0.0
 40
5.0
 50
0.0
 51
90.0
  0
LINE
  8
0
  6
CENTER
 62
    80
  5
51
 10
340.0
 20
81.6
 30
0.0
 11
340.0
 21
70.4
 31
0.0
  0
CIRCLE
  8
0
  6
CONTINUOUS
 62
     3
  5
52
 10
340.0
 20
76.0
 30
0.0
 40
2.6
  0
LINE
  8
0
  6
CENTER
 62
    80
  5
53
 10
334.4
 20
76.0
 30
0.0
 11
345.6
 21
76.0
 31
0.0
  0
LINE
  8
0
  6
CENTER
 62
    80
  5
54
 10
252.0
 20
81.6
 30
0.0
 11
252.0
 21
70.4
 31
0.0
  0
LINE
  8
0
  6
CENTER
 62
    80
  5
55
 10
246.4
 20
76.0
 30
0.0
 11
257.6
 21
76.0
 31
0.0
  0
LINE
  8
0
  6
CONTINUOUS
 62
     3
  5
56
 10
547.0
 20
50.0
 30
0.0
 11
547.0
 21
104.0
 31
0.0
  0
LINE
  8
0
  6
CONTINUOUS
 62
     3
  5
57
 10
542.0
 20
45.0
 30
0.0
 11
450.0
 21
45.0
 31
0.0
  0
LINE
  8
0
  6
CONTINUOUS
 62
     3
  5
58
 10
542.0
 20
46.0
 30
0.0
 11
450.0
 21
46.0
 31
0.0
  0
ARC
  8
0
  6
CONTINUOUS
 62
     3
  5
59
 10
542.0
 20
50.0
 30
0.0
 40
4.0
 50
270.0
 51
0.0
  0
ARC
  8
0
  6
CONTINUOUS
 62
     3
  5
5A
 10
542.0
 20
50.0
 30
0.0
 40
5.0
 50
270.0
 51
0.0
  0
LINE
  8
0
  6
CONTINUOUS
 62
     3
  5
5B
 10
542.0
 20
109.0
 30
0.0
 11
475.0
 21
109.0
 31
0.0
  0
LINE
  8
0
  6
CONTINUOUS
 62
     3
  5
5C
 10
542.0
 20
108.0
 30
0.0
 11
450.0
 21
108.0
 31
0.0
  0
LINE
  8
0
  6
CENTER
 62
    80
  5
5D
 10
471.0
 20
102.4
 30
0.0
 11
471.0
 21
113.6
 31
0.0
  0
LINE
  8
0
  6
CONTINUOUS
 62
     3
  5
5E
 10
475.0
 20
109.0
 30
0.0
 11
475.0
 21
108.0
 31
0.0
  0
LINE
  8
0
  6
CONTINUOUS
 62
     3
  5
5F
 10
467.0
 20
108.0
 30
0.0
 11
467.0
 21
109.0
 31
0.0
  0
LINE
  8
0
  6
CONTINUOUS
 62
     3
  5
60
 10
467.0
 20
109.0
 30
0.0
 11
450.0
 21
109.0
 31
0.0
  0
LINE
  8
0
  6
CONTINUOUS
 62
     3
  5
61
 10
446.0
 20
50.0
 30
0.0
 11
446.0
 21
104.0
 31
0.0
  0
CIRCLE
  8
0
  6
CONTINUOUS
 62
     3
  5
62
 10
452.0
 20
76.0
 30
0.0
 40
2.6
  0
ARC
  8
0
  6
CONTINUOUS
 62
     3
  5
63
 10
450.0
 20
50.0
 30
0.0
 40
4.0
 50
180.0
 51
270.0
  0
ARC
  8
0
  6
CONTINUOUS
 62
     3
  5
64
 10
450.0
 20
104.0
 30
0.0
 40
4.0
 50
90.0
 51
180.0
  0
ARC
  8
0
  6
CONTINUOUS
 62
     3
  5
65
 10
450.0
 20
50.0
 30
0.0
 40
5.0
 50
180.0
 51
270.0
  0
ARC
  8
0
  6
CONTINUOUS
 62
     3
  5
66
 10
450.0
 20
104.0
 30
0.0
 40
5.0
 50
90.0
 51
180.0
  0
LINE
  8
0
  6
CONTINUOUS
 62
     3
  5
67
 10
445.0
 20
50.0
 30
0.0
 11
445.0
 21
104.0
 31
0.0
  0
LINE
  8
0
  6
CONTINUOUS
 62
     3
  5
68
 10
546.0
 20
50.0
 30
0.0
 11
546.0
 21
104.0
 31
0.0
  0
ARC
  8
0
  6
CONTINUOUS
 62
     3
  5
69
 10
542.0
 20
104.0
 30
0.0
 40
4.0
 50
0.0
 51
90.0
  0
ARC
  8
0
  6
CONTINUOUS
 62
     3
  5
6A
 10
542.0
 20
104.0
 30
0.0
 40
5.0
 50
0.0
 51
90.0
  0
LINE
  8
0
  6
CENTER
 62
    80
  5
6B
 10
540.0
 20
81.6
 30
0.0
 11
540.0
 21
70.4
 31
0.0
  0
CIRCLE
  8
0
  6
CONTINUOUS
 62
     3
  5
6C
 10
540.0
 20
76.0
 30
0.0
 40
2.6
  0
LINE
  8
0
  6
CENTER
 62
    80
  5
6D
 10
534.4
 20
76.0
 30
0.0
 11
545.6
 21
76.0
 31
0.0
  0
LINE
  8
0
  6
CENTER
 62
    80
  5
6E
 10
452.0
 20
81.6
 30
0.0
 11
452.0
 21
70.4
 31
0.0
  0
LINE
  8
0
  6
CENTER
 62
    80
  5
6F
 10
446.4
 20
76.0
 30
0.0
 11
457.6
 21
76.0
 31
0.0
  0
LINE
  8
0
  6
CONTINUOUS
 62
     3
  5
70
 10
747.0
 20
50.0
 30
0.0
 11
747.0
 21
104.0
 31
0.0
  0
LINE
  8
0
  6
CONTINUOUS
 62
     3
  5
71
 10
742.0
 20
45.0
 30
0.0
 11
650.0
 21
45.0
 31
0.0
  0
LINE
  8
0
  6
CONTINUOUS
 62
     3
  5
72
 10
742.0
 20
46.0
 30
0.0
 11
650.0
 21
46.0
 31
0.0
  0
ARC
  8
0
  6
CONTINUOUS
 62
     3
  5
73
 10
742.0
 20
50.0
 30
0.0
 40
4.0
 50
270.0
 51
0.0
  0
ARC
  8
0
  6
CONTINUOUS
 62
     3
  5
74
 10
742.0
 20
50.0
 30
0.0
 40
5.0
 50
270.0
 51
0.0
  0
LINE
  8
0
  6
CONTINUOUS
 62
     3
  5
75
 10
742.0
 20
109.0
 30
0.0
 11
675.0
 21
109.0
 31
0.0
  0
LINE
  8
0
  6
CONTINUOUS
 62
     3
  5
76
 10
742.0
 20
108.0
 30
0.0
 11
650.0
 21
108.0
 31
0.0
  0
LINE
  8
0
  6
CENTER
 62
    80
  5
77
 10
671.0
 20
102.4
 30
0.0
 11
671.0
 21
113.6
 31
0.0
  0
LINE
  8
0
  6
CONTINUOUS
 62
     3
  5
78
 10
675.0
 20
109.0
 30
0.0
 11
675.0
 21
108.0
 31
0.0
  0
LINE
  8
0
  6
CONTINUOUS
 62
     3
  5
79
 10
667.0
 20
108.0
 30
0.0
 11
667.0
 21
109.0
 31
0.0
  0
LINE
  8
0
  6
CONTINUOUS
 62
     3
  5
7A
 10
667.0
 20
109.0
 30
0.0
 11
650.0
 21
109.0
 31
0.0
  0
LINE
  8
0
  6
CONTINUOUS
 62
     3
  5
7B
 10
646.0
 20
50.0
 30
0.0
 11
646.0
 21
104.0
 31
0.0
  0
CIRCLE
  8
0
  6
CONTINUOUS
 62
     3
  5
7C
 10
652.0
 20
76.0
 30
0.0
 40
2.6
  0
ARC
  8
0
  6
CONTINUOUS
 62
     3
  5
7D
 10
650.0
 20
50.0
 30
0.0
 40
4.0
 50
180.0
 51
270.0
  0
ARC
  8
0
  6
CONTINUOUS
 62
     3
  5
7E
 10
650.0
 20
104.0
 30
0.0
 40
4.0
 50
90.0
 51
180.0
  0
ARC
  8
0
  6
CONTINUOUS
 62
     3
  5
7F
 10
650.0
 20
50.0
 30
0.0
 40
5.0
 50
180.0
 51
270.0
  0
ARC
  8
0
  6
CONTINUOUS
 62
     3
  5
80
 10
650.0
 20
104.0
 30
0.0
 40
5.0
 50
90.0
 51
180.0
  0
LINE
  8
0
  6
CONTINUOUS
 62
     3
  5
81
 10
645.0
 20
50.0
 30
0.0
 11
645.0
 21
104.0
 31
0.0
  0
LINE
  8
0
  6
CONTINUOUS
 62
     3
  5
82
 10
746.0
 20
50.0
 30
0.0
 11
746.0
 21
104.0
 31
0.0
  0
ARC
  8
0
  6
CONTINUOUS
 62
     3
  5
83
 10
742.0
 20
104.0
 30
0.0
 40
4.0
 50
0.0
 51
90.0
  0
ARC
  8
0
  6
CONTINUOUS
 62
     3
  5
84
 10
742.0
 20
104.0
 30
0.0
 40
5.0
 50
0.0
 51
90.0
  0
LINE
  8
0
  6
CENTER
 62
    80
  5
85
 10
740.0
 20
81.6
 30
0.0
 11
740.0
 21
70.4
 31
0.0
  0
CIRCLE
  8
0
  6
CONTINUOUS
 62
     3
  5
86
 10
740.0
 20
76.0
 30
0.0
 40
2.6
  0
LINE
  8
0
  6
CENTER
 62
    80
  5
87
 10
734.4
 20
76.0
 30
0.0
 11
745.6
 21
76.0
 31
0.0
  0
LINE
  8
0
  6
CENTER
 62
    80
  5
88
 10
652.0
 20
81.6
 30
0.0
 11
652.0
 21
70.4
 31
0.0
  0
LINE
  8
0
  6
CENTER
 62
    80
  5
89
 10
646.4
 20
76.0
 30
0.0
 11
657.6
 21
76.0
 31
0.0
  0
LINE
  8
0
  6
CENTER
 62
    80
  5
8A
 10
846.4
 20
76.0
 30
0.0
 11
857.6
 21
76.0
 31
0.0
  0
LINE
  8
0
  6
CENTER
 62
    80
  5
8B
 10
852.0
 20
81.6
 30
0.0
 11
852.0
 21
70.4
 31
0.0
  0
LINE
  8
0
  6
CENTER
 62
    80
  5
8C
 10
934.4
 20
76.0
 30
0.0
 11
945.6
 21
76.0
 31
0.0
  0
LINE
  8
0
  6
CONTINUOUS
 62
     3
  5
8D
 10
140.0
 20
669.0
 30
0.0
 11
146.0
 21
669.0
 31
0.0
  0
CIRCLE
  8
0
  6
CONTINUOUS
 62
     3
  5
8E
 10
140.0
 20
676.0
 30
0.0
 40
2.6
  0
LINE
  8
0
  6
CENTER
 62
    80
  5
8F
 10
140.0
 20
670.4
 30
0.0
 11
140.0
 21
681.6
 31
0.0
  0
ARC
  8
0
  6
CONTINUOUS
 62
     3
  5
90
 10
142.0
 20
648.0
 30
0.0
 40
5.0
 50
270.0
 51
0.0
  0
ARC
  8
0
  6
CONTINUOUS
 62
     3
  5
91
 10
142.0
 20
648.0
 30
0.0
 40
4.0
 50
270.0
 51
0.0
  0
ARC
  8
0
  6
CONTINUOUS
 62
     3
  5
92
 10
131.0
 20
659.0
 30
0.0
 40
5.0
 50
270.0
 51
0.0
  0
LINE
  8
0
  6
CONTINUOUS
 62
     3
  5
93
 10
135.242641
 20
654.757359
 30
0.0
 11
144.12132
 21
645.87868
 31
0.0
  0
LINE
  8
0
  6
CONTINUOUS
 62
     3
  5
94
 10
136.0
 20
670.255437
 30
0.0
 11
136.0
 21
659.0
 31
0.0
  0
LINE
  8
0
  6
CONTINUOUS
 62
     3
  5
95
 10
146.0
 20
669.0
 30
0.0
 11
146.0
 21
648.0
 31
0.0
  0
LINE
  8
0
  6
CONTINUOUS
 62
     3
  5
96
 10
45.0
 20
702.0
 30
0.0
 11
45.0
 21
648.0
 31
0.0
  0
ARC
  8
0
  6
CONTINUOUS
 62
     3
  5
97
 10
50.0
 20
648.0
 30
0.0
 40
5.0
 50
180.0
 51
270.0
  0
ARC
  8
0
  6
CONTINUOUS
 62
     3
  5
98
 10
50.0
 20
702.0
 30
0.0
 40
5.0
 50
90.0
 51
180.0
  0
LINE
  8
0
  6
CONTINUOUS
 62
     3
  5
99
 10
46.0
 20
702.0
 30
0.0
 11
46.0
 21
683.0
 31
0.0
  0
ARC
  8
0
  6
CONTINUOUS
 62
     3
  5
9A
 10
50.0
 20
648.0
 30
0.0
 40
4.0
 50
180.0
 51
270.0
  0
ARC
  8
0
  6
CONTINUOUS
 62
     3
  5
9B
 10
50.0
 20
702.0
 30
0.0
 40
4.0
 50
90.0
 51
180.0
  0
LINE
  8
0
  6
CONTINUOUS
 62
     3
  5
9C
 10
56.0
 20
691.0
 30
0.0
 11
56.0
 21
681.744563
 31
0.0
  0
ARC
  8
0
  6
CONTINUOUS
 62
     3
  5
9D
 10
61.0
 20
659.0
 30
0.0
 40
5.0
 50
180.0
 51
270.0
  0
ARC
  8
0
  6
CONTINUOUS
 62
     3
  5
9E
 10
61.0
 20
691.0
 30
0.0
 40
5.0
 50
90.0
 51
180.0
  0
LINE
  8
0
  6
CONTINUOUS
 62
     3
  5
9F
 10
56.757359
 20
654.757359
 30
0.0
 11
47.87868
 21
645.87868
 31
0.0
  0
LINE
  8
0
  6
CONTINUOUS
 62
     3
  5
A0
 10
56.757359
 20
695.242641
 30
0.0
 11
47.87868
 21
704.12132
 31
0.0
  0
LINE
  8
0
  6
CONTINUOUS
 62
     3
  5
A1
 10
52.0
 20
669.0
 30
0.0
 11
46.0
 21
669.0
 31
0.0
  0
LINE
  8
0
  6
CONTINUOUS
 62
     3
  5
A2
 10
52.0
 20
683.0
 30
0.0
 11
46.0
 21
683.0
 31
0.0
  0
CIRCLE
  8
0
  6
CONTINUOUS
 62
     3
  5
A3
 10
52.0
 20
676.0
 30
0.0
 40
2.6
  0
ARC
  8
0
  6
CONTINUOUS
 62
     3
  5
A4
 10
52.0
 20
676.0
 30
0.0
 40
7.0
 50
270.0
 51
90.0
  0
LINE
  8
0
  6
CONTINUOUS
 62
     3
  5
A5
 10
56.0
 20
670.255437
 30
0.0
 11
56.0
 21
659.0
 31
0.0
  0
LINE
  8
0
  6
CONTINUOUS
 62
     3
  5
A6
 10
46.0
 20
669.0
 30
0.0
 11
46.0
 21
648.0
 31
0.0
  0
LINE
  8
0
  6
CONTINUOUS
 62
     3
  5
A7
 10
76.0
 20
645.739726
 30
0.0
 11
76.0
 21
644.0
 31
0.0
  0
LINE
  8
0
  6
CONTINUOUS
 62
     3
  5
A8
 10
66.0
 20
645.739726
 30
0.0
 11
66.0
 21
644.0
 31
0.0
  0
LINE
  8
0
  6
CONTINUOUS
 62
     3
  5
A9
 10
75.0
 20
646.739726
 30
0.0
 11
67.0
 21
646.739726
 31
0.0
  0
ARC
  8
0
  6
CONTINUOUS
 62
     3
  5
AA
 10
67.0
 20
645.739726
 30
0.0
 40
1.0
 50
90.0
 51
180.0
  0
ARC
  8
0
  6
CONTINUOUS
 62
     3
  5
AB
 10
75.0
 20
645.739726
 30
0.0
 40
1.0
 50
0.0
 51
90.0
  0
LINE
  8
0
  6
CONTINUOUS
 62
     3
  5
AC
 10
67.0
 20
643.0
 30
0.0
 11
50.0
 21
643.0
 31
0.0
  0
LINE
  8
0
  6
CONTINUOUS
 62
     3
  5
AD
 10
67.0
 20
645.739726
 30
0.0
 11
67.0
 21
643.0
 31
0.0
  0
LINE
  8
0
  6
CONTINUOUS
 62
     3
  5
AE
 10
75.0
 20
643.0
 30
0.0
 11
75.0
 21
645.739726
 31
0.0
  0
LINE
  8
0
  6
CONTINUOUS
 62
     3
  5
AF
 10
75.0
 20
645.739726
 30
0.0
 11
67.0
 21
645.739726
 31
0.0
  0
LINE
  8
0
  6
CENTER
 62
    80
  5
B0
 10
71.0
 20
649.6
 30
0.0
 11
71.0
 21
638.4
 31
0.0
  0
LINE
  8
0
  6
CONTINUOUS
 62
     3
  5
B1
 10
142.0
 20
644.0
 30
0.0
 11
50.0
 21
644.0
 31
0.0
  0
LINE
  8
0
  6
CONTINUOUS
 62
     3
  5
B2
 10
131.0
 20
654.0
 30
0.0
 11
61.0
 21
654.0
 31
0.0
  0
LINE
  8
0
  6
CONTINUOUS
 62
     3
  5
B3
 10
142.0
 20
643.0
 30
0.0
 11
75.0
 21
643.0
 31
0.0
  0
ARC
  8
0
  6
CONTINUOUS
 62
     3
  5
B4
 10
142.0
 20
702.0
 30
0.0
 40
5.0
 50
0.0
 51
90.0
  0
LINE
  8
0
  6
CONTINUOUS
 62
     3
  5
B5
 10
146.0
 20
702.0
 30
0.0
 11
146.0
 21
683.0
 31
0.0
  0
ARC
  8
0
  6
CONTINUOUS
 62
     3
  5
B6
 10
142.0
 20
702.0
 30
0.0
 40
4.0
 50
0.0
 51
90.0
  0
ARC
  8
0
  6
CONTINUOUS
 62
     3
  5
B7
 10
131.0
 20
691.0
 30
0.0
 40
5.0
 50
0.0
 51
90.0
  0
LINE
  8
0
  6
CONTINUOUS
 62
     3
  5
B8
 10
135.242641
 20
695.242641
 30
0.0
 11
144.12132
 21
704.12132
 31
0.0
  0
LINE
  8
0
  6
CONTINUOUS
 62
     3
  5
B9
 10
140.0
 20
683.0
 30
0.0
 11
146.0
 21
683.0
 31
0.0
  0
ARC
  8
0
  6
CONTINUOUS
 62
     3
  5
BA
 10
140.0
 20
676.0
 30
0.0
 40
7.0
 50
90.0
 51
270.0
  0
LINE
  8
0
  6
CONTINUOUS
 62
     3
  5
BB
 10
131.0
 20
696.0
 30
0.0
 11
61.0
 21
696.0
 31
0.0
  0
LINE
  8
0
  6
CONTINUOUS
 62
     3
  5
BC
 10
136.0
 20
691.0
 30
0.0
 11
136.0
 21
681.744563
 31
0.0
  0
LINE
  8
0
  6
CONTINUOUS
 62
     3
  5
BD
 10
142.0
 20
706.0
 30
0.0
 11
50.0
 21
706.0
 31
0.0
  0
LINE
  8
0
  6
CONTINUOUS
 62
     3
  5
BE
 10
142.0
 20
707.0
 30
0.0
 11
50.0
 21
707.0
 31
0.0
  0
LINE
  8
0
  6
CONTINUOUS
 62
     3
  5
BF
 10
147.0
 20
702.0
 30
0.0
 11
147.0
 21
648.0
 31
0.0
  0
LINE
  8
0
  6
CENTER
 62
    80
  5
C0
 10
145.6
 20
676.0
 30
0.0
 11
134.4
 21
676.0
 31
0.0
  0
LINE
  8
0
  6
CENTER
 62
    80
  5
C1
 10
52.0
 20
670.4
 30
0.0
 11
52.0
 21
681.6
 31
0.0
  0
LINE
  8
0
  6
CENTER
 62
    80
  5
C2
 10
57.6
 20
676.0
 30
0.0
 11
46.4
 21
676.0
 31
0.0
  0
LINE
  8
0
  6
CONTINUOUS
 62
     3
  5
C3
 10
113.0
 20
658.0
 30
0.0
 11
113.0
 21
692.0
 31
0.0
  0
LINE
  8
0
  6
CONTINUOUS
 62
     3
  5
C4
 10
109.0
 20
662.0
 30
0.0
 11
109.0
 21
688.0
 31
0.0
  0
LINE
  8
0
  6
CONTINUOUS
 62
     3
  5
C5
 10
113.0
 20
692.0
 30
0.0
 11
79.0
 21
692.0
 31
0.0
  0
LINE
  8
0
  6
CONTINUOUS
 62
     3
  5
C6
 10
109.0
 20
688.0
 30
0.0
 11
83.0
 21
688.0
 31
0.0
  0
LINE
  8
0
  6
CONTINUOUS
 62
     3
  5
C7
 10
79.0
 20
692.0
 30
0.0
 11
79.0
 21
658.0
 31
0.0
  0
LINE
  8
0
  6
CONTINUOUS
 62
     3
  5
C8
 10
83.0
 20
688.0
 30
0.0
 11
83.0
 21
662.0
 31
0.0
  0
LINE
  8
0
  6
CONTINUOUS
 62
     3
  5
C9
 10
79.0
 20
658.0
 30
0.0
 11
113.0
 21
658.0
 31
0.0
  0
LINE
  8
0
  6
CONTINUOUS
 62
     3
  5
CA
 10
83.0
 20
662.0
 30
0.0
 11
109.0
 21
662.0
 31
0.0
  0
LINE
  8
0
  6
CONTINUOUS
 62
     3
  5
CB
 10
106.0
 20
690.0
 30
0.0
 11
106.0
 21
692.0
 31
0.0
  0
LINE
  8
0
  6
CONTINUOUS
 62
     3
  5
CC
 10
86.0
 20
690.0
 30
0.0
 11
86.0
 21
692.0
 31
0.0
  0
LINE
  8
0
  6
CONTINUOUS
 62
     3
  5
CD
 10
106.0
 20
690.0
 30
0.0
 11
86.0
 21
690.0
 31
0.0
  0
LINE
  8
0
  6
CONTINUOUS
 62
     3
  5
CE
 10
81.0
 20
685.0
 30
0.0
 11
79.0
 21
685.0
 31
0.0
  0
LINE
  8
0
  6
CONTINUOUS
 62
     3
  5
CF
 10
81.0
 20
665.0
 30
0.0
 11
79.0
 21
665.0
 31
0.0
  0
LINE
  8
0
  6
CONTINUOUS
 62
     3
  5
D0
 10
81.0
 20
685.0
 30
0.0
 11
81.0
 21
665.0
 31
0.0
  0
LINE
  8
0
  6
CONTINUOUS
 62
     3
  5
D1
 10
86.0
 20
660.0
 30
0.0
 11
86.0
 21
658.0
 31
0.0
  0
LINE
  8
0
  6
CONTINUOUS
 62
     3
  5
D2
 10
106.0
 20
660.0
 30
0.0
 11
106.0
 21
658.0
 31
0.0
  0
LINE
  8
0
  6
CONTINUOUS
 62
     3
  5
D3
 10
86.0
 20
660.0
 30
0.0
 11
106.0
 21
660.0
 31
0.0
  0
LINE
  8
0
  6
CONTINUOUS
 62
     3
  5
D4
 10
111.0
 20
665.0
 30
0.0
 11
113.0
 21
665.0
 31
0.0
  0
LINE
  8
0
  6
CONTINUOUS
 62
     3
  5
D5
 10
111.0
 20
685.0
 30
0.0
 11
113.0
 21
685.0
 31
0.0
  0
LINE
  8
0
  6
CONTINUOUS
 62
     3
  5
D6
 10
111.0
 20
665.0
 30
0.0
 11
111.0
 21
685.0
 31
0.0
  0
LINE
  8
0
  6
CONTINUOUS
 62
     3
  5
D7
 10
109.0
 20
688.0
 30
0.0
 11
113.0
 21
692.0
 31
0.0
  0
LINE
  8
0
  6
CONTINUOUS
 62
     3
  5
D8
 10
79.0
 20
692.0
 30
0.0
 11
83.0
 21
688.0
 31
0.0
  0
LINE
  8
0
  6
CONTINUOUS
 62
     3
  5
D9
 10
83.0
 20
662.0
 30
0.0
 11
79.0
 21
658.0
 31
0.0
  0
LINE
  8
0
  6
CONTINUOUS
 62
     3
  5
DA
 10
109.0
 20
662.0
 30
0.0
 11
113.0
 21
658.0
 31
0.0
  0
CIRCLE
  8
0
  6
CONTINUOUS
 62
     3
  5
DB
 10
96.0
 20
675.0
 30
0.0
 40
5.0
  0
LINE
  8
0
  6
CONTINUOUS
 62
     3
  5
DC
 10
93.700012
 20
675.575012
 30
0.0
 11
93.700012
 21
674.424988
 31
0.0
  0
LINE
  8
0
  6
CONTINUOUS
 62
     3
  5
DD
 10
95.424988
 20
677.299988
 30
0.0
 11
96.575012
 21
677.299988
 31
0.0
  0
LINE
  8
0
  6
CONTINUOUS
 62
     3
  5
DE
 10
95.424988
 20
677.299988
 30
0.0
 11
95.424988
 21
676.494995
 31
0.0
  0
LINE
  8
0
  6
CONTINUOUS
 62
     3
  5
DF
 10
93.700012
 20
675.575012
 30
0.0
 11
94.505005
 21
675.575012
 31
0.0
  0
LINE
  8
0
  6
CONTINUOUS
 62
     3
  5
E0
 10
98.299988
 20
675.575012
 30
0.0
 11
98.299988
 21
674.424988
 31
0.0
  0
LINE
  8
0
  6
CONTINUOUS
 62
     3
  5
E1
 10
96.575012
 20
677.299988
 30
0.0
 11
96.575012
 21
676.494995
 31
0.0
  0
LINE
  8
0
  6
CONTINUOUS
 62
     3
  5
E2
 10
97.494995
 20
675.575012
 30
0.0
 11
98.299988
 21
675.575012
 31
0.0
  0
LINE
  8
0
  6
CONTINUOUS
 62
     3
  5
E3
 10
95.424988
 20
672.700012
 30
0.0
 11
96.575012
 21
672.700012
 31
0.0
  0
LINE
  8
0
  6
CONTINUOUS
 62
     3
  5
E4
 10
96.575012
 20
673.505005
 30
0.0
 11
96.575012
 21
672.700012
 31
0.0
  0
LINE
  8
0
  6
CONTINUOUS
 62
     3
  5
E5
 10
97.494995
 20
674.424988
 30
0.0
 11
98.299988
 21
674.424988
 31
0.0
  0
LINE
  8
0
  6
CONTINUOUS
 62
     3
  5
E6
 10
93.700012
 20
674.424988
 30
0.0
 11
94.505005
 21
674.424988
 31
0.0
  0
LINE
  8
0
  6
CONTINUOUS
 62
     3
  5
E7
 10
95.424988
 20
673.505005
 30
0.0
 11
95.424988
 21
672.700012
 31
0.0
  0
ARC
  8
0
  6
CONTINUOUS
 62
     3
  5
E8
 10
94.505005
 20
676.494995
 30
0.0
 40
0.92
 50
269.999997
 51
0.0
  0
CIRCLE
  8
0
  6
CONTINUOUS
 62
     3
  5
E9
 10
96.0
 20
675.0
 30
0.0
 40
4.15
  0
ARC
  8
0
  6
CONTINUOUS
 62
     3
  5
EA
 10
97.494995
 20
676.494995
 30
0.0
 40
0.92
 50
179.999995
 51
269.999997
  0
ARC
  8
0
  6
CONTINUOUS
 62
     3
  5
EB
 10
97.494995
 20
673.505005
 30
0.0
 40
0.92
 50
90.000003
 51
180.000005
  0
ARC
  8
0
  6
CONTINUOUS
 62
     3
  5
EC
 10
94.505005
 20
673.505005
 30
0.0
 40
0.92
 50
0.0
 51
90.000003
  0
LINE
  8
0
  6
CONTINUOUS
 62
     3
  5
ED
 10
340.0
 20
669.0
 30
0.0
 11
346.0
 21
669.0
 31
0.0
  0
CIRCLE
  8
0
  6
CONTINUOUS
 62
     3
  5
EE
 10
340.0
 20
676.0
 30
0.0
 40
2.6
  0
LINE
  8
0
  6
CENTER
 62
    80
  5
EF
 10
340.0
 20
670.4
 30
0.0
 11
340.0
 21
681.6
 31
0.0
  0
ARC
  8
0
  6
CONTINUOUS
 62
     3
  5
F0
 10
342.0
 20
648.0
 30
0.0
 40
5.0
 50
270.0
 51
0.0
  0
ARC
  8
0
  6
CONTINUOUS
 62
     3
  5
F1
 10
342.0
 20
648.0
 30
0.0
 40
4.0
 50
270.0
 51
0.0
  0
ARC
  8
0
  6
CONTINUOUS
 62
     3
  5
F2
 10
331.0
 20
659.0
 30
0.0
 40
5.0
 50
270.0
 51
0.0
  0
LINE
  8
0
  6
CONTINUOUS
 62
     3
  5
F3
 10
335.242641
 20
654.757359
 30
0.0
 11
344.12132
 21
645.87868
 31
0.0
  0
LINE
  8
0
  6
CONTINUOUS
 62
     3
  5
F4
 10
336.0
 20
670.255437
 30
0.0
 11
336.0
 21
659.0
 31
0.0
  0
LINE
  8
0
  6
CONTINUOUS
 62
     3
  5
F5
 10
346.0
 20
669.0
 30
0.0
 11
346.0
 21
648.0
 31
0.0
  0
LINE
  8
0
  6
CONTINUOUS
 62
     3
  5
F6
 10
245.0
 20
702.0
 30
0.0
 11
245.0
 21
648.0
 31
0.0
  0
ARC
  8
0
  6
CONTINUOUS
 62
     3
  5
F7
 10
250.0
 20
648.0
 30
0.0
 40
5.0
 50
180.0
 51
270.0
  0
ARC
  8
0
  6
CONTINUOUS
 62
     3
  5
F8
 10
250.0
 20
702.0
 30
0.0
 40
5.0
 50
90.0
 51
180.0
  0
LINE
  8
0
  6
CONTINUOUS
 62
     3
  5
F9
 10
246.0
 20
702.0
 30
0.0
 11
246.0
 21
683.0
 31
0.0
  0
ARC
  8
0
  6
CONTINUOUS
 62
     3
  5
FA
 10
250.0
 20
648.0
 30
0.0
 40
4.0
 50
180.0
 51
270.0
  0
ARC
  8
0
  6
CONTINUOUS
 62
     3
  5
FB
 10
250.0
 20
702.0
 30
0.0
 40
4.0
 50
90.0
 51
180.0
  0
LINE
  8
0
  6
CONTINUOUS
 62
     3
  5
FC
 10
256.0
 20
691.0
 30
0.0
 11
256.0
 21
681.744563
 31
0.0
  0
ARC
  8
0
  6
CONTINUOUS
 62
     3
  5
FD
 10
261.0
 20
659.0
 30
0.0
 40
5.0
 50
180.0
 51
270.0
  0
ARC
  8
0
  6
CONTINUOUS
 62
     3
  5
FE
 10
261.0
 20
691.0
 30
0.0
 40
5.0
 50
90.0
 51
180.0
  0
LINE
  8
0
  6
CONTINUOUS
 62
     3
  5
FF
 10
256.757359
 20
654.757359
 30
0.0
 11
247.87868
 21
645.87868
 31
0.0
  0
LINE
  8
0
  6
CONTINUOUS
 62
     3
  5
100
 10
256.757359
 20
695.242641
 30
0.0
 11
247.87868
 21
704.12132
 31
0.0
  0
LINE
  8
0
  6
CONTINUOUS
 62
     3
  5
101
 10
252.0
 20
669.0
 30
0.0
 11
246.0
 21
669.0
 31
0.0
  0
LINE
  8
0
  6
CONTINUOUS
 62
     3
  5
102
 10
252.0
 20
683.0
 30
0.0
 11
246.0
 21
683.0
 31
0.0
  0
CIRCLE
  8
0
  6
CONTINUOUS
 62
     3
  5
103
 10
252.0
 20
676.0
 30
0.0
 40
2.6
  0
ARC
  8
0
  6
CONTINUOUS
 62
     3
  5
104
 10
252.0
 20
676.0
 30
0.0
 40
7.0
 50
270.0
 51
90.0
  0
LINE
  8
0
  6
CONTINUOUS
 62
     3
  5
105
 10
256.0
 20
670.255437
 30
0.0
 11
256.0
 21
659.0
 31
0.0
  0
LINE
  8
0
  6
CONTINUOUS
 62
     3
  5
106
 10
246.0
 20
669.0
 30
0.0
 11
246.0
 21
648.0
 31
0.0
  0
LINE
  8
0
  6
CONTINUOUS
 62
     3
  5
107
 10
276.0
 20
645.739726
 30
0.0
 11
276.0
 21
644.0
 31
0.0
  0
LINE
  8
0
  6
CONTINUOUS
 62
     3
  5
108
 10
266.0
 20
645.739726
 30
0.0
 11
266.0
 21
644.0
 31
0.0
  0
LINE
  8
0
  6
CONTINUOUS
 62
     3
  5
109
 10
275.0
 20
646.739726
 30
0.0
 11
267.0
 21
646.739726
 31
0.0
  0
ARC
  8
0
  6
CONTINUOUS
 62
     3
  5
10A
 10
267.0
 20
645.739726
 30
0.0
 40
1.0
 50
90.0
 51
180.0
  0
ARC
  8
0
  6
CONTINUOUS
 62
     3
  5
10B
 10
275.0
 20
645.739726
 30
0.0
 40
1.0
 50
0.0
 51
90.0
  0
LINE
  8
0
  6
CONTINUOUS
 62
     3
  5
10C
 10
267.0
 20
643.0
 30
0.0
 11
250.0
 21
643.0
 31
0.0
  0
LINE
  8
0
  6
CONTINUOUS
 62
     3
  5
10D
 10
267.0
 20
645.739726
 30
0.0
 11
267.0
 21
643.0
 31
0.0
  0
LINE
  8
0
  6
CONTINUOUS
 62
     3
  5
10E
 10
275.0
 20
643.0
 30
0.0
 11
275.0
 21
645.739726
 31
0.0
  0
LINE
  8
0
  6
CONTINUOUS
 62
     3
  5
10F
 10
275.0
 20
645.739726
 30
0.0
 11
267.0
 21
645.739726
 31
0.0
  0
LINE
  8
0
  6
CENTER
 62
    80
  5
110
 10
271.0
 20
649.6
 30
0.0
 11
271.0
 21
638.4
 31
0.0
  0
LINE
  8
0
  6
CONTINUOUS
 62
     3
  5
111
 10
342.0
 20
644.0
 30
0.0
 11
250.0
 21
644.0
 31
0.0
  0
LINE
  8
0
  6
CONTINUOUS
 62
     3
  5
112
 10
331.0
 20
654.0
 30
0.0
 11
261.0
 21
654.0
 31
0.0
  0
LINE
  8
0
  6
CONTINUOUS
 62
     3
  5
113
 10
342.0
 20
643.0
 30
0.0
 11
275.0
 21
643.0
 31
0.0
  0
ARC
  8
0
  6
CONTINUOUS
 62
     3
  5
114
 10
342.0
 20
702.0
 30
0.0
 40
5.0
 50
0.0
 51
90.0
  0
LINE
  8
0
  6
CONTINUOUS
 62
     3
  5
115
 10
346.0
 20
702.0
 30
0.0
 11
346.0
 21
683.0
 31
0.0
  0
ARC
  8
0
  6
CONTINUOUS
 62
     3
  5
116
 10
342.0
 20
702.0
 30
0.0
 40
4.0
 50
0.0
 51
90.0
  0
ARC
  8
0
  6
CONTINUOUS
 62
     3
  5
117
 10
331.0
 20
691.0
 30
0.0
 40
5.0
 50
0.0
 51
90.0
  0
LINE
  8
0
  6
CONTINUOUS
 62
     3
  5
118
 10
335.242641
 20
695.242641
 30
0.0
 11
344.12132
 21
704.12132
 31
0.0
  0
LINE
  8
0
  6
CONTINUOUS
 62
     3
  5
119
 10
340.0
 20
683.0
 30
0.0
 11
346.0
 21
683.0
 31
0.0
  0
ARC
  8
0
  6
CONTINUOUS
 62
     3
  5
11A
 10
340.0
 20
676.0
 30
0.0
 40
7.0
 50
90.0
 51
270.0
  0
LINE
  8
0
  6
CONTINUOUS
 62
     3
  5
11B
 10
331.0
 20
696.0
 30
0.0
 11
261.0
 21
696.0
 31
0.0
  0
LINE
  8
0
  6
CONTINUOUS
 62
     3
  5
11C
 10
336.0
 20
691.0
 30
0.0
 11
336.0
 21
681.744563
 31
0.0
  0
LINE
  8
0
  6
CONTINUOUS
 62
     3
  5
11D
 10
342.0
 20
706.0
 30
0.0
 11
250.0
 21
706.0
 31
0.0
  0
LINE
  8
0
  6
CONTINUOUS
 62
     3
  5
11E
 10
342.0
 20
707.0
 30
0.0
 11
250.0
 21
707.0
 31
0.0
  0
LINE
  8
0
  6
CONTINUOUS
 62
     3
  5
11F
 10
347.0
 20
702.0
 30
0.0
 11
347.0
 21
648.0
 31
0.0
  0
LINE
  8
0
  6
CENTER
 62
    80
  5
120
 10
345.6
 20
676.0
 30
0.0
 11
334.4
 21
676.0
 31
0.0
  0
LINE
  8
0
  6
CENTER
 62
    80
  5
121
 10
252.0
 20
670.4
 30
0.0
 11
252.0
 21
681.6
 31
0.0
  0
LINE
  8
0
  6
CENTER
 62
    80
  5
122
 10
257.6
 20
676.0
 30
0.0
 11
246.4
 21
676.0
 31
0.0
  0
LINE
  8
0
  6
CONTINUOUS
 62
     3
  5
123
 10
313.0
 20
658.0
 30
0.0
 11
313.0
 21
692.0
 31
0.0
  0
LINE
  8
0
  6
CONTINUOUS
 62
     3
  5
124
 10
309.0
 20
662.0
 30
0.0
 11
309.0
 21
688.0
 31
0.0
  0
LINE
  8
0
  6
CONTINUOUS
 62
     3
  5
125
 10
313.0
 20
692.0
 30
0.0
 11
279.0
 21
692.0
 31
0.0
  0
LINE
  8
0
  6
CONTINUOUS
 62
     3
  5
126
 10
309.0
 20
688.0
 30
0.0
 11
283.0
 21
688.0
 31
0.0
  0
LINE
  8
0
  6
CONTINUOUS
 62
     3
  5
127
 10
279.0
 20
692.0
 30
0.0
 11
279.0
 21
658.0
 31
0.0
  0
LINE
  8
0
  6
CONTINUOUS
 62
     3
  5
128
 10
283.0
 20
688.0
 30
0.0
 11
283.0
 21
662.0
 31
0.0
  0
LINE
  8
0
  6
CONTINUOUS
 62
     3
  5
129
 10
279.0
 20
658.0
 30
0.0
 11
313.0
 21
658.0
 31
0.0
  0
LINE
  8
0
  6
CONTINUOUS
 62
     3
  5
12A
 10
283.0
 20
662.0
 30
0.0
 11
309.0
 21
662.0
 31
0.0
  0
LINE
  8
0
  6
CONTINUOUS
 62
     3
  5
12B
 10
306.0
 20
690.0
 30
0.0
 11
306.0
 21
692.0
 31
0.0
  0
LINE
  8
0
  6
CONTINUOUS
 62
     3
  5
12C
 10
286.0
 20
690.0
 30
0.0
 11
286.0
 21
692.0
 31
0.0
  0
LINE
  8
0
  6
CONTINUOUS
 62
     3
  5
12D
 10
306.0
 20
690.0
 30
0.0
 11
286.0
 21
690.0
 31
0.0
  0
LINE
  8
0
  6
CONTINUOUS
 62
     3
  5
12E
 10
281.0
 20
685.0
 30
0.0
 11
279.0
 21
685.0
 31
0.0
  0
LINE
  8
0
  6
CONTINUOUS
 62
     3
  5
12F
 10
281.0
 20
665.0
 30
0.0
 11
279.0
 21
665.0
 31
0.0
  0
LINE
  8
0
  6
CONTINUOUS
 62
     3
  5
130
 10
281.0
 20
685.0
 30
0.0
 11
281.0
 21
665.0
 31
0.0
  0
LINE
  8
0
  6
CONTINUOUS
 62
     3
  5
131
 10
286.0
 20
660.0
 30
0.0
 11
286.0
 21
658.0
 31
0.0
  0
LINE
  8
0
  6
CONTINUOUS
 62
     3
  5
132
 10
306.0
 20
660.0
 30
0.0
 11
306.0
 21
658.0
 31
0.0
  0
LINE
  8
0
  6
CONTINUOUS
 62
     3
  5
133
 10
286.0
 20
660.0
 30
0.0
 11
306.0
 21
660.0
 31
0.0
  0
LINE
  8
0
  6
CONTINUOUS
 62
     3
  5
134
 10
311.0
 20
665.0
 30
0.0
 11
313.0
 21
665.0
 31
0.0
  0
LINE
  8
0
  6
CONTINUOUS
 62
     3
  5
135
 10
311.0
 20
685.0
 30
0.0
 11
313.0
 21
685.0
 31
0.0
  0
LINE
  8
0
  6
CONTINUOUS
 62
     3
  5
136
 10
311.0
 20
665.0
 30
0.0
 11
311.0
 21
685.0
 31
0.0
  0
LINE
  8
0
  6
CONTINUOUS
 62
     3
  5
137
 10
309.0
 20
688.0
 30
0.0
 11
313.0
 21
692.0
 31
0.0
  0
LINE
  8
0
  6
CONTINUOUS
 62
     3
  5
138
 10
279.0
 20
692.0
 30
0.0
 11
283.0
 21
688.0
 31
0.0
  0
LINE
  8
0
  6
CONTINUOUS
 62
     3
  5
139
 10
283.0
 20
662.0
 30
0.0
 11
279.0
 21
658.0
 31
0.0
  0
LINE
  8
0
  6
CONTINUOUS
 62
     3
  5
13A
 10
309.0
 20
662.0
 30
0.0
 11
313.0
 21
658.0
 31
0.0
  0
CIRCLE
  8
0
  6
CONTINUOUS
 62
     3
  5
13B
 10
296.0
 20
675.0
 30
0.0
 40
5.0
  0
LINE
  8
0
  6
CONTINUOUS
 62
     3
  5
13C
 10
293.700012
 20
675.575012
 30
0.0
 11
293.700012
 21
674.424988
 31
0.0
  0
LINE
  8
0
  6
CONTINUOUS
 62
     3
  5
13D
 10
295.424988
 20
677.299988
 30
0.0
 11
296.575012
 21
677.299988
 31
0.0
  0
LINE
  8
0
  6
CONTINUOUS
 62
     3
  5
13E
 10
295.424988
 20
677.299988
 30
0.0
 11
295.424988
 21
676.494995
 31
0.0
  0
LINE
  8
0
  6
CONTINUOUS
 62
     3
  5
13F
 10
293.700012
 20
675.575012
 30
0.0
 11
294.505005
 21
675.575012
 31
0.0
  0
LINE
  8
0
  6
CONTINUOUS
 62
     3
  5
140
 10
298.299988
 20
675.575012
 30
0.0
 11
298.299988
 21
674.424988
 31
0.0
  0
LINE
  8
0
  6
CONTINUOUS
 62
     3
  5
141
 10
296.575012
 20
677.299988
 30
0.0
 11
296.575012
 21
676.494995
 31
0.0
  0
LINE
  8
0
  6
CONTINUOUS
 62
     3
  5
142
 10
297.494995
 20
675.575012
 30
0.0
 11
298.299988
 21
675.575012
 31
0.0
  0
LINE
  8
0
  6
CONTINUOUS
 62
     3
  5
143
 10
295.424988
 20
672.700012
 30
0.0
 11
296.575012
 21
672.700012
 31
0.0
  0
LINE
  8
0
  6
CONTINUOUS
 62
     3
  5
144
 10
296.575012
 20
673.505005
 30
0.0
 11
296.575012
 21
672.700012
 31
0.0
  0
LINE
  8
0
  6
CONTINUOUS
 62
     3
  5
145
 10
297.494995
 20
674.424988
 30
0.0
 11
298.299988
 21
674.424988
 31
0.0
  0
LINE
  8
0
  6
CONTINUOUS
 62
     3
  5
146
 10
293.700012
 20
674.424988
 30
0.0
 11
294.505005
 21
674.424988
 31
0.0
  0
LINE
  8
0
  6
CONTINUOUS
 62
     3
  5
147
 10
295.424988
 20
673.505005
 30
0.0
 11
295.424988
 21
672.700012
 31
0.0
  0
ARC
  8
0
  6
CONTINUOUS
 62
     3
  5
148
 10
294.505005
 20
676.494995
 30
0.0
 40
0.92
 50
269.999997
 51
0.0
  0
CIRCLE
  8
0
  6
CONTINUOUS
 62
     3
  5
149
 10
296.0
 20
675.0
 30
0.0
 40
4.15
  0
ARC
  8
0
  6
CONTINUOUS
 62
     3
  5
14A
 10
297.494995
 20
676.494995
 30
0.0
 40
0.92
 50
179.999995
 51
269.999997
  0
ARC
  8
0
  6
CONTINUOUS
 62
     3
  5
14B
 10
297.494995
 20
673.505005
 30
0.0
 40
0.92
 50
90.000003
 51
180.000005
  0
ARC
  8
0
  6
CONTINUOUS
 62
     3
  5
14C
 10
294.505005
 20
673.505005
 30
0.0
 40
0.92
 50
0.0
 51
90.000003
  0
LINE
  8
0
  6
CONTINUOUS
 62
     3
  5
14D
 10
540.0
 20
669.0
 30
0.0
 11
546.0
 21
669.0
 31
0.0
  0
CIRCLE
  8
0
  6
CONTINUOUS
 62
     3
  5
14E
 10
540.0
 20
676.0
 30
0.0
 40
2.6
  0
LINE
  8
0
  6
CENTER
 62
    80
  5
14F
 10
540.0
 20
670.4
 30
0.0
 11
540.0
 21
681.6
 31
0.0
  0
ARC
  8
0
  6
CONTINUOUS
 62
     3
  5
150
 10
542.0
 20
648.0
 30
0.0
 40
5.0
 50
270.0
 51
0.0
  0
ARC
  8
0
  6
CONTINUOUS
 62
     3
  5
151
 10
542.0
 20
648.0
 30
0.0
 40
4.0
 50
270.0
 51
0.0
  0
ARC
  8
0
  6
CONTINUOUS
 62
     3
  5
152
 10
531.0
 20
659.0
 30
0.0
 40
5.0
 50
270.0
 51
0.0
  0
LINE
  8
0
  6
CONTINUOUS
 62
     3
  5
153
 10
535.242641
 20
654.757359
 30
0.0
 11
544.12132
 21
645.87868
 31
0.0
  0
LINE
  8
0
  6
CONTINUOUS
 62
     3
  5
154
 10
536.0
 20
670.255437
 30
0.0
 11
536.0
 21
659.0
 31
0.0
  0
LINE
  8
0
  6
CONTINUOUS
 62
     3
  5
155
 10
546.0
 20
669.0
 30
0.0
 11
546.0
 21
648.0
 31
0.0
  0
LINE
  8
0
  6
CONTINUOUS
 62
     3
  5
156
 10
445.0
 20
702.0
 30
0.0
 11
445.0
 21
648.0
 31
0.0
  0
ARC
  8
0
  6
CONTINUOUS
 62
     3
  5
157
 10
450.0
 20
648.0
 30
0.0
 40
5.0
 50
180.0
 51
270.0
  0
ARC
  8
0
  6
CONTINUOUS
 62
     3
  5
158
 10
450.0
 20
702.0
 30
0.0
 40
5.0
 50
90.0
 51
180.0
  0
LINE
  8
0
  6
CONTINUOUS
 62
     3
  5
159
 10
446.0
 20
702.0
 30
0.0
 11
446.0
 21
683.0
 31
0.0
  0
ARC
  8
0
  6
CONTINUOUS
 62
     3
  5
15A
 10
450.0
 20
648.0
 30
0.0
 40
4.0
 50
180.0
 51
270.0
  0
ARC
  8
0
  6
CONTINUOUS
 62
     3
  5
15B
 10
450.0
 20
702.0
 30
0.0
 40
4.0
 50
90.0
 51
180.0
  0
LINE
  8
0
  6
CONTINUOUS
 62
     3
  5
15C
 10
456.0
 20
691.0
 30
0.0
 11
456.0
 21
681.744563
 31
0.0
  0
ARC
  8
0
  6
CONTINUOUS
 62
     3
  5
15D
 10
461.0
 20
659.0
 30
0.0
 40
5.0
 50
180.0
 51
270.0
  0
ARC
  8
0
  6
CONTINUOUS
 62
     3
  5
15E
 10
461.0
 20
691.0
 30
0.0
 40
5.0
 50
90.0
 51
180.0
  0
LINE
  8
0
  6
CONTINUOUS
 62
     3
  5
15F
 10
456.757359
 20
654.757359
 30
0.0
 11
447.87868
 21
645.87868
 31
0.0
  0
LINE
  8
0
  6
CONTINUOUS
 62
     3
  5
160
 10
456.757359
 20
695.242641
 30
0.0
 11
447.87868
 21
704.12132
 31
0.0
  0
LINE
  8
0
  6
CONTINUOUS
 62
     3
  5
161
 10
452.0
 20
669.0
 30
0.0
 11
446.0
 21
669.0
 31
0.0
  0
LINE
  8
0
  6
CONTINUOUS
 62
     3
  5
162
 10
452.0
 20
683.0
 30
0.0
 11
446.0
 21
683.0
 31
0.0
  0
CIRCLE
  8
0
  6
CONTINUOUS
 62
     3
  5
163
 10
452.0
 20
676.0
 30
0.0
 40
2.6
  0
ARC
  8
0
  6
CONTINUOUS
 62
     3
  5
164
 10
452.0
 20
676.0
 30
0.0
 40
7.0
 50
270.0
 51
90.0
  0
LINE
  8
0
  6
CONTINUOUS
 62
     3
  5
165
 10
456.0
 20
670.255437
 30
0.0
 11
456.0
 21
659.0
 31
0.0
  0
LINE
  8
0
  6
CONTINUOUS
 62
     3
  5
166
 10
446.0
 20
669.0
 30
0.0
 11
446.0
 21
648.0
 31
0.0
  0
LINE
  8
0
  6
CONTINUOUS
 62
     3
  5
167
 10
476.0
 20
645.739726
 30
0.0
 11
476.0
 21
644.0
 31
0.0
  0
LINE
  8
0
  6
CONTINUOUS
 62
     3
  5
168
 10
466.0
 20
645.739726
 30
0.0
 11
466.0
 21
644.0
 31
0.0
  0
LINE
  8
0
  6
CONTINUOUS
 62
     3
  5
169
 10
475.0
 20
646.739726
 30
0.0
 11
467.0
 21
646.739726
 31
0.0
  0
ARC
  8
0
  6
CONTINUOUS
 62
     3
  5
16A
 10
467.0
 20
645.739726
 30
0.0
 40
1.0
 50
90.0
 51
180.0
  0
ARC
  8
0
  6
CONTINUOUS
 62
     3
  5
16B
 10
475.0
 20
645.739726
 30
0.0
 40
1.0
 50
0.0
 51
90.0
  0
LINE
  8
0
  6
CONTINUOUS
 62
     3
  5
16C
 10
467.0
 20
643.0
 30
0.0
 11
450.0
 21
643.0
 31
0.0
  0
LINE
  8
0
  6
CONTINUOUS
 62
     3
  5
16D
 10
467.0
 20
645.739726
 30
0.0
 11
467.0
 21
643.0
 31
0.0
  0
LINE
  8
0
  6
CONTINUOUS
 62
     3
  5
16E
 10
475.0
 20
643.0
 30
0.0
 11
475.0
 21
645.739726
 31
0.0
  0
LINE
  8
0
  6
CONTINUOUS
 62
     3
  5
16F
 10
475.0
 20
645.739726
 30
0.0
 11
467.0
 21
645.739726
 31
0.0
  0
LINE
  8
0
  6
CENTER
 62
    80
  5
170
 10
471.0
 20
649.6
 30
0.0
 11
471.0
 21
638.4
 31
0.0
  0
LINE
  8
0
  6
CONTINUOUS
 62
     3
  5
171
 10
542.0
 20
644.0
 30
0.0
 11
450.0
 21
644.0
 31
0.0
  0
LINE
  8
0
  6
CONTINUOUS
 62
     3
  5
172
 10
531.0
 20
654.0
 30
0.0
 11
461.0
 21
654.0
 31
0.0
  0
LINE
  8
0
  6
CONTINUOUS
 62
     3
  5
173
 10
542.0
 20
643.0
 30
0.0
 11
475.0
 21
643.0
 31
0.0
  0
ARC
  8
0
  6
CONTINUOUS
 62
     3
  5
174
 10
542.0
 20
702.0
 30
0.0
 40
5.0
 50
0.0
 51
90.0
  0
LINE
  8
0
  6
CONTINUOUS
 62
     3
  5
175
 10
546.0
 20
702.0
 30
0.0
 11
546.0
 21
683.0
 31
0.0
  0
ARC
  8
0
  6
CONTINUOUS
 62
     3
  5
176
 10
542.0
 20
702.0
 30
0.0
 40
4.0
 50
0.0
 51
90.0
  0
ARC
  8
0
  6
CONTINUOUS
 62
     3
  5
177
 10
531.0
 20
691.0
 30
0.0
 40
5.0
 50
0.0
 51
90.0
  0
LINE
  8
0
  6
CONTINUOUS
 62
     3
  5
178
 10
535.242641
 20
695.242641
 30
0.0
 11
544.12132
 21
704.12132
 31
0.0
  0
LINE
  8
0
  6
CONTINUOUS
 62
     3
  5
179
 10
540.0
 20
683.0
 30
0.0
 11
546.0
 21
683.0
 31
0.0
  0
ARC
  8
0
  6
CONTINUOUS
 62
     3
  5
17A
 10
540.0
 20
676.0
 30
0.0
 40
7.0
 50
90.0
 51
270.0
  0
LINE
  8
0
  6
CONTINUOUS
 62
     3
  5
17B
 10
531.0
 20
696.0
 30
0.0
 11
461.0
 21
696.0
 31
0.0
  0
LINE
  8
0
  6
CONTINUOUS
 62
     3
  5
17C
 10
536.0
 20
691.0
 30
0.0
 11
536.0
 21
681.744563
 31
0.0
  0
LINE
  8
0
  6
CONTINUOUS
 62
     3
  5
17D
 10
542.0
 20
706.0
 30
0.0
 11
450.0
 21
706.0
 31
0.0
  0
LINE
  8
0
  6
CONTINUOUS
 62
     3
  5
17E
 10
542.0
 20
707.0
 30
0.0
 11
450.0
 21
707.0
 31
0.0
  0
LINE
  8
0
  6
CONTINUOUS
 62
     3
  5
17F
 10
547.0
 20
702.0
 30
0.0
 11
547.0
 21
648.0
 31
0.0
  0
LINE
  8
0
  6
CENTER
 62
    80
  5
180
 10
545.6
 20
676.0
 30
0.0
 11
534.4
 21
676.0
 31
0.0
  0
LINE
  8
0
  6
CENTER
 62
    80
  5
181
 10
452.0
 20
670.4
 30
0.0
 11
452.0
 21
681.6
 31
0.0
  0
LINE
  8
0
  6
CENTER
 62
    80
  5
182
 10
457.6
 20
676.0
 30
0.0
 11
446.4
 21
676.0
 31
0.0
  0
LINE
  8
0
  6
CONTINUOUS
 62
     3
  5
183
 10
513.0
 20
658.0
 30
0.0
 11
513.0
 21
692.0
 31
0.0
  0
LINE
  8
0
  6
CONTINUOUS
 62
     3
  5
184
 10
509.0
 20
662.0
 30
0.0
 11
509.0
 21
688.0
 31
0.0
  0
LINE
  8
0
  6
CONTINUOUS
 62
     3
  5
185
 10
513.0
 20
692.0
 30
0.0
 11
479.0
 21
692.0
 31
0.0
  0
LINE
  8
0
  6
CONTINUOUS
 62
     3
  5
186
 10
509.0
 20
688.0
 30
0.0
 11
483.0
 21
688.0
 31
0.0
  0
LINE
  8
0
  6
CONTINUOUS
 62
     3
  5
187
 10
479.0
 20
692.0
 30
0.0
 11
479.0
 21
658.0
 31
0.0
  0
LINE
  8
0
  6
CONTINUOUS
 62
     3
  5
188
 10
483.0
 20
688.0
 30
0.0
 11
483.0
 21
662.0
 31
0.0
  0
LINE
  8
0
  6
CONTINUOUS
 62
     3
  5
189
 10
479.0
 20
658.0
 30
0.0
 11
513.0
 21
658.0
 31
0.0
  0
LINE
  8
0
  6
CONTINUOUS
 62
     3
  5
18A
 10
483.0
 20
662.0
 30
0.0
 11
509.0
 21
662.0
 31
0.0
  0
LINE
  8
0
  6
CONTINUOUS
 62
     3
  5
18B
 10
506.0
 20
690.0
 30
0.0
 11
506.0
 21
692.0
 31
0.0
  0
LINE
  8
0
  6
CONTINUOUS
 62
     3
  5
18C
 10
486.0
 20
690.0
 30
0.0
 11
486.0
 21
692.0
 31
0.0
  0
LINE
  8
0
  6
CONTINUOUS
 62
     3
  5
18D
 10
506.0
 20
690.0
 30
0.0
 11
486.0
 21
690.0
 31
0.0
  0
LINE
  8
0
  6
CONTINUOUS
 62
     3
  5
18E
 10
481.0
 20
685.0
 30
0.0
 11
479.0
 21
685.0
 31
0.0
  0
LINE
  8
0
  6
CONTINUOUS
 62
     3
  5
18F
 10
481.0
 20
665.0
 30
0.0
 11
479.0
 21
665.0
 31
0.0
  0
LINE
  8
0
  6
CONTINUOUS
 62
     3
  5
190
 10
481.0
 20
685.0
 30
0.0
 11
481.0
 21
665.0
 31
0.0
  0
LINE
  8
0
  6
CONTINUOUS
 62
     3
  5
191
 10
486.0
 20
660.0
 30
0.0
 11
486.0
 21
658.0
 31
0.0
  0
LINE
  8
0
  6
CONTINUOUS
 62
     3
  5
192
 10
506.0
 20
660.0
 30
0.0
 11
506.0
 21
658.0
 31
0.0
  0
LINE
  8
0
  6
CONTINUOUS
 62
     3
  5
193
 10
486.0
 20
660.0
 30
0.0
 11
506.0
 21
660.0
 31
0.0
  0
LINE
  8
0
  6
CONTINUOUS
 62
     3
  5
194
 10
511.0
 20
665.0
 30
0.0
 11
513.0
 21
665.0
 31
0.0
  0
LINE
  8
0
  6
CONTINUOUS
 62
     3
  5
195
 10
511.0
 20
685.0
 30
0.0
 11
513.0
 21
685.0
 31
0.0
  0
LINE
  8
0
  6
CONTINUOUS
 62
     3
  5
196
 10
511.0
 20
665.0
 30
0.0
 11
511.0
 21
685.0
 31
0.0
  0
LINE
  8
0
  6
CONTINUOUS
 62
     3
  5
197
 10
509.0
 20
688.0
 30
0.0
 11
513.0
 21
692.0
 31
0.0
  0
LINE
  8
0
  6
CONTINUOUS
 62
     3
  5
198
 10
479.0
 20
692.0
 30
0.0
 11
483.0
 21
688.0
 31
0.0
  0
LINE
  8
0
  6
CONTINUOUS
 62
     3
  5
199
 10
483.0
 20
662.0
 30
0.0
 11
479.0
 21
658.0
 31
0.0
  0
LINE
  8
0
  6
CONTINUOUS
 62
     3
  5
19A
 10
509.0
 20
662.0
 30
0.0
 11
513.0
 21
658.0
 31
0.0
  0
CIRCLE
  8
0
  6
CONTINUOUS
 62
     3
  5
19B
 10
496.0
 20
675.0
 30
0.0
 40
5.0
  0
LINE
  8
0
  6
CONTINUOUS
 62
     3
  5
19C
 10
493.700012
 20
675.575012
 30
0.0
 11
493.700012
 21
674.424988
 31
0.0
  0
LINE
  8
0
  6
CONTINUOUS
 62
     3
  5
19D
 10
495.424988
 20
677.299988
 30
0.0
 11
496.575012
 21
677.299988
 31
0.0
  0
LINE
  8
0
  6
CONTINUOUS
 62
     3
  5
19E
 10
495.424988
 20
677.299988
 30
0.0
 11
495.424988
 21
676.494995
 31
0.0
  0
LINE
  8
0
  6
CONTINUOUS
 62
     3
  5
19F
 10
493.700012
 20
675.575012
 30
0.0
 11
494.505005
 21
675.575012
 31
0.0
  0
LINE
  8
0
  6
CONTINUOUS
 62
     3
  5
1A0
 10
498.299988
 20
675.575012
 30
0.0
 11
498.299988
 21
674.424988
 31
0.0
  0
LINE
  8
0
  6
CONTINUOUS
 62
     3
  5
1A1
 10
496.575012
 20
677.299988
 30
0.0
 11
496.575012
 21
676.494995
 31
0.0
  0
LINE
  8
0
  6
CONTINUOUS
 62
     3
  5
1A2
 10
497.494995
 20
675.575012
 30
0.0
 11
498.299988
 21
675.575012
 31
0.0
  0
LINE
  8
0
  6
CONTINUOUS
 62
     3
  5
1A3
 10
495.424988
 20
672.700012
 30
0.0
 11
496.575012
 21
672.700012
 31
0.0
  0
LINE
  8
0
  6
CONTINUOUS
 62
     3
  5
1A4
 10
496.575012
 20
673.505005
 30
0.0
 11
496.575012
 21
672.700012
 31
0.0
  0
LINE
  8
0
  6
CONTINUOUS
 62
     3
  5
1A5
 10
497.494995
 20
674.424988
 30
0.0
 11
498.299988
 21
674.424988
 31
0.0
  0
LINE
  8
0
  6
CONTINUOUS
 62
     3
  5
1A6
 10
493.700012
 20
674.424988
 30
0.0
 11
494.505005
 21
674.424988
 31
0.0
  0
LINE
  8
0
  6
CONTINUOUS
 62
     3
  5
1A7
 10
495.424988
 20
673.505005
 30
0.0
 11
495.424988
 21
672.700012
 31
0.0
  0
ARC
  8
0
  6
CONTINUOUS
 62
     3
  5
1A8
 10
494.505005
 20
676.494995
 30
0.0
 40
0.92
 50
269.999997
 51
0.0
  0
CIRCLE
  8
0
  6
CONTINUOUS
 62
     3
  5
1A9
 10
496.0
 20
675.0
 30
0.0
 40
4.15
  0
ARC
  8
0
  6
CONTINUOUS
 62
     3
  5
1AA
 10
497.494995
 20
676.494995
 30
0.0
 40
0.92
 50
179.999995
 51
269.999997
  0
ARC
  8
0
  6
CONTINUOUS
 62
     3
  5
1AB
 10
497.494995
 20
673.505005
 30
0.0
 40
0.92
 50
90.000003
 51
180.000005
  0
ARC
  8
0
  6
CONTINUOUS
 62
     3
  5
1AC
 10
494.505005
 20
673.505005
 30
0.0
 40
0.92
 50
0.0
 51
90.000003
  0
LINE
  8
0
  6
CONTINUOUS
 62
     3
  5
1AD
 10
740.0
 20
669.0
 30
0.0
 11
746.0
 21
669.0
 31
0.0
  0
CIRCLE
  8
0
  6
CONTINUOUS
 62
     3
  5
1AE
 10
740.0
 20
676.0
 30
0.0
 40
2.6
  0
LINE
  8
0
  6
CENTER
 62
    80
  5
1AF
 10
740.0
 20
670.4
 30
0.0
 11
740.0
 21
681.6
 31
0.0
  0
ARC
  8
0
  6
CONTINUOUS
 62
     3
  5
1B0
 10
742.0
 20
648.0
 30
0.0
 40
5.0
 50
270.0
 51
0.0
  0
ARC
  8
0
  6
CONTINUOUS
 62
     3
  5
1B1
 10
742.0
 20
648.0
 30
0.0
 40
4.0
 50
270.0
 51
0.0
  0
ARC
  8
0
  6
CONTINUOUS
 62
     3
  5
1B2
 10
731.0
 20
659.0
 30
0.0
 40
5.0
 50
270.0
 51
0.0
  0
LINE
  8
0
  6
CONTINUOUS
 62
     3
  5
1B3
 10
735.242641
 20
654.757359
 30
0.0
 11
744.12132
 21
645.87868
 31
0.0
  0
LINE
  8
0
  6
CONTINUOUS
 62
     3
  5
1B4
 10
736.0
 20
670.255437
 30
0.0
 11
736.0
 21
659.0
 31
0.0
  0
LINE
  8
0
  6
CONTINUOUS
 62
     3
  5
1B5
 10
746.0
 20
669.0
 30
0.0
 11
746.0
 21
648.0
 31
0.0
  0
LINE
  8
0
  6
CONTINUOUS
 62
     3
  5
1B6
 10
645.0
 20
702.0
 30
0.0
 11
645.0
 21
648.0
 31
0.0
  0
ARC
  8
0
  6
CONTINUOUS
 62
     3
  5
1B7
 10
650.0
 20
648.0
 30
0.0
 40
5.0
 50
180.0
 51
270.0
  0
ARC
  8
0
  6
CONTINUOUS
 62
     3
  5
1B8
 10
650.0
 20
702.0
 30
0.0
 40
5.0
 50
90.0
 51
180.0
  0
LINE
  8
0
  6
CONTINUOUS
 62
     3
  5
1B9
 10
646.0
 20
702.0
 30
0.0
 11
646.0
 21
683.0
 31
0.0
  0
ARC
  8
0
  6
CONTINUOUS
 62
     3
  5
1BA
 10
650.0
 20
648.0
 30
0.0
 40
4.0
 50
180.0
 51
270.0
  0
ARC
  8
0
  6
CONTINUOUS
 62
     3
  5
1BB
 10
650.0
 20
702.0
 30
0.0
 40
4.0
 50
90.0
 51
180.0
  0
LINE
  8
0
  6
CONTINUOUS
 62
     3
  5
1BC
 10
656.0
 20
691.0
 30
0.0
 11
656.0
 21
681.744563
 31
0.0
  0
ARC
  8
0
  6
CONTINUOUS
 62
     3
  5
1BD
 10
661.0
 20
659.0
 30
0.0
 40
5.0
 50
180.0
 51
270.0
  0
ARC
  8
0
  6
CONTINUOUS
 62
     3
  5
1BE
 10
661.0
 20
691.0
 30
0.0
 40
5.0
 50
90.0
 51
180.0
  0
LINE
  8
0
  6
CONTINUOUS
 62
     3
  5
1BF
 10
656.757359
 20
654.757359
 30
0.0
 11
647.87868
 21
645.87868
 31
0.0
  0
LINE
  8
0
  6
CONTINUOUS
 62
     3
  5
1C0
 10
656.757359
 20
695.242641
 30
0.0
 11
647.87868
 21
704.12132
 31
0.0
  0
LINE
  8
0
  6
CONTINUOUS
 62
     3
  5
1C1
 10
652.0
 20
669.0
 30
0.0
 11
646.0
 21
669.0
 31
0.0
  0
LINE
  8
0
  6
CONTINUOUS
 62
     3
  5
1C2
 10
652.0
 20
683.0
 30
0.0
 11
646.0
 21
683.0
 31
0.0
  0
CIRCLE
  8
0
  6
CONTINUOUS
 62
     3
  5
1C3
 10
652.0
 20
676.0
 30
0.0
 40
2.6
  0
ARC
  8
0
  6
CONTINUOUS
 62
     3
  5
1C4
 10
652.0
 20
676.0
 30
0.0
 40
7.0
 50
270.0
 51
90.0
  0
LINE
  8
0
  6
CONTINUOUS
 62
     3
  5
1C5
 10
656.0
 20
670.255437
 30
0.0
 11
656.0
 21
659.0
 31
0.0
  0
LINE
  8
0
  6
CONTINUOUS
 62
     3
  5
1C6
 10
646.0
 20
669.0
 30
0.0
 11
646.0
 21
648.0
 31
0.0
  0
LINE
  8
0
  6
CONTINUOUS
 62
     3
  5
1C7
 10
676.0
 20
645.739726
 30
0.0
 11
676.0
 21
644.0
 31
0.0
  0
LINE
  8
0
  6
CONTINUOUS
 62
     3
  5
1C8
 10
666.0
 20
645.739726
 30
0.0
 11
666.0
 21
644.0
 31
0.0
  0
LINE
  8
0
  6
CONTINUOUS
 62
     3
  5
1C9
 10
675.0
 20
646.739726
 30
0.0
 11
667.0
 21
646.739726
 31
0.0
  0
ARC
  8
0
  6
CONTINUOUS
 62
     3
  5
1CA
 10
667.0
 20
645.739726
 30
0.0
 40
1.0
 50
90.0
 51
180.0
  0
ARC
  8
0
  6
CONTINUOUS
 62
     3
  5
1CB
 10
675.0
 20
645.739726
 30
0.0
 40
1.0
 50
0.0
 51
90.0
  0
LINE
  8
0
  6
CONTINUOUS
 62
     3
  5
1CC
 10
667.0
 20
643.0
 30
0.0
 11
650.0
 21
643.0
 31
0.0
  0
LINE
  8
0
  6
CONTINUOUS
 62
     3
  5
1CD
 10
667.0
 20
645.739726
 30
0.0
 11
667.0
 21
643.0
 31
0.0
  0
LINE
  8
0
  6
CONTINUOUS
 62
     3
  5
1CE
 10
675.0
 20
643.0
 30
0.0
 11
675.0
 21
645.739726
 31
0.0
  0
LINE
  8
0
  6
CONTINUOUS
 62
     3
  5
1CF
 10
675.0
 20
645.739726
 30
0.0
 11
667.0
 21
645.739726
 31
0.0
  0
LINE
  8
0
  6
CENTER
 62
    80
  5
1D0
 10
671.0
 20
649.6
 30
0.0
 11
671.0
 21
638.4
 31
0.0
  0
LINE
  8
0
  6
CONTINUOUS
 62
     3
  5
1D1
 10
742.0
 20
644.0
 30
0.0
 11
650.0
 21
644.0
 31
0.0
  0
LINE
  8
0
  6
CONTINUOUS
 62
     3
  5
1D2
 10
731.0
 20
654.0
 30
0.0
 11
661.0
 21
654.0
 31
0.0
  0
LINE
  8
0
  6
CONTINUOUS
 62
     3
  5
1D3
 10
742.0
 20
643.0
 30
0.0
 11
675.0
 21
643.0
 31
0.0
  0
ARC
  8
0
  6
CONTINUOUS
 62
     3
  5
1D4
 10
742.0
 20
702.0
 30
0.0
 40
5.0
 50
0.0
 51
90.0
  0
LINE
  8
0
  6
CONTINUOUS
 62
     3
  5
1D5
 10
746.0
 20
702.0
 30
0.0
 11
746.0
 21
683.0
 31
0.0
  0
ARC
  8
0
  6
CONTINUOUS
 62
     3
  5
1D6
 10
742.0
 20
702.0
 30
0.0
 40
4.0
 50
0.0
 51
90.0
  0
ARC
  8
0
  6
CONTINUOUS
 62
     3
  5
1D7
 10
731.0
 20
691.0
 30
0.0
 40
5.0
 50
0.0
 51
90.0
  0
LINE
  8
0
  6
CONTINUOUS
 62
     3
  5
1D8
 10
735.242641
 20
695.242641
 30
0.0
 11
744.12132
 21
704.12132
 31
0.0
  0
LINE
  8
0
  6
CONTINUOUS
 62
     3
  5
1D9
 10
740.0
 20
683.0
 30
0.0
 11
746.0
 21
683.0
 31
0.0
  0
ARC
  8
0
  6
CONTINUOUS
 62
     3
  5
1DA
 10
740.0
 20
676.0
 30
0.0
 40
7.0
 50
90.0
 51
270.0
  0
LINE
  8
0
  6
CONTINUOUS
 62
     3
  5
1DB
 10
731.0
 20
696.0
 30
0.0
 11
661.0
 21
696.0
 31
0.0
  0
LINE
  8
0
  6
CONTINUOUS
 62
     3
  5
1DC
 10
736.0
 20
691.0
 30
0.0
 11
736.0
 21
681.744563
 31
0.0
  0
LINE
  8
0
  6
CONTINUOUS
 62
     3
  5
1DD
 10
742.0
 20
706.0
 30
0.0
 11
650.0
 21
706.0
 31
0.0
  0
LINE
  8
0
  6
CONTINUOUS
 62
     3
  5
1DE
 10
742.0
 20
707.0
 30
0.0
 11
650.0
 21
707.0
 31
0.0
  0
LINE
  8
0
  6
CONTINUOUS
 62
     3
  5
1DF
 10
747.0
 20
702.0
 30
0.0
 11
747.0
 21
648.0
 31
0.0
  0
LINE
  8
0
  6
CENTER
 62
    80
  5
1E0
 10
745.6
 20
676.0
 30
0.0
 11
734.4
 21
676.0
 31
0.0
  0
LINE
  8
0
  6
CENTER
 62
    80
  5
1E1
 10
652.0
 20
670.4
 30
0.0
 11
652.0
 21
681.6
 31
0.0
  0
LINE
  8
0
  6
CENTER
 62
    80
  5
1E2
 10
657.6
 20
676.0
 30
0.0
 11
646.4
 21
676.0
 31
0.0
  0
LINE
  8
0
  6
CONTINUOUS
 62
     3
  5
1E3
 10
713.0
 20
658.0
 30
0.0
 11
713.0
 21
692.0
 31
0.0
  0
LINE
  8
0
  6
CONTINUOUS
 62
     3
  5
1E4
 10
709.0
 20
662.0
 30
0.0
 11
709.0
 21
688.0
 31
0.0
  0
LINE
  8
0
  6
CONTINUOUS
 62
     3
  5
1E5
 10
713.0
 20
692.0
 30
0.0
 11
679.0
 21
692.0
 31
0.0
  0
LINE
  8
0
  6
CONTINUOUS
 62
     3
  5
1E6
 10
709.0
 20
688.0
 30
0.0
 11
683.0
 21
688.0
 31
0.0
  0
LINE
  8
0
  6
CONTINUOUS
 62
     3
  5
1E7
 10
679.0
 20
692.0
 30
0.0
 11
679.0
 21
658.0
 31
0.0
  0
LINE
  8
0
  6
CONTINUOUS
 62
     3
  5
1E8
 10
683.0
 20
688.0
 30
0.0
 11
683.0
 21
662.0
 31
0.0
  0
LINE
  8
0
  6
CONTINUOUS
 62
     3
  5
1E9
 10
679.0
 20
658.0
 30
0.0
 11
713.0
 21
658.0
 31
0.0
  0
LINE
  8
0
  6
CONTINUOUS
 62
     3
  5
1EA
 10
683.0
 20
662.0
 30
0.0
 11
709.0
 21
662.0
 31
0.0
  0
LINE
  8
0
  6
CONTINUOUS
 62
     3
  5
1EB
 10
706.0
 20
690.0
 30
0.0
 11
706.0
 21
692.0
 31
0.0
  0
LINE
  8
0
  6
CONTINUOUS
 62
     3
  5
1EC
 10
686.0
 20
690.0
 30
0.0
 11
686.0
 21
692.0
 31
0.0
  0
LINE
  8
0
  6
CONTINUOUS
 62
     3
  5
1ED
 10
706.0
 20
690.0
 30
0.0
 11
686.0
 21
690.0
 31
0.0
  0
LINE
  8
0
  6
CONTINUOUS
 62
     3
  5
1EE
 10
681.0
 20
685.0
 30
0.0
 11
679.0
 21
685.0
 31
0.0
  0
LINE
  8
0
  6
CONTINUOUS
 62
     3
  5
1EF
 10
681.0
 20
665.0
 30
0.0
 11
679.0
 21
665.0
 31
0.0
  0
LINE
  8
0
  6
CONTINUOUS
 62
     3
  5
1F0
 10
681.0
 20
685.0
 30
0.0
 11
681.0
 21
665.0
 31
0.0
  0
LINE
  8
0
  6
CONTINUOUS
 62
     3
  5
1F1
 10
686.0
 20
660.0
 30
0.0
 11
686.0
 21
658.0
 31
0.0
  0
LINE
  8
0
  6
CONTINUOUS
 62
     3
  5
1F2
 10
706.0
 20
660.0
 30
0.0
 11
706.0
 21
658.0
 31
0.0
  0
LINE
  8
0
  6
CONTINUOUS
 62
     3
  5
1F3
 10
686.0
 20
660.0
 30
0.0
 11
706.0
 21
660.0
 31
0.0
  0
LINE
  8
0
  6
CONTINUOUS
 62
     3
  5
1F4
 10
711.0
 20
665.0
 30
0.0
 11
713.0
 21
665.0
 31
0.0
  0
LINE
  8
0
  6
CONTINUOUS
 62
     3
  5
1F5
 10
711.0
 20
685.0
 30
0.0
 11
713.0
 21
685.0
 31
0.0
  0
LINE
  8
0
  6
CONTINUOUS
 62
     3
  5
1F6
 10
711.0
 20
665.0
 30
0.0
 11
711.0
 21
685.0
 31
0.0
  0
LINE
  8
0
  6
CONTINUOUS
 62
     3
  5
1F7
 10
709.0
 20
688.0
 30
0.0
 11
713.0
 21
692.0
 31
0.0
  0
LINE
  8
0
  6
CONTINUOUS
 62
     3
  5
1F8
 10
679.0
 20
692.0
 30
0.0
 11
683.0
 21
688.0
 31
0.0
  0
LINE
  8
0
  6
CONTINUOUS
 62
     3
  5
1F9
 10
683.0
 20
662.0
 30
0.0
 11
679.0
 21
658.0
 31
0.0
  0
LINE
  8
0
  6
CONTINUOUS
 62
     3
  5
1FA
 10
709.0
 20
662.0
 30
0.0
 11
713.0
 21
658.0
 31
0.0
  0
CIRCLE
  8
0
  6
CONTINUOUS
 62
     3
  5
1FB
 10
696.0
 20
675.0
 30
0.0
 40
5.0
  0
LINE
  8
0
  6
CONTINUOUS
 62
     3
  5
1FC
 10
693.700012
 20
675.575012
 30
0.0
 11
693.700012
 21
674.424988
 31
0.0
  0
LINE
  8
0
  6
CONTINUOUS
 62
     3
  5
1FD
 10
695.424988
 20
677.299988
 30
0.0
 11
696.575012
 21
677.299988
 31
0.0
  0
LINE
  8
0
  6
CONTINUOUS
 62
     3
  5
1FE
 10
695.424988
 20
677.299988
 30
0.0
 11
695.424988
 21
676.494995
 31
0.0
  0
LINE
  8
0
  6
CONTINUOUS
 62
     3
  5
1FF
 10
693.700012
 20
675.575012
 30
0.0
 11
694.505005
 21
675.575012
 31
0.0
  0
LINE
  8
0
  6
CONTINUOUS
 62
     3
  5
200
 10
698.299988
 20
675.575012
 30
0.0
 11
698.299988
 21
674.424988
 31
0.0
  0
LINE
  8
0
  6
CONTINUOUS
 62
     3
  5
201
 10
696.575012
 20
677.299988
 30
0.0
 11
696.575012
 21
676.494995
 31
0.0
  0
LINE
  8
0
  6
CONTINUOUS
 62
     3
  5
202
 10
697.494995
 20
675.575012
 30
0.0
 11
698.299988
 21
675.575012
 31
0.0
  0
LINE
  8
0
  6
CONTINUOUS
 62
     3
  5
203
 10
695.424988
 20
672.700012
 30
0.0
 11
696.575012
 21
672.700012
 31
0.0
  0
LINE
  8
0
  6
CONTINUOUS
 62
     3
  5
204
 10
696.575012
 20
673.505005
 30
0.0
 11
696.575012
 21
672.700012
 31
0.0
  0
LINE
  8
0
  6
CONTINUOUS
 62
     3
  5
205
 10
697.494995
 20
674.424988
 30
0.0
 11
698.299988
 21
674.424988
 31
0.0
  0
LINE
  8
0
  6
CONTINUOUS
 62
     3
  5
206
 10
693.700012
 20
674.424988
 30
0.0
 11
694.505005
 21
674.424988
 31
0.0
  0
LINE
  8
0
  6
CONTINUOUS
 62
     3
  5
207
 10
695.424988
 20
673.505005
 30
0.0
 11
695.424988
 21
672.700012
 31
0.0
  0
ARC
  8
0
  6
CONTINUOUS
 62
     3
  5
208
 10
694.505005
 20
676.494995
 30
0.0
 40
0.92
 50
269.999997
 51
0.0
  0
CIRCLE
  8
0
  6
CONTINUOUS
 62
     3
  5
209
 10
696.0
 20
675.0
 30
0.0
 40
4.15
  0
ARC
  8
0
  6
CONTINUOUS
 62
     3
  5
20A
 10
697.494995
 20
676.494995
 30
0.0
 40
0.92
 50
179.999995
 51
269.999997
  0
ARC
  8
0
  6
CONTINUOUS
 62
     3
  5
20B
 10
697.494995
 20
673.505005
 30
0.0
 40
0.92
 50
90.000003
 51
180.000005
  0
ARC
  8
0
  6
CONTINUOUS
 62
     3
  5
20C
 10
694.505005
 20
673.505005
 30
0.0
 40
0.92
 50
0.0
 51
90.000003
  0
ARC
  8
0
  6
CONTINUOUS
 62
     3
  5
20D
 10
894.505005
 20
673.505005
 30
0.0
 40
0.92
 50
0.0
 51
90.000003
  0
ARC
  8
0
  6
CONTINUOUS
 62
     3
  5
20E
 10
897.494995
 20
673.505005
 30
0.0
 40
0.92
 50
90.000003
 51
180.000005
  0
ARC
  8
0
  6
CONTINUOUS
 62
     3
  5
20F
 10
897.494995
 20
676.494995
 30
0.0
 40
0.92
 50
179.999995
 51
269.999997
  0
CIRCLE
  8
0
  6
CONTINUOUS
 62
     3
  5
210
 10
896.0
 20
675.0
 30
0.0
 40
4.15
  0
ARC
  8
0
  6
CONTINUOUS
 62
     3
  5
211
 10
894.505005
 20
676.494995
 30
0.0
 40
0.92
 50
269.999997
 51
0.0
  0
LINE
  8
0
  6
CONTINUOUS
 62
     3
  5
212
 10
895.424988
 20
673.505005
 30
0.0
 11
895.424988
 21
672.700012
 31
0.0
  0
LINE
  8
0
  6
CONTINUOUS
 62
     3
  5
213
 10
893.700012
 20
674.424988
 30
0.0
 11
894.505005
 21
674.424988
 31
0.0
  0
LINE
  8
0
  6
CONTINUOUS
 62
     3
  5
214
 10
897.494995
 20
674.424988
 30
0.0
 11
898.299988
 21
674.424988
 31
0.0
  0
LINE
  8
0
  6
CONTINUOUS
 62
     3
  5
215
 10
896.575012
 20
673.505005
 30
0.0
 11
896.575012
 21
672.700012
 31
0.0
  0
LINE
  8
0
  6
CONTINUOUS
 62
     3
  5
216
 10
895.424988
 20
672.700012
 30
0.0
 11
896.575012
 21
672.700012
 31
0.0
  0
LINE
  8
0
  6
CONTINUOUS
 62
     3
  5
217
 10
897.494995
 20
675.575012
 30
0.0
 11
898.299988
 21
675.575012
 31
0.0
  0
LINE
  8
0
  6
CONTINUOUS
 62
     3
  5
218
 10
896.575012
 20
677.299988
 30
0.0
 11
896.575012
 21
676.494995
 31
0.0
  0
LINE
  8
0
  6
CONTINUOUS
 62
     3
  5
219
 10
898.299988
 20
675.575012
 30
0.0
 11
898.299988
 21
674.424988
 31
0.0
  0
LINE
  8
0
  6
CONTINUOUS
 62
     3
  5
21A
 10
893.700012
 20
675.575012
 30
0.0
 11
894.505005
 21
675.575012
 31
0.0
  0
LINE
  8
0
  6
CONTINUOUS
 62
     3
  5
21B
 10
895.424988
 20
677.299988
 30
0.0
 11
895.424988
 21
676.494995
 31
0.0
  0
LINE
  8
0
  6
CONTINUOUS
 62
     3
  5
21C
 10
895.424988
 20
677.299988
 30
0.0
 11
896.575012
 21
677.299988
 31
0.0
  0
LINE
  8
0
  6
CONTINUOUS
 62
     3
  5
21D
 10
893.700012
 20
675.575012
 30
0.0
 11
893.700012
 21
674.424988
 31
0.0
  0
CIRCLE
  8
0
  6
CONTINUOUS
 62
     3
  5
21E
 10
896.0
 20
675.0
 30
0.0
 40
5.0
  0
LINE
  8
0
  6
CONTINUOUS
 62
     3
  5
21F
 10
909.0
 20
662.0
 30
0.0
 11
913.0
 21
658.0
 31
0.0
  0
LINE
  8
0
  6
CONTINUOUS
 62
     3
  5
220
 10
883.0
 20
662.0
 30
0.0
 11
879.0
 21
658.0
 31
0.0
  0
LINE
  8
0
  6
CONTINUOUS
 62
     3
  5
221
 10
879.0
 20
692.0
 30
0.0
 11
883.0
 21
688.0
 31
0.0
  0
LINE
  8
0
  6
CONTINUOUS
 62
     3
  5
222
 10
909.0
 20
688.0
 30
0.0
 11
913.0
 21
692.0
 31
0.0
  0
LINE
  8
0
  6
CONTINUOUS
 62
     3
  5
223
 10
911.0
 20
665.0
 30
0.0
 11
911.0
 21
685.0
 31
0.0
  0
LINE
  8
0
  6
CONTINUOUS
 62
     3
  5
224
 10
911.0
 20
685.0
 30
0.0
 11
913.0
 21
685.0
 31
0.0
  0
LINE
  8
0
  6
CONTINUOUS
 62
     3
  5
225
 10
911.0
 20
665.0
 30
0.0
 11
913.0
 21
665.0
 31
0.0
  0
LINE
  8
0
  6
CONTINUOUS
 62
     3
  5
226
 10
886.0
 20
660.0
 30
0.0
 11
906.0
 21
660.0
 31
0.0
  0
LINE
  8
0
  6
CONTINUOUS
 62
     3
  5
227
 10
906.0
 20
660.0
 30
0.0
 11
906.0
 21
658.0
 31
0.0
  0
LINE
  8
0
  6
CONTINUOUS
 62
     3
  5
228
 10
886.0
 20
660.0
 30
0.0
 11
886.0
 21
658.0
 31
0.0
  0
LINE
  8
0
  6
CONTINUOUS
 62
     3
  5
229
 10
881.0
 20
685.0
 30
0.0
 11
881.0
 21
665.0
 31
0.0
  0
LINE
  8
0
  6
CONTINUOUS
 62
     3
  5
22A
 10
881.0
 20
665.0
 30
0.0
 11
879.0
 21
665.0
 31
0.0
  0
LINE
  8
0
  6
CONTINUOUS
 62
     3
  5
22B
 10
881.0
 20
685.0
 30
0.0
 11
879.0
 21
685.0
 31
0.0
  0
LINE
  8
0
  6
CONTINUOUS
 62
     3
  5
22C
 10
906.0
 20
690.0
 30
0.0
 11
886.0
 21
690.0
 31
0.0
  0
LINE
  8
0
  6
CONTINUOUS
 62
     3
  5
22D
 10
886.0
 20
690.0
 30
0.0
 11
886.0
 21
692.0
 31
0.0
  0
LINE
  8
0
  6
CONTINUOUS
 62
     3
  5
22E
 10
906.0
 20
690.0
 30
0.0
 11
906.0
 21
692.0
 31
0.0
  0
LINE
  8
0
  6
CONTINUOUS
 62
     3
  5
22F
 10
883.0
 20
662.0
 30
0.0
 11
909.0
 21
662.0
 31
0.0
  0
LINE
  8
0
  6
CONTINUOUS
 62
     3
  5
230
 10
879.0
 20
658.0
 30
0.0
 11
913.0
 21
658.0
 31
0.0
  0
LINE
  8
0
  6
CONTINUOUS
 62
     3
  5
231
 10
883.0
 20
688.0
 30
0.0
 11
883.0
 21
662.0
 31
0.0
  0
LINE
  8
0
  6
CONTINUOUS
 62
     3
  5
232
 10
879.0
 20
692.0
 30
0.0
 11
879.0
 21
658.0
 31
0.0
  0
LINE
  8
0
  6
CONTINUOUS
 62
     3
  5
233
 10
909.0
 20
688.0
 30
0.0
 11
883.0
 21
688.0
 31
0.0
  0
LINE
  8
0
  6
CONTINUOUS
 62
     3
  5
234
 10
913.0
 20
692.0
 30
0.0
 11
879.0
 21
692.0
 31
0.0
  0
LINE
  8
0
  6
CONTINUOUS
 62
     3
  5
235
 10
909.0
 20
662.0
 30
0.0
 11
909.0
 21
688.0
 31
0.0
  0
LINE
  8
0
  6
CONTINUOUS
 62
     3
  5
236
 10
913.0
 20
658.0
 30
0.0
 11
913.0
 21
692.0
 31
0.0
  0
LINE
  8
0
  6
CENTER
 62
    80
  5
237
 10
857.6
 20
676.0
 30
0.0
 11
846.4
 21
676.0
 31
0.0
  0
LINE
  8
0
  6
CENTER
 62
    80
  5
238
 10
852.0
 20
670.4
 30
0.0
 11
852.0
 21
681.6
 31
0.0
  0
LINE
  8
0
  6
CENTER
 62
    80
  5
239
 10
945.6
 20
676.0
 30
0.0
 11
934.4
 21
676.0
 31
0.0
  0
LINE
  8
0
  6
CONTINUOUS
 62
     3
  5
23A
 10
79.0
 20
378.846406
 30
0.0
 11
113.0
 21
378.846406
 31
0.0
  0
LINE
  8
0
  6
CONTINUOUS
 62
     3
  5
23B
 10
79.0
 20
378.846406
 30
0.0
 11
79.0
 21
384.846406
 31
0.0
  0
LINE
  8
0
  6
CONTINUOUS
 62
     3
  5
23C
 10
113.0
 20
378.846406
 30
0.0
 11
113.0
 21
384.846406
 31
0.0
  0
LINE
  8
0
  6
CONTINUOUS
 62
     3
  5
23D
 10
104.25
 20
310.072754
 30
0.0
 11
106.25
 21
310.072754
 31
0.0
  0
LINE
  8
0
  6
CONTINUOUS
 62
     3
  5
23E
 10
104.25
 20
314.620058
 30
0.0
 11
106.25
 21
314.620058
 31
0.0
  0
LINE
  8
0
  6
CONTINUOUS
 62
     3
  5
23F
 10
106.25
 20
310.072754
 30
0.0
 11
106.25
 21
314.620058
 31
0.0
  0
CIRCLE
  8
0
  6
CONTINUOUS
 62
     3
  5
240
 10
96.0
 20
312.346406
 30
0.0
 40
2.273652
  0
CIRCLE
  8
0
  6
CONTINUOUS
 62
     3
  5
241
 10
96.0
 20
312.346406
 30
0.0
 40
2.0
  0
LINE
  8
0
  6
CONTINUOUS
 62
     3
  5
242
 10
76.0
 20
180.846406
 30
0.0
 11
147.0
 21
180.846406
 31
0.0
  0
LINE
  8
0
  6
CONTINUOUS
 62
     3
  5
243
 10
67.0
 20
184.846406
 30
0.0
 11
75.0
 21
184.846406
 31
0.0
  0
LINE
  8
0
  6
CONTINUOUS
 62
     3
  5
244
 10
67.0
 20
177.846406
 30
0.0
 11
67.0
 21
184.846406
 31
0.0
  0
LINE
  8
0
  6
CONTINUOUS
 62
     3
  5
245
 10
75.0
 20
177.846406
 30
0.0
 11
75.0
 21
184.846406
 31
0.0
  0
ARC
  8
0
  6
CONTINUOUS
 62
     3
  5
246
 10
75.0
 20
184.846406
 30
0.0
 40
1.0
 50
0.0
 51
90.0
  0
ARC
  8
0
  6
CONTINUOUS
 62
     3
  5
247
 10
67.0
 20
184.846406
 30
0.0
 40
1.0
 50
90.0
 51
180.0
  0
LINE
  8
0
  6
CONTINUOUS
 62
     3
  5
248
 10
67.0
 20
185.846406
 30
0.0
 11
75.0
 21
185.846406
 31
0.0
  0
LINE
  8
0
  6
CONTINUOUS
 62
     3
  5
249
 10
76.0
 20
177.846406
 30
0.0
 11
76.0
 21
184.846406
 31
0.0
  0
LINE
  8
0
  6
CONTINUOUS
 62
     3
  5
24A
 10
66.0
 20
177.846406
 30
0.0
 11
66.0
 21
184.846406
 31
0.0
  0
LINE
  8
0
  6
CONTINUOUS
 62
    80
  5
24B
 10
96.0
 20
341.846406
 30
0.0
 11
96.0
 21
378.846406
 31
0.0
  0
LINE
  8
0
  6
CONTINUOUS
 62
    80
  5
24C
 10
91.75
 20
341.846406
 30
0.0
 11
91.75
 21
378.846406
 31
0.0
  0
LINE
  8
0
  6
CONTINUOUS
 62
    80
  5
24D
 10
83.25
 20
341.846406
 30
0.0
 11
83.25
 21
378.846406
 31
0.0
  0
LINE
  8
0
  6
CONTINUOUS
 62
    80
  5
24E
 10
87.5
 20
341.846406
 30
0.0
 11
87.5
 21
378.846406
 31
0.0
  0
LINE
  8
0
  6
CONTINUOUS
 62
    80
  5
24F
 10
100.25
 20
341.846406
 30
0.0
 11
100.25
 21
378.846406
 31
0.0
  0
LINE
  8
0
  6
CONTINUOUS
 62
    80
  5
250
 10
108.75
 20
341.846406
 30
0.0
 11
108.75
 21
378.846406
 31
0.0
  0
LINE
  8
0
  6
CONTINUOUS
 62
    80
  5
251
 10
104.5
 20
341.846406
 30
0.0
 11
104.5
 21
378.846406
 31
0.0
  0
LINE
  8
0
  6
CONTINUOUS
 62
     3
  5
252
 10
102.0
 20
220.346406
 30
0.0
 11
102.0
 21
307.346406
 31
0.0
  0
LINE
  8
0
  6
CONTINUOUS
 62
     3
  5
253
 10
90.0
 20
220.346406
 30
0.0
 11
90.0
 21
307.346406
 31
0.0
  0
LINE
  8
0
  6
CONTINUOUS
 62
     3
  5
254
 10
87.75
 20
307.346406
 30
0.0
 11
104.25
 21
307.346406
 31
0.0
  0
LINE
  8
0
  6
CONTINUOUS
 62
     3
  5
255
 10
104.25
 20
307.346406
 30
0.0
 11
104.25
 21
317.346406
 31
0.0
  0
LINE
  8
0
  6
CONTINUOUS
 62
     3
  5
256
 10
87.75
 20
307.346406
 30
0.0
 11
87.75
 21
317.346406
 31
0.0
  0
LINE
  8
0
  6
CONTINUOUS
 62
     3
  5
257
 10
105.0
 20
317.346406
 30
0.0
 11
113.0
 21
322.346406
 31
0.0
  0
LINE
  8
0
  6
CONTINUOUS
 62
     3
  5
258
 10
87.0
 20
317.346406
 30
0.0
 11
79.0
 21
322.346406
 31
0.0
  0
LINE
  8
0
  6
CONTINUOUS
 62
     3
  5
259
 10
79.0
 20
322.346406
 30
0.0
 11
113.0
 21
322.346406
 31
0.0
  0
LINE
  8
0
  6
CONTINUOUS
 62
     3
  5
25A
 10
79.0
 20
341.846406
 30
0.0
 11
113.0
 21
341.846406
 31
0.0
  0
LINE
  8
0
  6
CONTINUOUS
 62
     3
  5
25B
 10
79.0
 20
336.846406
 30
0.0
 11
113.0
 21
336.846406
 31
0.0
  0
LINE
  8
0
  6
CONTINUOUS
 62
     3
  5
25C
 10
87.0
 20
317.346406
 30
0.0
 11
105.0
 21
317.346406
 31
0.0
  0
LINE
  8
0
  6
CONTINUOUS
 62
     3
  5
25D
 10
86.0
 20
386.846406
 30
0.0
 11
106.0
 21
386.846406
 31
0.0
  0
LINE
  8
0
  6
CONTINUOUS
 62
     3
  5
25E
 10
86.0
 20
384.846406
 30
0.0
 11
86.0
 21
386.846406
 31
0.0
  0
LINE
  8
0
  6
CONTINUOUS
 62
     3
  5
25F
 10
106.0
 20
384.846406
 30
0.0
 11
106.0
 21
386.846406
 31
0.0
  0
LINE
  8
0
  6
CONTINUOUS
 62
     3
  5
260
 10
109.0
 20
388.846406
 30
0.0
 11
113.0
 21
384.846406
 31
0.0
  0
LINE
  8
0
  6
CONTINUOUS
 62
     3
  5
261
 10
79.0
 20
384.846406
 30
0.0
 11
83.0
 21
388.846406
 31
0.0
  0
LINE
  8
0
  6
CONTINUOUS
 62
     3
  5
262
 10
83.0
 20
388.846406
 30
0.0
 11
109.0
 21
388.846406
 31
0.0
  0
LINE
  8
0
  6
CONTINUOUS
 62
     3
  5
263
 10
79.0
 20
384.846406
 30
0.0
 11
113.0
 21
384.846406
 31
0.0
  0
LINE
  8
0
  6
CONTINUOUS
 62
     3
  5
264
 10
79.0
 20
322.346406
 30
0.0
 11
79.0
 21
378.846406
 31
0.0
  0
LINE
  8
0
  6
CONTINUOUS
 62
     3
  5
265
 10
113.0
 20
322.346406
 30
0.0
 11
113.0
 21
378.846406
 31
0.0
  0
LINE
  8
0
  6
CONTINUOUS
 62
     3
  5
266
 10
86.0
 20
218.346406
 30
0.0
 11
86.0
 21
217.346406
 31
0.0
  0
LINE
  8
0
  6
CONTINUOUS
 62
     3
  5
267
 10
106.0
 20
218.346406
 30
0.0
 11
106.0
 21
217.346406
 31
0.0
  0
LINE
  8
0
  6
CONTINUOUS
 62
     3
  5
268
 10
102.0
 20
220.346406
 30
0.0
 11
106.0
 21
218.346406
 31
0.0
  0
LINE
  8
0
  6
CONTINUOUS
 62
     3
  5
269
 10
86.0
 20
218.346406
 30
0.0
 11
90.0
 21
220.346406
 31
0.0
  0
LINE
  8
0
  6
CONTINUOUS
 62
     3
  5
26A
 10
86.0
 20
218.346406
 30
0.0
 11
106.0
 21
218.346406
 31
0.0
  0
LINE
  8
0
  6
CONTINUOUS
 62
     3
  5
26B
 10
90.0
 20
220.346406
 30
0.0
 11
102.0
 21
220.346406
 31
0.0
  0
ARC
  8
0
  6
CONTINUOUS
 62
     3
  5
26C
 10
132.185606
 20
212.346406
 30
0.0
 40
5.0
 50
15.32151
 51
90.0
  0
ARC
  8
0
  6
CONTINUOUS
 62
     3
  5
26D
 10
59.814394
 20
212.346406
 30
0.0
 40
5.0
 50
90.0
 51
164.67849
  0
LINE
  8
0
  6
CONTINUOUS
 62
     3
  5
26E
 10
137.007897
 20
213.667582
 30
0.0
 11
146.0
 21
180.846406
 31
0.0
  0
LINE
  8
0
  6
CONTINUOUS
 62
     3
  5
26F
 10
46.0
 20
180.846406
 30
0.0
 11
54.992103
 21
213.667582
 31
0.0
  0
LINE
  8
0
  6
CONTINUOUS
 62
     3
  5
270
 10
59.814394
 20
217.346406
 30
0.0
 11
132.185606
 21
217.346406
 31
0.0
  0
LINE
  8
0
  6
CONTINUOUS
 62
     3
  5
271
 10
45.0
 20
180.846406
 30
0.0
 11
66.0
 21
180.846406
 31
0.0
  0
LINE
  8
0
  6
CONTINUOUS
 62
     3
  5
272
 10
45.0
 20
177.846406
 30
0.0
 11
147.0
 21
177.846406
 31
0.0
  0
LINE
  8
0
  6
CONTINUOUS
 62
     3
  5
273
 10
45.0
 20
177.846406
 30
0.0
 11
45.0
 21
180.846406
 31
0.0
  0
LINE
  8
0
  6
CONTINUOUS
 62
     3
  5
274
 10
147.0
 20
177.846406
 30
0.0
 11
147.0
 21
180.846406
 31
0.0
  0
LINE
  8
0
  6
CONTINUOUS
 62
     3
  5
275
 10
947.0
 20
702.0
 30
0.0
 11
947.0
 21
648.0
 31
0.0
  0
LINE
  8
0
  6
CONTINUOUS
 62
     3
  5
276
 10
942.0
 20
707.0
 30
0.0
 11
850.0
 21
707.0
 31
0.0
  0
LINE
  8
0
  6
CONTINUOUS
 62
     3
  5
277
 10
942.0
 20
706.0
 30
0.0
 11
850.0
 21
706.0
 31
0.0
  0
LINE
  8
0
  6
CONTINUOUS
 62
     3
  5
278
 10
936.0
 20
691.0
 30
0.0
 11
936.0
 21
681.744563
 31
0.0
  0
LINE
  8
0
  6
CONTINUOUS
 62
     3
  5
279
 10
931.0
 20
696.0
 30
0.0
 11
861.0
 21
696.0
 31
0.0
  0
ARC
  8
0
  6
CONTINUOUS
 62
     3
  5
27A
 10
940.0
 20
676.0
 30
0.0
 40
7.0
 50
90.0
 51
270.0
  0
LINE
  8
0
  6
CONTINUOUS
 62
     3
  5
27B
 10
940.0
 20
683.0
 30
0.0
 11
946.0
 21
683.0
 31
0.0
  0
LINE
  8
0
  6
CONTINUOUS
 62
     3
  5
27C
 10
935.242641
 20
695.242641
 30
0.0
 11
944.12132
 21
704.12132
 31
0.0
  0
ARC
  8
0
  6
CONTINUOUS
 62
     3
  5
27D
 10
931.0
 20
691.0
 30
0.0
 40
5.0
 50
0.0
 51
90.0
  0
ARC
  8
0
  6
CONTINUOUS
 62
     3
  5
27E
 10
942.0
 20
702.0
 30
0.0
 40
4.0
 50
0.0
 51
90.0
  0
LINE
  8
0
  6
CONTINUOUS
 62
     3
  5
27F
 10
946.0
 20
702.0
 30
0.0
 11
946.0
 21
683.0
 31
0.0
  0
ARC
  8
0
  6
CONTINUOUS
 62
     3
  5
280
 10
942.0
 20
702.0
 30
0.0
 40
5.0
 50
0.0
 51
90.0
  0
LINE
  8
0
  6
CONTINUOUS
 62
     3
  5
281
 10
942.0
 20
643.0
 30
0.0
 11
875.0
 21
643.0
 31
0.0
  0
LINE
  8
0
  6
CONTINUOUS
 62
     3
  5
282
 10
931.0
 20
654.0
 30
0.0
 11
861.0
 21
654.0
 31
0.0
  0
LINE
  8
0
  6
CONTINUOUS
 62
     3
  5
283
 10
942.0
 20
644.0
 30
0.0
 11
850.0
 21
644.0
 31
0.0
  0
LINE
  8
0
  6
CENTER
 62
    80
  5
284
 10
871.0
 20
649.6
 30
0.0
 11
871.0
 21
638.4
 31
0.0
  0
LINE
  8
0
  6
CONTINUOUS
 62
     3
  5
285
 10
875.0
 20
645.739726
 30
0.0
 11
867.0
 21
645.739726
 31
0.0
  0
LINE
  8
0
  6
CONTINUOUS
 62
     3
  5
286
 10
875.0
 20
643.0
 30
0.0
 11
875.0
 21
645.739726
 31
0.0
  0
LINE
  8
0
  6
CONTINUOUS
 62
     3
  5
287
 10
867.0
 20
645.739726
 30
0.0
 11
867.0
 21
643.0
 31
0.0
  0
LINE
  8
0
  6
CONTINUOUS
 62
     3
  5
288
 10
867.0
 20
643.0
 30
0.0
 11
850.0
 21
643.0
 31
0.0
  0
ARC
  8
0
  6
CONTINUOUS
 62
     3
  5
289
 10
875.0
 20
645.739726
 30
0.0
 40
1.0
 50
0.0
 51
90.0
  0
ARC
  8
0
  6
CONTINUOUS
 62
     3
  5
28A
 10
867.0
 20
645.739726
 30
0.0
 40
1.0
 50
90.0
 51
180.0
  0
LINE
  8
0
  6
CONTINUOUS
 62
     3
  5
28B
 10
875.0
 20
646.739726
 30
0.0
 11
867.0
 21
646.739726
 31
0.0
  0
LINE
  8
0
  6
CONTINUOUS
 62
     3
  5
28C
 10
866.0
 20
645.739726
 30
0.0
 11
866.0
 21
644.0
 31
0.0
  0
LINE
  8
0
  6
CONTINUOUS
 62
     3
  5
28D
 10
876.0
 20
645.739726
 30
0.0
 11
876.0
 21
644.0
 31
0.0
  0
LINE
  8
0
  6
CONTINUOUS
 62
     3
  5
28E
 10
846.0
 20
669.0
 30
0.0
 11
846.0
 21
648.0
 31
0.0
  0
LINE
  8
0
  6
CONTINUOUS
 62
     3
  5
28F
 10
856.0
 20
670.255437
 30
0.0
 11
856.0
 21
659.0
 31
0.0
  0
ARC
  8
0
  6
CONTINUOUS
 62
     3
  5
290
 10
852.0
 20
676.0
 30
0.0
 40
7.0
 50
270.0
 51
90.0
  0
CIRCLE
  8
0
  6
CONTINUOUS
 62
     3
  5
291
 10
852.0
 20
676.0
 30
0.0
 40
2.6
  0
LINE
  8
0
  6
CONTINUOUS
 62
     3
  5
292
 10
852.0
 20
683.0
 30
0.0
 11
846.0
 21
683.0
 31
0.0
  0
LINE
  8
0
  6
CONTINUOUS
 62
     3
  5
293
 10
852.0
 20
669.0
 30
0.0
 11
846.0
 21
669.0
 31
0.0
  0
LINE
  8
0
  6
CONTINUOUS
 62
     3
  5
294
 10
856.757359
 20
695.242641
 30
0.0
 11
847.87868
 21
704.12132
 31
0.0
  0
LINE
  8
0
  6
CONTINUOUS
 62
     3
  5
295
 10
856.757359
 20
654.757359
 30
0.0
 11
847.87868
 21
645.87868
 31
0.0
  0
ARC
  8
0
  6
CONTINUOUS
 62
     3
  5
296
 10
861.0
 20
691.0
 30
0.0
 40
5.0
 50
90.0
 51
180.0
  0
ARC
  8
0
  6
CONTINUOUS
 62
     3
  5
297
 10
861.0
 20
659.0
 30
0.0
 40
5.0
 50
180.0
 51
270.0
  0
LINE
  8
0
  6
CONTINUOUS
 62
     3
  5
298
 10
856.0
 20
691.0
 30
0.0
 11
856.0
 21
681.744563
 31
0.0
  0
ARC
  8
0
  6
CONTINUOUS
 62
     3
  5
299
 10
850.0
 20
702.0
 30
0.0
 40
4.0
 50
90.0
 51
180.0
  0
ARC
  8
0
  6
CONTINUOUS
 62
     3
  5
29A
 10
850.0
 20
648.0
 30
0.0
 40
4.0
 50
180.0
 51
270.0
  0
LINE
  8
0
  6
CONTINUOUS
 62
     3
  5
29B
 10
846.0
 20
702.0
 30
0.0
 11
846.0
 21
683.0
 31
0.0
  0
ARC
  8
0
  6
CONTINUOUS
 62
     3
  5
29C
 10
850.0
 20
702.0
 30
0.0
 40
5.0
 50
90.0
 51
180.0
  0
ARC
  8
0
  6
CONTINUOUS
 62
     3
  5
29D
 10
850.0
 20
648.0
 30
0.0
 40
5.0
 50
180.0
 51
270.0
  0
LINE
  8
0
  6
CONTINUOUS
 62
     3
  5
29E
 10
845.0
 20
702.0
 30
0.0
 11
845.0
 21
648.0
 31
0.0
  0
LINE
  8
0
  6
CONTINUOUS
 62
     3
  5
29F
 10
946.0
 20
669.0
 30
0.0
 11
946.0
 21
648.0
 31
0.0
  0
LINE
  8
0
  6
CONTINUOUS
 62
     3
  5
2A0
 10
936.0
 20
670.255437
 30
0.0
 11
936.0
 21
659.0
 31
0.0
  0
LINE
  8
0
  6
CONTINUOUS
 62
     3
  5
2A1
 10
935.242641
 20
654.757359
 30
0.0
 11
944.12132
 21
645.87868
 31
0.0
  0
ARC
  8
0
  6
CONTINUOUS
 62
     3
  5
2A2
 10
931.0
 20
659.0
 30
0.0
 40
5.0
 50
270.0
 51
0.0
  0
ARC
  8
0
  6
CONTINUOUS
 62
     3
  5
2A3
 10
942.0
 20
648.0
 30
0.0
 40
4.0
 50
270.0
 51
0.0
  0
ARC
  8
0
  6
CONTINUOUS
 62
     3
  5
2A4
 10
942.0
 20
648.0
 30
0.0
 40
5.0
 50
270.0
 51
0.0
  0
LINE
  8
0
  6
CENTER
 62
    80
  5
2A5
 10
940.0
 20
670.4
 30
0.0
 11
940.0
 21
681.6
 31
0.0
  0
CIRCLE
  8
0
  6
CONTINUOUS
 62
     3
  5
2A6
 10
940.0
 20
676.0
 30
0.0
 40
2.6
  0
LINE
  8
0
  6
CONTINUOUS
 62
     3
  5
2A7
 10
940.0
 20
669.0
 30
0.0
 11
946.0
 21
669.0
 31
0.0
  0
LINE
  8
0
  6
CONTINUOUS
 62
     3
  5
2A8
 10
347.0
 20
177.846406
 30
0.0
 11
347.0
 21
180.846406
 31
0.0
  0
LINE
  8
0
  6
CONTINUOUS
 62
     3
  5
2A9
 10
245.0
 20
177.846406
 30
0.0
 11
245.0
 21
180.846406
 31
0.0
  0
LINE
  8
0
  6
CONTINUOUS
 62
     3
  5
2AA
 10
245.0
 20
177.846406
 30
0.0
 11
347.0
 21
177.846406
 31
0.0
  0
LINE
  8
0
  6
CONTINUOUS
 62
     3
  5
2AB
 10
245.0
 20
180.846406
 30
0.0
 11
266.0
 21
180.846406
 31
0.0
  0
LINE
  8
0
  6
CONTINUOUS
 62
     3
  5
2AC
 10
259.814394
 20
217.346406
 30
0.0
 11
332.185606
 21
217.346406
 31
0.0
  0
LINE
  8
0
  6
CONTINUOUS
 62
     3
  5
2AD
 10
246.0
 20
180.846406
 30
0.0
 11
254.992103
 21
213.667582
 31
0.0
  0
LINE
  8
0
  6
CONTINUOUS
 62
     3
  5
2AE
 10
337.007897
 20
213.667582
 30
0.0
 11
346.0
 21
180.846406
 31
0.0
  0
ARC
  8
0
  6
CONTINUOUS
 62
     3
  5
2AF
 10
259.814394
 20
212.346406
 30
0.0
 40
5.0
 50
90.0
 51
164.67849
  0
ARC
  8
0
  6
CONTINUOUS
 62
     3
  5
2B0
 10
332.185606
 20
212.346406
 30
0.0
 40
5.0
 50
15.32151
 51
90.0
  0
LINE
  8
0
  6
CONTINUOUS
 62
     3
  5
2B1
 10
290.0
 20
220.346406
 30
0.0
 11
302.0
 21
220.346406
 31
0.0
  0
LINE
  8
0
  6
CONTINUOUS
 62
     3
  5
2B2
 10
286.0
 20
218.346406
 30
0.0
 11
306.0
 21
218.346406
 31
0.0
  0
LINE
  8
0
  6
CONTINUOUS
 62
     3
  5
2B3
 10
286.0
 20
218.346406
 30
0.0
 11
290.0
 21
220.346406
 31
0.0
  0
LINE
  8
0
  6
CONTINUOUS
 62
     3
  5
2B4
 10
302.0
 20
220.346406
 30
0.0
 11
306.0
 21
218.346406
 31
0.0
  0
LINE
  8
0
  6
CONTINUOUS
 62
     3
  5
2B5
 10
306.0
 20
218.346406
 30
0.0
 11
306.0
 21
217.346406
 31
0.0
  0
LINE
  8
0
  6
CONTINUOUS
 62
     3
  5
2B6
 10
286.0
 20
218.346406
 30
0.0
 11
286.0
 21
217.346406
 31
0.0
  0
LINE
  8
0
  6
CONTINUOUS
 62
     3
  5
2B7
 10
313.0
 20
322.346406
 30
0.0
 11
313.0
 21
420.846406
 31
0.0
  0
LINE
  8
0
  6
CONTINUOUS
 62
     3
  5
2B8
 10
279.0
 20
322.346406
 30
0.0
 11
279.0
 21
420.846406
 31
0.0
  0
LINE
  8
0
  6
CONTINUOUS
 62
     3
  5
2B9
 10
279.0
 20
426.846406
 30
0.0
 11
313.0
 21
426.846406
 31
0.0
  0
LINE
  8
0
  6
CONTINUOUS
 62
     3
  5
2BA
 10
283.0
 20
430.846406
 30
0.0
 11
309.0
 21
430.846406
 31
0.0
  0
LINE
  8
0
  6
CONTINUOUS
 62
     3
  5
2BB
 10
279.0
 20
426.846406
 30
0.0
 11
283.0
 21
430.846406
 31
0.0
  0
LINE
  8
0
  6
CONTINUOUS
 62
     3
  5
2BC
 10
309.0
 20
430.846406
 30
0.0
 11
313.0
 21
426.846406
 31
0.0
  0
LINE
  8
0
  6
CONTINUOUS
 62
     3
  5
2BD
 10
306.0
 20
426.846406
 30
0.0
 11
306.0
 21
428.846406
 31
0.0
  0
LINE
  8
0
  6
CONTINUOUS
 62
     3
  5
2BE
 10
286.0
 20
426.846406
 30
0.0
 11
286.0
 21
428.846406
 31
0.0
  0
LINE
  8
0
  6
CONTINUOUS
 62
     3
  5
2BF
 10
286.0
 20
428.846406
 30
0.0
 11
306.0
 21
428.846406
 31
0.0
  0
LINE
  8
0
  6
CONTINUOUS
 62
     3
  5
2C0
 10
287.0
 20
317.346406
 30
0.0
 11
305.0
 21
317.346406
 31
0.0
  0
LINE
  8
0
  6
CONTINUOUS
 62
     3
  5
2C1
 10
279.0
 20
420.846406
 30
0.0
 11
313.0
 21
420.846406
 31
0.0
  0
LINE
  8
0
  6
CONTINUOUS
 62
     3
  5
2C2
 10
279.0
 20
378.846406
 30
0.0
 11
313.0
 21
378.846406
 31
0.0
  0
LINE
  8
0
  6
CONTINUOUS
 62
     3
  5
2C3
 10
279.0
 20
383.846406
 30
0.0
 11
313.0
 21
383.846406
 31
0.0
  0
LINE
  8
0
  6
CONTINUOUS
 62
     3
  5
2C4
 10
279.0
 20
336.846406
 30
0.0
 11
313.0
 21
336.846406
 31
0.0
  0
LINE
  8
0
  6
CONTINUOUS
 62
     3
  5
2C5
 10
279.0
 20
341.846406
 30
0.0
 11
313.0
 21
341.846406
 31
0.0
  0
LINE
  8
0
  6
CONTINUOUS
 62
     3
  5
2C6
 10
279.0
 20
322.346406
 30
0.0
 11
313.0
 21
322.346406
 31
0.0
  0
LINE
  8
0
  6
CONTINUOUS
 62
     3
  5
2C7
 10
287.0
 20
317.346406
 30
0.0
 11
279.0
 21
322.346406
 31
0.0
  0
LINE
  8
0
  6
CONTINUOUS
 62
     3
  5
2C8
 10
305.0
 20
317.346406
 30
0.0
 11
313.0
 21
322.346406
 31
0.0
  0
LINE
  8
0
  6
CONTINUOUS
 62
     3
  5
2C9
 10
287.75
 20
307.346406
 30
0.0
 11
287.75
 21
317.346406
 31
0.0
  0
LINE
  8
0
  6
CONTINUOUS
 62
     3
  5
2CA
 10
304.25
 20
307.346406
 30
0.0
 11
304.25
 21
317.346406
 31
0.0
  0
LINE
  8
0
  6
CONTINUOUS
 62
     3
  5
2CB
 10
287.75
 20
307.346406
 30
0.0
 11
304.25
 21
307.346406
 31
0.0
  0
LINE
  8
0
  6
CONTINUOUS
 62
     3
  5
2CC
 10
290.0
 20
220.346406
 30
0.0
 11
290.0
 21
307.346406
 31
0.0
  0
LINE
  8
0
  6
CONTINUOUS
 62
     3
  5
2CD
 10
302.0
 20
220.346406
 30
0.0
 11
302.0
 21
307.346406
 31
0.0
  0
LINE
  8
0
  6
CONTINUOUS
 62
    80
  5
2CE
 10
304.5
 20
383.846406
 30
0.0
 11
304.5
 21
420.846406
 31
0.0
  0
LINE
  8
0
  6
CONTINUOUS
 62
    80
  5
2CF
 10
308.75
 20
383.846406
 30
0.0
 11
308.75
 21
420.846406
 31
0.0
  0
LINE
  8
0
  6
CONTINUOUS
 62
    80
  5
2D0
 10
300.25
 20
383.846406
 30
0.0
 11
300.25
 21
420.846406
 31
0.0
  0
LINE
  8
0
  6
CONTINUOUS
 62
    80
  5
2D1
 10
287.5
 20
383.846406
 30
0.0
 11
287.5
 21
420.846406
 31
0.0
  0
LINE
  8
0
  6
CONTINUOUS
 62
    80
  5
2D2
 10
283.25
 20
383.846406
 30
0.0
 11
283.25
 21
420.846406
 31
0.0
  0
LINE
  8
0
  6
CONTINUOUS
 62
    80
  5
2D3
 10
291.75
 20
383.846406
 30
0.0
 11
291.75
 21
420.846406
 31
0.0
  0
LINE
  8
0
  6
CONTINUOUS
 62
    80
  5
2D4
 10
296.0
 20
383.846406
 30
0.0
 11
296.0
 21
420.846406
 31
0.0
  0
LINE
  8
0
  6
CONTINUOUS
 62
    80
  5
2D5
 10
304.5
 20
341.846406
 30
0.0
 11
304.5
 21
378.846406
 31
0.0
  0
LINE
  8
0
  6
CONTINUOUS
 62
    80
  5
2D6
 10
308.75
 20
341.846406
 30
0.0
 11
308.75
 21
378.846406
 31
0.0
  0
LINE
  8
0
  6
CONTINUOUS
 62
    80
  5
2D7
 10
300.25
 20
341.846406
 30
0.0
 11
300.25
 21
378.846406
 31
0.0
  0
LINE
  8
0
  6
CONTINUOUS
 62
    80
  5
2D8
 10
287.5
 20
341.846406
 30
0.0
 11
287.5
 21
378.846406
 31
0.0
  0
LINE
  8
0
  6
CONTINUOUS
 62
    80
  5
2D9
 10
283.25
 20
341.846406
 30
0.0
 11
283.25
 21
378.846406
 31
0.0
  0
LINE
  8
0
  6
CONTINUOUS
 62
    80
  5
2DA
 10
291.75
 20
341.846406
 30
0.0
 11
291.75
 21
378.846406
 31
0.0
  0
LINE
  8
0
  6
CONTINUOUS
 62
    80
  5
2DB
 10
296.0
 20
341.846406
 30
0.0
 11
296.0
 21
378.846406
 31
0.0
  0
LINE
  8
0
  6
CONTINUOUS
 62
     3
  5
2DC
 10
266.0
 20
177.846406
 30
0.0
 11
266.0
 21
184.846406
 31
0.0
  0
LINE
  8
0
  6
CONTINUOUS
 62
     3
  5
2DD
 10
276.0
 20
177.846406
 30
0.0
 11
276.0
 21
184.846406
 31
0.0
  0
LINE
  8
0
  6
CONTINUOUS
 62
     3
  5
2DE
 10
267.0
 20
185.846406
 30
0.0
 11
275.0
 21
185.846406
 31
0.0
  0
ARC
  8
0
  6
CONTINUOUS
 62
     3
  5
2DF
 10
267.0
 20
184.846406
 30
0.0
 40
1.0
 50
90.0
 51
180.0
  0
ARC
  8
0
  6
CONTINUOUS
 62
     3
  5
2E0
 10
275.0
 20
184.846406
 30
0.0
 40
1.0
 50
0.0
 51
90.0
  0
LINE
  8
0
  6
CONTINUOUS
 62
     3
  5
2E1
 10
275.0
 20
177.846406
 30
0.0
 11
275.0
 21
184.846406
 31
0.0
  0
LINE
  8
0
  6
CONTINUOUS
 62
     3
  5
2E2
 10
267.0
 20
177.846406
 30
0.0
 11
267.0
 21
184.846406
 31
0.0
  0
LINE
  8
0
  6
CONTINUOUS
 62
     3
  5
2E3
 10
267.0
 20
184.846406
 30
0.0
 11
275.0
 21
184.846406
 31
0.0
  0
LINE
  8
0
  6
CONTINUOUS
 62
     3
  5
2E4
 10
276.0
 20
180.846406
 30
0.0
 11
347.0
 21
180.846406
 31
0.0
  0
CIRCLE
  8
0
  6
CONTINUOUS
 62
     3
  5
2E5
 10
296.0
 20
312.346406
 30
0.0
 40
2.0
  0
CIRCLE
  8
0
  6
CONTINUOUS
 62
     3
  5
2E6
 10
296.0
 20
312.346406
 30
0.0
 40
2.273652
  0
LINE
  8
0
  6
CONTINUOUS
 62
     3
  5
2E7
 10
306.25
 20
310.072754
 30
0.0
 11
306.25
 21
314.620058
 31
0.0
  0
LINE
  8
0
  6
CONTINUOUS
 62
     3
  5
2E8
 10
304.25
 20
314.620058
 30
0.0
 11
306.25
 21
314.620058
 31
0.0
  0
LINE
  8
0
  6
CONTINUOUS
 62
     3
  5
2E9
 10
304.25
 20
310.072754
 30
0.0
 11
306.25
 21
310.072754
 31
0.0
  0
LINE
  8
0
  6
CONTINUOUS
 62
     3
  5
2EA
 10
313.0
 20
420.846406
 30
0.0
 11
313.0
 21
426.846406
 31
0.0
  0
LINE
  8
0
  6
CONTINUOUS
 62
     3
  5
2EB
 10
279.0
 20
420.846406
 30
0.0
 11
279.0
 21
426.846406
 31
0.0
  0
LINE
  8
0
  6
CONTINUOUS
 62
     3
  5
2EC
 10
547.0
 20
177.846406
 30
0.0
 11
547.0
 21
180.846406
 31
0.0
  0
LINE
  8
0
  6
CONTINUOUS
 62
     3
  5
2ED
 10
445.0
 20
177.846406
 30
0.0
 11
445.0
 21
180.846406
 31
0.0
  0
LINE
  8
0
  6
CONTINUOUS
 62
     3
  5
2EE
 10
445.0
 20
177.846406
 30
0.0
 11
547.0
 21
177.846406
 31
0.0
  0
LINE
  8
0
  6
CONTINUOUS
 62
     3
  5
2EF
 10
445.0
 20
180.846406
 30
0.0
 11
466.0
 21
180.846406
 31
0.0
  0
LINE
  8
0
  6
CONTINUOUS
 62
     3
  5
2F0
 10
459.814394
 20
217.346406
 30
0.0
 11
532.185606
 21
217.346406
 31
0.0
  0
LINE
  8
0
  6
CONTINUOUS
 62
     3
  5
2F1
 10
446.0
 20
180.846406
 30
0.0
 11
454.992103
 21
213.667582
 31
0.0
  0
LINE
  8
0
  6
CONTINUOUS
 62
     3
  5
2F2
 10
537.007897
 20
213.667582
 30
0.0
 11
546.0
 21
180.846406
 31
0.0
  0
ARC
  8
0
  6
CONTINUOUS
 62
     3
  5
2F3
 10
459.814394
 20
212.346406
 30
0.0
 40
5.0
 50
90.0
 51
164.67849
  0
ARC
  8
0
  6
CONTINUOUS
 62
     3
  5
2F4
 10
532.185606
 20
212.346406
 30
0.0
 40
5.0
 50
15.32151
 51
90.0
  0
LINE
  8
0
  6
CONTINUOUS
 62
     3
  5
2F5
 10
490.0
 20
220.346406
 30
0.0
 11
502.0
 21
220.346406
 31
0.0
  0
LINE
  8
0
  6
CONTINUOUS
 62
     3
  5
2F6
 10
486.0
 20
218.346406
 30
0.0
 11
506.0
 21
218.346406
 31
0.0
  0
LINE
  8
0
  6
CONTINUOUS
 62
     3
  5
2F7
 10
486.0
 20
218.346406
 30
0.0
 11
490.0
 21
220.346406
 31
0.0
  0
LINE
  8
0
  6
CONTINUOUS
 62
     3
  5
2F8
 10
502.0
 20
220.346406
 30
0.0
 11
506.0
 21
218.346406
 31
0.0
  0
LINE
  8
0
  6
CONTINUOUS
 62
     3
  5
2F9
 10
506.0
 20
218.346406
 30
0.0
 11
506.0
 21
217.346406
 31
0.0
  0
LINE
  8
0
  6
CONTINUOUS
 62
     3
  5
2FA
 10
486.0
 20
218.346406
 30
0.0
 11
486.0
 21
217.346406
 31
0.0
  0
LINE
  8
0
  6
CONTINUOUS
 62
     3
  5
2FB
 10
513.0
 20
322.346406
 30
0.0
 11
513.0
 21
462.846406
 31
0.0
  0
LINE
  8
0
  6
CONTINUOUS
 62
     3
  5
2FC
 10
479.0
 20
322.346406
 30
0.0
 11
479.0
 21
462.846406
 31
0.0
  0
LINE
  8
0
  6
CONTINUOUS
 62
     3
  5
2FD
 10
479.0
 20
468.846406
 30
0.0
 11
513.0
 21
468.846406
 31
0.0
  0
LINE
  8
0
  6
CONTINUOUS
 62
     3
  5
2FE
 10
483.0
 20
472.846406
 30
0.0
 11
509.0
 21
472.846406
 31
0.0
  0
LINE
  8
0
  6
CONTINUOUS
 62
     3
  5
2FF
 10
479.0
 20
468.846406
 30
0.0
 11
483.0
 21
472.846406
 31
0.0
  0
LINE
  8
0
  6
CONTINUOUS
 62
     3
  5
300
 10
509.0
 20
472.846406
 30
0.0
 11
513.0
 21
468.846406
 31
0.0
  0
LINE
  8
0
  6
CONTINUOUS
 62
     3
  5
301
 10
506.0
 20
468.846406
 30
0.0
 11
506.0
 21
470.846406
 31
0.0
  0
LINE
  8
0
  6
CONTINUOUS
 62
     3
  5
302
 10
486.0
 20
468.846406
 30
0.0
 11
486.0
 21
470.846406
 31
0.0
  0
LINE
  8
0
  6
CONTINUOUS
 62
     3
  5
303
 10
486.0
 20
470.846406
 30
0.0
 11
506.0
 21
470.846406
 31
0.0
  0
LINE
  8
0
  6
CONTINUOUS
 62
     3
  5
304
 10
487.0
 20
317.346406
 30
0.0
 11
505.0
 21
317.346406
 31
0.0
  0
LINE
  8
0
  6
CONTINUOUS
 62
     3
  5
305
 10
479.0
 20
420.846406
 30
0.0
 11
513.0
 21
420.846406
 31
0.0
  0
LINE
  8
0
  6
CONTINUOUS
 62
     3
  5
306
 10
479.0
 20
378.846406
 30
0.0
 11
513.0
 21
378.846406
 31
0.0
  0
LINE
  8
0
  6
CONTINUOUS
 62
     3
  5
307
 10
479.0
 20
383.846406
 30
0.0
 11
513.0
 21
383.846406
 31
0.0
  0
LINE
  8
0
  6
CONTINUOUS
 62
     3
  5
308
 10
479.0
 20
336.846406
 30
0.0
 11
513.0
 21
336.846406
 31
0.0
  0
LINE
  8
0
  6
CONTINUOUS
 62
     3
  5
309
 10
479.0
 20
341.846406
 30
0.0
 11
513.0
 21
341.846406
 31
0.0
  0
LINE
  8
0
  6
CONTINUOUS
 62
     3
  5
30A
 10
479.0
 20
322.346406
 30
0.0
 11
513.0
 21
322.346406
 31
0.0
  0
LINE
  8
0
  6
CONTINUOUS
 62
     3
  5
30B
 10
487.0
 20
317.346406
 30
0.0
 11
479.0
 21
322.346406
 31
0.0
  0
LINE
  8
0
  6
CONTINUOUS
 62
     3
  5
30C
 10
505.0
 20
317.346406
 30
0.0
 11
513.0
 21
322.346406
 31
0.0
  0
LINE
  8
0
  6
CONTINUOUS
 62
     3
  5
30D
 10
487.75
 20
307.346406
 30
0.0
 11
487.75
 21
317.346406
 31
0.0
  0
LINE
  8
0
  6
CONTINUOUS
 62
     3
  5
30E
 10
504.25
 20
307.346406
 30
0.0
 11
504.25
 21
317.346406
 31
0.0
  0
LINE
  8
0
  6
CONTINUOUS
 62
     3
  5
30F
 10
487.75
 20
307.346406
 30
0.0
 11
504.25
 21
307.346406
 31
0.0
  0
LINE
  8
0
  6
CONTINUOUS
 62
     3
  5
310
 10
490.0
 20
220.346406
 30
0.0
 11
490.0
 21
307.346406
 31
0.0
  0
LINE
  8
0
  6
CONTINUOUS
 62
     3
  5
311
 10
502.0
 20
220.346406
 30
0.0
 11
502.0
 21
307.346406
 31
0.0
  0
LINE
  8
0
  6
CONTINUOUS
 62
    80
  5
312
 10
504.5
 20
383.846406
 30
0.0
 11
504.5
 21
420.846406
 31
0.0
  0
LINE
  8
0
  6
CONTINUOUS
 62
    80
  5
313
 10
508.75
 20
383.846406
 30
0.0
 11
508.75
 21
420.846406
 31
0.0
  0
LINE
  8
0
  6
CONTINUOUS
 62
    80
  5
314
 10
500.25
 20
383.846406
 30
0.0
 11
500.25
 21
420.846406
 31
0.0
  0
LINE
  8
0
  6
CONTINUOUS
 62
    80
  5
315
 10
487.5
 20
383.846406
 30
0.0
 11
487.5
 21
420.846406
 31
0.0
  0
LINE
  8
0
  6
CONTINUOUS
 62
    80
  5
316
 10
483.25
 20
383.846406
 30
0.0
 11
483.25
 21
420.846406
 31
0.0
  0
LINE
  8
0
  6
CONTINUOUS
 62
    80
  5
317
 10
491.75
 20
383.846406
 30
0.0
 11
491.75
 21
420.846406
 31
0.0
  0
LINE
  8
0
  6
CONTINUOUS
 62
    80
  5
318
 10
496.0
 20
383.846406
 30
0.0
 11
496.0
 21
420.846406
 31
0.0
  0
LINE
  8
0
  6
CONTINUOUS
 62
    80
  5
319
 10
504.5
 20
341.846406
 30
0.0
 11
504.5
 21
378.846406
 31
0.0
  0
LINE
  8
0
  6
CONTINUOUS
 62
    80
  5
31A
 10
508.75
 20
341.846406
 30
0.0
 11
508.75
 21
378.846406
 31
0.0
  0
LINE
  8
0
  6
CONTINUOUS
 62
    80
  5
31B
 10
500.25
 20
341.846406
 30
0.0
 11
500.25
 21
378.846406
 31
0.0
  0
LINE
  8
0
  6
CONTINUOUS
 62
    80
  5
31C
 10
487.5
 20
341.846406
 30
0.0
 11
487.5
 21
378.846406
 31
0.0
  0
LINE
  8
0
  6
CONTINUOUS
 62
    80
  5
31D
 10
483.25
 20
341.846406
 30
0.0
 11
483.25
 21
378.846406
 31
0.0
  0
LINE
  8
0
  6
CONTINUOUS
 62
    80
  5
31E
 10
491.75
 20
341.846406
 30
0.0
 11
491.75
 21
378.846406
 31
0.0
  0
LINE
  8
0
  6
CONTINUOUS
 62
    80
  5
31F
 10
496.0
 20
341.846406
 30
0.0
 11
496.0
 21
378.846406
 31
0.0
  0
LINE
  8
0
  6
CONTINUOUS
 62
     3
  5
320
 10
466.0
 20
177.846406
 30
0.0
 11
466.0
 21
184.846406
 31
0.0
  0
LINE
  8
0
  6
CONTINUOUS
 62
     3
  5
321
 10
476.0
 20
177.846406
 30
0.0
 11
476.0
 21
184.846406
 31
0.0
  0
LINE
  8
0
  6
CONTINUOUS
 62
     3
  5
322
 10
467.0
 20
185.846406
 30
0.0
 11
475.0
 21
185.846406
 31
0.0
  0
ARC
  8
0
  6
CONTINUOUS
 62
     3
  5
323
 10
467.0
 20
184.846406
 30
0.0
 40
1.0
 50
90.0
 51
180.0
  0
ARC
  8
0
  6
CONTINUOUS
 62
     3
  5
324
 10
475.0
 20
184.846406
 30
0.0
 40
1.0
 50
0.0
 51
90.0
  0
LINE
  8
0
  6
CONTINUOUS
 62
     3
  5
325
 10
475.0
 20
177.846406
 30
0.0
 11
475.0
 21
184.846406
 31
0.0
  0
LINE
  8
0
  6
CONTINUOUS
 62
     3
  5
326
 10
467.0
 20
177.846406
 30
0.0
 11
467.0
 21
184.846406
 31
0.0
  0
LINE
  8
0
  6
CONTINUOUS
 62
     3
  5
327
 10
467.0
 20
184.846406
 30
0.0
 11
475.0
 21
184.846406
 31
0.0
  0
LINE
  8
0
  6
CONTINUOUS
 62
     3
  5
328
 10
476.0
 20
180.846406
 30
0.0
 11
547.0
 21
180.846406
 31
0.0
  0
CIRCLE
  8
0
  6
CONTINUOUS
 62
     3
  5
329
 10
496.0
 20
312.346406
 30
0.0
 40
2.0
  0
CIRCLE
  8
0
  6
CONTINUOUS
 62
     3
  5
32A
 10
496.0
 20
312.346406
 30
0.0
 40
2.273652
  0
LINE
  8
0
  6
CONTINUOUS
 62
     3
  5
32B
 10
506.25
 20
310.072754
 30
0.0
 11
506.25
 21
314.620058
 31
0.0
  0
LINE
  8
0
  6
CONTINUOUS
 62
     3
  5
32C
 10
504.25
 20
314.620058
 30
0.0
 11
506.25
 21
314.620058
 31
0.0
  0
LINE
  8
0
  6
CONTINUOUS
 62
     3
  5
32D
 10
504.25
 20
310.072754
 30
0.0
 11
506.25
 21
310.072754
 31
0.0
  0
LINE
  8
0
  6
CONTINUOUS
 62
     3
  5
32E
 10
513.0
 20
462.846406
 30
0.0
 11
513.0
 21
468.846406
 31
0.0
  0
LINE
  8
0
  6
CONTINUOUS
 62
     3
  5
32F
 10
479.0
 20
462.846406
 30
0.0
 11
479.0
 21
468.846406
 31
0.0
  0
LINE
  8
0
  6
CONTINUOUS
 62
     3
  5
330
 10
479.0
 20
462.846406
 30
0.0
 11
513.0
 21
462.846406
 31
0.0
  0
LINE
  8
0
  6
CONTINUOUS
 62
     3
  5
331
 10
479.0
 20
425.846406
 30
0.0
 11
513.0
 21
425.846406
 31
0.0
  0
LINE
  8
0
  6
CONTINUOUS
 62
    80
  5
332
 10
496.0
 20
425.846406
 30
0.0
 11
496.0
 21
462.846406
 31
0.0
  0
LINE
  8
0
  6
CONTINUOUS
 62
    80
  5
333
 10
491.75
 20
425.846406
 30
0.0
 11
491.75
 21
462.846406
 31
0.0
  0
LINE
  8
0
  6
CONTINUOUS
 62
    80
  5
334
 10
483.25
 20
425.846406
 30
0.0
 11
483.25
 21
462.846406
 31
0.0
  0
LINE
  8
0
  6
CONTINUOUS
 62
    80
  5
335
 10
487.5
 20
425.846406
 30
0.0
 11
487.5
 21
462.846406
 31
0.0
  0
LINE
  8
0
  6
CONTINUOUS
 62
    80
  5
336
 10
500.25
 20
425.846406
 30
0.0
 11
500.25
 21
462.846406
 31
0.0
  0
LINE
  8
0
  6
CONTINUOUS
 62
    80
  5
337
 10
508.75
 20
425.846406
 30
0.0
 11
508.75
 21
462.846406
 31
0.0
  0
LINE
  8
0
  6
CONTINUOUS
 62
    80
  5
338
 10
504.5
 20
425.846406
 30
0.0
 11
504.5
 21
462.846406
 31
0.0
  0
LINE
  8
0
  6
CONTINUOUS
 62
     3
  5
339
 10
747.0
 20
177.846406
 30
0.0
 11
747.0
 21
180.846406
 31
0.0
  0
LINE
  8
0
  6
CONTINUOUS
 62
     3
  5
33A
 10
645.0
 20
177.846406
 30
0.0
 11
645.0
 21
180.846406
 31
0.0
  0
LINE
  8
0
  6
CONTINUOUS
 62
     3
  5
33B
 10
645.0
 20
177.846406
 30
0.0
 11
747.0
 21
177.846406
 31
0.0
  0
LINE
  8
0
  6
CONTINUOUS
 62
     3
  5
33C
 10
645.0
 20
180.846406
 30
0.0
 11
666.0
 21
180.846406
 31
0.0
  0
LINE
  8
0
  6
CONTINUOUS
 62
     3
  5
33D
 10
659.814394
 20
217.346406
 30
0.0
 11
732.185606
 21
217.346406
 31
0.0
  0
LINE
  8
0
  6
CONTINUOUS
 62
     3
  5
33E
 10
646.0
 20
180.846406
 30
0.0
 11
654.992103
 21
213.667582
 31
0.0
  0
LINE
  8
0
  6
CONTINUOUS
 62
     3
  5
33F
 10
737.007897
 20
213.667582
 30
0.0
 11
746.0
 21
180.846406
 31
0.0
  0
ARC
  8
0
  6
CONTINUOUS
 62
     3
  5
340
 10
659.814394
 20
212.346406
 30
0.0
 40
5.0
 50
90.0
 51
164.67849
  0
ARC
  8
0
  6
CONTINUOUS
 62
     3
  5
341
 10
732.185606
 20
212.346406
 30
0.0
 40
5.0
 50
15.32151
 51
90.0
  0
LINE
  8
0
  6
CONTINUOUS
 62
     3
  5
342
 10
690.0
 20
220.346406
 30
0.0
 11
702.0
 21
220.346406
 31
0.0
  0
LINE
  8
0
  6
CONTINUOUS
 62
     3
  5
343
 10
686.0
 20
218.346406
 30
0.0
 11
706.0
 21
218.346406
 31
0.0
  0
LINE
  8
0
  6
CONTINUOUS
 62
     3
  5
344
 10
686.0
 20
218.346406
 30
0.0
 11
690.0
 21
220.346406
 31
0.0
  0
LINE
  8
0
  6
CONTINUOUS
 62
     3
  5
345
 10
702.0
 20
220.346406
 30
0.0
 11
706.0
 21
218.346406
 31
0.0
  0
LINE
  8
0
  6
CONTINUOUS
 62
     3
  5
346
 10
706.0
 20
218.346406
 30
0.0
 11
706.0
 21
217.346406
 31
0.0
  0
LINE
  8
0
  6
CONTINUOUS
 62
     3
  5
347
 10
686.0
 20
218.346406
 30
0.0
 11
686.0
 21
217.346406
 31
0.0
  0
LINE
  8
0
  6
CONTINUOUS
 62
     3
  5
348
 10
713.0
 20
322.346406
 30
0.0
 11
713.0
 21
504.846406
 31
0.0
  0
LINE
  8
0
  6
CONTINUOUS
 62
     3
  5
349
 10
679.0
 20
322.346406
 30
0.0
 11
679.0
 21
504.846406
 31
0.0
  0
LINE
  8
0
  6
CONTINUOUS
 62
     3
  5
34A
 10
679.0
 20
510.846406
 30
0.0
 11
713.0
 21
510.846406
 31
0.0
  0
LINE
  8
0
  6
CONTINUOUS
 62
     3
  5
34B
 10
683.0
 20
514.846406
 30
0.0
 11
709.0
 21
514.846406
 31
0.0
  0
LINE
  8
0
  6
CONTINUOUS
 62
     3
  5
34C
 10
679.0
 20
510.846406
 30
0.0
 11
683.0
 21
514.846406
 31
0.0
  0
LINE
  8
0
  6
CONTINUOUS
 62
     3
  5
34D
 10
709.0
 20
514.846406
 30
0.0
 11
713.0
 21
510.846406
 31
0.0
  0
LINE
  8
0
  6
CONTINUOUS
 62
     3
  5
34E
 10
706.0
 20
510.846406
 30
0.0
 11
706.0
 21
512.846406
 31
0.0
  0
LINE
  8
0
  6
CONTINUOUS
 62
     3
  5
34F
 10
686.0
 20
510.846406
 30
0.0
 11
686.0
 21
512.846406
 31
0.0
  0
LINE
  8
0
  6
CONTINUOUS
 62
     3
  5
350
 10
686.0
 20
512.846406
 30
0.0
 11
706.0
 21
512.846406
 31
0.0
  0
LINE
  8
0
  6
CONTINUOUS
 62
     3
  5
351
 10
687.0
 20
317.346406
 30
0.0
 11
705.0
 21
317.346406
 31
0.0
  0
LINE
  8
0
  6
CONTINUOUS
 62
     3
  5
352
 10
679.0
 20
420.846406
 30
0.0
 11
713.0
 21
420.846406
 31
0.0
  0
LINE
  8
0
  6
CONTINUOUS
 62
     3
  5
353
 10
679.0
 20
378.846406
 30
0.0
 11
713.0
 21
378.846406
 31
0.0
  0
LINE
  8
0
  6
CONTINUOUS
 62
     3
  5
354
 10
679.0
 20
383.846406
 30
0.0
 11
713.0
 21
383.846406
 31
0.0
  0
LINE
  8
0
  6
CONTINUOUS
 62
     3
  5
355
 10
679.0
 20
336.846406
 30
0.0
 11
713.0
 21
336.846406
 31
0.0
  0
LINE
  8
0
  6
CONTINUOUS
 62
     3
  5
356
 10
679.0
 20
341.846406
 30
0.0
 11
713.0
 21
341.846406
 31
0.0
  0
LINE
  8
0
  6
CONTINUOUS
 62
     3
  5
357
 10
679.0
 20
322.346406
 30
0.0
 11
713.0
 21
322.346406
 31
0.0
  0
LINE
  8
0
  6
CONTINUOUS
 62
     3
  5
358
 10
687.0
 20
317.346406
 30
0.0
 11
679.0
 21
322.346406
 31
0.0
  0
LINE
  8
0
  6
CONTINUOUS
 62
     3
  5
359
 10
705.0
 20
317.346406
 30
0.0
 11
713.0
 21
322.346406
 31
0.0
  0
LINE
  8
0
  6
CONTINUOUS
 62
     3
  5
35A
 10
687.75
 20
307.346406
 30
0.0
 11
687.75
 21
317.346406
 31
0.0
  0
LINE
  8
0
  6
CONTINUOUS
 62
     3
  5
35B
 10
704.25
 20
307.346406
 30
0.0
 11
704.25
 21
317.346406
 31
0.0
  0
LINE
  8
0
  6
CONTINUOUS
 62
     3
  5
35C
 10
687.75
 20
307.346406
 30
0.0
 11
704.25
 21
307.346406
 31
0.0
  0
LINE
  8
0
  6
CONTINUOUS
 62
     3
  5
35D
 10
690.0
 20
220.346406
 30
0.0
 11
690.0
 21
307.346406
 31
0.0
  0
LINE
  8
0
  6
CONTINUOUS
 62
     3
  5
35E
 10
702.0
 20
220.346406
 30
0.0
 11
702.0
 21
307.346406
 31
0.0
  0
LINE
  8
0
  6
CONTINUOUS
 62
    80
  5
35F
 10
704.5
 20
383.846406
 30
0.0
 11
704.5
 21
420.846406
 31
0.0
  0
LINE
  8
0
  6
CONTINUOUS
 62
    80
  5
360
 10
708.75
 20
383.846406
 30
0.0
 11
708.75
 21
420.846406
 31
0.0
  0
LINE
  8
0
  6
CONTINUOUS
 62
    80
  5
361
 10
700.25
 20
383.846406
 30
0.0
 11
700.25
 21
420.846406
 31
0.0
  0
LINE
  8
0
  6
CONTINUOUS
 62
    80
  5
362
 10
687.5
 20
383.846406
 30
0.0
 11
687.5
 21
420.846406
 31
0.0
  0
LINE
  8
0
  6
CONTINUOUS
 62
    80
  5
363
 10
683.25
 20
383.846406
 30
0.0
 11
683.25
 21
420.846406
 31
0.0
  0
LINE
  8
0
  6
CONTINUOUS
 62
    80
  5
364
 10
691.75
 20
383.846406
 30
0.0
 11
691.75
 21
420.846406
 31
0.0
  0
LINE
  8
0
  6
CONTINUOUS
 62
    80
  5
365
 10
696.0
 20
383.846406
 30
0.0
 11
696.0
 21
420.846406
 31
0.0
  0
LINE
  8
0
  6
CONTINUOUS
 62
    80
  5
366
 10
704.5
 20
341.846406
 30
0.0
 11
704.5
 21
378.846406
 31
0.0
  0
LINE
  8
0
  6
CONTINUOUS
 62
    80
  5
367
 10
708.75
 20
341.846406
 30
0.0
 11
708.75
 21
378.846406
 31
0.0
  0
LINE
  8
0
  6
CONTINUOUS
 62
    80
  5
368
 10
700.25
 20
341.846406
 30
0.0
 11
700.25
 21
378.846406
 31
0.0
  0
LINE
  8
0
  6
CONTINUOUS
 62
    80
  5
369
 10
687.5
 20
341.846406
 30
0.0
 11
687.5
 21
378.846406
 31
0.0
  0
LINE
  8
0
  6
CONTINUOUS
 62
    80
  5
36A
 10
683.25
 20
341.846406
 30
0.0
 11
683.25
 21
378.846406
 31
0.0
  0
LINE
  8
0
  6
CONTINUOUS
 62
    80
  5
36B
 10
691.75
 20
341.846406
 30
0.0
 11
691.75
 21
378.846406
 31
0.0
  0
LINE
  8
0
  6
CONTINUOUS
 62
    80
  5
36C
 10
696.0
 20
341.846406
 30
0.0
 11
696.0
 21
378.846406
 31
0.0
  0
LINE
  8
0
  6
CONTINUOUS
 62
     3
  5
36D
 10
666.0
 20
177.846406
 30
0.0
 11
666.0
 21
184.846406
 31
0.0
  0
LINE
  8
0
  6
CONTINUOUS
 62
     3
  5
36E
 10
676.0
 20
177.846406
 30
0.0
 11
676.0
 21
184.846406
 31
0.0
  0
LINE
  8
0
  6
CONTINUOUS
 62
     3
  5
36F
 10
667.0
 20
185.846406
 30
0.0
 11
675.0
 21
185.846406
 31
0.0
  0
ARC
  8
0
  6
CONTINUOUS
 62
     3
  5
370
 10
667.0
 20
184.846406
 30
0.0
 40
1.0
 50
90.0
 51
180.0
  0
ARC
  8
0
  6
CONTINUOUS
 62
     3
  5
371
 10
675.0
 20
184.846406
 30
0.0
 40
1.0
 50
0.0
 51
90.0
  0
LINE
  8
0
  6
CONTINUOUS
 62
     3
  5
372
 10
675.0
 20
177.846406
 30
0.0
 11
675.0
 21
184.846406
 31
0.0
  0
LINE
  8
0
  6
CONTINUOUS
 62
     3
  5
373
 10
667.0
 20
177.846406
 30
0.0
 11
667.0
 21
184.846406
 31
0.0
  0
LINE
  8
0
  6
CONTINUOUS
 62
     3
  5
374
 10
667.0
 20
184.846406
 30
0.0
 11
675.0
 21
184.846406
 31
0.0
  0
LINE
  8
0
  6
CONTINUOUS
 62
     3
  5
375
 10
676.0
 20
180.846406
 30
0.0
 11
747.0
 21
180.846406
 31
0.0
  0
CIRCLE
  8
0
  6
CONTINUOUS
 62
     3
  5
376
 10
696.0
 20
312.346406
 30
0.0
 40
2.0
  0
CIRCLE
  8
0
  6
CONTINUOUS
 62
     3
  5
377
 10
696.0
 20
312.346406
 30
0.0
 40
2.273652
  0
LINE
  8
0
  6
CONTINUOUS
 62
     3
  5
378
 10
706.25
 20
310.072754
 30
0.0
 11
706.25
 21
314.620058
 31
0.0
  0
LINE
  8
0
  6
CONTINUOUS
 62
     3
  5
379
 10
704.25
 20
314.620058
 30
0.0
 11
706.25
 21
314.620058
 31
0.0
  0
LINE
  8
0
  6
CONTINUOUS
 62
     3
  5
37A
 10
704.25
 20
310.072754
 30
0.0
 11
706.25
 21
310.072754
 31
0.0
  0
LINE
  8
0
  6
CONTINUOUS
 62
     3
  5
37B
 10
713.0
 20
504.846406
 30
0.0
 11
713.0
 21
510.846406
 31
0.0
  0
LINE
  8
0
  6
CONTINUOUS
 62
     3
  5
37C
 10
679.0
 20
504.846406
 30
0.0
 11
679.0
 21
510.846406
 31
0.0
  0
LINE
  8
0
  6
CONTINUOUS
 62
     3
  5
37D
 10
679.0
 20
504.846406
 30
0.0
 11
713.0
 21
504.846406
 31
0.0
  0
LINE
  8
0
  6
CONTINUOUS
 62
     3
  5
37E
 10
679.0
 20
467.846406
 30
0.0
 11
713.0
 21
467.846406
 31
0.0
  0
LINE
  8
0
  6
CONTINUOUS
 62
    80
  5
37F
 10
696.0
 20
467.846406
 30
0.0
 11
696.0
 21
504.846406
 31
0.0
  0
LINE
  8
0
  6
CONTINUOUS
 62
    80
  5
380
 10
691.75
 20
467.846406
 30
0.0
 11
691.75
 21
504.846406
 31
0.0
  0
LINE
  8
0
  6
CONTINUOUS
 62
    80
  5
381
 10
683.25
 20
467.846406
 30
0.0
 11
683.25
 21
504.846406
 31
0.0
  0
LINE
  8
0
  6
CONTINUOUS
 62
    80
  5
382
 10
687.5
 20
467.846406
 30
0.0
 11
687.5
 21
504.846406
 31
0.0
  0
LINE
  8
0
  6
CONTINUOUS
 62
    80
  5
383
 10
700.25
 20
467.846406
 30
0.0
 11
700.25
 21
504.846406
 31
0.0
  0
LINE
  8
0
  6
CONTINUOUS
 62
    80
  5
384
 10
708.75
 20
467.846406
 30
0.0
 11
708.75
 21
504.846406
 31
0.0
  0
LINE
  8
0
  6
CONTINUOUS
 62
    80
  5
385
 10
704.5
 20
467.846406
 30
0.0
 11
704.5
 21
504.846406
 31
0.0
  0
LINE
  8
0
  6
CONTINUOUS
 62
     3
  5
386
 10
679.0
 20
462.846406
 30
0.0
 11
713.0
 21
462.846406
 31
0.0
  0
LINE
  8
0
  6
CONTINUOUS
 62
     3
  5
387
 10
679.0
 20
425.846406
 30
0.0
 11
713.0
 21
425.846406
 31
0.0
  0
LINE
  8
0
  6
CONTINUOUS
 62
    80
  5
388
 10
696.0
 20
425.846406
 30
0.0
 11
696.0
 21
462.846406
 31
0.0
  0
LINE
  8
0
  6
CONTINUOUS
 62
    80
  5
389
 10
691.75
 20
425.846406
 30
0.0
 11
691.75
 21
462.846406
 31
0.0
  0
LINE
  8
0
  6
CONTINUOUS
 62
    80
  5
38A
 10
683.25
 20
425.846406
 30
0.0
 11
683.25
 21
462.846406
 31
0.0
  0
LINE
  8
0
  6
CONTINUOUS
 62
    80
  5
38B
 10
687.5
 20
425.846406
 30
0.0
 11
687.5
 21
462.846406
 31
0.0
  0
LINE
  8
0
  6
CONTINUOUS
 62
    80
  5
38C
 10
700.25
 20
425.846406
 30
0.0
 11
700.25
 21
462.846406
 31
0.0
  0
LINE
  8
0
  6
CONTINUOUS
 62
    80
  5
38D
 10
708.75
 20
425.846406
 30
0.0
 11
708.75
 21
462.846406
 31
0.0
  0
LINE
  8
0
  6
CONTINUOUS
 62
    80
  5
38E
 10
704.5
 20
425.846406
 30
0.0
 11
704.5
 21
462.846406
 31
0.0
  0
LINE
  8
0
  6
CONTINUOUS
 62
    80
  5
38F
 10
904.5
 20
425.846406
 30
0.0
 11
904.5
 21
462.846406
 31
0.0
  0
LINE
  8
0
  6
CONTINUOUS
 62
    80
  5
390
 10
908.75
 20
425.846406
 30
0.0
 11
908.75
 21
462.846406
 31
0.0
  0
LINE
  8
0
  6
CONTINUOUS
 62
    80
  5
391
 10
900.25
 20
425.846406
 30
0.0
 11
900.25
 21
462.846406
 31
0.0
  0
LINE
  8
0
  6
CONTINUOUS
 62
    80
  5
392
 10
887.5
 20
425.846406
 30
0.0
 11
887.5
 21
462.846406
 31
0.0
  0
LINE
  8
0
  6
CONTINUOUS
 62
    80
  5
393
 10
883.25
 20
425.846406
 30
0.0
 11
883.25
 21
462.846406
 31
0.0
  0
LINE
  8
0
  6
CONTINUOUS
 62
    80
  5
394
 10
891.75
 20
425.846406
 30
0.0
 11
891.75
 21
462.846406
 31
0.0
  0
LINE
  8
0
  6
CONTINUOUS
 62
    80
  5
395
 10
896.0
 20
425.846406
 30
0.0
 11
896.0
 21
462.846406
 31
0.0
  0
LINE
  8
0
  6
CONTINUOUS
 62
     3
  5
396
 10
879.0
 20
425.846406
 30
0.0
 11
913.0
 21
425.846406
 31
0.0
  0
LINE
  8
0
  6
CONTINUOUS
 62
     3
  5
397
 10
879.0
 20
462.846406
 30
0.0
 11
913.0
 21
462.846406
 31
0.0
  0
LINE
  8
0
  6
CONTINUOUS
 62
    80
  5
398
 10
904.5
 20
467.846406
 30
0.0
 11
904.5
 21
504.846406
 31
0.0
  0
LINE
  8
0
  6
CONTINUOUS
 62
    80
  5
399
 10
908.75
 20
467.846406
 30
0.0
 11
908.75
 21
504.846406
 31
0.0
  0
LINE
  8
0
  6
CONTINUOUS
 62
    80
  5
39A
 10
900.25
 20
467.846406
 30
0.0
 11
900.25
 21
504.846406
 31
0.0
  0
LINE
  8
0
  6
CONTINUOUS
 62
    80
  5
39B
 10
887.5
 20
467.846406
 30
0.0
 11
887.5
 21
504.846406
 31
0.0
  0
LINE
  8
0
  6
CONTINUOUS
 62
    80
  5
39C
 10
883.25
 20
467.846406
 30
0.0
 11
883.25
 21
504.846406
 31
0.0
  0
LINE
  8
0
  6
CONTINUOUS
 62
    80
  5
39D
 10
891.75
 20
467.846406
 30
0.0
 11
891.75
 21
504.846406
 31
0.0
  0
LINE
  8
0
  6
CONTINUOUS
 62
    80
  5
39E
 10
896.0
 20
467.846406
 30
0.0
 11
896.0
 21
504.846406
 31
0.0
  0
LINE
  8
0
  6
CONTINUOUS
 62
     3
  5
39F
 10
879.0
 20
467.846406
 30
0.0
 11
913.0
 21
467.846406
 31
0.0
  0
LINE
  8
0
  6
CONTINUOUS
 62
     3
  5
3A0
 10
879.0
 20
504.846406
 30
0.0
 11
913.0
 21
504.846406
 31
0.0
  0
LINE
  8
0
  6
CONTINUOUS
 62
    80
  5
3A1
 10
904.5
 20
509.846406
 30
0.0
 11
904.5
 21
546.846406
 31
0.0
  0
LINE
  8
0
  6
CONTINUOUS
 62
    80
  5
3A2
 10
908.75
 20
509.846406
 30
0.0
 11
908.75
 21
546.846406
 31
0.0
  0
LINE
  8
0
  6
CONTINUOUS
 62
    80
  5
3A3
 10
900.25
 20
509.846406
 30
0.0
 11
900.25
 21
546.846406
 31
0.0
  0
LINE
  8
0
  6
CONTINUOUS
 62
    80
  5
3A4
 10
887.5
 20
509.846406
 30
0.0
 11
887.5
 21
546.846406
 31
0.0
  0
LINE
  8
0
  6
CONTINUOUS
 62
    80
  5
3A5
 10
883.25
 20
509.846406
 30
0.0
 11
883.25
 21
546.846406
 31
0.0
  0
LINE
  8
0
  6
CONTINUOUS
 62
    80
  5
3A6
 10
891.75
 20
509.846406
 30
0.0
 11
891.75
 21
546.846406
 31
0.0
  0
LINE
  8
0
  6
CONTINUOUS
 62
    80
  5
3A7
 10
896.0
 20
509.846406
 30
0.0
 11
896.0
 21
546.846406
 31
0.0
  0
LINE
  8
0
  6
CONTINUOUS
 62
     3
  5
3A8
 10
879.0
 20
509.846406
 30
0.0
 11
913.0
 21
509.846406
 31
0.0
  0
LINE
  8
0
  6
CONTINUOUS
 62
     3
  5
3A9
 10
879.0
 20
546.846406
 30
0.0
 11
913.0
 21
546.846406
 31
0.0
  0
LINE
  8
0
  6
CONTINUOUS
 62
     3
  5
3AA
 10
879.0
 20
546.846406
 30
0.0
 11
879.0
 21
552.846406
 31
0.0
  0
LINE
  8
0
  6
CONTINUOUS
 62
     3
  5
3AB
 10
913.0
 20
546.846406
 30
0.0
 11
913.0
 21
552.846406
 31
0.0
  0
CIRCLE
  8
0
  6
CONTINUOUS
 62
     3
  5
3AC
 10
940.0
 20
76.0
 30
0.0
 40
2.6
  0
LINE
  8
0
  6
CENTER
 62
    80
  5
3AD
 10
940.0
 20
81.6
 30
0.0
 11
940.0
 21
70.4
 31
0.0
  0
ARC
  8
0
  6
CONTINUOUS
 62
     3
  5
3AE
 10
942.0
 20
104.0
 30
0.0
 40
5.0
 50
0.0
 51
90.0
  0
ARC
  8
0
  6
CONTINUOUS
 62
     3
  5
3AF
 10
942.0
 20
104.0
 30
0.0
 40
4.0
 50
0.0
 51
90.0
  0
LINE
  8
0
  6
CONTINUOUS
 62
     3
  5
3B0
 10
946.0
 20
50.0
 30
0.0
 11
946.0
 21
104.0
 31
0.0
  0
LINE
  8
0
  6
CONTINUOUS
 62
     3
  5
3B1
 10
845.0
 20
50.0
 30
0.0
 11
845.0
 21
104.0
 31
0.0
  0
ARC
  8
0
  6
CONTINUOUS
 62
     3
  5
3B2
 10
850.0
 20
104.0
 30
0.0
 40
5.0
 50
90.0
 51
180.0
  0
ARC
  8
0
  6
CONTINUOUS
 62
     3
  5
3B3
 10
850.0
 20
50.0
 30
0.0
 40
5.0
 50
180.0
 51
270.0
  0
ARC
  8
0
  6
CONTINUOUS
 62
     3
  5
3B4
 10
850.0
 20
104.0
 30
0.0
 40
4.0
 50
90.0
 51
180.0
  0
ARC
  8
0
  6
CONTINUOUS
 62
     3
  5
3B5
 10
850.0
 20
50.0
 30
0.0
 40
4.0
 50
180.0
 51
270.0
  0
CIRCLE
  8
0
  6
CONTINUOUS
 62
     3
  5
3B6
 10
852.0
 20
76.0
 30
0.0
 40
2.6
  0
LINE
  8
0
  6
CONTINUOUS
 62
     3
  5
3B7
 10
846.0
 20
50.0
 30
0.0
 11
846.0
 21
104.0
 31
0.0
  0
LINE
  8
0
  6
CONTINUOUS
 62
     3
  5
3B8
 10
867.0
 20
109.0
 30
0.0
 11
850.0
 21
109.0
 31
0.0
  0
LINE
  8
0
  6
CONTINUOUS
 62
     3
  5
3B9
 10
867.0
 20
108.0
 30
0.0
 11
867.0
 21
109.0
 31
0.0
  0
LINE
  8
0
  6
CONTINUOUS
 62
     3
  5
3BA
 10
875.0
 20
109.0
 30
0.0
 11
875.0
 21
108.0
 31
0.0
  0
LINE
  8
0
  6
CENTER
 62
    80
  5
3BB
 10
871.0
 20
102.4
 30
0.0
 11
871.0
 21
113.6
 31
0.0
  0
LINE
  8
0
  6
CONTINUOUS
 62
     3
  5
3BC
 10
942.0
 20
108.0
 30
0.0
 11
850.0
 21
108.0
 31
0.0
  0
LINE
  8
0
  6
CONTINUOUS
 62
     3
  5
3BD
 10
942.0
 20
109.0
 30
0.0
 11
875.0
 21
109.0
 31
0.0
  0
ARC
  8
0
  6
CONTINUOUS
 62
     3
  5
3BE
 10
942.0
 20
50.0
 30
0.0
 40
5.0
 50
270.0
 51
0.0
  0
ARC
  8
0
  6
CONTINUOUS
 62
     3
  5
3BF
 10
942.0
 20
50.0
 30
0.0
 40
4.0
 50
270.0
 51
0.0
  0
LINE
  8
0
  6
CONTINUOUS
 62
     3
  5
3C0
 10
942.0
 20
46.0
 30
0.0
 11
850.0
 21
46.0
 31
0.0
  0
LINE
  8
0
  6
CONTINUOUS
 62
     3
  5
3C1
 10
942.0
 20
45.0
 30
0.0
 11
850.0
 21
45.0
 31
0.0
  0
LINE
  8
0
  6
CONTINUOUS
 62
     3
  5
3C2
 10
947.0
 20
50.0
 30
0.0
 11
947.0
 21
104.0
 31
0.0
  0
LINE
  8
0
  6
CONTINUOUS
 62
     3
  5
3C3
 10
904.25
 20
310.072754
 30
0.0
 11
906.25
 21
310.072754
 31
0.0
  0
LINE
  8
0
  6
CONTINUOUS
 62
     3
  5
3C4
 10
904.25
 20
314.620058
 30
0.0
 11
906.25
 21
314.620058
 31
0.0
  0
LINE
  8
0
  6
CONTINUOUS
 62
     3
  5
3C5
 10
906.25
 20
310.072754
 30
0.0
 11
906.25
 21
314.620058
 31
0.0
  0
CIRCLE
  8
0
  6
CONTINUOUS
 62
     3
  5
3C6
 10
896.0
 20
312.346406
 30
0.0
 40
2.273652
  0
CIRCLE
  8
0
  6
CONTINUOUS
 62
     3
  5
3C7
 10
896.0
 20
312.346406
 30
0.0
 40
2.0
  0
LINE
  8
0
  6
CONTINUOUS
 62
     3
  5
3C8
 10
876.0
 20
180.846406
 30
0.0
 11
947.0
 21
180.846406
 31
0.0
  0
LINE
  8
0
  6
CONTINUOUS
 62
     3
  5
3C9
 10
867.0
 20
184.846406
 30
0.0
 11
875.0
 21
184.846406
 31
0.0
  0
LINE
  8
0
  6
CONTINUOUS
 62
     3
  5
3CA
 10
867.0
 20
177.846406
 30
0.0
 11
867.0
 21
184.846406
 31
0.0
  0
LINE
  8
0
  6
CONTINUOUS
 62
     3
  5
3CB
 10
875.0
 20
177.846406
 30
0.0
 11
875.0
 21
184.846406
 31
0.0
  0
ARC
  8
0
  6
CONTINUOUS
 62
     3
  5
3CC
 10
875.0
 20
184.846406
 30
0.0
 40
1.0
 50
0.0
 51
90.0
  0
ARC
  8
0
  6
CONTINUOUS
 62
     3
  5
3CD
 10
867.0
 20
184.846406
 30
0.0
 40
1.0
 50
90.0
 51
180.0
  0
LINE
  8
0
  6
CONTINUOUS
 62
     3
  5
3CE
 10
867.0
 20
185.846406
 30
0.0
 11
875.0
 21
185.846406
 31
0.0
  0
LINE
  8
0
  6
CONTINUOUS
 62
     3
  5
3CF
 10
876.0
 20
177.846406
 30
0.0
 11
876.0
 21
184.846406
 31
0.0
  0
LINE
  8
0
  6
CONTINUOUS
 62
     3
  5
3D0
 10
866.0
 20
177.846406
 30
0.0
 11
866.0
 21
184.846406
 31
0.0
  0
LINE
  8
0
  6
CONTINUOUS
 62
    80
  5
3D1
 10
896.0
 20
341.846406
 30
0.0
 11
896.0
 21
378.846406
 31
0.0
  0
LINE
  8
0
  6
CONTINUOUS
 62
    80
  5
3D2
 10
891.75
 20
341.846406
 30
0.0
 11
891.75
 21
378.846406
 31
0.0
  0
LINE
  8
0
  6
CONTINUOUS
 62
    80
  5
3D3
 10
883.25
 20
341.846406
 30
0.0
 11
883.25
 21
378.846406
 31
0.0
  0
LINE
  8
0
  6
CONTINUOUS
 62
    80
  5
3D4
 10
887.5
 20
341.846406
 30
0.0
 11
887.5
 21
378.846406
 31
0.0
  0
LINE
  8
0
  6
CONTINUOUS
 62
    80
  5
3D5
 10
900.25
 20
341.846406
 30
0.0
 11
900.25
 21
378.846406
 31
0.0
  0
LINE
  8
0
  6
CONTINUOUS
 62
    80
  5
3D6
 10
908.75
 20
341.846406
 30
0.0
 11
908.75
 21
378.846406
 31
0.0
  0
LINE
  8
0
  6
CONTINUOUS
 62
    80
  5
3D7
 10
904.5
 20
341.846406
 30
0.0
 11
904.5
 21
378.846406
 31
0.0
  0
LINE
  8
0
  6
CONTINUOUS
 62
    80
  5
3D8
 10
896.0
 20
383.846406
 30
0.0
 11
896.0
 21
420.846406
 31
0.0
  0
LINE
  8
0
  6
CONTINUOUS
 62
    80
  5
3D9
 10
891.75
 20
383.846406
 30
0.0
 11
891.75
 21
420.846406
 31
0.0
  0
LINE
  8
0
  6
CONTINUOUS
 62
    80
  5
3DA
 10
883.25
 20
383.846406
 30
0.0
 11
883.25
 21
420.846406
 31
0.0
  0
LINE
  8
0
  6
CONTINUOUS
 62
    80
  5
3DB
 10
887.5
 20
383.846406
 30
0.0
 11
887.5
 21
420.846406
 31
0.0
  0
LINE
  8
0
  6
CONTINUOUS
 62
    80
  5
3DC
 10
900.25
 20
383.846406
 30
0.0
 11
900.25
 21
420.846406
 31
0.0
  0
LINE
  8
0
  6
CONTINUOUS
 62
    80
  5
3DD
 10
908.75
 20
383.846406
 30
0.0
 11
908.75
 21
420.846406
 31
0.0
  0
LINE
  8
0
  6
CONTINUOUS
 62
    80
  5
3DE
 10
904.5
 20
383.846406
 30
0.0
 11
904.5
 21
420.846406
 31
0.0
  0
LINE
  8
0
  6
CONTINUOUS
 62
     3
  5
3DF
 10
902.0
 20
220.346406
 30
0.0
 11
902.0
 21
307.346406
 31
0.0
  0
LINE
  8
0
  6
CONTINUOUS
 62
     3
  5
3E0
 10
890.0
 20
220.346406
 30
0.0
 11
890.0
 21
307.346406
 31
0.0
  0
LINE
  8
0
  6
CONTINUOUS
 62
     3
  5
3E1
 10
887.75
 20
307.346406
 30
0.0
 11
904.25
 21
307.346406
 31
0.0
  0
LINE
  8
0
  6
CONTINUOUS
 62
     3
  5
3E2
 10
904.25
 20
307.346406
 30
0.0
 11
904.25
 21
317.346406
 31
0.0
  0
LINE
  8
0
  6
CONTINUOUS
 62
     3
  5
3E3
 10
887.75
 20
307.346406
 30
0.0
 11
887.75
 21
317.346406
 31
0.0
  0
LINE
  8
0
  6
CONTINUOUS
 62
     3
  5
3E4
 10
905.0
 20
317.346406
 30
0.0
 11
913.0
 21
322.346406
 31
0.0
  0
LINE
  8
0
  6
CONTINUOUS
 62
     3
  5
3E5
 10
887.0
 20
317.346406
 30
0.0
 11
879.0
 21
322.346406
 31
0.0
  0
LINE
  8
0
  6
CONTINUOUS
 62
     3
  5
3E6
 10
879.0
 20
322.346406
 30
0.0
 11
913.0
 21
322.346406
 31
0.0
  0
LINE
  8
0
  6
CONTINUOUS
 62
     3
  5
3E7
 10
879.0
 20
341.846406
 30
0.0
 11
913.0
 21
341.846406
 31
0.0
  0
LINE
  8
0
  6
CONTINUOUS
 62
     3
  5
3E8
 10
879.0
 20
336.846406
 30
0.0
 11
913.0
 21
336.846406
 31
0.0
  0
LINE
  8
0
  6
CONTINUOUS
 62
     3
  5
3E9
 10
879.0
 20
383.846406
 30
0.0
 11
913.0
 21
383.846406
 31
0.0
  0
LINE
  8
0
  6
CONTINUOUS
 62
     3
  5
3EA
 10
879.0
 20
378.846406
 30
0.0
 11
913.0
 21
378.846406
 31
0.0
  0
LINE
  8
0
  6
CONTINUOUS
 62
     3
  5
3EB
 10
879.0
 20
420.846406
 30
0.0
 11
913.0
 21
420.846406
 31
0.0
  0
LINE
  8
0
  6
CONTINUOUS
 62
     3
  5
3EC
 10
887.0
 20
317.346406
 30
0.0
 11
905.0
 21
317.346406
 31
0.0
  0
LINE
  8
0
  6
CONTINUOUS
 62
     3
  5
3ED
 10
886.0
 20
554.846406
 30
0.0
 11
906.0
 21
554.846406
 31
0.0
  0
LINE
  8
0
  6
CONTINUOUS
 62
     3
  5
3EE
 10
886.0
 20
552.846406
 30
0.0
 11
886.0
 21
554.846406
 31
0.0
  0
LINE
  8
0
  6
CONTINUOUS
 62
     3
  5
3EF
 10
906.0
 20
552.846406
 30
0.0
 11
906.0
 21
554.846406
 31
0.0
  0
LINE
  8
0
  6
CONTINUOUS
 62
     3
  5
3F0
 10
909.0
 20
556.846406
 30
0.0
 11
913.0
 21
552.846406
 31
0.0
  0
LINE
  8
0
  6
CONTINUOUS
 62
     3
  5
3F1
 10
879.0
 20
552.846406
 30
0.0
 11
883.0
 21
556.846406
 31
0.0
  0
LINE
  8
0
  6
CONTINUOUS
 62
     3
  5
3F2
 10
883.0
 20
556.846406
 30
0.0
 11
909.0
 21
556.846406
 31
0.0
  0
LINE
  8
0
  6
CONTINUOUS
 62
     3
  5
3F3
 10
879.0
 20
552.846406
 30
0.0
 11
913.0
 21
552.846406
 31
0.0
  0
LINE
  8
0
  6
CONTINUOUS
 62
     3
  5
3F4
 10
879.0
 20
322.346406
 30
0.0
 11
879.0
 21
546.846406
 31
0.0
  0
LINE
  8
0
  6
CONTINUOUS
 62
     3
  5
3F5
 10
913.0
 20
322.346406
 30
0.0
 11
913.0
 21
546.846406
 31
0.0
  0
LINE
  8
0
  6
CONTINUOUS
 62
     3
  5
3F6
 10
886.0
 20
218.346406
 30
0.0
 11
886.0
 21
217.346406
 31
0.0
  0
LINE
  8
0
  6
CONTINUOUS
 62
     3
  5
3F7
 10
906.0
 20
218.346406
 30
0.0
 11
906.0
 21
217.346406
 31
0.0
  0
LINE
  8
0
  6
CONTINUOUS
 62
     3
  5
3F8
 10
902.0
 20
220.346406
 30
0.0
 11
906.0
 21
218.346406
 31
0.0
  0
LINE
  8
0
  6
CONTINUOUS
 62
     3
  5
3F9
 10
886.0
 20
218.346406
 30
0.0
 11
890.0
 21
220.346406
 31
0.0
  0
LINE
  8
0
  6
CONTINUOUS
 62
     3
  5
3FA
 10
886.0
 20
218.346406
 30
0.0
 11
906.0
 21
218.346406
 31
0.0
  0
LINE
  8
0
  6
CONTINUOUS
 62
     3
  5
3FB
 10
890.0
 20
220.346406
 30
0.0
 11
902.0
 21
220.346406
 31
0.0
  0
ARC
  8
0
  6
CONTINUOUS
 62
     3
  5
3FC
 10
932.185606
 20
212.346406
 30
0.0
 40
5.0
 50
15.32151
 51
90.0
  0
ARC
  8
0
  6
CONTINUOUS
 62
     3
  5
3FD
 10
859.814394
 20
212.346406
 30
0.0
 40
5.0
 50
90.0
 51
164.67849
  0
LINE
  8
0
  6
CONTINUOUS
 62
     3
  5
3FE
 10
937.007897
 20
213.667582
 30
0.0
 11
946.0
 21
180.846406
 31
0.0
  0
LINE
  8
0
  6
CONTINUOUS
 62
     3
  5
3FF
 10
846.0
 20
180.846406
 30
0.0
 11
854.992103
 21
213.667582
 31
0.0
  0
LINE
  8
0
  6
CONTINUOUS
 62
     3
  5
400
 10
859.814394
 20
217.346406
 30
0.0
 11
932.185606
 21
217.346406
 31
0.0
  0
LINE
  8
0
  6
CONTINUOUS
 62
     3
  5
401
 10
845.0
 20
180.846406
 30
0.0
 11
866.0
 21
180.846406
 31
0.0
  0
LINE
  8
0
  6
CONTINUOUS
 62
     3
  5
402
 10
845.0
 20
177.846406
 30
0.0
 11
947.0
 21
177.846406
 31
0.0
  0
LINE
  8
0
  6
CONTINUOUS
 62
     3
  5
403
 10
845.0
 20
177.846406
 30
0.0
 11
845.0
 21
180.846406
 31
0.0
  0
LINE
  8
0
  6
CONTINUOUS
 62
     3
  5
404
 10
947.0
 20
177.846406
 30
0.0
 11
947.0
 21
180.846406
 31
0.0
  0
ENDSEC
  0
EOF
