  0
SECTION
  2
HEADER
  9
$ACADVER
  1
AC1009
  9
$DWGCODEPAGE
  3
dos932
  9
$INSBASE
 10
0.0
 20
0.0
 30
0.0
  9
$EXTMIN
 10
-322.0
 20
156.0
 30
0.0
  9
$EXTMAX
 10
524.0
 20
704.304545
 30
0.0
  9
$LIMMIN
 10
-322.0
 20
156.0
  9
$LIMMAX
 10
524.0
 20
704.304545
  9
$ORTHOMODE
 70
     0
  9
$REGENMODE
 70
     1
  9
$FILLMODE
 70
     1
  9
$QTEXTMODE
 70
     0
  9
$MIRRTEXT
 70
     1
  9
$DRAGMODE
 70
     2
  9
$LTSCALE
 40
1.0
  9
$OSMODE
 70
     0
  9
$ATTMODE
 70
     1
  9
$TEXTSIZE
 40
4.1656
  9
$TRACEWID
 40
0.05
  9
$TEXTSTYLE
  7
MX_NOTE_STANDARD
  9
$CLAYER
  8
LY_1
  9
$CELTYPE
  6
CONTINUOUS
  9
$CECOLOR
 62
   256
  9
$DIMSCALE
 40
1.0
  9
$DIMASZ
 40
2.5
  9
$DIMEXO
 40
0.5
  9
$DIMDLI
 40
3.75
  9
$DIMRND
 40
0.0
  9
$DIMDLE
 40
0.0
  9
$DIMEXE
 40
1.0
  9
$DIMTP
 40
0.0
  9
$DIMTM
 40
0.0
  9
$DIMTXT
 40
2.5
  9
$DIMCEN
 40
2.5
  9
$DIMTSZ
 40
0.0
  9
$DIMTOL
 70
     0
  9
$DIMLIM
 70
     0
  9
$DIMTIH
 70
     0
  9
$DIMTOH
 70
     0
  9
$DIMSE1
 70
     0
  9
$DIMSE2
 70
     0
  9
$DIMTAD
 70
     1
  9
$DIMZIN
 70
     8
  9
$DIMBLK
  1

  9
$DIMASO
 70
     1
  9
$DIMSHO
 70
     1
  9
$DIMPOST
  1

  9
$DIMAPOST
  1

  9
$DIMALT
 70
     0
  9
$DIMALTD
 70
     4
  9
$DIMALTF
 40
0.03937
  9
$DIMLFAC
 40
1.0
  9
$DIMTOFL
 70
     1
  9
$DIMTVP
 40
0.0
  9
$DIMTIX
 70
     0
  9
$DIMSOXD
 70
     0
  9
$DIMSAH
 70
     0
  9
$DIMBLK1
  1

  9
$DIMBLK2
  1

  9
$DIMSTYLE
  2
MXDIMSTYLE
  9
$DIMCLRD
 70
     0
  9
$DIMCLRE
 70
     0
  9
$DIMCLRT
 70
     0
  9
$DIMTFAC
 40
1.0
  9
$DIMGAP
 40
1.0
  9
$LUNITS
 70
     2
  9
$LUPREC
 70
     4
  9
$AXISMODE
 70
     0
  9
$AXISUNIT
 10
0.0
 20
0.0
  9
$SKETCHINC
 40
0.1
  9
$FILLETRAD
 40
0.0
  9
$AUNITS
 70
     0
  9
$AUPREC
 70
     0
  9
$MENU
  1
acad
  9
$ELEVATION
 40
0.0
  9
$PELEVATION
 40
0.0
  9
$THICKNESS
 40
0.0
  9
$LIMCHECK
 70
     0
  9
$BLIPMODE
 70
     1
  9
$CHAMFERA
 40
0.0
  9
$CHAMFERB
 40
0.0
  9
$SKPOLY
 70
     0
  9
$TDCREATE
 40
2453781.727858796
  9
$TDUPDATE
 40
2453781.727858796
  9
$TDINDWG
 40
0.0000000000
  9
$TDUSRTIMER
 40
0.0000000000
  9
$USRTIMER
 70
     1
  9
$ANGBASE
 50
0.0
  9
$ANGDIR
 70
     0
  9
$PDMODE
 70
     0
  9
$PDSIZE
 40
0.0
  9
$PLINEWID
 40
0.0
  9
$COORDS
 70
     1
  9
$SPLFRAME
 70
     0
  9
$SPLINETYPE
 70
     6
  9
$SPLINESEGS
 70
     8
  9
$ATTDIA
 70
     0
  9
$ATTREQ
 70
     1
  9
$HANDLING
 70
     1
  9
$HANDSEED
  5
632
  9
$SURFTAB1
 70
     6
  9
$SURFTAB2
 70
     6
  9
$SURFTYPE
 70
     6
  9
$SURFU
 70
     6
  9
$SURFV
 70
     6
  9
$UCSNAME
  2

  9
$UCSORG
 10
0.0
 20
0.0
 30
0.0
  9
$UCSXDIR
 10
1.0
 20
0.0
 30
0.0
  9
$UCSYDIR
 10
0.0
 20
1.0
 30
0.0
  9
$PUCSNAME
  2

  9
$PUCSORG
 10
0.0
 20
0.0
 30
0.0
  9
$PUCSXDIR
 10
1.0
 20
0.0
 30
0.0
  9
$PUCSYDIR
 10
0.0
 20
1.0
 30
0.0
  9
$USERI1
 70
     0
  9
$USERI2
 70
     0
  9
$USERI3
 70
     0
  9
$USERI4
 70
     0
  9
$USERI5
 70
     0
  9
$USERR1
 40
0.0
  9
$USERR2
 40
0.0
  9
$USERR3
 40
0.0
  9
$USERR4
 40
0.0
  9
$USERR5
 40
0.0
  9
$WORLDVIEW
 70
     1
  9
$SHADEDGE
 70
     3
  9
$SHADEDIF
 70
    70
  9
$TILEMODE
 70
     1
  9
$MAXACTVP
 70
    16
  9
$PINSBASE
 10
0.0
 20
0.0
 30
0.0
  9
$PLIMCHECK
 70
     0
  9
$PEXTMIN
 10
1.000000E+20
 20
1.000000E+20
 30
1.000000E+20
  9
$PEXTMAX
 10
-1.000000E+20
 20
-1.000000E+20
 30
-1.000000E+20
  9
$PLIMMIN
 10
0.0
 20
0.0
  9
$PLIMMAX
 10
12.0
 20
9.0
  9
$UNITMODE
 70
     0
  9
$VISRETAIN
 70
     0
  9
$PLINEGEN
 70
     1
  9
$PSLTSCALE
 70
     0
  9
$TREEDEPTH
 70
  3020
  9
$DWGCODEPAGE
  3
dos932
  0
ENDSEC
  0
SECTION
  2
TABLES
  0
TABLE
  2
VPORT
 70
     1
  0
VPORT
  2
*ACTIVE
 70
     0
 10
0.0
 20
0.0
 11
1.0
 21
1.0
 12
101.0
 22
430.152273
 13
0.0
 23
0.0
 14
1.0
 24
1.0
 15
0.0
 25
0.0
 16
0.0
 26
0.0
 36
1.0
 17
0.0
 27
0.0
 37
0.0
 40
553.787591
 41
1.732051
 42
50.0
 43
0.0
 44
0.0
 50
0.0
 51
0.0
 71
     0
 72
   100
 73
     1
 74
     1
 75
     0
 76
     0
 77
     0
 78
     0
  0
ENDTAB
  0
TABLE
  2
LTYPE
 70
     1
  0
LTYPE
  2
CONTINUOUS
 70
    64
  3
Solid line
 72
    65
 73
     0
 40
0.0
  0
ENDTAB
  0
TABLE
  2
LAYER
 70
     3
  0
LAYER
  2
0
 70
     0
 62
     7
  6
CONTINUOUS
  0
LAYER
  2
LY_1
 70
     0
 62
     7
  6
CONTINUOUS
  0
LAYER
  2
DEFPOINTS
 70
     0
 62
     7
  6
CONTINUOUS
  0
ENDTAB
  0
TABLE
  2
STYLE
 70
     1
  0
STYLE
  2
MX_NOTE_STANDARD
 70
     0
 40
0.0
 41
1.0
 50
0.0
 71
     0
 42
4.1656
  3
txt.shx
  4
extfont.shx
  0
ENDTAB
  0
TABLE
  2
VIEW
 70
     0
  0
ENDTAB
  0
TABLE
  2
UCS
 70
     0
  0
ENDTAB
  0
TABLE
  2
APPID
 70
     1
  0
APPID
  2
ACAD
 70
     0
  0
ENDTAB
  0
TABLE
  2
DIMSTYLE
 70
     1
  0
DIMSTYLE
  2
MXDIMSTYLE
 70
     0
  3

  4

  5

  6

  7

 40
1.0
 41
2.5
 42
0.5
 43
3.75
 44
1.0
 45
0.0
 46
0.0
 47
0.0
 48
0.0
 71
     0
 72
     0
 73
     0
 74
     0
 75
     0
 76
     0
 77
     1
 78
     8
140
2.5
141
2.5
142
0.0
143
0.03937
144
1.0
145
0.0
146
1.0
147
1.0
170
     0
171
     4
172
     1
173
     0
174
     0
175
     0
176
     0
177
     0
178
     0
  0
ENDTAB
  0
ENDSEC
  0
SECTION
  2
BLOCKS
  0
BLOCK
  8
0
  5
2C
  2
MS_1
 70
     0
 10
0.0
 20
0.0
 30
0.0
  3
MS_1
  0
LINE
  8
0
  6
CONTINUOUS
 62
     3
  5
2D
 10
19.508726
 20
34.965719
 30
0.0
 11
17.544764
 21
35.0
 31
0.0
  0
LINE
  8
0
  6
CONTINUOUS
 62
     3
  5
2E
 10
-19.508726
 20
34.965719
 30
0.0
 11
-17.544764
 21
35.0
 31
0.0
  0
LINE
  8
0
  6
CONTINUOUS
 62
     3
  5
2F
 10
-19.508726
 20
-0.034281
 30
0.0
 11
-17.544764
 21
0.0
 31
0.0
  0
LINE
  8
0
  6
CONTINUOUS
 62
     3
  5
30
 10
19.508726
 20
-0.034281
 30
0.0
 11
17.544764
 21
0.0
 31
0.0
  0
LINE
  8
0
  6
CONTINUOUS
 62
     3
  5
31
 10
17.55
 20
0.0
 30
0.0
 11
-17.55
 21
0.0
 31
0.0
  0
LINE
  8
0
  6
CONTINUOUS
 62
     3
  5
32
 10
17.55
 20
35.0
 30
0.0
 11
-17.55
 21
35.0
 31
0.0
  0
LINE
  8
0
  6
CONTINUOUS
 62
    80
  5
33
 10
-17.24337
 20
5.957144
 30
0.0
 11
-17.24337
 21
32.957144
 31
0.0
  0
LINE
  8
0
  6
CONTINUOUS
 62
    80
  5
34
 10
18.399477
 20
5.957144
 30
0.0
 11
18.399477
 21
32.957144
 31
0.0
  0
LINE
  8
0
  6
CONTINUOUS
 62
    80
  5
35
 10
16.251734
 20
5.957144
 30
0.0
 11
16.251734
 21
32.957144
 31
0.0
  0
LINE
  8
0
  6
CONTINUOUS
 62
    80
  5
36
 10
13.519245
 20
5.957144
 30
0.0
 11
13.519245
 21
32.957144
 31
0.0
  0
LINE
  8
0
  6
CONTINUOUS
 62
    80
  5
37
 10
9.937291
 20
5.957144
 30
0.0
 11
9.937291
 21
32.957144
 31
0.0
  0
LINE
  8
0
  6
CONTINUOUS
 62
    80
  5
38
 10
5.730941
 20
5.957144
 30
0.0
 11
5.730941
 21
32.957144
 31
0.0
  0
LINE
  8
0
  6
CONTINUOUS
 62
    80
  5
39
 10
1.164495
 20
5.957144
 30
0.0
 11
1.164495
 21
32.957144
 31
0.0
  0
LINE
  8
0
  6
CONTINUOUS
 62
    80
  5
3A
 10
-3.475121
 20
5.957144
 30
0.0
 11
-3.475121
 21
32.957144
 31
0.0
  0
LINE
  8
0
  6
CONTINUOUS
 62
    80
  5
3B
 10
-7.896382
 20
5.957144
 30
0.0
 11
-7.896382
 21
32.957144
 31
0.0
  0
LINE
  8
0
  6
CONTINUOUS
 62
    80
  5
3C
 10
-15.003799
 20
5.957144
 30
0.0
 11
-15.003799
 21
32.957144
 31
0.0
  0
LINE
  8
0
  6
CONTINUOUS
 62
    80
  5
3D
 10
11.821484
 20
5.957144
 30
0.0
 11
11.821484
 21
32.957144
 31
0.0
  0
LINE
  8
0
  6
CONTINUOUS
 62
    80
  5
3E
 10
7.896382
 20
5.957144
 30
0.0
 11
7.896382
 21
32.957144
 31
0.0
  0
LINE
  8
0
  6
CONTINUOUS
 62
    80
  5
3F
 10
3.475121
 20
5.957144
 30
0.0
 11
3.475121
 21
32.957144
 31
0.0
  0
LINE
  8
0
  6
CONTINUOUS
 62
    80
  5
40
 10
-1.164495
 20
5.957144
 30
0.0
 11
-1.164495
 21
32.957144
 31
0.0
  0
LINE
  8
0
  6
CONTINUOUS
 62
    80
  5
41
 10
-9.937291
 20
5.957144
 30
0.0
 11
-9.937291
 21
32.957144
 31
0.0
  0
LINE
  8
0
  6
CONTINUOUS
 62
    80
  5
42
 10
-5.730941
 20
5.957144
 30
0.0
 11
-5.730941
 21
32.957144
 31
0.0
  0
LINE
  8
0
  6
CONTINUOUS
 62
    80
  5
43
 10
-18.545715
 20
5.957144
 30
0.0
 11
-18.545715
 21
32.957144
 31
0.0
  0
LINE
  8
0
  6
CONTINUOUS
 62
    80
  5
44
 10
-18.399477
 20
5.957144
 30
0.0
 11
-18.399477
 21
32.957144
 31
0.0
  0
LINE
  8
0
  6
CONTINUOUS
 62
    80
  5
45
 10
-17.963068
 20
5.957144
 30
0.0
 11
-17.963068
 21
32.957144
 31
0.0
  0
LINE
  8
0
  6
CONTINUOUS
 62
    80
  5
46
 10
-16.251734
 20
5.957144
 30
0.0
 11
-16.251734
 21
32.957144
 31
0.0
  0
LINE
  8
0
  6
CONTINUOUS
 62
    80
  5
47
 10
-13.519245
 20
5.957144
 30
0.0
 11
-13.519245
 21
32.957144
 31
0.0
  0
LINE
  8
0
  6
CONTINUOUS
 62
    80
  5
48
 10
-11.821484
 20
5.957144
 30
0.0
 11
-11.821484
 21
32.957144
 31
0.0
  0
LINE
  8
0
  6
CONTINUOUS
 62
    80
  5
49
 10
18.545715
 20
5.957144
 30
0.0
 11
18.545715
 21
32.957144
 31
0.0
  0
LINE
  8
0
  6
CONTINUOUS
 62
    80
  5
4A
 10
17.963068
 20
5.957144
 30
0.0
 11
17.963068
 21
32.957144
 31
0.0
  0
LINE
  8
0
  6
CONTINUOUS
 62
    80
  5
4B
 10
17.24337
 20
5.957144
 30
0.0
 11
17.24337
 21
32.957144
 31
0.0
  0
LINE
  8
0
  6
CONTINUOUS
 62
    80
  5
4C
 10
15.003799
 20
5.957144
 30
0.0
 11
15.003799
 21
32.957144
 31
0.0
  0
LINE
  8
0
  6
CONTINUOUS
 62
    80
  5
4D
 10
-20.0
 20
3.5
 30
0.0
 11
20.0
 21
3.5
 31
0.0
  0
LINE
  8
0
  6
CONTINUOUS
 62
    80
  5
4E
 10
-20.0
 20
32.5
 30
0.0
 11
20.0
 21
32.5
 31
0.0
  0
LINE
  8
0
  6
CONTINUOUS
 62
    80
  5
4F
 10
-19.971065
 20
12.5
 30
0.0
 11
19.971065
 21
12.5
 31
0.0
  0
LINE
  8
0
  6
CONTINUOUS
 62
    80
  5
50
 10
-19.954939
 20
17.5
 30
0.0
 11
19.954939
 21
17.5
 31
0.0
  0
LINE
  8
0
  6
CONTINUOUS
 62
    80
  5
51
 10
-19.888054
 20
22.0
 30
0.0
 11
19.888054
 21
22.0
 31
0.0
  0
LINE
  8
0
  6
CONTINUOUS
 62
    80
  5
52
 10
-19.863787
 20
26.0
 30
0.0
 11
19.863787
 21
26.0
 31
0.0
  0
LINE
  8
0
  6
CONTINUOUS
 62
    80
  5
53
 10
-19.784944
 20
30.0
 30
0.0
 11
19.784944
 21
30.0
 31
0.0
  0
LINE
  8
0
  6
CONTINUOUS
 62
    80
  5
54
 10
-19.954178
 20
9.5
 30
0.0
 11
19.954178
 21
9.5
 31
0.0
  0
LINE
  8
0
  6
CONTINUOUS
 62
    80
  5
55
 10
-19.954178
 20
6.5
 30
0.0
 11
19.954178
 21
6.5
 31
0.0
  0
ARC
  8
0
  6
CONTINUOUS
 62
     3
  5
56
 10
-20.630476
 20
31.25
 30
0.0
 40
1.4
 50
314.639988
 51
63.234499
  0
ARC
  8
0
  6
CONTINUOUS
 62
     3
  5
57
 10
-22.236068
 20
28.0
 30
0.0
 40
3.0
 50
325.150095
 51
32.84097
  0
ARC
  8
0
  6
CONTINUOUS
 62
     3
  5
58
 10
-22.236068
 20
24.0
 30
0.0
 40
3.0
 50
324.423779
 51
34.849905
  0
ARC
  8
0
  6
CONTINUOUS
 62
     3
  5
59
 10
-23.307189
 20
19.75
 30
0.0
 40
4.0
 50
328.679478
 51
29.468478
  0
ARC
  8
0
  6
CONTINUOUS
 62
     3
  5
5A
 10
-29.682458
 20
15.0
 30
0.0
 40
10.0
 50
346.485281
 51
13.27345
  0
ARC
  8
0
  6
CONTINUOUS
 62
     3
  5
5B
 10
-23.162278
 20
11.0
 30
0.0
 40
3.5
 50
337.975687
 51
22.740014
  0
ARC
  8
0
  6
CONTINUOUS
 62
     3
  5
5C
 10
-23.162278
 20
8.0
 30
0.0
 40
3.5
 50
337.975687
 51
22.024313
  0
ARC
  8
0
  6
CONTINUOUS
 62
     3
  5
5D
 10
-23.162278
 20
5.0
 30
0.0
 40
3.5
 50
334.623066
 51
22.024313
  0
ARC
  8
0
  6
CONTINUOUS
 62
     3
  5
5E
 10
-19.295441
 20
29.898082
 30
0.0
 40
0.5
 50
134.639988
 51
212.84097
  0
ARC
  8
0
  6
CONTINUOUS
 62
     3
  5
5F
 10
-19.363787
 20
26.0
 30
0.0
 40
0.5
 50
145.150095
 51
214.849905
  0
ARC
  8
0
  6
CONTINUOUS
 62
     3
  5
60
 10
-19.38937
 20
21.963751
 30
0.0
 40
0.5
 50
144.423779
 51
209.468478
  0
ARC
  8
0
  6
CONTINUOUS
 62
     3
  5
61
 10
-19.454178
 20
6.5
 30
0.0
 40
0.5
 50
157.975687
 51
202.024313
  0
ARC
  8
0
  6
CONTINUOUS
 62
     3
  5
62
 10
-19.454178
 20
9.5
 30
0.0
 40
0.5
 50
157.975687
 51
202.024313
  0
ARC
  8
0
  6
CONTINUOUS
 62
     3
  5
63
 10
-19.462962
 20
17.410787
 30
0.0
 40
0.5
 50
148.679478
 51
193.27345
  0
ARC
  8
0
  6
CONTINUOUS
 62
     3
  5
64
 10
-19.473204
 20
12.546201
 30
0.0
 40
0.5
 50
166.485281
 51
202.740014
  0
LINE
  8
0
  6
CONTINUOUS
 62
     3
  5
65
 10
-20.0
 20
3.5
 30
0.0
 11
-20.0
 21
0.457144
 31
0.0
  0
LINE
  8
0
  6
CONTINUOUS
 62
     3
  5
66
 10
-20.0
 20
34.465795
 30
0.0
 11
-20.0
 21
32.5
 31
0.0
  0
ARC
  8
0
  6
CONTINUOUS
 62
     3
  5
67
 10
19.473204
 20
12.546201
 30
0.0
 40
0.5
 50
337.259986
 51
13.514719
  0
ARC
  8
0
  6
CONTINUOUS
 62
     3
  5
68
 10
19.462962
 20
17.410787
 30
0.0
 40
0.5
 50
346.72655
 51
31.320522
  0
ARC
  8
0
  6
CONTINUOUS
 62
     3
  5
69
 10
19.454178
 20
9.5
 30
0.0
 40
0.5
 50
337.975687
 51
22.024313
  0
ARC
  8
0
  6
CONTINUOUS
 62
     3
  5
6A
 10
19.454178
 20
6.5
 30
0.0
 40
0.5
 50
337.975687
 51
22.024313
  0
ARC
  8
0
  6
CONTINUOUS
 62
     3
  5
6B
 10
19.38937
 20
21.963751
 30
0.0
 40
0.5
 50
330.531522
 51
35.576221
  0
ARC
  8
0
  6
CONTINUOUS
 62
     3
  5
6C
 10
19.363787
 20
26.0
 30
0.0
 40
0.5
 50
325.150095
 51
34.849905
  0
ARC
  8
0
  6
CONTINUOUS
 62
     3
  5
6D
 10
19.295441
 20
29.898082
 30
0.0
 40
0.5
 50
327.15903
 51
45.360012
  0
LINE
  8
0
  6
CONTINUOUS
 62
     3
  5
6E
 10
20.0
 20
3.5
 30
0.0
 11
20.0
 21
0.457144
 31
0.0
  0
ARC
  8
0
  6
CONTINUOUS
 62
     3
  5
6F
 10
23.162278
 20
5.0
 30
0.0
 40
3.5
 50
157.975687
 51
205.376934
  0
ARC
  8
0
  6
CONTINUOUS
 62
     3
  5
70
 10
23.162278
 20
8.0
 30
0.0
 40
3.5
 50
157.975687
 51
202.024313
  0
ARC
  8
0
  6
CONTINUOUS
 62
     3
  5
71
 10
23.162278
 20
11.0
 30
0.0
 40
3.5
 50
157.259986
 51
202.024313
  0
ARC
  8
0
  6
CONTINUOUS
 62
     3
  5
72
 10
29.682458
 20
15.0
 30
0.0
 40
10.0
 50
166.72655
 51
193.514719
  0
ARC
  8
0
  6
CONTINUOUS
 62
     3
  5
73
 10
23.307189
 20
19.75
 30
0.0
 40
4.0
 50
150.531522
 51
211.320522
  0
ARC
  8
0
  6
CONTINUOUS
 62
     3
  5
74
 10
22.236068
 20
24.0
 30
0.0
 40
3.0
 50
145.150095
 51
215.576221
  0
ARC
  8
0
  6
CONTINUOUS
 62
     3
  5
75
 10
22.236068
 20
28.0
 30
0.0
 40
3.0
 50
147.15903
 51
214.849905
  0
ARC
  8
0
  6
CONTINUOUS
 62
     3
  5
76
 10
20.630476
 20
31.25
 30
0.0
 40
1.4
 50
116.765501
 51
225.360012
  0
LINE
  8
0
  6
CONTINUOUS
 62
     3
  5
77
 10
20.0
 20
34.465795
 30
0.0
 11
20.0
 21
32.5
 31
0.0
  0
ARC
  8
0
  6
CONTINUOUS
 62
     3
  5
78
 10
-19.5
 20
34.465795
 30
0.0
 40
0.5
 50
91.0
 51
180.0
  0
ARC
  8
0
  6
CONTINUOUS
 62
     3
  5
79
 10
19.5
 20
34.465795
 30
0.0
 40
0.5
 50
0.0
 51
89.0
  0
ARC
  8
0
  6
CONTINUOUS
 62
     3
  5
7A
 10
-19.5
 20
0.457144
 30
0.0
 40
0.5
 50
180.0
 51
262.457877
  0
ARC
  8
0
  6
CONTINUOUS
 62
     3
  5
7B
 10
19.5
 20
0.457144
 30
0.0
 40
0.5
 50
277.542123
 51
0.0
  0
ENDBLK
  8
0
  5
7C
  0
BLOCK
  8
0
  5
7D
  2
MS_2
 70
     0
 10
0.0
 20
0.0
 30
0.0
  3
MS_2
  0
POLYLINE
  8
0
  6
CONTINUOUS
 62
    80
  5
7E
 66
     1
 10
0.0
 20
0.0
 30
0.0
 70
     1
  0
VERTEX
  8
0
  6
CONTINUOUS
 62
    80
  5
3C7
 10
4.250141
 20
-11.528829
 30
0.0
  0
VERTEX
  8
0
  6
CONTINUOUS
 62
    80
  5
3C8
 10
4.250046
 20
-11.517567
 30
0.0
  0
VERTEX
  8
0
  6
CONTINUOUS
 62
    80
  5
3C9
 10
4.249762
 20
-11.506299
 30
0.0
  0
VERTEX
  8
0
  6
CONTINUOUS
 62
    80
  5
3CA
 10
4.249291
 20
-11.495029
 30
0.0
  0
VERTEX
  8
0
  6
CONTINUOUS
 62
    80
  5
3CB
 10
4.248633
 20
-11.483761
 30
0.0
  0
VERTEX
  8
0
  6
CONTINUOUS
 62
    80
  5
3CC
 10
4.247791
 20
-11.472499
 30
0.0
  0
VERTEX
  8
0
  6
CONTINUOUS
 62
    80
  5
3CD
 10
4.246766
 20
-11.461248
 30
0.0
  0
VERTEX
  8
0
  6
CONTINUOUS
 62
    80
  5
3CE
 10
4.245558
 20
-11.450011
 30
0.0
  0
VERTEX
  8
0
  6
CONTINUOUS
 62
    80
  5
3CF
 10
4.244171
 20
-11.438794
 30
0.0
  0
VERTEX
  8
0
  6
CONTINUOUS
 62
    80
  5
3D0
 10
4.242605
 20
-11.427599
 30
0.0
  0
VERTEX
  8
0
  6
CONTINUOUS
 62
    80
  5
3D1
 10
4.240861
 20
-11.416432
 30
0.0
  0
VERTEX
  8
0
  6
CONTINUOUS
 62
    80
  5
3D2
 10
4.238942
 20
-11.405296
 30
0.0
  0
VERTEX
  8
0
  6
CONTINUOUS
 62
    80
  5
3D3
 10
4.236847
 20
-11.394197
 30
0.0
  0
VERTEX
  8
0
  6
CONTINUOUS
 62
    80
  5
3D4
 10
4.23458
 20
-11.383137
 30
0.0
  0
VERTEX
  8
0
  6
CONTINUOUS
 62
    80
  5
3D5
 10
4.232141
 20
-11.372121
 30
0.0
  0
VERTEX
  8
0
  6
CONTINUOUS
 62
    80
  5
3D6
 10
4.229532
 20
-11.361153
 30
0.0
  0
VERTEX
  8
0
  6
CONTINUOUS
 62
    80
  5
3D7
 10
4.226754
 20
-11.350238
 30
0.0
  0
VERTEX
  8
0
  6
CONTINUOUS
 62
    80
  5
3D8
 10
4.223517
 20
-11.338331
 30
0.0
  0
VERTEX
  8
0
  6
CONTINUOUS
 62
    80
  5
3D9
 10
4.220079
 20
-11.326472
 30
0.0
  0
VERTEX
  8
0
  6
CONTINUOUS
 62
    80
  5
3DA
 10
4.216445
 20
-11.314664
 30
0.0
  0
VERTEX
  8
0
  6
CONTINUOUS
 62
    80
  5
3DB
 10
4.212618
 20
-11.302909
 30
0.0
  0
VERTEX
  8
0
  6
CONTINUOUS
 62
    80
  5
3DC
 10
4.208601
 20
-11.291212
 30
0.0
  0
VERTEX
  8
0
  6
CONTINUOUS
 62
    80
  5
3DD
 10
4.204399
 20
-11.279574
 30
0.0
  0
VERTEX
  8
0
  6
CONTINUOUS
 62
    80
  5
3DE
 10
4.200015
 20
-11.268
 30
0.0
  0
VERTEX
  8
0
  6
CONTINUOUS
 62
    80
  5
3DF
 10
4.195453
 20
-11.256491
 30
0.0
  0
VERTEX
  8
0
  6
CONTINUOUS
 62
    80
  5
3E0
 10
4.190717
 20
-11.245052
 30
0.0
  0
VERTEX
  8
0
  6
CONTINUOUS
 62
    80
  5
3E1
 10
4.185811
 20
-11.233686
 30
0.0
  0
VERTEX
  8
0
  6
CONTINUOUS
 62
    80
  5
3E2
 10
4.180738
 20
-11.222395
 30
0.0
  0
VERTEX
  8
0
  6
CONTINUOUS
 62
    80
  5
3E3
 10
4.175502
 20
-11.211183
 30
0.0
  0
VERTEX
  8
0
  6
CONTINUOUS
 62
    80
  5
3E4
 10
4.170107
 20
-11.200052
 30
0.0
  0
VERTEX
  8
0
  6
CONTINUOUS
 62
    80
  5
3E5
 10
4.164557
 20
-11.189007
 30
0.0
  0
VERTEX
  8
0
  6
CONTINUOUS
 62
    80
  5
3E6
 10
4.158855
 20
-11.178049
 30
0.0
  0
VERTEX
  8
0
  6
CONTINUOUS
 62
    80
  5
3E7
 10
4.153005
 20
-11.167183
 30
0.0
  0
VERTEX
  8
0
  6
CONTINUOUS
 62
    80
  5
3E8
 10
4.146105
 20
-11.154808
 30
0.0
  0
VERTEX
  8
0
  6
CONTINUOUS
 62
    80
  5
3E9
 10
4.13901
 20
-11.142535
 30
0.0
  0
VERTEX
  8
0
  6
CONTINUOUS
 62
    80
  5
3EA
 10
4.131724
 20
-11.130365
 30
0.0
  0
VERTEX
  8
0
  6
CONTINUOUS
 62
    80
  5
3EB
 10
4.124254
 20
-11.1183
 30
0.0
  0
VERTEX
  8
0
  6
CONTINUOUS
 62
    80
  5
3EC
 10
4.116603
 20
-11.106341
 30
0.0
  0
VERTEX
  8
0
  6
CONTINUOUS
 62
    80
  5
3ED
 10
4.108777
 20
-11.094491
 30
0.0
  0
VERTEX
  8
0
  6
CONTINUOUS
 62
    80
  5
3EE
 10
4.100779
 20
-11.082751
 30
0.0
  0
VERTEX
  8
0
  6
CONTINUOUS
 62
    80
  5
3EF
 10
4.092617
 20
-11.071122
 30
0.0
  0
VERTEX
  8
0
  6
CONTINUOUS
 62
    80
  5
3F0
 10
4.084293
 20
-11.059606
 30
0.0
  0
VERTEX
  8
0
  6
CONTINUOUS
 62
    80
  5
3F1
 10
4.075813
 20
-11.048204
 30
0.0
  0
VERTEX
  8
0
  6
CONTINUOUS
 62
    80
  5
3F2
 10
4.067182
 20
-11.036919
 30
0.0
  0
VERTEX
  8
0
  6
CONTINUOUS
 62
    80
  5
3F3
 10
4.058405
 20
-11.025751
 30
0.0
  0
VERTEX
  8
0
  6
CONTINUOUS
 62
    80
  5
3F4
 10
4.049487
 20
-11.014703
 30
0.0
  0
VERTEX
  8
0
  6
CONTINUOUS
 62
    80
  5
3F5
 10
4.040431
 20
-11.003775
 30
0.0
  0
VERTEX
  8
0
  6
CONTINUOUS
 62
    80
  5
3F6
 10
4.031245
 20
-10.99297
 30
0.0
  0
VERTEX
  8
0
  6
CONTINUOUS
 62
    80
  5
3F7
 10
4.021931
 20
-10.982289
 30
0.0
  0
VERTEX
  8
0
  6
CONTINUOUS
 62
    80
  5
3F8
 10
4.011052
 20
-10.970141
 30
0.0
  0
VERTEX
  8
0
  6
CONTINUOUS
 62
    80
  5
3F9
 10
4.000001
 20
-10.958139
 30
0.0
  0
VERTEX
  8
0
  6
CONTINUOUS
 62
    80
  5
3FA
 10
3.988782
 20
-10.946285
 30
0.0
  0
VERTEX
  8
0
  6
CONTINUOUS
 62
    80
  5
3FB
 10
3.977401
 20
-10.934577
 30
0.0
  0
VERTEX
  8
0
  6
CONTINUOUS
 62
    80
  5
3FC
 10
3.965862
 20
-10.923017
 30
0.0
  0
VERTEX
  8
0
  6
CONTINUOUS
 62
    80
  5
3FD
 10
3.954171
 20
-10.911606
 30
0.0
  0
VERTEX
  8
0
  6
CONTINUOUS
 62
    80
  5
3FE
 10
3.942332
 20
-10.900342
 30
0.0
  0
VERTEX
  8
0
  6
CONTINUOUS
 62
    80
  5
3FF
 10
3.930349
 20
-10.889227
 30
0.0
  0
VERTEX
  8
0
  6
CONTINUOUS
 62
    80
  5
400
 10
3.918229
 20
-10.878262
 30
0.0
  0
VERTEX
  8
0
  6
CONTINUOUS
 62
    80
  5
401
 10
3.905975
 20
-10.867445
 30
0.0
  0
VERTEX
  8
0
  6
CONTINUOUS
 62
    80
  5
402
 10
3.893593
 20
-10.856778
 30
0.0
  0
VERTEX
  8
0
  6
CONTINUOUS
 62
    80
  5
403
 10
3.881088
 20
-10.846261
 30
0.0
  0
VERTEX
  8
0
  6
CONTINUOUS
 62
    80
  5
404
 10
3.868464
 20
-10.835894
 30
0.0
  0
VERTEX
  8
0
  6
CONTINUOUS
 62
    80
  5
405
 10
3.855726
 20
-10.825678
 30
0.0
  0
VERTEX
  8
0
  6
CONTINUOUS
 62
    80
  5
406
 10
3.842879
 20
-10.815612
 30
0.0
  0
VERTEX
  8
0
  6
CONTINUOUS
 62
    80
  5
407
 10
3.829929
 20
-10.805698
 30
0.0
  0
VERTEX
  8
0
  6
CONTINUOUS
 62
    80
  5
408
 10
3.81521
 20
-10.794702
 30
0.0
  0
VERTEX
  8
0
  6
CONTINUOUS
 62
    80
  5
409
 10
3.800352
 20
-10.783884
 30
0.0
  0
VERTEX
  8
0
  6
CONTINUOUS
 62
    80
  5
40A
 10
3.785359
 20
-10.773243
 30
0.0
  0
VERTEX
  8
0
  6
CONTINUOUS
 62
    80
  5
40B
 10
3.770235
 20
-10.762779
 30
0.0
  0
VERTEX
  8
0
  6
CONTINUOUS
 62
    80
  5
40C
 10
3.754984
 20
-10.752491
 30
0.0
  0
VERTEX
  8
0
  6
CONTINUOUS
 62
    80
  5
40D
 10
3.739612
 20
-10.742378
 30
0.0
  0
VERTEX
  8
0
  6
CONTINUOUS
 62
    80
  5
40E
 10
3.724122
 20
-10.732442
 30
0.0
  0
VERTEX
  8
0
  6
CONTINUOUS
 62
    80
  5
40F
 10
3.708518
 20
-10.72268
 30
0.0
  0
VERTEX
  8
0
  6
CONTINUOUS
 62
    80
  5
410
 10
3.692806
 20
-10.713094
 30
0.0
  0
VERTEX
  8
0
  6
CONTINUOUS
 62
    80
  5
411
 10
3.676988
 20
-10.703681
 30
0.0
  0
VERTEX
  8
0
  6
CONTINUOUS
 62
    80
  5
412
 10
3.661071
 20
-10.694443
 30
0.0
  0
VERTEX
  8
0
  6
CONTINUOUS
 62
    80
  5
413
 10
3.645057
 20
-10.685378
 30
0.0
  0
VERTEX
  8
0
  6
CONTINUOUS
 62
    80
  5
414
 10
3.628951
 20
-10.676486
 30
0.0
  0
VERTEX
  8
0
  6
CONTINUOUS
 62
    80
  5
415
 10
3.612758
 20
-10.667767
 30
0.0
  0
VERTEX
  8
0
  6
CONTINUOUS
 62
    80
  5
416
 10
3.596482
 20
-10.65922
 30
0.0
  0
VERTEX
  8
0
  6
CONTINUOUS
 62
    80
  5
417
 10
3.580128
 20
-10.650846
 30
0.0
  0
VERTEX
  8
0
  6
CONTINUOUS
 62
    80
  5
418
 10
3.56214
 20
-10.641875
 30
0.0
  0
VERTEX
  8
0
  6
CONTINUOUS
 62
    80
  5
419
 10
3.544049
 20
-10.6331
 30
0.0
  0
VERTEX
  8
0
  6
CONTINUOUS
 62
    80
  5
41A
 10
3.525858
 20
-10.624519
 30
0.0
  0
VERTEX
  8
0
  6
CONTINUOUS
 62
    80
  5
41B
 10
3.507572
 20
-10.616133
 30
0.0
  0
VERTEX
  8
0
  6
CONTINUOUS
 62
    80
  5
41C
 10
3.489192
 20
-10.60794
 30
0.0
  0
VERTEX
  8
0
  6
CONTINUOUS
 62
    80
  5
41D
 10
3.470724
 20
-10.59994
 30
0.0
  0
VERTEX
  8
0
  6
CONTINUOUS
 62
    80
  5
41E
 10
3.452171
 20
-10.592132
 30
0.0
  0
VERTEX
  8
0
  6
CONTINUOUS
 62
    80
  5
41F
 10
3.433537
 20
-10.584516
 30
0.0
  0
VERTEX
  8
0
  6
CONTINUOUS
 62
    80
  5
420
 10
3.414825
 20
-10.577092
 30
0.0
  0
VERTEX
  8
0
  6
CONTINUOUS
 62
    80
  5
421
 10
3.396039
 20
-10.569857
 30
0.0
  0
VERTEX
  8
0
  6
CONTINUOUS
 62
    80
  5
422
 10
3.377183
 20
-10.562813
 30
0.0
  0
VERTEX
  8
0
  6
CONTINUOUS
 62
    80
  5
423
 10
3.358261
 20
-10.555958
 30
0.0
  0
VERTEX
  8
0
  6
CONTINUOUS
 62
    80
  5
424
 10
3.339275
 20
-10.549291
 30
0.0
  0
VERTEX
  8
0
  6
CONTINUOUS
 62
    80
  5
425
 10
3.32023
 20
-10.542812
 30
0.0
  0
VERTEX
  8
0
  6
CONTINUOUS
 62
    80
  5
426
 10
3.30113
 20
-10.536521
 30
0.0
  0
VERTEX
  8
0
  6
CONTINUOUS
 62
    80
  5
427
 10
3.281977
 20
-10.530417
 30
0.0
  0
VERTEX
  8
0
  6
CONTINUOUS
 62
    80
  5
428
 10
3.261593
 20
-10.52414
 30
0.0
  0
VERTEX
  8
0
  6
CONTINUOUS
 62
    80
  5
429
 10
3.241141
 20
-10.518067
 30
0.0
  0
VERTEX
  8
0
  6
CONTINUOUS
 62
    80
  5
42A
 10
3.220623
 20
-10.512198
 30
0.0
  0
VERTEX
  8
0
  6
CONTINUOUS
 62
    80
  5
42B
 10
3.200043
 20
-10.506531
 30
0.0
  0
VERTEX
  8
0
  6
CONTINUOUS
 62
    80
  5
42C
 10
3.179405
 20
-10.501066
 30
0.0
  0
VERTEX
  8
0
  6
CONTINUOUS
 62
    80
  5
42D
 10
3.158711
 20
-10.495803
 30
0.0
  0
VERTEX
  8
0
  6
CONTINUOUS
 62
    80
  5
42E
 10
3.137964
 20
-10.490741
 30
0.0
  0
VERTEX
  8
0
  6
CONTINUOUS
 62
    80
  5
42F
 10
3.117168
 20
-10.485881
 30
0.0
  0
VERTEX
  8
0
  6
CONTINUOUS
 62
    80
  5
430
 10
3.096326
 20
-10.48122
 30
0.0
  0
VERTEX
  8
0
  6
CONTINUOUS
 62
    80
  5
431
 10
3.075441
 20
-10.476759
 30
0.0
  0
VERTEX
  8
0
  6
CONTINUOUS
 62
    80
  5
432
 10
3.054516
 20
-10.472497
 30
0.0
  0
VERTEX
  8
0
  6
CONTINUOUS
 62
    80
  5
433
 10
3.033554
 20
-10.468435
 30
0.0
  0
VERTEX
  8
0
  6
CONTINUOUS
 62
    80
  5
434
 10
3.012559
 20
-10.46457
 30
0.0
  0
VERTEX
  8
0
  6
CONTINUOUS
 62
    80
  5
435
 10
2.991533
 20
-10.460903
 30
0.0
  0
VERTEX
  8
0
  6
CONTINUOUS
 62
    80
  5
436
 10
2.97048
 20
-10.457434
 30
0.0
  0
VERTEX
  8
0
  6
CONTINUOUS
 62
    80
  5
437
 10
2.949404
 20
-10.454161
 30
0.0
  0
VERTEX
  8
0
  6
CONTINUOUS
 62
    80
  5
438
 10
2.927669
 20
-10.450995
 30
0.0
  0
VERTEX
  8
0
  6
CONTINUOUS
 62
    80
  5
439
 10
2.905899
 20
-10.448035
 30
0.0
  0
VERTEX
  8
0
  6
CONTINUOUS
 62
    80
  5
43A
 10
2.884096
 20
-10.44528
 30
0.0
  0
VERTEX
  8
0
  6
CONTINUOUS
 62
    80
  5
43B
 10
2.862264
 20
-10.44273
 30
0.0
  0
VERTEX
  8
0
  6
CONTINUOUS
 62
    80
  5
43C
 10
2.840405
 20
-10.440386
 30
0.0
  0
VERTEX
  8
0
  6
CONTINUOUS
 62
    80
  5
43D
 10
2.818521
 20
-10.438246
 30
0.0
  0
VERTEX
  8
0
  6
CONTINUOUS
 62
    80
  5
43E
 10
2.796617
 20
-10.43631
 30
0.0
  0
VERTEX
  8
0
  6
CONTINUOUS
 62
    80
  5
43F
 10
2.774695
 20
-10.43458
 30
0.0
  0
VERTEX
  8
0
  6
CONTINUOUS
 62
    80
  5
440
 10
2.752757
 20
-10.433053
 30
0.0
  0
VERTEX
  8
0
  6
CONTINUOUS
 62
    80
  5
441
 10
2.730807
 20
-10.431731
 30
0.0
  0
VERTEX
  8
0
  6
CONTINUOUS
 62
    80
  5
442
 10
2.708847
 20
-10.430612
 30
0.0
  0
VERTEX
  8
0
  6
CONTINUOUS
 62
    80
  5
443
 10
2.686881
 20
-10.429698
 30
0.0
  0
VERTEX
  8
0
  6
CONTINUOUS
 62
    80
  5
444
 10
2.66491
 20
-10.428987
 30
0.0
  0
VERTEX
  8
0
  6
CONTINUOUS
 62
    80
  5
445
 10
2.64294
 20
-10.428479
 30
0.0
  0
VERTEX
  8
0
  6
CONTINUOUS
 62
    80
  5
446
 10
2.620971
 20
-10.428175
 30
0.0
  0
VERTEX
  8
0
  6
CONTINUOUS
 62
    80
  5
447
 10
2.599007
 20
-10.428073
 30
0.0
  0
VERTEX
  8
0
  6
CONTINUOUS
 62
    80
  5
448
 10
2.577043
 20
-10.428175
 30
0.0
  0
VERTEX
  8
0
  6
CONTINUOUS
 62
    80
  5
449
 10
2.555074
 20
-10.428479
 30
0.0
  0
VERTEX
  8
0
  6
CONTINUOUS
 62
    80
  5
44A
 10
2.533103
 20
-10.428987
 30
0.0
  0
VERTEX
  8
0
  6
CONTINUOUS
 62
    80
  5
44B
 10
2.511133
 20
-10.429698
 30
0.0
  0
VERTEX
  8
0
  6
CONTINUOUS
 62
    80
  5
44C
 10
2.489167
 20
-10.430612
 30
0.0
  0
VERTEX
  8
0
  6
CONTINUOUS
 62
    80
  5
44D
 10
2.467207
 20
-10.431731
 30
0.0
  0
VERTEX
  8
0
  6
CONTINUOUS
 62
    80
  5
44E
 10
2.445257
 20
-10.433053
 30
0.0
  0
VERTEX
  8
0
  6
CONTINUOUS
 62
    80
  5
44F
 10
2.423319
 20
-10.43458
 30
0.0
  0
VERTEX
  8
0
  6
CONTINUOUS
 62
    80
  5
450
 10
2.401397
 20
-10.43631
 30
0.0
  0
VERTEX
  8
0
  6
CONTINUOUS
 62
    80
  5
451
 10
2.379492
 20
-10.438246
 30
0.0
  0
VERTEX
  8
0
  6
CONTINUOUS
 62
    80
  5
452
 10
2.357609
 20
-10.440386
 30
0.0
  0
VERTEX
  8
0
  6
CONTINUOUS
 62
    80
  5
453
 10
2.33575
 20
-10.44273
 30
0.0
  0
VERTEX
  8
0
  6
CONTINUOUS
 62
    80
  5
454
 10
2.313917
 20
-10.44528
 30
0.0
  0
VERTEX
  8
0
  6
CONTINUOUS
 62
    80
  5
455
 10
2.292115
 20
-10.448035
 30
0.0
  0
VERTEX
  8
0
  6
CONTINUOUS
 62
    80
  5
456
 10
2.270345
 20
-10.450995
 30
0.0
  0
VERTEX
  8
0
  6
CONTINUOUS
 62
    80
  5
457
 10
2.24861
 20
-10.454161
 30
0.0
  0
VERTEX
  8
0
  6
CONTINUOUS
 62
    80
  5
458
 10
2.227533
 20
-10.457434
 30
0.0
  0
VERTEX
  8
0
  6
CONTINUOUS
 62
    80
  5
459
 10
2.206481
 20
-10.460903
 30
0.0
  0
VERTEX
  8
0
  6
CONTINUOUS
 62
    80
  5
45A
 10
2.185455
 20
-10.46457
 30
0.0
  0
VERTEX
  8
0
  6
CONTINUOUS
 62
    80
  5
45B
 10
2.16446
 20
-10.468435
 30
0.0
  0
VERTEX
  8
0
  6
CONTINUOUS
 62
    80
  5
45C
 10
2.143498
 20
-10.472497
 30
0.0
  0
VERTEX
  8
0
  6
CONTINUOUS
 62
    80
  5
45D
 10
2.122573
 20
-10.476759
 30
0.0
  0
VERTEX
  8
0
  6
CONTINUOUS
 62
    80
  5
45E
 10
2.101688
 20
-10.48122
 30
0.0
  0
VERTEX
  8
0
  6
CONTINUOUS
 62
    80
  5
45F
 10
2.080846
 20
-10.485881
 30
0.0
  0
VERTEX
  8
0
  6
CONTINUOUS
 62
    80
  5
460
 10
2.06005
 20
-10.490741
 30
0.0
  0
VERTEX
  8
0
  6
CONTINUOUS
 62
    80
  5
461
 10
2.039303
 20
-10.495803
 30
0.0
  0
VERTEX
  8
0
  6
CONTINUOUS
 62
    80
  5
462
 10
2.018609
 20
-10.501066
 30
0.0
  0
VERTEX
  8
0
  6
CONTINUOUS
 62
    80
  5
463
 10
1.997971
 20
-10.506531
 30
0.0
  0
VERTEX
  8
0
  6
CONTINUOUS
 62
    80
  5
464
 10
1.977391
 20
-10.512198
 30
0.0
  0
VERTEX
  8
0
  6
CONTINUOUS
 62
    80
  5
465
 10
1.956873
 20
-10.518067
 30
0.0
  0
VERTEX
  8
0
  6
CONTINUOUS
 62
    80
  5
466
 10
1.936421
 20
-10.52414
 30
0.0
  0
VERTEX
  8
0
  6
CONTINUOUS
 62
    80
  5
467
 10
1.916037
 20
-10.530417
 30
0.0
  0
VERTEX
  8
0
  6
CONTINUOUS
 62
    80
  5
468
 10
1.896884
 20
-10.536521
 30
0.0
  0
VERTEX
  8
0
  6
CONTINUOUS
 62
    80
  5
469
 10
1.877784
 20
-10.542812
 30
0.0
  0
VERTEX
  8
0
  6
CONTINUOUS
 62
    80
  5
46A
 10
1.858739
 20
-10.549291
 30
0.0
  0
VERTEX
  8
0
  6
CONTINUOUS
 62
    80
  5
46B
 10
1.839753
 20
-10.555958
 30
0.0
  0
VERTEX
  8
0
  6
CONTINUOUS
 62
    80
  5
46C
 10
1.82083
 20
-10.562813
 30
0.0
  0
VERTEX
  8
0
  6
CONTINUOUS
 62
    80
  5
46D
 10
1.801974
 20
-10.569857
 30
0.0
  0
VERTEX
  8
0
  6
CONTINUOUS
 62
    80
  5
46E
 10
1.783188
 20
-10.577092
 30
0.0
  0
VERTEX
  8
0
  6
CONTINUOUS
 62
    80
  5
46F
 10
1.764477
 20
-10.584516
 30
0.0
  0
VERTEX
  8
0
  6
CONTINUOUS
 62
    80
  5
470
 10
1.745842
 20
-10.592132
 30
0.0
  0
VERTEX
  8
0
  6
CONTINUOUS
 62
    80
  5
471
 10
1.727289
 20
-10.59994
 30
0.0
  0
VERTEX
  8
0
  6
CONTINUOUS
 62
    80
  5
472
 10
1.708821
 20
-10.60794
 30
0.0
  0
VERTEX
  8
0
  6
CONTINUOUS
 62
    80
  5
473
 10
1.690442
 20
-10.616133
 30
0.0
  0
VERTEX
  8
0
  6
CONTINUOUS
 62
    80
  5
474
 10
1.672155
 20
-10.624519
 30
0.0
  0
VERTEX
  8
0
  6
CONTINUOUS
 62
    80
  5
475
 10
1.653965
 20
-10.6331
 30
0.0
  0
VERTEX
  8
0
  6
CONTINUOUS
 62
    80
  5
476
 10
1.635874
 20
-10.641875
 30
0.0
  0
VERTEX
  8
0
  6
CONTINUOUS
 62
    80
  5
477
 10
1.617886
 20
-10.650846
 30
0.0
  0
VERTEX
  8
0
  6
CONTINUOUS
 62
    80
  5
478
 10
1.601531
 20
-10.65922
 30
0.0
  0
VERTEX
  8
0
  6
CONTINUOUS
 62
    80
  5
479
 10
1.585255
 20
-10.667767
 30
0.0
  0
VERTEX
  8
0
  6
CONTINUOUS
 62
    80
  5
47A
 10
1.569062
 20
-10.676486
 30
0.0
  0
VERTEX
  8
0
  6
CONTINUOUS
 62
    80
  5
47B
 10
1.552957
 20
-10.685378
 30
0.0
  0
VERTEX
  8
0
  6
CONTINUOUS
 62
    80
  5
47C
 10
1.536943
 20
-10.694443
 30
0.0
  0
VERTEX
  8
0
  6
CONTINUOUS
 62
    80
  5
47D
 10
1.521025
 20
-10.703681
 30
0.0
  0
VERTEX
  8
0
  6
CONTINUOUS
 62
    80
  5
47E
 10
1.505208
 20
-10.713094
 30
0.0
  0
VERTEX
  8
0
  6
CONTINUOUS
 62
    80
  5
47F
 10
1.489496
 20
-10.72268
 30
0.0
  0
VERTEX
  8
0
  6
CONTINUOUS
 62
    80
  5
480
 10
1.473892
 20
-10.732442
 30
0.0
  0
VERTEX
  8
0
  6
CONTINUOUS
 62
    80
  5
481
 10
1.458402
 20
-10.742378
 30
0.0
  0
VERTEX
  8
0
  6
CONTINUOUS
 62
    80
  5
482
 10
1.443029
 20
-10.752491
 30
0.0
  0
VERTEX
  8
0
  6
CONTINUOUS
 62
    80
  5
483
 10
1.427779
 20
-10.762779
 30
0.0
  0
VERTEX
  8
0
  6
CONTINUOUS
 62
    80
  5
484
 10
1.412655
 20
-10.773243
 30
0.0
  0
VERTEX
  8
0
  6
CONTINUOUS
 62
    80
  5
485
 10
1.397662
 20
-10.783884
 30
0.0
  0
VERTEX
  8
0
  6
CONTINUOUS
 62
    80
  5
486
 10
1.382804
 20
-10.794702
 30
0.0
  0
VERTEX
  8
0
  6
CONTINUOUS
 62
    80
  5
487
 10
1.368085
 20
-10.805698
 30
0.0
  0
VERTEX
  8
0
  6
CONTINUOUS
 62
    80
  5
488
 10
1.355135
 20
-10.815612
 30
0.0
  0
VERTEX
  8
0
  6
CONTINUOUS
 62
    80
  5
489
 10
1.342288
 20
-10.825678
 30
0.0
  0
VERTEX
  8
0
  6
CONTINUOUS
 62
    80
  5
48A
 10
1.32955
 20
-10.835894
 30
0.0
  0
VERTEX
  8
0
  6
CONTINUOUS
 62
    80
  5
48B
 10
1.316926
 20
-10.846261
 30
0.0
  0
VERTEX
  8
0
  6
CONTINUOUS
 62
    80
  5
48C
 10
1.304421
 20
-10.856778
 30
0.0
  0
VERTEX
  8
0
  6
CONTINUOUS
 62
    80
  5
48D
 10
1.292039
 20
-10.867445
 30
0.0
  0
VERTEX
  8
0
  6
CONTINUOUS
 62
    80
  5
48E
 10
1.279785
 20
-10.878262
 30
0.0
  0
VERTEX
  8
0
  6
CONTINUOUS
 62
    80
  5
48F
 10
1.267665
 20
-10.889227
 30
0.0
  0
VERTEX
  8
0
  6
CONTINUOUS
 62
    80
  5
490
 10
1.255682
 20
-10.900342
 30
0.0
  0
VERTEX
  8
0
  6
CONTINUOUS
 62
    80
  5
491
 10
1.243843
 20
-10.911606
 30
0.0
  0
VERTEX
  8
0
  6
CONTINUOUS
 62
    80
  5
492
 10
1.232151
 20
-10.923017
 30
0.0
  0
VERTEX
  8
0
  6
CONTINUOUS
 62
    80
  5
493
 10
1.220613
 20
-10.934577
 30
0.0
  0
VERTEX
  8
0
  6
CONTINUOUS
 62
    80
  5
494
 10
1.209232
 20
-10.946285
 30
0.0
  0
VERTEX
  8
0
  6
CONTINUOUS
 62
    80
  5
495
 10
1.198013
 20
-10.958139
 30
0.0
  0
VERTEX
  8
0
  6
CONTINUOUS
 62
    80
  5
496
 10
1.186962
 20
-10.970141
 30
0.0
  0
VERTEX
  8
0
  6
CONTINUOUS
 62
    80
  5
497
 10
1.176083
 20
-10.982289
 30
0.0
  0
VERTEX
  8
0
  6
CONTINUOUS
 62
    80
  5
498
 10
1.166769
 20
-10.99297
 30
0.0
  0
VERTEX
  8
0
  6
CONTINUOUS
 62
    80
  5
499
 10
1.157582
 20
-11.003775
 30
0.0
  0
VERTEX
  8
0
  6
CONTINUOUS
 62
    80
  5
49A
 10
1.148527
 20
-11.014703
 30
0.0
  0
VERTEX
  8
0
  6
CONTINUOUS
 62
    80
  5
49B
 10
1.139609
 20
-11.025751
 30
0.0
  0
VERTEX
  8
0
  6
CONTINUOUS
 62
    80
  5
49C
 10
1.130831
 20
-11.036919
 30
0.0
  0
VERTEX
  8
0
  6
CONTINUOUS
 62
    80
  5
49D
 10
1.122201
 20
-11.048204
 30
0.0
  0
VERTEX
  8
0
  6
CONTINUOUS
 62
    80
  5
49E
 10
1.113721
 20
-11.059606
 30
0.0
  0
VERTEX
  8
0
  6
CONTINUOUS
 62
    80
  5
49F
 10
1.105397
 20
-11.071122
 30
0.0
  0
VERTEX
  8
0
  6
CONTINUOUS
 62
    80
  5
4A0
 10
1.097234
 20
-11.082751
 30
0.0
  0
VERTEX
  8
0
  6
CONTINUOUS
 62
    80
  5
4A1
 10
1.089237
 20
-11.094491
 30
0.0
  0
VERTEX
  8
0
  6
CONTINUOUS
 62
    80
  5
4A2
 10
1.081411
 20
-11.106341
 30
0.0
  0
VERTEX
  8
0
  6
CONTINUOUS
 62
    80
  5
4A3
 10
1.07376
 20
-11.1183
 30
0.0
  0
VERTEX
  8
0
  6
CONTINUOUS
 62
    80
  5
4A4
 10
1.066289
 20
-11.130365
 30
0.0
  0
VERTEX
  8
0
  6
CONTINUOUS
 62
    80
  5
4A5
 10
1.059004
 20
-11.142535
 30
0.0
  0
VERTEX
  8
0
  6
CONTINUOUS
 62
    80
  5
4A6
 10
1.051909
 20
-11.154808
 30
0.0
  0
VERTEX
  8
0
  6
CONTINUOUS
 62
    80
  5
4A7
 10
1.045009
 20
-11.167183
 30
0.0
  0
VERTEX
  8
0
  6
CONTINUOUS
 62
    80
  5
4A8
 10
1.039159
 20
-11.178049
 30
0.0
  0
VERTEX
  8
0
  6
CONTINUOUS
 62
    80
  5
4A9
 10
1.033457
 20
-11.189007
 30
0.0
  0
VERTEX
  8
0
  6
CONTINUOUS
 62
    80
  5
4AA
 10
1.027907
 20
-11.200052
 30
0.0
  0
VERTEX
  8
0
  6
CONTINUOUS
 62
    80
  5
4AB
 10
1.022512
 20
-11.211183
 30
0.0
  0
VERTEX
  8
0
  6
CONTINUOUS
 62
    80
  5
4AC
 10
1.017276
 20
-11.222395
 30
0.0
  0
VERTEX
  8
0
  6
CONTINUOUS
 62
    80
  5
4AD
 10
1.012203
 20
-11.233686
 30
0.0
  0
VERTEX
  8
0
  6
CONTINUOUS
 62
    80
  5
4AE
 10
1.007297
 20
-11.245052
 30
0.0
  0
VERTEX
  8
0
  6
CONTINUOUS
 62
    80
  5
4AF
 10
1.002561
 20
-11.256491
 30
0.0
  0
VERTEX
  8
0
  6
CONTINUOUS
 62
    80
  5
4B0
 10
0.997999
 20
-11.268
 30
0.0
  0
VERTEX
  8
0
  6
CONTINUOUS
 62
    80
  5
4B1
 10
0.993615
 20
-11.279574
 30
0.0
  0
VERTEX
  8
0
  6
CONTINUOUS
 62
    80
  5
4B2
 10
0.989413
 20
-11.291212
 30
0.0
  0
VERTEX
  8
0
  6
CONTINUOUS
 62
    80
  5
4B3
 10
0.985396
 20
-11.302909
 30
0.0
  0
VERTEX
  8
0
  6
CONTINUOUS
 62
    80
  5
4B4
 10
0.981569
 20
-11.314664
 30
0.0
  0
VERTEX
  8
0
  6
CONTINUOUS
 62
    80
  5
4B5
 10
0.977934
 20
-11.326472
 30
0.0
  0
VERTEX
  8
0
  6
CONTINUOUS
 62
    80
  5
4B6
 10
0.974497
 20
-11.338331
 30
0.0
  0
VERTEX
  8
0
  6
CONTINUOUS
 62
    80
  5
4B7
 10
0.971259
 20
-11.350238
 30
0.0
  0
VERTEX
  8
0
  6
CONTINUOUS
 62
    80
  5
4B8
 10
0.968482
 20
-11.361153
 30
0.0
  0
VERTEX
  8
0
  6
CONTINUOUS
 62
    80
  5
4B9
 10
0.965873
 20
-11.372121
 30
0.0
  0
VERTEX
  8
0
  6
CONTINUOUS
 62
    80
  5
4BA
 10
0.963434
 20
-11.383137
 30
0.0
  0
VERTEX
  8
0
  6
CONTINUOUS
 62
    80
  5
4BB
 10
0.961166
 20
-11.394197
 30
0.0
  0
VERTEX
  8
0
  6
CONTINUOUS
 62
    80
  5
4BC
 10
0.959072
 20
-11.405296
 30
0.0
  0
VERTEX
  8
0
  6
CONTINUOUS
 62
    80
  5
4BD
 10
0.957153
 20
-11.416432
 30
0.0
  0
VERTEX
  8
0
  6
CONTINUOUS
 62
    80
  5
4BE
 10
0.955409
 20
-11.427599
 30
0.0
  0
VERTEX
  8
0
  6
CONTINUOUS
 62
    80
  5
4BF
 10
0.953843
 20
-11.438794
 30
0.0
  0
VERTEX
  8
0
  6
CONTINUOUS
 62
    80
  5
4C0
 10
0.952455
 20
-11.450011
 30
0.0
  0
VERTEX
  8
0
  6
CONTINUOUS
 62
    80
  5
4C1
 10
0.951248
 20
-11.461248
 30
0.0
  0
VERTEX
  8
0
  6
CONTINUOUS
 62
    80
  5
4C2
 10
0.950223
 20
-11.472499
 30
0.0
  0
VERTEX
  8
0
  6
CONTINUOUS
 62
    80
  5
4C3
 10
0.949381
 20
-11.483761
 30
0.0
  0
VERTEX
  8
0
  6
CONTINUOUS
 62
    80
  5
4C4
 10
0.948723
 20
-11.495029
 30
0.0
  0
VERTEX
  8
0
  6
CONTINUOUS
 62
    80
  5
4C5
 10
0.948252
 20
-11.506299
 30
0.0
  0
VERTEX
  8
0
  6
CONTINUOUS
 62
    80
  5
4C6
 10
0.947968
 20
-11.517567
 30
0.0
  0
VERTEX
  8
0
  6
CONTINUOUS
 62
    80
  5
4C7
 10
0.947873
 20
-11.528829
 30
0.0
  0
VERTEX
  8
0
  6
CONTINUOUS
 62
    80
  5
4C8
 10
0.947968
 20
-11.540091
 30
0.0
  0
VERTEX
  8
0
  6
CONTINUOUS
 62
    80
  5
4C9
 10
0.948252
 20
-11.551359
 30
0.0
  0
VERTEX
  8
0
  6
CONTINUOUS
 62
    80
  5
4CA
 10
0.948723
 20
-11.562629
 30
0.0
  0
VERTEX
  8
0
  6
CONTINUOUS
 62
    80
  5
4CB
 10
0.949381
 20
-11.573897
 30
0.0
  0
VERTEX
  8
0
  6
CONTINUOUS
 62
    80
  5
4CC
 10
0.950223
 20
-11.585159
 30
0.0
  0
VERTEX
  8
0
  6
CONTINUOUS
 62
    80
  5
4CD
 10
0.951248
 20
-11.59641
 30
0.0
  0
VERTEX
  8
0
  6
CONTINUOUS
 62
    80
  5
4CE
 10
0.952455
 20
-11.607647
 30
0.0
  0
VERTEX
  8
0
  6
CONTINUOUS
 62
    80
  5
4CF
 10
0.953843
 20
-11.618864
 30
0.0
  0
VERTEX
  8
0
  6
CONTINUOUS
 62
    80
  5
4D0
 10
0.955409
 20
-11.630059
 30
0.0
  0
VERTEX
  8
0
  6
CONTINUOUS
 62
    80
  5
4D1
 10
0.957153
 20
-11.641226
 30
0.0
  0
VERTEX
  8
0
  6
CONTINUOUS
 62
    80
  5
4D2
 10
0.959072
 20
-11.652362
 30
0.0
  0
VERTEX
  8
0
  6
CONTINUOUS
 62
    80
  5
4D3
 10
0.961166
 20
-11.663462
 30
0.0
  0
VERTEX
  8
0
  6
CONTINUOUS
 62
    80
  5
4D4
 10
0.963434
 20
-11.674522
 30
0.0
  0
VERTEX
  8
0
  6
CONTINUOUS
 62
    80
  5
4D5
 10
0.965873
 20
-11.685538
 30
0.0
  0
VERTEX
  8
0
  6
CONTINUOUS
 62
    80
  5
4D6
 10
0.968482
 20
-11.696505
 30
0.0
  0
VERTEX
  8
0
  6
CONTINUOUS
 62
    80
  5
4D7
 10
0.971259
 20
-11.70742
 30
0.0
  0
VERTEX
  8
0
  6
CONTINUOUS
 62
    80
  5
4D8
 10
0.974497
 20
-11.719327
 30
0.0
  0
VERTEX
  8
0
  6
CONTINUOUS
 62
    80
  5
4D9
 10
0.977934
 20
-11.731186
 30
0.0
  0
VERTEX
  8
0
  6
CONTINUOUS
 62
    80
  5
4DA
 10
0.981569
 20
-11.742994
 30
0.0
  0
VERTEX
  8
0
  6
CONTINUOUS
 62
    80
  5
4DB
 10
0.985396
 20
-11.754749
 30
0.0
  0
VERTEX
  8
0
  6
CONTINUOUS
 62
    80
  5
4DC
 10
0.989413
 20
-11.766446
 30
0.0
  0
VERTEX
  8
0
  6
CONTINUOUS
 62
    80
  5
4DD
 10
0.993615
 20
-11.778084
 30
0.0
  0
VERTEX
  8
0
  6
CONTINUOUS
 62
    80
  5
4DE
 10
0.997999
 20
-11.789659
 30
0.0
  0
VERTEX
  8
0
  6
CONTINUOUS
 62
    80
  5
4DF
 10
1.002561
 20
-11.801167
 30
0.0
  0
VERTEX
  8
0
  6
CONTINUOUS
 62
    80
  5
4E0
 10
1.007297
 20
-11.812606
 30
0.0
  0
VERTEX
  8
0
  6
CONTINUOUS
 62
    80
  5
4E1
 10
1.012203
 20
-11.823972
 30
0.0
  0
VERTEX
  8
0
  6
CONTINUOUS
 62
    80
  5
4E2
 10
1.017276
 20
-11.835263
 30
0.0
  0
VERTEX
  8
0
  6
CONTINUOUS
 62
    80
  5
4E3
 10
1.022512
 20
-11.846475
 30
0.0
  0
VERTEX
  8
0
  6
CONTINUOUS
 62
    80
  5
4E4
 10
1.027907
 20
-11.857606
 30
0.0
  0
VERTEX
  8
0
  6
CONTINUOUS
 62
    80
  5
4E5
 10
1.033457
 20
-11.868651
 30
0.0
  0
VERTEX
  8
0
  6
CONTINUOUS
 62
    80
  5
4E6
 10
1.039159
 20
-11.879609
 30
0.0
  0
VERTEX
  8
0
  6
CONTINUOUS
 62
    80
  5
4E7
 10
1.045009
 20
-11.890475
 30
0.0
  0
VERTEX
  8
0
  6
CONTINUOUS
 62
    80
  5
4E8
 10
1.051909
 20
-11.90285
 30
0.0
  0
VERTEX
  8
0
  6
CONTINUOUS
 62
    80
  5
4E9
 10
1.059004
 20
-11.915124
 30
0.0
  0
VERTEX
  8
0
  6
CONTINUOUS
 62
    80
  5
4EA
 10
1.066289
 20
-11.927294
 30
0.0
  0
VERTEX
  8
0
  6
CONTINUOUS
 62
    80
  5
4EB
 10
1.07376
 20
-11.939359
 30
0.0
  0
VERTEX
  8
0
  6
CONTINUOUS
 62
    80
  5
4EC
 10
1.081411
 20
-11.951317
 30
0.0
  0
VERTEX
  8
0
  6
CONTINUOUS
 62
    80
  5
4ED
 10
1.089237
 20
-11.963167
 30
0.0
  0
VERTEX
  8
0
  6
CONTINUOUS
 62
    80
  5
4EE
 10
1.097234
 20
-11.974907
 30
0.0
  0
VERTEX
  8
0
  6
CONTINUOUS
 62
    80
  5
4EF
 10
1.105397
 20
-11.986536
 30
0.0
  0
VERTEX
  8
0
  6
CONTINUOUS
 62
    80
  5
4F0
 10
1.113721
 20
-11.998052
 30
0.0
  0
VERTEX
  8
0
  6
CONTINUOUS
 62
    80
  5
4F1
 10
1.122201
 20
-12.009454
 30
0.0
  0
VERTEX
  8
0
  6
CONTINUOUS
 62
    80
  5
4F2
 10
1.130831
 20
-12.020739
 30
0.0
  0
VERTEX
  8
0
  6
CONTINUOUS
 62
    80
  5
4F3
 10
1.139609
 20
-12.031907
 30
0.0
  0
VERTEX
  8
0
  6
CONTINUOUS
 62
    80
  5
4F4
 10
1.148527
 20
-12.042955
 30
0.0
  0
VERTEX
  8
0
  6
CONTINUOUS
 62
    80
  5
4F5
 10
1.157582
 20
-12.053883
 30
0.0
  0
VERTEX
  8
0
  6
CONTINUOUS
 62
    80
  5
4F6
 10
1.166769
 20
-12.064688
 30
0.0
  0
VERTEX
  8
0
  6
CONTINUOUS
 62
    80
  5
4F7
 10
1.176083
 20
-12.075369
 30
0.0
  0
VERTEX
  8
0
  6
CONTINUOUS
 62
    80
  5
4F8
 10
1.186962
 20
-12.087517
 30
0.0
  0
VERTEX
  8
0
  6
CONTINUOUS
 62
    80
  5
4F9
 10
1.198013
 20
-12.099519
 30
0.0
  0
VERTEX
  8
0
  6
CONTINUOUS
 62
    80
  5
4FA
 10
1.209232
 20
-12.111374
 30
0.0
  0
VERTEX
  8
0
  6
CONTINUOUS
 62
    80
  5
4FB
 10
1.220613
 20
-12.123081
 30
0.0
  0
VERTEX
  8
0
  6
CONTINUOUS
 62
    80
  5
4FC
 10
1.232151
 20
-12.134641
 30
0.0
  0
VERTEX
  8
0
  6
CONTINUOUS
 62
    80
  5
4FD
 10
1.243843
 20
-12.146053
 30
0.0
  0
VERTEX
  8
0
  6
CONTINUOUS
 62
    80
  5
4FE
 10
1.255682
 20
-12.157316
 30
0.0
  0
VERTEX
  8
0
  6
CONTINUOUS
 62
    80
  5
4FF
 10
1.267665
 20
-12.168431
 30
0.0
  0
VERTEX
  8
0
  6
CONTINUOUS
 62
    80
  5
500
 10
1.279785
 20
-12.179397
 30
0.0
  0
VERTEX
  8
0
  6
CONTINUOUS
 62
    80
  5
501
 10
1.292039
 20
-12.190213
 30
0.0
  0
VERTEX
  8
0
  6
CONTINUOUS
 62
    80
  5
502
 10
1.304421
 20
-12.20088
 30
0.0
  0
VERTEX
  8
0
  6
CONTINUOUS
 62
    80
  5
503
 10
1.316926
 20
-12.211397
 30
0.0
  0
VERTEX
  8
0
  6
CONTINUOUS
 62
    80
  5
504
 10
1.32955
 20
-12.221764
 30
0.0
  0
VERTEX
  8
0
  6
CONTINUOUS
 62
    80
  5
505
 10
1.342288
 20
-12.231981
 30
0.0
  0
VERTEX
  8
0
  6
CONTINUOUS
 62
    80
  5
506
 10
1.355135
 20
-12.242046
 30
0.0
  0
VERTEX
  8
0
  6
CONTINUOUS
 62
    80
  5
507
 10
1.368085
 20
-12.25196
 30
0.0
  0
VERTEX
  8
0
  6
CONTINUOUS
 62
    80
  5
508
 10
1.382804
 20
-12.262956
 30
0.0
  0
VERTEX
  8
0
  6
CONTINUOUS
 62
    80
  5
509
 10
1.397662
 20
-12.273774
 30
0.0
  0
VERTEX
  8
0
  6
CONTINUOUS
 62
    80
  5
50A
 10
1.412655
 20
-12.284415
 30
0.0
  0
VERTEX
  8
0
  6
CONTINUOUS
 62
    80
  5
50B
 10
1.427779
 20
-12.29488
 30
0.0
  0
VERTEX
  8
0
  6
CONTINUOUS
 62
    80
  5
50C
 10
1.443029
 20
-12.305168
 30
0.0
  0
VERTEX
  8
0
  6
CONTINUOUS
 62
    80
  5
50D
 10
1.458402
 20
-12.31528
 30
0.0
  0
VERTEX
  8
0
  6
CONTINUOUS
 62
    80
  5
50E
 10
1.473892
 20
-12.325216
 30
0.0
  0
VERTEX
  8
0
  6
CONTINUOUS
 62
    80
  5
50F
 10
1.489496
 20
-12.334978
 30
0.0
  0
VERTEX
  8
0
  6
CONTINUOUS
 62
    80
  5
510
 10
1.505208
 20
-12.344565
 30
0.0
  0
VERTEX
  8
0
  6
CONTINUOUS
 62
    80
  5
511
 10
1.521025
 20
-12.353977
 30
0.0
  0
VERTEX
  8
0
  6
CONTINUOUS
 62
    80
  5
512
 10
1.536943
 20
-12.363215
 30
0.0
  0
VERTEX
  8
0
  6
CONTINUOUS
 62
    80
  5
513
 10
1.552957
 20
-12.37228
 30
0.0
  0
VERTEX
  8
0
  6
CONTINUOUS
 62
    80
  5
514
 10
1.569062
 20
-12.381172
 30
0.0
  0
VERTEX
  8
0
  6
CONTINUOUS
 62
    80
  5
515
 10
1.585255
 20
-12.389891
 30
0.0
  0
VERTEX
  8
0
  6
CONTINUOUS
 62
    80
  5
516
 10
1.601531
 20
-12.398438
 30
0.0
  0
VERTEX
  8
0
  6
CONTINUOUS
 62
    80
  5
517
 10
1.617886
 20
-12.406812
 30
0.0
  0
VERTEX
  8
0
  6
CONTINUOUS
 62
    80
  5
518
 10
1.635874
 20
-12.415783
 30
0.0
  0
VERTEX
  8
0
  6
CONTINUOUS
 62
    80
  5
519
 10
1.653965
 20
-12.424559
 30
0.0
  0
VERTEX
  8
0
  6
CONTINUOUS
 62
    80
  5
51A
 10
1.672155
 20
-12.433139
 30
0.0
  0
VERTEX
  8
0
  6
CONTINUOUS
 62
    80
  5
51B
 10
1.690442
 20
-12.441526
 30
0.0
  0
VERTEX
  8
0
  6
CONTINUOUS
 62
    80
  5
51C
 10
1.708821
 20
-12.449718
 30
0.0
  0
VERTEX
  8
0
  6
CONTINUOUS
 62
    80
  5
51D
 10
1.727289
 20
-12.457718
 30
0.0
  0
VERTEX
  8
0
  6
CONTINUOUS
 62
    80
  5
51E
 10
1.745842
 20
-12.465526
 30
0.0
  0
VERTEX
  8
0
  6
CONTINUOUS
 62
    80
  5
51F
 10
1.764477
 20
-12.473142
 30
0.0
  0
VERTEX
  8
0
  6
CONTINUOUS
 62
    80
  5
520
 10
1.783188
 20
-12.480567
 30
0.0
  0
VERTEX
  8
0
  6
CONTINUOUS
 62
    80
  5
521
 10
1.801974
 20
-12.487801
 30
0.0
  0
VERTEX
  8
0
  6
CONTINUOUS
 62
    80
  5
522
 10
1.82083
 20
-12.494846
 30
0.0
  0
VERTEX
  8
0
  6
CONTINUOUS
 62
    80
  5
523
 10
1.839753
 20
-12.501701
 30
0.0
  0
VERTEX
  8
0
  6
CONTINUOUS
 62
    80
  5
524
 10
1.858739
 20
-12.508367
 30
0.0
  0
VERTEX
  8
0
  6
CONTINUOUS
 62
    80
  5
525
 10
1.877784
 20
-12.514846
 30
0.0
  0
VERTEX
  8
0
  6
CONTINUOUS
 62
    80
  5
526
 10
1.896884
 20
-12.521137
 30
0.0
  0
VERTEX
  8
0
  6
CONTINUOUS
 62
    80
  5
527
 10
1.916037
 20
-12.527242
 30
0.0
  0
VERTEX
  8
0
  6
CONTINUOUS
 62
    80
  5
528
 10
1.936421
 20
-12.533518
 30
0.0
  0
VERTEX
  8
0
  6
CONTINUOUS
 62
    80
  5
529
 10
1.956873
 20
-12.539591
 30
0.0
  0
VERTEX
  8
0
  6
CONTINUOUS
 62
    80
  5
52A
 10
1.977391
 20
-12.545461
 30
0.0
  0
VERTEX
  8
0
  6
CONTINUOUS
 62
    80
  5
52B
 10
1.997971
 20
-12.551127
 30
0.0
  0
VERTEX
  8
0
  6
CONTINUOUS
 62
    80
  5
52C
 10
2.018609
 20
-12.556592
 30
0.0
  0
VERTEX
  8
0
  6
CONTINUOUS
 62
    80
  5
52D
 10
2.039303
 20
-12.561855
 30
0.0
  0
VERTEX
  8
0
  6
CONTINUOUS
 62
    80
  5
52E
 10
2.06005
 20
-12.566917
 30
0.0
  0
VERTEX
  8
0
  6
CONTINUOUS
 62
    80
  5
52F
 10
2.080846
 20
-12.571778
 30
0.0
  0
VERTEX
  8
0
  6
CONTINUOUS
 62
    80
  5
530
 10
2.101688
 20
-12.576438
 30
0.0
  0
VERTEX
  8
0
  6
CONTINUOUS
 62
    80
  5
531
 10
2.122573
 20
-12.580899
 30
0.0
  0
VERTEX
  8
0
  6
CONTINUOUS
 62
    80
  5
532
 10
2.143498
 20
-12.585161
 30
0.0
  0
VERTEX
  8
0
  6
CONTINUOUS
 62
    80
  5
533
 10
2.16446
 20
-12.589224
 30
0.0
  0
VERTEX
  8
0
  6
CONTINUOUS
 62
    80
  5
534
 10
2.185455
 20
-12.593088
 30
0.0
  0
VERTEX
  8
0
  6
CONTINUOUS
 62
    80
  5
535
 10
2.206481
 20
-12.596755
 30
0.0
  0
VERTEX
  8
0
  6
CONTINUOUS
 62
    80
  5
536
 10
2.227533
 20
-12.600224
 30
0.0
  0
VERTEX
  8
0
  6
CONTINUOUS
 62
    80
  5
537
 10
2.24861
 20
-12.603497
 30
0.0
  0
VERTEX
  8
0
  6
CONTINUOUS
 62
    80
  5
538
 10
2.270345
 20
-12.606663
 30
0.0
  0
VERTEX
  8
0
  6
CONTINUOUS
 62
    80
  5
539
 10
2.292115
 20
-12.609623
 30
0.0
  0
VERTEX
  8
0
  6
CONTINUOUS
 62
    80
  5
53A
 10
2.313917
 20
-12.612378
 30
0.0
  0
VERTEX
  8
0
  6
CONTINUOUS
 62
    80
  5
53B
 10
2.33575
 20
-12.614928
 30
0.0
  0
VERTEX
  8
0
  6
CONTINUOUS
 62
    80
  5
53C
 10
2.357609
 20
-12.617273
 30
0.0
  0
VERTEX
  8
0
  6
CONTINUOUS
 62
    80
  5
53D
 10
2.379492
 20
-12.619413
 30
0.0
  0
VERTEX
  8
0
  6
CONTINUOUS
 62
    80
  5
53E
 10
2.401397
 20
-12.621348
 30
0.0
  0
VERTEX
  8
0
  6
CONTINUOUS
 62
    80
  5
53F
 10
2.423319
 20
-12.623079
 30
0.0
  0
VERTEX
  8
0
  6
CONTINUOUS
 62
    80
  5
540
 10
2.445257
 20
-12.624605
 30
0.0
  0
VERTEX
  8
0
  6
CONTINUOUS
 62
    80
  5
541
 10
2.467207
 20
-12.625927
 30
0.0
  0
VERTEX
  8
0
  6
CONTINUOUS
 62
    80
  5
542
 10
2.489167
 20
-12.627046
 30
0.0
  0
VERTEX
  8
0
  6
CONTINUOUS
 62
    80
  5
543
 10
2.511133
 20
-12.627961
 30
0.0
  0
VERTEX
  8
0
  6
CONTINUOUS
 62
    80
  5
544
 10
2.533103
 20
-12.628672
 30
0.0
  0
VERTEX
  8
0
  6
CONTINUOUS
 62
    80
  5
545
 10
2.555074
 20
-12.629179
 30
0.0
  0
VERTEX
  8
0
  6
CONTINUOUS
 62
    80
  5
546
 10
2.577043
 20
-12.629484
 30
0.0
  0
VERTEX
  8
0
  6
CONTINUOUS
 62
    80
  5
547
 10
2.599007
 20
-12.629585
 30
0.0
  0
VERTEX
  8
0
  6
CONTINUOUS
 62
    80
  5
548
 10
2.620971
 20
-12.629484
 30
0.0
  0
VERTEX
  8
0
  6
CONTINUOUS
 62
    80
  5
549
 10
2.64294
 20
-12.629179
 30
0.0
  0
VERTEX
  8
0
  6
CONTINUOUS
 62
    80
  5
54A
 10
2.66491
 20
-12.628672
 30
0.0
  0
VERTEX
  8
0
  6
CONTINUOUS
 62
    80
  5
54B
 10
2.686881
 20
-12.627961
 30
0.0
  0
VERTEX
  8
0
  6
CONTINUOUS
 62
    80
  5
54C
 10
2.708847
 20
-12.627046
 30
0.0
  0
VERTEX
  8
0
  6
CONTINUOUS
 62
    80
  5
54D
 10
2.730807
 20
-12.625927
 30
0.0
  0
VERTEX
  8
0
  6
CONTINUOUS
 62
    80
  5
54E
 10
2.752757
 20
-12.624605
 30
0.0
  0
VERTEX
  8
0
  6
CONTINUOUS
 62
    80
  5
54F
 10
2.774695
 20
-12.623079
 30
0.0
  0
VERTEX
  8
0
  6
CONTINUOUS
 62
    80
  5
550
 10
2.796617
 20
-12.621348
 30
0.0
  0
VERTEX
  8
0
  6
CONTINUOUS
 62
    80
  5
551
 10
2.818521
 20
-12.619413
 30
0.0
  0
VERTEX
  8
0
  6
CONTINUOUS
 62
    80
  5
552
 10
2.840405
 20
-12.617273
 30
0.0
  0
VERTEX
  8
0
  6
CONTINUOUS
 62
    80
  5
553
 10
2.862264
 20
-12.614928
 30
0.0
  0
VERTEX
  8
0
  6
CONTINUOUS
 62
    80
  5
554
 10
2.884096
 20
-12.612378
 30
0.0
  0
VERTEX
  8
0
  6
CONTINUOUS
 62
    80
  5
555
 10
2.905899
 20
-12.609623
 30
0.0
  0
VERTEX
  8
0
  6
CONTINUOUS
 62
    80
  5
556
 10
2.927669
 20
-12.606663
 30
0.0
  0
VERTEX
  8
0
  6
CONTINUOUS
 62
    80
  5
557
 10
2.949404
 20
-12.603497
 30
0.0
  0
VERTEX
  8
0
  6
CONTINUOUS
 62
    80
  5
558
 10
2.97048
 20
-12.600224
 30
0.0
  0
VERTEX
  8
0
  6
CONTINUOUS
 62
    80
  5
559
 10
2.991533
 20
-12.596755
 30
0.0
  0
VERTEX
  8
0
  6
CONTINUOUS
 62
    80
  5
55A
 10
3.012559
 20
-12.593088
 30
0.0
  0
VERTEX
  8
0
  6
CONTINUOUS
 62
    80
  5
55B
 10
3.033554
 20
-12.589224
 30
0.0
  0
VERTEX
  8
0
  6
CONTINUOUS
 62
    80
  5
55C
 10
3.054516
 20
-12.585161
 30
0.0
  0
VERTEX
  8
0
  6
CONTINUOUS
 62
    80
  5
55D
 10
3.075441
 20
-12.580899
 30
0.0
  0
VERTEX
  8
0
  6
CONTINUOUS
 62
    80
  5
55E
 10
3.096326
 20
-12.576438
 30
0.0
  0
VERTEX
  8
0
  6
CONTINUOUS
 62
    80
  5
55F
 10
3.117168
 20
-12.571778
 30
0.0
  0
VERTEX
  8
0
  6
CONTINUOUS
 62
    80
  5
560
 10
3.137964
 20
-12.566917
 30
0.0
  0
VERTEX
  8
0
  6
CONTINUOUS
 62
    80
  5
561
 10
3.158711
 20
-12.561855
 30
0.0
  0
VERTEX
  8
0
  6
CONTINUOUS
 62
    80
  5
562
 10
3.179405
 20
-12.556592
 30
0.0
  0
VERTEX
  8
0
  6
CONTINUOUS
 62
    80
  5
563
 10
3.200043
 20
-12.551127
 30
0.0
  0
VERTEX
  8
0
  6
CONTINUOUS
 62
    80
  5
564
 10
3.220623
 20
-12.545461
 30
0.0
  0
VERTEX
  8
0
  6
CONTINUOUS
 62
    80
  5
565
 10
3.241141
 20
-12.539591
 30
0.0
  0
VERTEX
  8
0
  6
CONTINUOUS
 62
    80
  5
566
 10
3.261593
 20
-12.533518
 30
0.0
  0
VERTEX
  8
0
  6
CONTINUOUS
 62
    80
  5
567
 10
3.281977
 20
-12.527242
 30
0.0
  0
VERTEX
  8
0
  6
CONTINUOUS
 62
    80
  5
568
 10
3.30113
 20
-12.521137
 30
0.0
  0
VERTEX
  8
0
  6
CONTINUOUS
 62
    80
  5
569
 10
3.32023
 20
-12.514846
 30
0.0
  0
VERTEX
  8
0
  6
CONTINUOUS
 62
    80
  5
56A
 10
3.339275
 20
-12.508367
 30
0.0
  0
VERTEX
  8
0
  6
CONTINUOUS
 62
    80
  5
56B
 10
3.358261
 20
-12.501701
 30
0.0
  0
VERTEX
  8
0
  6
CONTINUOUS
 62
    80
  5
56C
 10
3.377183
 20
-12.494846
 30
0.0
  0
VERTEX
  8
0
  6
CONTINUOUS
 62
    80
  5
56D
 10
3.396039
 20
-12.487801
 30
0.0
  0
VERTEX
  8
0
  6
CONTINUOUS
 62
    80
  5
56E
 10
3.414825
 20
-12.480567
 30
0.0
  0
VERTEX
  8
0
  6
CONTINUOUS
 62
    80
  5
56F
 10
3.433537
 20
-12.473142
 30
0.0
  0
VERTEX
  8
0
  6
CONTINUOUS
 62
    80
  5
570
 10
3.452171
 20
-12.465526
 30
0.0
  0
VERTEX
  8
0
  6
CONTINUOUS
 62
    80
  5
571
 10
3.470724
 20
-12.457718
 30
0.0
  0
VERTEX
  8
0
  6
CONTINUOUS
 62
    80
  5
572
 10
3.489192
 20
-12.449718
 30
0.0
  0
VERTEX
  8
0
  6
CONTINUOUS
 62
    80
  5
573
 10
3.507572
 20
-12.441526
 30
0.0
  0
VERTEX
  8
0
  6
CONTINUOUS
 62
    80
  5
574
 10
3.525858
 20
-12.433139
 30
0.0
  0
VERTEX
  8
0
  6
CONTINUOUS
 62
    80
  5
575
 10
3.544049
 20
-12.424559
 30
0.0
  0
VERTEX
  8
0
  6
CONTINUOUS
 62
    80
  5
576
 10
3.56214
 20
-12.415783
 30
0.0
  0
VERTEX
  8
0
  6
CONTINUOUS
 62
    80
  5
577
 10
3.580128
 20
-12.406812
 30
0.0
  0
VERTEX
  8
0
  6
CONTINUOUS
 62
    80
  5
578
 10
3.596482
 20
-12.398438
 30
0.0
  0
VERTEX
  8
0
  6
CONTINUOUS
 62
    80
  5
579
 10
3.612758
 20
-12.389891
 30
0.0
  0
VERTEX
  8
0
  6
CONTINUOUS
 62
    80
  5
57A
 10
3.628951
 20
-12.381172
 30
0.0
  0
VERTEX
  8
0
  6
CONTINUOUS
 62
    80
  5
57B
 10
3.645057
 20
-12.37228
 30
0.0
  0
VERTEX
  8
0
  6
CONTINUOUS
 62
    80
  5
57C
 10
3.661071
 20
-12.363215
 30
0.0
  0
VERTEX
  8
0
  6
CONTINUOUS
 62
    80
  5
57D
 10
3.676988
 20
-12.353977
 30
0.0
  0
VERTEX
  8
0
  6
CONTINUOUS
 62
    80
  5
57E
 10
3.692806
 20
-12.344565
 30
0.0
  0
VERTEX
  8
0
  6
CONTINUOUS
 62
    80
  5
57F
 10
3.708518
 20
-12.334978
 30
0.0
  0
VERTEX
  8
0
  6
CONTINUOUS
 62
    80
  5
580
 10
3.724122
 20
-12.325216
 30
0.0
  0
VERTEX
  8
0
  6
CONTINUOUS
 62
    80
  5
581
 10
3.739612
 20
-12.31528
 30
0.0
  0
VERTEX
  8
0
  6
CONTINUOUS
 62
    80
  5
582
 10
3.754984
 20
-12.305168
 30
0.0
  0
VERTEX
  8
0
  6
CONTINUOUS
 62
    80
  5
583
 10
3.770235
 20
-12.29488
 30
0.0
  0
VERTEX
  8
0
  6
CONTINUOUS
 62
    80
  5
584
 10
3.785359
 20
-12.284415
 30
0.0
  0
VERTEX
  8
0
  6
CONTINUOUS
 62
    80
  5
585
 10
3.800352
 20
-12.273774
 30
0.0
  0
VERTEX
  8
0
  6
CONTINUOUS
 62
    80
  5
586
 10
3.81521
 20
-12.262956
 30
0.0
  0
VERTEX
  8
0
  6
CONTINUOUS
 62
    80
  5
587
 10
3.829929
 20
-12.25196
 30
0.0
  0
VERTEX
  8
0
  6
CONTINUOUS
 62
    80
  5
588
 10
3.842879
 20
-12.242046
 30
0.0
  0
VERTEX
  8
0
  6
CONTINUOUS
 62
    80
  5
589
 10
3.855726
 20
-12.231981
 30
0.0
  0
VERTEX
  8
0
  6
CONTINUOUS
 62
    80
  5
58A
 10
3.868464
 20
-12.221764
 30
0.0
  0
VERTEX
  8
0
  6
CONTINUOUS
 62
    80
  5
58B
 10
3.881088
 20
-12.211397
 30
0.0
  0
VERTEX
  8
0
  6
CONTINUOUS
 62
    80
  5
58C
 10
3.893593
 20
-12.20088
 30
0.0
  0
VERTEX
  8
0
  6
CONTINUOUS
 62
    80
  5
58D
 10
3.905975
 20
-12.190213
 30
0.0
  0
VERTEX
  8
0
  6
CONTINUOUS
 62
    80
  5
58E
 10
3.918229
 20
-12.179397
 30
0.0
  0
VERTEX
  8
0
  6
CONTINUOUS
 62
    80
  5
58F
 10
3.930349
 20
-12.168431
 30
0.0
  0
VERTEX
  8
0
  6
CONTINUOUS
 62
    80
  5
590
 10
3.942332
 20
-12.157316
 30
0.0
  0
VERTEX
  8
0
  6
CONTINUOUS
 62
    80
  5
591
 10
3.954171
 20
-12.146053
 30
0.0
  0
VERTEX
  8
0
  6
CONTINUOUS
 62
    80
  5
592
 10
3.965862
 20
-12.134641
 30
0.0
  0
VERTEX
  8
0
  6
CONTINUOUS
 62
    80
  5
593
 10
3.977401
 20
-12.123081
 30
0.0
  0
VERTEX
  8
0
  6
CONTINUOUS
 62
    80
  5
594
 10
3.988782
 20
-12.111374
 30
0.0
  0
VERTEX
  8
0
  6
CONTINUOUS
 62
    80
  5
595
 10
4.000001
 20
-12.099519
 30
0.0
  0
VERTEX
  8
0
  6
CONTINUOUS
 62
    80
  5
596
 10
4.011052
 20
-12.087517
 30
0.0
  0
VERTEX
  8
0
  6
CONTINUOUS
 62
    80
  5
597
 10
4.021931
 20
-12.075369
 30
0.0
  0
VERTEX
  8
0
  6
CONTINUOUS
 62
    80
  5
598
 10
4.031245
 20
-12.064688
 30
0.0
  0
VERTEX
  8
0
  6
CONTINUOUS
 62
    80
  5
599
 10
4.040431
 20
-12.053883
 30
0.0
  0
VERTEX
  8
0
  6
CONTINUOUS
 62
    80
  5
59A
 10
4.049487
 20
-12.042955
 30
0.0
  0
VERTEX
  8
0
  6
CONTINUOUS
 62
    80
  5
59B
 10
4.058405
 20
-12.031907
 30
0.0
  0
VERTEX
  8
0
  6
CONTINUOUS
 62
    80
  5
59C
 10
4.067182
 20
-12.020739
 30
0.0
  0
VERTEX
  8
0
  6
CONTINUOUS
 62
    80
  5
59D
 10
4.075813
 20
-12.009454
 30
0.0
  0
VERTEX
  8
0
  6
CONTINUOUS
 62
    80
  5
59E
 10
4.084293
 20
-11.998052
 30
0.0
  0
VERTEX
  8
0
  6
CONTINUOUS
 62
    80
  5
59F
 10
4.092617
 20
-11.986536
 30
0.0
  0
VERTEX
  8
0
  6
CONTINUOUS
 62
    80
  5
5A0
 10
4.100779
 20
-11.974907
 30
0.0
  0
VERTEX
  8
0
  6
CONTINUOUS
 62
    80
  5
5A1
 10
4.108777
 20
-11.963167
 30
0.0
  0
VERTEX
  8
0
  6
CONTINUOUS
 62
    80
  5
5A2
 10
4.116603
 20
-11.951317
 30
0.0
  0
VERTEX
  8
0
  6
CONTINUOUS
 62
    80
  5
5A3
 10
4.124254
 20
-11.939359
 30
0.0
  0
VERTEX
  8
0
  6
CONTINUOUS
 62
    80
  5
5A4
 10
4.131724
 20
-11.927294
 30
0.0
  0
VERTEX
  8
0
  6
CONTINUOUS
 62
    80
  5
5A5
 10
4.13901
 20
-11.915124
 30
0.0
  0
VERTEX
  8
0
  6
CONTINUOUS
 62
    80
  5
5A6
 10
4.146105
 20
-11.90285
 30
0.0
  0
VERTEX
  8
0
  6
CONTINUOUS
 62
    80
  5
5A7
 10
4.153005
 20
-11.890475
 30
0.0
  0
VERTEX
  8
0
  6
CONTINUOUS
 62
    80
  5
5A8
 10
4.158855
 20
-11.879609
 30
0.0
  0
VERTEX
  8
0
  6
CONTINUOUS
 62
    80
  5
5A9
 10
4.164557
 20
-11.868651
 30
0.0
  0
VERTEX
  8
0
  6
CONTINUOUS
 62
    80
  5
5AA
 10
4.170107
 20
-11.857606
 30
0.0
  0
VERTEX
  8
0
  6
CONTINUOUS
 62
    80
  5
5AB
 10
4.175502
 20
-11.846475
 30
0.0
  0
VERTEX
  8
0
  6
CONTINUOUS
 62
    80
  5
5AC
 10
4.180738
 20
-11.835263
 30
0.0
  0
VERTEX
  8
0
  6
CONTINUOUS
 62
    80
  5
5AD
 10
4.185811
 20
-11.823972
 30
0.0
  0
VERTEX
  8
0
  6
CONTINUOUS
 62
    80
  5
5AE
 10
4.190717
 20
-11.812606
 30
0.0
  0
VERTEX
  8
0
  6
CONTINUOUS
 62
    80
  5
5AF
 10
4.195453
 20
-11.801167
 30
0.0
  0
VERTEX
  8
0
  6
CONTINUOUS
 62
    80
  5
5B0
 10
4.200015
 20
-11.789659
 30
0.0
  0
VERTEX
  8
0
  6
CONTINUOUS
 62
    80
  5
5B1
 10
4.204399
 20
-11.778084
 30
0.0
  0
VERTEX
  8
0
  6
CONTINUOUS
 62
    80
  5
5B2
 10
4.208601
 20
-11.766446
 30
0.0
  0
VERTEX
  8
0
  6
CONTINUOUS
 62
    80
  5
5B3
 10
4.212618
 20
-11.754749
 30
0.0
  0
VERTEX
  8
0
  6
CONTINUOUS
 62
    80
  5
5B4
 10
4.216445
 20
-11.742994
 30
0.0
  0
VERTEX
  8
0
  6
CONTINUOUS
 62
    80
  5
5B5
 10
4.220079
 20
-11.731186
 30
0.0
  0
VERTEX
  8
0
  6
CONTINUOUS
 62
    80
  5
5B6
 10
4.223517
 20
-11.719327
 30
0.0
  0
VERTEX
  8
0
  6
CONTINUOUS
 62
    80
  5
5B7
 10
4.226754
 20
-11.70742
 30
0.0
  0
VERTEX
  8
0
  6
CONTINUOUS
 62
    80
  5
5B8
 10
4.229532
 20
-11.696505
 30
0.0
  0
VERTEX
  8
0
  6
CONTINUOUS
 62
    80
  5
5B9
 10
4.232141
 20
-11.685538
 30
0.0
  0
VERTEX
  8
0
  6
CONTINUOUS
 62
    80
  5
5BA
 10
4.23458
 20
-11.674522
 30
0.0
  0
VERTEX
  8
0
  6
CONTINUOUS
 62
    80
  5
5BB
 10
4.236847
 20
-11.663462
 30
0.0
  0
VERTEX
  8
0
  6
CONTINUOUS
 62
    80
  5
5BC
 10
4.238942
 20
-11.652362
 30
0.0
  0
VERTEX
  8
0
  6
CONTINUOUS
 62
    80
  5
5BD
 10
4.240861
 20
-11.641226
 30
0.0
  0
VERTEX
  8
0
  6
CONTINUOUS
 62
    80
  5
5BE
 10
4.242605
 20
-11.630059
 30
0.0
  0
VERTEX
  8
0
  6
CONTINUOUS
 62
    80
  5
5BF
 10
4.244171
 20
-11.618864
 30
0.0
  0
VERTEX
  8
0
  6
CONTINUOUS
 62
    80
  5
5C0
 10
4.245558
 20
-11.607647
 30
0.0
  0
VERTEX
  8
0
  6
CONTINUOUS
 62
    80
  5
5C1
 10
4.246766
 20
-11.59641
 30
0.0
  0
VERTEX
  8
0
  6
CONTINUOUS
 62
    80
  5
5C2
 10
4.247791
 20
-11.585159
 30
0.0
  0
VERTEX
  8
0
  6
CONTINUOUS
 62
    80
  5
5C3
 10
4.248633
 20
-11.573897
 30
0.0
  0
VERTEX
  8
0
  6
CONTINUOUS
 62
    80
  5
5C4
 10
4.249291
 20
-11.562629
 30
0.0
  0
VERTEX
  8
0
  6
CONTINUOUS
 62
    80
  5
5C5
 10
4.249762
 20
-11.551359
 30
0.0
  0
VERTEX
  8
0
  6
CONTINUOUS
 62
    80
  5
5C6
 10
4.250046
 20
-11.540091
 30
0.0
  0
VERTEX
  8
0
  6
CONTINUOUS
 62
    80
  5
5C7
 10
4.250141
 20
-11.528829
 30
0.0
  0
SEQEND
  8
0
  6
CONTINUOUS
 62
    80
  5
5C8
  0
POLYLINE
  8
0
  6
CONTINUOUS
 62
    80
  5
7F
 66
     1
 10
0.0
 20
0.0
 30
0.0
 70
     1
  0
VERTEX
  8
0
  6
CONTINUOUS
 62
    80
  5
5C9
 10
4.861672
 20
-11.528829
 30
0.0
  0
VERTEX
  8
0
  6
CONTINUOUS
 62
    80
  5
5CA
 10
4.853062
 20
-11.379593
 30
0.0
  0
VERTEX
  8
0
  6
CONTINUOUS
 62
    80
  5
5CB
 10
4.827297
 20
-11.231494
 30
0.0
  0
VERTEX
  8
0
  6
CONTINUOUS
 62
    80
  5
5CC
 10
4.784574
 20
-11.085657
 30
0.0
  0
VERTEX
  8
0
  6
CONTINUOUS
 62
    80
  5
5CD
 10
4.725217
 20
-10.943192
 30
0.0
  0
VERTEX
  8
0
  6
CONTINUOUS
 62
    80
  5
5CE
 10
4.649678
 20
-10.805185
 30
0.0
  0
VERTEX
  8
0
  6
CONTINUOUS
 62
    80
  5
5CF
 10
4.558532
 20
-10.672686
 30
0.0
  0
VERTEX
  8
0
  6
CONTINUOUS
 62
    80
  5
5D0
 10
4.452474
 20
-10.546702
 30
0.0
  0
VERTEX
  8
0
  6
CONTINUOUS
 62
    80
  5
5D1
 10
4.332309
 20
-10.428192
 30
0.0
  0
VERTEX
  8
0
  6
CONTINUOUS
 62
    80
  5
5D2
 10
4.198953
 20
-10.318059
 30
0.0
  0
VERTEX
  8
0
  6
CONTINUOUS
 62
    80
  5
5D3
 10
4.05342
 20
-10.217141
 30
0.0
  0
VERTEX
  8
0
  6
CONTINUOUS
 62
    80
  5
5D4
 10
3.896818
 20
-10.126206
 30
0.0
  0
VERTEX
  8
0
  6
CONTINUOUS
 62
    80
  5
5D5
 10
3.730339
 20
-10.045945
 30
0.0
  0
VERTEX
  8
0
  6
CONTINUOUS
 62
    80
  5
5D6
 10
3.55525
 20
-9.97697
 30
0.0
  0
VERTEX
  8
0
  6
CONTINUOUS
 62
    80
  5
5D7
 10
3.372884
 20
-9.919805
 30
0.0
  0
VERTEX
  8
0
  6
CONTINUOUS
 62
    80
  5
5D8
 10
3.184628
 20
-9.874887
 30
0.0
  0
VERTEX
  8
0
  6
CONTINUOUS
 62
    80
  5
5D9
 10
2.991915
 20
-9.842555
 30
0.0
  0
VERTEX
  8
0
  6
CONTINUOUS
 62
    80
  5
5DA
 10
2.796211
 20
-9.823058
 30
0.0
  0
VERTEX
  8
0
  6
CONTINUOUS
 62
    80
  5
5DB
 10
2.599007
 20
-9.816542
 30
0.0
  0
VERTEX
  8
0
  6
CONTINUOUS
 62
    80
  5
5DC
 10
2.401803
 20
-9.823058
 30
0.0
  0
VERTEX
  8
0
  6
CONTINUOUS
 62
    80
  5
5DD
 10
2.206099
 20
-9.842555
 30
0.0
  0
VERTEX
  8
0
  6
CONTINUOUS
 62
    80
  5
5DE
 10
2.013386
 20
-9.874887
 30
0.0
  0
VERTEX
  8
0
  6
CONTINUOUS
 62
    80
  5
5DF
 10
1.82513
 20
-9.919805
 30
0.0
  0
VERTEX
  8
0
  6
CONTINUOUS
 62
    80
  5
5E0
 10
1.642763
 20
-9.97697
 30
0.0
  0
VERTEX
  8
0
  6
CONTINUOUS
 62
    80
  5
5E1
 10
1.467674
 20
-10.045945
 30
0.0
  0
VERTEX
  8
0
  6
CONTINUOUS
 62
    80
  5
5E2
 10
1.301195
 20
-10.126206
 30
0.0
  0
VERTEX
  8
0
  6
CONTINUOUS
 62
    80
  5
5E3
 10
1.144594
 20
-10.217141
 30
0.0
  0
VERTEX
  8
0
  6
CONTINUOUS
 62
    80
  5
5E4
 10
0.999061
 20
-10.318059
 30
0.0
  0
VERTEX
  8
0
  6
CONTINUOUS
 62
    80
  5
5E5
 10
0.865705
 20
-10.428192
 30
0.0
  0
VERTEX
  8
0
  6
CONTINUOUS
 62
    80
  5
5E6
 10
0.74554
 20
-10.546702
 30
0.0
  0
VERTEX
  8
0
  6
CONTINUOUS
 62
    80
  5
5E7
 10
0.639481
 20
-10.672686
 30
0.0
  0
VERTEX
  8
0
  6
CONTINUOUS
 62
    80
  5
5E8
 10
0.548336
 20
-10.805185
 30
0.0
  0
VERTEX
  8
0
  6
CONTINUOUS
 62
    80
  5
5E9
 10
0.472797
 20
-10.943192
 30
0.0
  0
VERTEX
  8
0
  6
CONTINUOUS
 62
    80
  5
5EA
 10
0.41344
 20
-11.085657
 30
0.0
  0
VERTEX
  8
0
  6
CONTINUOUS
 62
    80
  5
5EB
 10
0.370717
 20
-11.231494
 30
0.0
  0
VERTEX
  8
0
  6
CONTINUOUS
 62
    80
  5
5EC
 10
0.344952
 20
-11.379593
 30
0.0
  0
VERTEX
  8
0
  6
CONTINUOUS
 62
    80
  5
5ED
 10
0.336342
 20
-11.528829
 30
0.0
  0
VERTEX
  8
0
  6
CONTINUOUS
 62
    80
  5
5EE
 10
0.344952
 20
-11.678065
 30
0.0
  0
VERTEX
  8
0
  6
CONTINUOUS
 62
    80
  5
5EF
 10
0.370717
 20
-11.826165
 30
0.0
  0
VERTEX
  8
0
  6
CONTINUOUS
 62
    80
  5
5F0
 10
0.41344
 20
-11.972002
 30
0.0
  0
VERTEX
  8
0
  6
CONTINUOUS
 62
    80
  5
5F1
 10
0.472797
 20
-12.114466
 30
0.0
  0
VERTEX
  8
0
  6
CONTINUOUS
 62
    80
  5
5F2
 10
0.548336
 20
-12.252473
 30
0.0
  0
VERTEX
  8
0
  6
CONTINUOUS
 62
    80
  5
5F3
 10
0.639481
 20
-12.384973
 30
0.0
  0
VERTEX
  8
0
  6
CONTINUOUS
 62
    80
  5
5F4
 10
0.74554
 20
-12.510957
 30
0.0
  0
VERTEX
  8
0
  6
CONTINUOUS
 62
    80
  5
5F5
 10
0.865705
 20
-12.629466
 30
0.0
  0
VERTEX
  8
0
  6
CONTINUOUS
 62
    80
  5
5F6
 10
0.999061
 20
-12.739599
 30
0.0
  0
VERTEX
  8
0
  6
CONTINUOUS
 62
    80
  5
5F7
 10
1.144594
 20
-12.840517
 30
0.0
  0
VERTEX
  8
0
  6
CONTINUOUS
 62
    80
  5
5F8
 10
1.301195
 20
-12.931453
 30
0.0
  0
VERTEX
  8
0
  6
CONTINUOUS
 62
    80
  5
5F9
 10
1.467674
 20
-13.011713
 30
0.0
  0
VERTEX
  8
0
  6
CONTINUOUS
 62
    80
  5
5FA
 10
1.642763
 20
-13.080688
 30
0.0
  0
VERTEX
  8
0
  6
CONTINUOUS
 62
    80
  5
5FB
 10
1.82513
 20
-13.137853
 30
0.0
  0
VERTEX
  8
0
  6
CONTINUOUS
 62
    80
  5
5FC
 10
2.013386
 20
-13.182772
 30
0.0
  0
VERTEX
  8
0
  6
CONTINUOUS
 62
    80
  5
5FD
 10
2.206099
 20
-13.215103
 30
0.0
  0
VERTEX
  8
0
  6
CONTINUOUS
 62
    80
  5
5FE
 10
2.401803
 20
-13.234601
 30
0.0
  0
VERTEX
  8
0
  6
CONTINUOUS
 62
    80
  5
5FF
 10
2.599007
 20
-13.241116
 30
0.0
  0
VERTEX
  8
0
  6
CONTINUOUS
 62
    80
  5
600
 10
2.796211
 20
-13.234601
 30
0.0
  0
VERTEX
  8
0
  6
CONTINUOUS
 62
    80
  5
601
 10
2.991915
 20
-13.215103
 30
0.0
  0
VERTEX
  8
0
  6
CONTINUOUS
 62
    80
  5
602
 10
3.184628
 20
-13.182772
 30
0.0
  0
VERTEX
  8
0
  6
CONTINUOUS
 62
    80
  5
603
 10
3.372884
 20
-13.137853
 30
0.0
  0
VERTEX
  8
0
  6
CONTINUOUS
 62
    80
  5
604
 10
3.55525
 20
-13.080688
 30
0.0
  0
VERTEX
  8
0
  6
CONTINUOUS
 62
    80
  5
605
 10
3.730339
 20
-13.011713
 30
0.0
  0
VERTEX
  8
0
  6
CONTINUOUS
 62
    80
  5
606
 10
3.896818
 20
-12.931453
 30
0.0
  0
VERTEX
  8
0
  6
CONTINUOUS
 62
    80
  5
607
 10
4.05342
 20
-12.840517
 30
0.0
  0
VERTEX
  8
0
  6
CONTINUOUS
 62
    80
  5
608
 10
4.198953
 20
-12.739599
 30
0.0
  0
VERTEX
  8
0
  6
CONTINUOUS
 62
    80
  5
609
 10
4.332309
 20
-12.629466
 30
0.0
  0
VERTEX
  8
0
  6
CONTINUOUS
 62
    80
  5
60A
 10
4.452474
 20
-12.510957
 30
0.0
  0
VERTEX
  8
0
  6
CONTINUOUS
 62
    80
  5
60B
 10
4.558532
 20
-12.384973
 30
0.0
  0
VERTEX
  8
0
  6
CONTINUOUS
 62
    80
  5
60C
 10
4.649678
 20
-12.252473
 30
0.0
  0
VERTEX
  8
0
  6
CONTINUOUS
 62
    80
  5
60D
 10
4.725217
 20
-12.114466
 30
0.0
  0
VERTEX
  8
0
  6
CONTINUOUS
 62
    80
  5
60E
 10
4.784574
 20
-11.972002
 30
0.0
  0
VERTEX
  8
0
  6
CONTINUOUS
 62
    80
  5
60F
 10
4.827297
 20
-11.826165
 30
0.0
  0
VERTEX
  8
0
  6
CONTINUOUS
 62
    80
  5
610
 10
4.853062
 20
-11.678065
 30
0.0
  0
VERTEX
  8
0
  6
CONTINUOUS
 62
    80
  5
611
 10
4.861672
 20
-11.528829
 30
0.0
  0
SEQEND
  8
0
  6
CONTINUOUS
 62
    80
  5
612
  0
CIRCLE
  8
0
  6
CONTINUOUS
 62
     3
  5
80
 10
0.0
 20
0.0
 30
0.0
 40
3.5
  0
ARC
  8
0
  6
CONTINUOUS
 62
    80
  5
81
 10
-0.886721
 20
-11.039603
 30
0.0
 40
0.305766
 50
269.999997
 51
90.000003
  0
CIRCLE
  8
0
  6
CONTINUOUS
 62
     3
  5
82
 10
0.0
 20
0.0
 30
0.0
 40
4.3
  0
ARC
  8
0
  6
CONTINUOUS
 62
    80
  5
83
 10
-0.886721
 20
-11.039603
 30
0.0
 40
1.039603
 50
286.927344
 51
90.000003
  0
ARC
  8
0
  6
CONTINUOUS
 62
    80
  5
84
 10
-4.066682
 20
-11.039603
 30
0.0
 40
1.039603
 50
286.927344
 51
90.000003
  0
ARC
  8
0
  6
CONTINUOUS
 62
    80
  5
85
 10
-4.066682
 20
-11.039603
 30
0.0
 40
0.305766
 50
269.999997
 51
90.000003
  0
CIRCLE
  8
0
  6
CONTINUOUS
 62
     3
  5
86
 10
0.0
 20
0.0
 30
0.0
 40
19.991194
  0
LINE
  8
0
  6
CONTINUOUS
 62
     3
  5
87
 10
2.545584
 20
-1.555635
 30
0.0
 11
0.989949
 21
0.0
 31
0.0
  0
LINE
  8
0
  6
CONTINUOUS
 62
     3
  5
88
 10
-2.545584
 20
-1.555635
 30
0.0
 11
-1.555635
 21
-2.545584
 31
0.0
  0
LINE
  8
0
  6
CONTINUOUS
 62
     3
  5
89
 10
-2.545584
 20
1.555635
 30
0.0
 11
-0.989949
 21
0.0
 31
0.0
  0
LINE
  8
0
  6
CONTINUOUS
 62
     3
  5
8A
 10
-1.555635
 20
2.545584
 30
0.0
 11
0.0
 21
0.989949
 31
0.0
  0
LINE
  8
0
  6
CONTINUOUS
 62
     3
  5
8B
 10
2.545584
 20
1.555635
 30
0.0
 11
0.989949
 21
0.0
 31
0.0
  0
LINE
  8
0
  6
CONTINUOUS
 62
     3
  5
8C
 10
1.555635
 20
2.545584
 30
0.0
 11
0.0
 21
0.989949
 31
0.0
  0
LINE
  8
0
  6
CONTINUOUS
 62
     3
  5
8D
 10
-2.545584
 20
-1.555635
 30
0.0
 11
-0.989949
 21
0.0
 31
0.0
  0
LINE
  8
0
  6
CONTINUOUS
 62
     3
  5
8E
 10
1.555635
 20
-2.545584
 30
0.0
 11
2.545584
 21
-1.555635
 31
0.0
  0
LINE
  8
0
  6
CONTINUOUS
 62
     3
  5
8F
 10
2.545584
 20
1.555635
 30
0.0
 11
1.555635
 21
2.545584
 31
0.0
  0
LINE
  8
0
  6
CONTINUOUS
 62
     3
  5
90
 10
-1.555635
 20
2.545584
 30
0.0
 11
-2.545584
 21
1.555635
 31
0.0
  0
LINE
  8
0
  6
CONTINUOUS
 62
     3
  5
91
 10
1.555635
 20
-2.545584
 30
0.0
 11
0.0
 21
-0.989949
 31
0.0
  0
LINE
  8
0
  6
CONTINUOUS
 62
     3
  5
92
 10
-1.555635
 20
-2.545584
 30
0.0
 11
0.0
 21
-0.989949
 31
0.0
  0
LINE
  8
0
  6
CONTINUOUS
 62
    80
  5
93
 10
-5.962429
 20
-10.0
 30
0.0
 11
-5.962429
 21
-10.733838
 31
0.0
  0
LINE
  8
0
  6
CONTINUOUS
 62
    80
  5
94
 10
-2.782467
 20
-11.345369
 30
0.0
 11
-2.782467
 21
-13.057657
 31
0.0
  0
LINE
  8
0
  6
CONTINUOUS
 62
    80
  5
95
 10
-5.228592
 20
-12.079207
 30
0.0
 11
-5.228592
 21
-13.057657
 31
0.0
  0
LINE
  8
0
  6
CONTINUOUS
 62
    80
  5
96
 10
-5.962429
 20
-10.733838
 30
0.0
 11
-4.066682
 21
-10.733838
 31
0.0
  0
LINE
  8
0
  6
CONTINUOUS
 62
    80
  5
97
 10
9.190779
 20
-10.0
 30
0.0
 11
9.998533
 21
-10.0
 31
0.0
  0
LINE
  8
0
  6
CONTINUOUS
 62
    80
  5
98
 10
-5.962429
 20
-11.345369
 30
0.0
 11
-4.066682
 21
-11.345369
 31
0.0
  0
LINE
  8
0
  6
CONTINUOUS
 62
    80
  5
99
 10
-5.228592
 20
-12.079207
 30
0.0
 11
-4.635822
 21
-12.079207
 31
0.0
  0
LINE
  8
0
  6
CONTINUOUS
 62
    80
  5
9A
 10
7.063184
 20
-10.0
 30
0.0
 11
7.552409
 21
-10.0
 31
0.0
  0
LINE
  8
0
  6
CONTINUOUS
 62
    80
  5
9B
 10
8.592012
 20
-13.057656
 30
0.0
 11
9.998533
 21
-10.000001
 31
0.0
  0
LINE
  8
0
  6
CONTINUOUS
 62
    80
  5
9C
 10
7.307796
 20
-11.224223
 30
0.0
 11
6.464417
 21
-13.057657
 31
0.0
  0
LINE
  8
0
  6
CONTINUOUS
 62
    80
  5
9D
 10
8.371594
 20
-11.780837
 30
0.0
 11
9.190778
 21
-10.000002
 31
0.0
  0
LINE
  8
0
  6
CONTINUOUS
 62
    80
  5
9E
 10
7.063184
 20
-10.0
 30
0.0
 11
6.243999
 21
-11.780838
 31
0.0
  0
LINE
  8
0
  6
CONTINUOUS
 62
    80
  5
9F
 10
-2.782467
 20
-10.0
 30
0.0
 11
-2.782467
 21
-10.733838
 31
0.0
  0
LINE
  8
0
  6
CONTINUOUS
 62
    80
  5
A0
 10
4.617059
 20
-10.0
 30
0.0
 11
6.023581
 21
-13.057657
 31
0.0
  0
LINE
  8
0
  6
CONTINUOUS
 62
    80
  5
A1
 10
5.424814
 20
-10.000001
 30
0.0
 11
6.243999
 21
-11.780838
 31
0.0
  0
LINE
  8
0
  6
CONTINUOUS
 62
    80
  5
A2
 10
-7.858175
 20
-10.0
 30
0.0
 11
-6.207041
 21
-13.057656
 31
0.0
  0
LINE
  8
0
  6
CONTINUOUS
 62
    80
  5
A3
 10
7.307796
 20
-11.224222
 30
0.0
 11
8.151175
 21
-13.057656
 31
0.0
  0
LINE
  8
0
  6
CONTINUOUS
 62
    80
  5
A4
 10
-8.347401
 20
-10.000001
 30
0.0
 11
-9.998535
 21
-13.057656
 31
0.0
  0
LINE
  8
0
  6
CONTINUOUS
 62
    80
  5
A5
 10
-8.347401
 20
-10.0
 30
0.0
 11
-7.858176
 21
-10.0
 31
0.0
  0
LINE
  8
0
  6
CONTINUOUS
 62
    80
  5
A6
 10
-9.998534
 20
-13.057657
 30
0.0
 11
-9.164539
 21
-13.057657
 31
0.0
  0
LINE
  8
0
  6
CONTINUOUS
 62
    80
  5
A7
 10
-5.962429
 20
-10.0
 30
0.0
 11
-4.066682
 21
-10.0
 31
0.0
  0
LINE
  8
0
  6
CONTINUOUS
 62
    80
  5
A8
 10
-5.962429
 20
-11.345369
 30
0.0
 11
-5.962429
 21
-13.057657
 31
0.0
  0
LINE
  8
0
  6
CONTINUOUS
 62
    80
  5
A9
 10
-5.962429
 20
-13.057657
 30
0.0
 11
-5.228592
 21
-13.057657
 31
0.0
  0
LINE
  8
0
  6
CONTINUOUS
 62
    80
  5
AA
 10
-3.931339
 20
-13.057657
 30
0.0
 11
-3.021447
 21
-13.057657
 31
0.0
  0
LINE
  8
0
  6
CONTINUOUS
 62
    80
  5
AB
 10
4.61706
 20
-10.0
 30
0.0
 11
5.424814
 21
-10.0
 31
0.0
  0
LINE
  8
0
  6
CONTINUOUS
 62
    80
  5
AC
 10
-2.782467
 20
-10.733838
 30
0.0
 11
-0.886721
 21
-10.733838
 31
0.0
  0
LINE
  8
0
  6
CONTINUOUS
 62
    80
  5
AD
 10
6.023581
 20
-13.057657
 30
0.0
 11
6.464417
 21
-13.057657
 31
0.0
  0
LINE
  8
0
  6
CONTINUOUS
 62
    80
  5
AE
 10
8.151176
 20
-13.057657
 30
0.0
 11
8.592012
 21
-13.057657
 31
0.0
  0
LINE
  8
0
  6
CONTINUOUS
 62
    80
  5
AF
 10
-0.751377
 20
-13.057657
 30
0.0
 11
0.152882
 21
-13.057657
 31
0.0
  0
LINE
  8
0
  6
CONTINUOUS
 62
    80
  5
B0
 10
-2.782467
 20
-13.057657
 30
0.0
 11
-2.04863
 21
-13.057657
 31
0.0
  0
LINE
  8
0
  6
CONTINUOUS
 62
    80
  5
B1
 10
-2.782467
 20
-11.345369
 30
0.0
 11
-0.886721
 21
-11.345369
 31
0.0
  0
LINE
  8
0
  6
CONTINUOUS
 62
    80
  5
B2
 10
-1.455861
 20
-12.079208
 30
0.0
 11
-0.751377
 21
-13.057657
 31
0.0
  0
LINE
  8
0
  6
CONTINUOUS
 62
    80
  5
B3
 10
-0.584031
 20
-12.034166
 30
0.0
 11
0.152883
 21
-13.057657
 31
0.0
  0
LINE
  8
0
  6
CONTINUOUS
 62
    80
  5
B4
 10
-2.04863
 20
-12.079207
 30
0.0
 11
-1.455861
 21
-12.079207
 31
0.0
  0
LINE
  8
0
  6
CONTINUOUS
 62
    80
  5
B5
 10
-2.782467
 20
-10.0
 30
0.0
 11
-0.886721
 21
-10.0
 31
0.0
  0
LINE
  8
0
  6
CONTINUOUS
 62
    80
  5
B6
 10
7.552409
 20
-10.0
 30
0.0
 11
8.371594
 21
-11.780837
 31
0.0
  0
LINE
  8
0
  6
CONTINUOUS
 62
    80
  5
B7
 10
-2.04863
 20
-12.079207
 30
0.0
 11
-2.04863
 21
-13.057657
 31
0.0
  0
LINE
  8
0
  6
CONTINUOUS
 62
    80
  5
B8
 10
-3.027079
 20
-13.057657
 30
0.0
 11
-3.763993
 21
-12.034166
 31
0.0
  0
LINE
  8
0
  6
CONTINUOUS
 62
    80
  5
B9
 10
-7.041036
 20
-13.057657
 30
0.0
 11
-6.207041
 21
-13.057657
 31
0.0
  0
LINE
  8
0
  6
CONTINUOUS
 62
    80
  5
BA
 10
-3.931338
 20
-13.057657
 30
0.0
 11
-4.635823
 21
-12.079206
 31
0.0
  0
LINE
  8
0
  6
CONTINUOUS
 62
    80
  5
BB
 10
-8.102788
 20
-11.09145
 30
0.0
 11
-7.041037
 21
-13.057656
 31
0.0
  0
LINE
  8
0
  6
CONTINUOUS
 62
    80
  5
BC
 10
-8.102789
 20
-11.091451
 30
0.0
 11
-9.16454
 21
-13.057656
 31
0.0
  0
ENDBLK
  8
0
  5
BD
  0
BLOCK
  8
0
  5
BE
  2
MS_3
 70
     0
 10
0.0
 20
0.0
 30
0.0
  3
MS_3
  0
ARC
  8
0
  6
CONTINUOUS
 62
     3
  5
BF
 10
-16.922369
 20
4.430078
 30
0.0
 40
3.0
 50
107.270525
 51
179.0
  0
ARC
  8
0
  6
CONTINUOUS
 62
     3
  5
C0
 10
-19.491194
 20
0.457144
 30
0.0
 40
0.5
 50
179.0
 51
261.966012
  0
ARC
  8
0
  6
CONTINUOUS
 62
     3
  5
C1
 10
16.922369
 20
4.430078
 30
0.0
 40
3.0
 50
1.0
 51
72.729475
  0
ARC
  8
0
  6
CONTINUOUS
 62
     3
  5
C2
 10
19.491194
 20
0.457144
 30
0.0
 40
0.5
 50
278.033988
 51
1.0
  0
ARC
  8
0
  6
CONTINUOUS
 62
     3
  5
C3
 10
0.0
 20
-50.0
 30
0.0
 40
60.0
 50
72.729475
 51
107.270525
  0
LINE
  8
0
  6
CONTINUOUS
 62
     3
  5
C4
 10
17.55
 20
0.0
 30
0.0
 11
-17.55
 21
0.0
 31
0.0
  0
LINE
  8
0
  6
CONTINUOUS
 62
     3
  5
C5
 10
19.508726
 20
-0.034281
 30
0.0
 11
17.544764
 21
0.0
 31
0.0
  0
LINE
  8
0
  6
CONTINUOUS
 62
     3
  5
C6
 10
-19.508726
 20
-0.034281
 30
0.0
 11
-17.544764
 21
0.0
 31
0.0
  0
LINE
  8
0
  6
CONTINUOUS
 62
     3
  5
C7
 10
-19.921912
 20
4.482435
 30
0.0
 11
-19.991117
 21
0.46587
 31
0.0
  0
LINE
  8
0
  6
CONTINUOUS
 62
     3
  5
C8
 10
19.921912
 20
4.482435
 30
0.0
 11
19.991117
 21
0.46587
 31
0.0
  0
ENDBLK
  8
0
  5
C9
  0
BLOCK
  8
0
  5
CA
  2
MS_4
 70
     0
 10
0.0
 20
0.0
 30
0.0
  3
MS_4
  0
POLYLINE
  8
0
  6
CONTINUOUS
 62
     3
  5
CB
 66
     1
 10
0.0
 20
0.0
 30
0.0
  0
VERTEX
  8
0
  6
CONTINUOUS
 62
     3
  5
613
 10
19.51696
 20
-0.042569
 30
0.0
  0
VERTEX
  8
0
  6
CONTINUOUS
 62
     3
  5
614
 10
19.617376
 20
-0.083318
 30
0.0
  0
VERTEX
  8
0
  6
CONTINUOUS
 62
     3
  5
615
 10
19.709763
 20
-0.136452
 30
0.0
  0
VERTEX
  8
0
  6
CONTINUOUS
 62
     3
  5
616
 10
19.7921
 20
-0.200811
 30
0.0
  0
VERTEX
  8
0
  6
CONTINUOUS
 62
     3
  5
617
 10
19.86259
 20
-0.274987
 30
0.0
  0
VERTEX
  8
0
  6
CONTINUOUS
 62
     3
  5
618
 10
19.919691
 20
-0.357359
 30
0.0
  0
VERTEX
  8
0
  6
CONTINUOUS
 62
     3
  5
619
 10
19.962155
 20
-0.446127
 30
0.0
  0
VERTEX
  8
0
  6
CONTINUOUS
 62
     3
  5
61A
 10
19.989054
 20
-0.539351
 30
0.0
  0
VERTEX
  8
0
  6
CONTINUOUS
 62
     3
  5
61B
 10
19.9998
 20
-0.634994
 30
0.0
  0
VERTEX
  8
0
  6
CONTINUOUS
 62
     3
  5
61C
 10
19.994159
 20
-0.730964
 30
0.0
  0
VERTEX
  8
0
  6
CONTINUOUS
 62
     3
  5
61D
 10
19.972253
 20
-0.825165
 30
0.0
  0
VERTEX
  8
0
  6
CONTINUOUS
 62
     3
  5
61E
 10
19.934561
 20
-0.915537
 30
0.0
  0
VERTEX
  8
0
  6
CONTINUOUS
 62
     3
  5
61F
 10
19.881908
 20
-1.000105
 30
0.0
  0
VERTEX
  8
0
  6
CONTINUOUS
 62
     3
  5
620
 10
19.881908
 20
-1.000105
 30
0.0
  0
SEQEND
  8
0
  6
CONTINUOUS
 62
     3
  5
621
  0
LINE
  8
0
  6
CONTINUOUS
 62
     3
  5
CC
 10
-19.508726
 20
-0.034281
 30
0.0
 11
-17.544764
 21
0.0
 31
0.0
  0
POLYLINE
  8
0
  6
CONTINUOUS
 62
     3
  5
CD
 66
     1
 10
0.0
 20
0.0
 30
0.0
  0
VERTEX
  8
0
  6
CONTINUOUS
 62
     3
  5
622
 10
-19.881908
 20
-1.000105
 30
0.0
  0
VERTEX
  8
0
  6
CONTINUOUS
 62
     3
  5
623
 10
-19.934561
 20
-0.915537
 30
0.0
  0
VERTEX
  8
0
  6
CONTINUOUS
 62
     3
  5
624
 10
-19.972253
 20
-0.825165
 30
0.0
  0
VERTEX
  8
0
  6
CONTINUOUS
 62
     3
  5
625
 10
-19.994159
 20
-0.730964
 30
0.0
  0
VERTEX
  8
0
  6
CONTINUOUS
 62
     3
  5
626
 10
-19.9998
 20
-0.634994
 30
0.0
  0
VERTEX
  8
0
  6
CONTINUOUS
 62
     3
  5
627
 10
-19.989054
 20
-0.539351
 30
0.0
  0
VERTEX
  8
0
  6
CONTINUOUS
 62
     3
  5
628
 10
-19.962155
 20
-0.446127
 30
0.0
  0
VERTEX
  8
0
  6
CONTINUOUS
 62
     3
  5
629
 10
-19.919691
 20
-0.357359
 30
0.0
  0
VERTEX
  8
0
  6
CONTINUOUS
 62
     3
  5
62A
 10
-19.86259
 20
-0.274987
 30
0.0
  0
VERTEX
  8
0
  6
CONTINUOUS
 62
     3
  5
62B
 10
-19.7921
 20
-0.200811
 30
0.0
  0
VERTEX
  8
0
  6
CONTINUOUS
 62
     3
  5
62C
 10
-19.709763
 20
-0.136452
 30
0.0
  0
VERTEX
  8
0
  6
CONTINUOUS
 62
     3
  5
62D
 10
-19.617376
 20
-0.083318
 30
0.0
  0
VERTEX
  8
0
  6
CONTINUOUS
 62
     3
  5
62E
 10
-19.51696
 20
-0.042569
 30
0.0
  0
VERTEX
  8
0
  6
CONTINUOUS
 62
     3
  5
62F
 10
-19.51696
 20
-0.042569
 30
0.0
  0
SEQEND
  8
0
  6
CONTINUOUS
 62
     3
  5
630
  0
ARC
  8
0
  6
CONTINUOUS
 62
     3
  5
CE
 10
-130.0
 20
-1.0
 30
0.0
 40
150.0
 50
352.325676
 51
359.999995
  0
ARC
  8
0
  6
CONTINUOUS
 62
     3
  5
CF
 10
13.014923
 20
-39.5
 30
0.0
 40
1.0
 50
270.000003
 51
358.999997
  0
ARC
  8
0
  6
CONTINUOUS
 62
     3
  5
D0
 10
-13.014954
 20
-39.5
 30
0.0
 40
1.0
 50
181.0
 51
270.000003
  0
ARC
  8
0
  6
CONTINUOUS
 62
     3
  5
D1
 10
-17.665428
 20
-20.897769
 30
0.0
 40
1.0
 50
187.674324
 51
236.841821
  0
ARC
  8
0
  6
CONTINUOUS
 62
     3
  5
D2
 10
17.665428
 20
-20.897769
 30
0.0
 40
1.0
 50
303.158179
 51
352.325676
  0
ARC
  8
0
  6
CONTINUOUS
 62
     3
  5
D3
 10
23.059998
 20
-29.154683
 30
0.0
 40
8.862961
 50
123.158179
 51
178.999983
  0
ARC
  8
0
  6
CONTINUOUS
 62
     3
  5
D4
 10
-23.059998
 20
-29.154683
 30
0.0
 40
8.862961
 50
1.000017
 51
56.841821
  0
ARC
  8
0
  6
CONTINUOUS
 62
     3
  5
D5
 10
130.0
 20
-1.0
 30
0.0
 40
150.0
 50
180.0
 51
187.674324
  0
LINE
  8
0
  6
CONTINUOUS
 62
     3
  5
D6
 10
-14.014804
 20
-39.517445
 30
0.0
 11
-14.198387
 21
-29.0
 31
0.0
  0
LINE
  8
0
  6
CONTINUOUS
 62
     3
  5
D7
 10
13.014923
 20
-40.5
 30
0.0
 11
-13.014954
 21
-40.5
 31
0.0
  0
LINE
  8
0
  6
CONTINUOUS
 62
     3
  5
D8
 10
14.014804
 20
-39.517445
 30
0.0
 11
14.198387
 21
-29.0
 31
0.0
  0
LINE
  8
0
  6
CONTINUOUS
 62
     3
  5
D9
 10
-18.463747
 20
-21.500004
 30
0.0
 11
18.463747
 21
-21.500004
 31
0.0
  0
LINE
  8
0
  6
CONTINUOUS
 62
     3
  5
DA
 10
20.0
 20
-1.0
 30
0.0
 11
-20.0
 21
-1.0
 31
0.0
  0
LINE
  8
0
  6
CONTINUOUS
 62
     3
  5
DB
 10
-17.55
 20
0.0
 30
0.0
 11
17.55
 21
0.0
 31
0.0
  0
LINE
  8
0
  6
CONTINUOUS
 62
     3
  5
DC
 10
19.508726
 20
-0.034281
 30
0.0
 11
17.544764
 21
0.0
 31
0.0
  0
ENDBLK
  8
0
  5
DD
  0
BLOCK
  8
0
  5
DE
  2
MS_5
 70
     0
 10
0.0
 20
0.0
 30
0.0
  3
MS_5
  0
LINE
  8
0
  6
CONTINUOUS
 62
     3
  5
DF
 10
-8.65
 20
-40.499997
 30
0.0
 11
8.65
 21
-40.499997
 31
0.0
  0
LINE
  8
0
  6
CONTINUOUS
 62
     3
  5
E0
 10
14.000015
 20
-295.5
 30
0.0
 11
14.000015
 21
-293.5
 31
0.0
  0
LINE
  8
0
  6
CONTINUOUS
 62
     3
  5
E1
 10
-13.999985
 20
-295.5
 30
0.0
 11
-13.999985
 21
-293.5
 31
0.0
  0
LINE
  8
0
  6
CONTINUOUS
 62
     3
  5
E2
 10
-14.999985
 20
-293.5
 30
0.0
 11
15.000015
 21
-293.5
 31
0.0
  0
ARC
  8
0
  6
CONTINUOUS
 62
     3
  5
E3
 10
0.000015
 20
-322.5
 30
0.0
 40
4.5
 50
153.6122
 51
26.3878
  0
ARC
  8
0
  6
CONTINUOUS
 62
     3
  5
E4
 10
7.000015
 20
-319.5
 30
0.0
 40
1.0
 50
270.0
 51
0.0
  0
ARC
  8
0
  6
CONTINUOUS
 62
     3
  5
E5
 10
-6.999985
 20
-319.5
 30
0.0
 40
1.0
 50
180.0
 51
270.0
  0
ARC
  8
0
  6
CONTINUOUS
 62
     3
  5
E6
 10
11.625015
 20
-306.253906
 30
0.0
 40
4.753906
 50
35.400856
 51
144.599144
  0
ARC
  8
0
  6
CONTINUOUS
 62
     3
  5
E7
 10
0.000015
 20
-317.515625
 30
0.0
 40
16.015625
 50
61.059412
 51
118.940588
  0
ARC
  8
0
  6
CONTINUOUS
 62
     3
  5
E8
 10
-11.624985
 20
-306.253906
 30
0.0
 40
4.753906
 50
35.400856
 51
144.599144
  0
ARC
  8
0
  6
CONTINUOUS
 62
     3
  5
E9
 10
-11.624985
 20
-307.746094
 30
0.0
 40
4.753906
 50
215.400856
 51
324.599144
  0
ARC
  8
0
  6
CONTINUOUS
 62
     3
  5
EA
 10
0.000015
 20
-296.484375
 30
0.0
 40
16.015625
 50
241.059412
 51
298.940588
  0
ARC
  8
0
  6
CONTINUOUS
 62
     3
  5
EB
 10
11.625015
 20
-307.746094
 30
0.0
 40
4.753906
 50
215.400856
 51
324.599144
  0
ARC
  8
0
  6
CONTINUOUS
 62
     3
  5
EC
 10
-11.624985
 20
-285.746094
 30
0.0
 40
4.753906
 50
215.400856
 51
324.599144
  0
ARC
  8
0
  6
CONTINUOUS
 62
     3
  5
ED
 10
0.000015
 20
-274.484375
 30
0.0
 40
16.015625
 50
241.059412
 51
298.940588
  0
ARC
  8
0
  6
CONTINUOUS
 62
     3
  5
EE
 10
11.625015
 20
-285.746094
 30
0.0
 40
4.753906
 50
215.400856
 51
324.599144
  0
ARC
  8
0
  6
CONTINUOUS
 62
     3
  5
EF
 10
11.625015
 20
-284.253906
 30
0.0
 40
4.753906
 50
35.400856
 51
144.599144
  0
ARC
  8
0
  6
CONTINUOUS
 62
     3
  5
F0
 10
-11.624985
 20
-284.253906
 30
0.0
 40
4.753906
 50
35.400856
 51
144.599144
  0
ARC
  8
0
  6
CONTINUOUS
 62
     3
  5
F1
 10
0.000015
 20
-295.515625
 30
0.0
 40
16.015625
 50
61.059412
 51
118.940588
  0
CIRCLE
  8
0
  6
CONTINUOUS
 62
     3
  5
F2
 10
0.000015
 20
-342.5
 30
0.0
 40
4.5
  0
ARC
  8
0
  6
CONTINUOUS
 62
     3
  5
F3
 10
0.000015
 20
-342.5
 30
0.0
 40
16.0
 50
180.0
 51
0.0
  0
LINE
  8
0
  6
CONTINUOUS
 62
     3
  5
F4
 10
-8.65
 20
-40.499997
 30
0.0
 11
-8.65
 21
-279.5
 31
0.0
  0
LINE
  8
0
  6
CONTINUOUS
 62
     3
  5
F5
 10
8.65
 20
-40.499997
 30
0.0
 11
8.65
 21
-279.5
 31
0.0
  0
LINE
  8
0
  6
CONTINUOUS
 62
     3
  5
F6
 10
-15.999985
 20
-295.5
 30
0.0
 11
16.000015
 21
-295.5
 31
0.0
  0
LINE
  8
0
  6
CONTINUOUS
 62
     3
  5
F7
 10
-15.999985
 20
-298.5
 30
0.0
 11
16.000015
 21
-298.5
 31
0.0
  0
LINE
  8
0
  6
CONTINUOUS
 62
     3
  5
F8
 10
8.000015
 20
-319.5
 30
0.0
 11
8.000015
 21
-318.5
 31
0.0
  0
LINE
  8
0
  6
CONTINUOUS
 62
     3
  5
F9
 10
8.000015
 20
-317.5
 30
0.0
 11
8.000015
 21
-316.5
 31
0.0
  0
LINE
  8
0
  6
CONTINUOUS
 62
     3
  5
FA
 10
-7.999985
 20
-317.5
 30
0.0
 11
-7.999985
 21
-316.5
 31
0.0
  0
LINE
  8
0
  6
CONTINUOUS
 62
     3
  5
FB
 10
8.000015
 20
-318.5
 30
0.0
 11
-7.999985
 21
-318.5
 31
0.0
  0
LINE
  8
0
  6
CONTINUOUS
 62
     3
  5
FC
 10
8.000015
 20
-318.5
 30
0.0
 11
9.100015
 21
-317.8
 31
0.0
  0
LINE
  8
0
  6
CONTINUOUS
 62
     3
  5
FD
 10
-7.999985
 20
-318.5
 30
0.0
 11
-9.099985
 21
-317.8
 31
0.0
  0
LINE
  8
0
  6
CONTINUOUS
 62
     3
  5
FE
 10
7.000015
 20
-320.5
 30
0.0
 11
-6.999985
 21
-320.5
 31
0.0
  0
LINE
  8
0
  6
CONTINUOUS
 62
     3
  5
FF
 10
-9.099985
 20
-317.8
 30
0.0
 11
-9.099985
 21
-317.5
 31
0.0
  0
LINE
  8
0
  6
CONTINUOUS
 62
     3
  5
100
 10
9.100015
 20
-317.8
 30
0.0
 11
-9.099985
 21
-317.8
 31
0.0
  0
LINE
  8
0
  6
CONTINUOUS
 62
     3
  5
101
 10
9.100015
 20
-317.8
 30
0.0
 11
9.100015
 21
-317.5
 31
0.0
  0
LINE
  8
0
  6
CONTINUOUS
 62
     3
  5
102
 10
-7.999985
 20
-319.5
 30
0.0
 11
-7.999985
 21
-318.5
 31
0.0
  0
LINE
  8
0
  6
CONTINUOUS
 62
     3
  5
103
 10
9.100015
 20
-317.5
 30
0.0
 11
-9.099985
 21
-317.5
 31
0.0
  0
LINE
  8
0
  6
CONTINUOUS
 62
     3
  5
104
 10
6.650015
 20
-316.5
 30
0.0
 11
8.650015
 21
-314.5
 31
0.0
  0
LINE
  8
0
  6
CONTINUOUS
 62
     3
  5
105
 10
-6.649985
 20
-316.5
 30
0.0
 11
-8.649985
 21
-314.5
 31
0.0
  0
LINE
  8
0
  6
CONTINUOUS
 62
     3
  5
106
 10
6.650015
 20
-312.5
 30
0.0
 11
6.650015
 21
-316.5
 31
0.0
  0
LINE
  8
0
  6
CONTINUOUS
 62
     3
  5
107
 10
-6.649985
 20
-312.5
 30
0.0
 11
-6.649985
 21
-316.5
 31
0.0
  0
LINE
  8
0
  6
CONTINUOUS
 62
     3
  5
108
 10
8.650015
 20
-312.5
 30
0.0
 11
8.650015
 21
-314.5
 31
0.0
  0
LINE
  8
0
  6
CONTINUOUS
 62
     3
  5
109
 10
-8.649985
 20
-312.5
 30
0.0
 11
-8.649985
 21
-314.5
 31
0.0
  0
LINE
  8
0
  6
CONTINUOUS
 62
     3
  5
10A
 10
-7.999985
 20
-316.5
 30
0.0
 11
8.000015
 21
-316.5
 31
0.0
  0
LINE
  8
0
  6
CONTINUOUS
 62
     3
  5
10B
 10
-8.649985
 20
-314.5
 30
0.0
 11
8.650015
 21
-314.5
 31
0.0
  0
LINE
  8
0
  6
CONTINUOUS
 62
     3
  5
10C
 10
-15.499985
 20
-303.405868
 30
0.0
 11
-13.594117
 21
-301.5
 31
0.0
  0
LINE
  8
0
  6
CONTINUOUS
 62
     3
  5
10D
 10
7.750015
 20
-310.5
 30
0.0
 11
7.750015
 21
-303.5
 31
0.0
  0
LINE
  8
0
  6
CONTINUOUS
 62
     3
  5
10E
 10
-13.594117
 20
-312.5
 30
0.0
 11
13.594148
 21
-312.5
 31
0.0
  0
LINE
  8
0
  6
CONTINUOUS
 62
     3
  5
10F
 10
15.500015
 20
-303.405868
 30
0.0
 11
13.594148
 21
-301.5
 31
0.0
  0
LINE
  8
0
  6
CONTINUOUS
 62
     3
  5
110
 10
15.500015
 20
-310.594132
 30
0.0
 11
13.594148
 21
-312.5
 31
0.0
  0
LINE
  8
0
  6
CONTINUOUS
 62
     3
  5
111
 10
-15.499985
 20
-310.594132
 30
0.0
 11
-13.594117
 21
-312.5
 31
0.0
  0
LINE
  8
0
  6
CONTINUOUS
 62
     3
  5
112
 10
15.500015
 20
-310.594132
 30
0.0
 11
15.500015
 21
-303.405868
 31
0.0
  0
LINE
  8
0
  6
CONTINUOUS
 62
     3
  5
113
 10
-15.499985
 20
-310.594132
 30
0.0
 11
-15.499985
 21
-303.405868
 31
0.0
  0
LINE
  8
0
  6
CONTINUOUS
 62
     3
  5
114
 10
-7.749985
 20
-310.5
 30
0.0
 11
-7.749985
 21
-303.5
 31
0.0
  0
LINE
  8
0
  6
CONTINUOUS
 62
     3
  5
115
 10
15.500015
 20
-288.594132
 30
0.0
 11
13.594148
 21
-290.5
 31
0.0
  0
LINE
  8
0
  6
CONTINUOUS
 62
     3
  5
116
 10
-15.499985
 20
-288.594132
 30
0.0
 11
-13.594117
 21
-290.5
 31
0.0
  0
LINE
  8
0
  6
CONTINUOUS
 62
     3
  5
117
 10
15.500015
 20
-281.405868
 30
0.0
 11
13.594148
 21
-279.5
 31
0.0
  0
LINE
  8
0
  6
CONTINUOUS
 62
     3
  5
118
 10
-15.499985
 20
-281.405868
 30
0.0
 11
-13.594117
 21
-279.5
 31
0.0
  0
LINE
  8
0
  6
CONTINUOUS
 62
     3
  5
119
 10
7.750015
 20
-281.5
 30
0.0
 11
7.750015
 21
-288.5
 31
0.0
  0
LINE
  8
0
  6
CONTINUOUS
 62
     3
  5
11A
 10
-7.749985
 20
-281.5
 30
0.0
 11
-7.749985
 21
-288.5
 31
0.0
  0
LINE
  8
0
  6
CONTINUOUS
 62
     3
  5
11B
 10
-13.594117
 20
-279.5
 30
0.0
 11
13.594148
 21
-279.5
 31
0.0
  0
LINE
  8
0
  6
CONTINUOUS
 62
     3
  5
11C
 10
-15.499985
 20
-281.405868
 30
0.0
 11
-15.499985
 21
-288.594132
 31
0.0
  0
LINE
  8
0
  6
CONTINUOUS
 62
     3
  5
11D
 10
15.500015
 20
-281.405868
 30
0.0
 11
15.500015
 21
-288.594132
 31
0.0
  0
LINE
  8
0
  6
CONTINUOUS
 62
     3
  5
11E
 10
15.000015
 20
-298.5
 30
0.0
 11
15.000015
 21
-301.5
 31
0.0
  0
LINE
  8
0
  6
CONTINUOUS
 62
     3
  5
11F
 10
-14.999985
 20
-298.5
 30
0.0
 11
-14.999985
 21
-301.5
 31
0.0
  0
LINE
  8
0
  6
CONTINUOUS
 62
     3
  5
120
 10
-14.999985
 20
-290.5
 30
0.0
 11
15.000015
 21
-290.5
 31
0.0
  0
LINE
  8
0
  6
CONTINUOUS
 62
     3
  5
121
 10
-14.999985
 20
-301.5
 30
0.0
 11
15.000015
 21
-301.5
 31
0.0
  0
LINE
  8
0
  6
CONTINUOUS
 62
     3
  5
122
 10
15.000015
 20
-290.5
 30
0.0
 11
15.000015
 21
-293.5
 31
0.0
  0
LINE
  8
0
  6
CONTINUOUS
 62
     3
  5
123
 10
-14.999985
 20
-290.5
 30
0.0
 11
-14.999985
 21
-293.5
 31
0.0
  0
LINE
  8
0
  6
CONTINUOUS
 62
     3
  5
124
 10
-15.999985
 20
-295.5
 30
0.0
 11
-15.999985
 21
-342.5
 31
0.0
  0
LINE
  8
0
  6
CONTINUOUS
 62
     3
  5
125
 10
16.000015
 20
-295.5
 30
0.0
 11
16.000015
 21
-342.5
 31
0.0
  0
ENDBLK
  8
0
  5
126
  0
BLOCK
  8
0
  5
127
  2
MS_6
 70
     0
 10
0.0
 20
0.0
 30
0.0
  3
MS_6
  0
LINE
  8
0
  6
CONTINUOUS
 62
     3
  5
128
 10
-8.65
 20
0.0
 30
0.0
 11
8.65
 21
0.0
 31
0.0
  0
POINT
  8
0
  6
CONTINUOUS
 62
    80
  5
129
 10
0.0
 20
0.0
 30
0.0
  0
LINE
  8
0
  6
CONTINUOUS
 62
     3
  5
12A
 10
-16.000015
 20
-255.000003
 30
0.0
 11
-16.000015
 21
-258.000003
 31
0.0
  0
LINE
  8
0
  6
CONTINUOUS
 62
     3
  5
12B
 10
35.999985
 20
-265.000003
 30
0.0
 11
35.999985
 21
-318.000003
 31
0.0
  0
LINE
  8
0
  6
CONTINUOUS
 62
     3
  5
12C
 10
35.999985
 20
-318.000003
 30
0.0
 11
32.999985
 21
-318.000003
 31
0.0
  0
LINE
  8
0
  6
CONTINUOUS
 62
     3
  5
12D
 10
32.999985
 20
-265.000003
 30
0.0
 11
32.999985
 21
-318.000003
 31
0.0
  0
LINE
  8
0
  6
CONTINUOUS
 62
     3
  5
12E
 10
14.999985
 20
-250.000003
 30
0.0
 11
14.999985
 21
-253.000003
 31
0.0
  0
LINE
  8
0
  6
CONTINUOUS
 62
     3
  5
12F
 10
-15.000015
 20
-250.000003
 30
0.0
 11
-15.000015
 21
-253.000003
 31
0.0
  0
LINE
  8
0
  6
CONTINUOUS
 62
     3
  5
130
 10
14.999985
 20
-261.000003
 30
0.0
 11
-15.000015
 21
-261.000003
 31
0.0
  0
LINE
  8
0
  6
CONTINUOUS
 62
     3
  5
131
 10
14.999985
 20
-250.000003
 30
0.0
 11
-15.000015
 21
-250.000003
 31
0.0
  0
LINE
  8
0
  6
CONTINUOUS
 62
     3
  5
132
 10
14.999985
 20
-258.000003
 30
0.0
 11
14.999985
 21
-261.000003
 31
0.0
  0
LINE
  8
0
  6
CONTINUOUS
 62
     3
  5
133
 10
-15.000015
 20
-258.000003
 30
0.0
 11
-15.000015
 21
-261.000003
 31
0.0
  0
LINE
  8
0
  6
CONTINUOUS
 62
     3
  5
134
 10
-15.500015
 20
-240.90587
 30
0.0
 11
-15.500015
 21
-248.094135
 31
0.0
  0
LINE
  8
0
  6
CONTINUOUS
 62
     3
  5
135
 10
15.499985
 20
-240.90587
 30
0.0
 11
15.499985
 21
-248.094135
 31
0.0
  0
LINE
  8
0
  6
CONTINUOUS
 62
     3
  5
136
 10
13.594117
 20
-239.000003
 30
0.0
 11
-13.594148
 21
-239.000003
 31
0.0
  0
LINE
  8
0
  6
CONTINUOUS
 62
     3
  5
137
 10
7.749985
 20
-241.000003
 30
0.0
 11
7.749985
 21
-248.000003
 31
0.0
  0
LINE
  8
0
  6
CONTINUOUS
 62
     3
  5
138
 10
-7.750015
 20
-241.000003
 30
0.0
 11
-7.750015
 21
-248.000003
 31
0.0
  0
LINE
  8
0
  6
CONTINUOUS
 62
     3
  5
139
 10
15.499985
 20
-240.90587
 30
0.0
 11
13.594117
 21
-239.000003
 31
0.0
  0
LINE
  8
0
  6
CONTINUOUS
 62
     3
  5
13A
 10
-15.500015
 20
-240.90587
 30
0.0
 11
-13.594148
 21
-239.000003
 31
0.0
  0
LINE
  8
0
  6
CONTINUOUS
 62
     3
  5
13B
 10
15.499985
 20
-248.094135
 30
0.0
 11
13.594117
 21
-250.000003
 31
0.0
  0
LINE
  8
0
  6
CONTINUOUS
 62
     3
  5
13C
 10
-15.500015
 20
-248.094135
 30
0.0
 11
-13.594148
 21
-250.000003
 31
0.0
  0
LINE
  8
0
  6
CONTINUOUS
 62
     3
  5
13D
 10
7.749985
 20
-270.000003
 30
0.0
 11
7.749985
 21
-263.000003
 31
0.0
  0
LINE
  8
0
  6
CONTINUOUS
 62
     3
  5
13E
 10
15.499985
 20
-270.094135
 30
0.0
 11
15.499985
 21
-262.90587
 31
0.0
  0
LINE
  8
0
  6
CONTINUOUS
 62
     3
  5
13F
 10
-15.500015
 20
-270.094135
 30
0.0
 11
-15.500015
 21
-262.90587
 31
0.0
  0
LINE
  8
0
  6
CONTINUOUS
 62
     3
  5
140
 10
15.499985
 20
-270.094135
 30
0.0
 11
13.594117
 21
-272.000003
 31
0.0
  0
LINE
  8
0
  6
CONTINUOUS
 62
     3
  5
141
 10
-15.500015
 20
-270.094135
 30
0.0
 11
-13.594148
 21
-272.000003
 31
0.0
  0
LINE
  8
0
  6
CONTINUOUS
 62
     3
  5
142
 10
-15.500015
 20
-262.90587
 30
0.0
 11
-13.594148
 21
-261.000003
 31
0.0
  0
LINE
  8
0
  6
CONTINUOUS
 62
     3
  5
143
 10
13.594117
 20
-272.000003
 30
0.0
 11
-13.594148
 21
-272.000003
 31
0.0
  0
LINE
  8
0
  6
CONTINUOUS
 62
     3
  5
144
 10
-7.750015
 20
-270.000003
 30
0.0
 11
-7.750015
 21
-263.000003
 31
0.0
  0
LINE
  8
0
  6
CONTINUOUS
 62
     3
  5
145
 10
15.499985
 20
-262.90587
 30
0.0
 11
13.594117
 21
-261.000003
 31
0.0
  0
LINE
  8
0
  6
CONTINUOUS
 62
     3
  5
146
 10
8.649985
 20
-274.000003
 30
0.0
 11
-8.650015
 21
-274.000003
 31
0.0
  0
LINE
  8
0
  6
CONTINUOUS
 62
     3
  5
147
 10
7.999985
 20
-276.000003
 30
0.0
 11
-8.000015
 21
-276.000003
 31
0.0
  0
LINE
  8
0
  6
CONTINUOUS
 62
     3
  5
148
 10
8.649985
 20
-272.000003
 30
0.0
 11
8.649985
 21
-274.000003
 31
0.0
  0
LINE
  8
0
  6
CONTINUOUS
 62
     3
  5
149
 10
-8.650015
 20
-272.000003
 30
0.0
 11
-8.650015
 21
-274.000003
 31
0.0
  0
LINE
  8
0
  6
CONTINUOUS
 62
     3
  5
14A
 10
6.649985
 20
-272.000003
 30
0.0
 11
6.649985
 21
-276.000003
 31
0.0
  0
LINE
  8
0
  6
CONTINUOUS
 62
     3
  5
14B
 10
-6.650015
 20
-272.000003
 30
0.0
 11
-6.650015
 21
-276.000003
 31
0.0
  0
LINE
  8
0
  6
CONTINUOUS
 62
     3
  5
14C
 10
6.649985
 20
-276.000003
 30
0.0
 11
8.649985
 21
-274.000003
 31
0.0
  0
LINE
  8
0
  6
CONTINUOUS
 62
     3
  5
14D
 10
-6.650015
 20
-276.000003
 30
0.0
 11
-8.650015
 21
-274.000003
 31
0.0
  0
LINE
  8
0
  6
CONTINUOUS
 62
     3
  5
14E
 10
-9.100015
 20
-277.000003
 30
0.0
 11
9.099985
 21
-277.000003
 31
0.0
  0
LINE
  8
0
  6
CONTINUOUS
 62
     3
  5
14F
 10
7.999985
 20
-279.000003
 30
0.0
 11
7.999985
 21
-278.000003
 31
0.0
  0
LINE
  8
0
  6
CONTINUOUS
 62
     3
  5
150
 10
-9.100015
 20
-277.300003
 30
0.0
 11
-9.100015
 21
-277.000003
 31
0.0
  0
LINE
  8
0
  6
CONTINUOUS
 62
     3
  5
151
 10
-9.100015
 20
-277.300003
 30
0.0
 11
9.099985
 21
-277.300003
 31
0.0
  0
LINE
  8
0
  6
CONTINUOUS
 62
     3
  5
152
 10
9.099985
 20
-277.300003
 30
0.0
 11
9.099985
 21
-277.000003
 31
0.0
  0
LINE
  8
0
  6
CONTINUOUS
 62
     3
  5
153
 10
-7.000015
 20
-280.000003
 30
0.0
 11
6.999985
 21
-280.000003
 31
0.0
  0
LINE
  8
0
  6
CONTINUOUS
 62
     3
  5
154
 10
7.999985
 20
-278.000003
 30
0.0
 11
9.099985
 21
-277.300003
 31
0.0
  0
LINE
  8
0
  6
CONTINUOUS
 62
     3
  5
155
 10
-8.000015
 20
-278.000003
 30
0.0
 11
-9.100015
 21
-277.300003
 31
0.0
  0
LINE
  8
0
  6
CONTINUOUS
 62
     3
  5
156
 10
-8.000015
 20
-278.000003
 30
0.0
 11
7.999985
 21
-278.000003
 31
0.0
  0
LINE
  8
0
  6
CONTINUOUS
 62
     3
  5
157
 10
7.999985
 20
-277.000003
 30
0.0
 11
7.999985
 21
-276.000003
 31
0.0
  0
LINE
  8
0
  6
CONTINUOUS
 62
     3
  5
158
 10
-8.000015
 20
-277.000003
 30
0.0
 11
-8.000015
 21
-276.000003
 31
0.0
  0
LINE
  8
0
  6
CONTINUOUS
 62
     3
  5
159
 10
-8.000015
 20
-279.000003
 30
0.0
 11
-8.000015
 21
-278.000003
 31
0.0
  0
LINE
  8
0
  6
CONTINUOUS
 62
     3
  5
15A
 10
25.999985
 20
-258.000003
 30
0.0
 11
-16.000015
 21
-258.000003
 31
0.0
  0
LINE
  8
0
  6
CONTINUOUS
 62
     3
  5
15B
 10
25.999985
 20
-255.000003
 30
0.0
 11
-16.000015
 21
-255.000003
 31
0.0
  0
ARC
  8
0
  6
CONTINUOUS
 62
     3
  5
15C
 10
25.999985
 20
-265.000003
 30
0.0
 40
10.0
 50
0.0
 51
90.0
  0
ARC
  8
0
  6
CONTINUOUS
 62
     3
  5
15D
 10
25.999985
 20
-265.000003
 30
0.0
 40
7.0
 50
0.0
 51
90.0
  0
ARC
  8
0
  6
CONTINUOUS
 62
     3
  5
15E
 10
-0.000015
 20
-255.015628
 30
0.0
 40
16.015625
 50
61.059412
 51
118.940588
  0
ARC
  8
0
  6
CONTINUOUS
 62
     3
  5
15F
 10
11.624985
 20
-243.753909
 30
0.0
 40
4.753906
 50
35.400856
 51
144.599144
  0
ARC
  8
0
  6
CONTINUOUS
 62
     3
  5
160
 10
-11.625015
 20
-243.753909
 30
0.0
 40
4.753906
 50
35.400856
 51
144.599144
  0
ARC
  8
0
  6
CONTINUOUS
 62
     3
  5
161
 10
-11.625015
 20
-245.246096
 30
0.0
 40
4.753906
 50
215.400856
 51
324.599144
  0
ARC
  8
0
  6
CONTINUOUS
 62
     3
  5
162
 10
-0.000015
 20
-233.984378
 30
0.0
 40
16.015625
 50
241.059412
 51
298.940588
  0
ARC
  8
0
  6
CONTINUOUS
 62
     3
  5
163
 10
11.624985
 20
-245.246096
 30
0.0
 40
4.753906
 50
215.400856
 51
324.599144
  0
ARC
  8
0
  6
CONTINUOUS
 62
     3
  5
164
 10
-11.625015
 20
-267.246096
 30
0.0
 40
4.753906
 50
215.400856
 51
324.599144
  0
ARC
  8
0
  6
CONTINUOUS
 62
     3
  5
165
 10
-0.000015
 20
-255.984378
 30
0.0
 40
16.015625
 50
241.059412
 51
298.940588
  0
ARC
  8
0
  6
CONTINUOUS
 62
     3
  5
166
 10
11.624985
 20
-267.246096
 30
0.0
 40
4.753906
 50
215.400856
 51
324.599144
  0
ARC
  8
0
  6
CONTINUOUS
 62
     3
  5
167
 10
11.624985
 20
-265.753909
 30
0.0
 40
4.753906
 50
35.400856
 51
144.599144
  0
ARC
  8
0
  6
CONTINUOUS
 62
     3
  5
168
 10
-0.000015
 20
-277.015628
 30
0.0
 40
16.015625
 50
61.059412
 51
118.940588
  0
ARC
  8
0
  6
CONTINUOUS
 62
     3
  5
169
 10
-11.625015
 20
-265.753909
 30
0.0
 40
4.753906
 50
35.400856
 51
144.599144
  0
ARC
  8
0
  6
CONTINUOUS
 62
     3
  5
16A
 10
6.999985
 20
-279.000003
 30
0.0
 40
1.0
 50
270.0
 51
0.0
  0
ARC
  8
0
  6
CONTINUOUS
 62
     3
  5
16B
 10
-7.000015
 20
-279.000003
 30
0.0
 40
1.0
 50
180.0
 51
270.0
  0
LINE
  8
0
  6
CONTINUOUS
 62
     3
  5
16C
 10
14.999985
 20
-253.000003
 30
0.0
 11
-15.000015
 21
-253.000003
 31
0.0
  0
LINE
  8
0
  6
CONTINUOUS
 62
     3
  5
16D
 10
13.999985
 20
-255.000002
 30
0.0
 11
13.999985
 21
-253.000002
 31
0.0
  0
LINE
  8
0
  6
CONTINUOUS
 62
     3
  5
16E
 10
-14.000015
 20
-255.000002
 30
0.0
 11
-14.000015
 21
-253.000002
 31
0.0
  0
LINE
  8
0
  6
CONTINUOUS
 62
     3
  5
16F
 10
8.65
 20
0.0
 30
0.0
 11
8.65
 21
-239.000003
 31
0.0
  0
LINE
  8
0
  6
CONTINUOUS
 62
     3
  5
170
 10
-8.65
 20
0.0
 30
0.0
 11
-8.65
 21
-239.000003
 31
0.0
  0
ENDBLK
  8
0
  5
171
  0
BLOCK
  8
0
  5
172
  2
MS_7
 70
     0
 10
0.0
 20
0.0
 30
0.0
  3
MS_7
  0
LINE
  8
0
  6
CONTINUOUS
 62
     3
  5
173
 10
-19.999999
 20
-109.500001
 30
0.0
 11
-19.5
 21
-110.0
 31
0.0
  0
LINE
  8
0
  6
CONTINUOUS
 62
     3
  5
174
 10
19.999999
 20
-109.500001
 30
0.0
 11
19.5
 21
-110.0
 31
0.0
  0
LINE
  8
0
  6
CONTINUOUS
 62
     3
  5
175
 10
19.5
 20
-110.0
 30
0.0
 11
-19.5
 21
-110.0
 31
0.0
  0
LINE
  8
0
  6
CONTINUOUS
 62
     3
  5
176
 10
19.5
 20
0.0
 30
0.0
 11
20.0
 21
-0.5
 31
0.0
  0
LINE
  8
0
  6
CONTINUOUS
 62
     3
  5
177
 10
20.0
 20
-0.5
 30
0.0
 11
20.0
 21
-109.5
 31
0.0
  0
LINE
  8
0
  6
CONTINUOUS
 62
     3
  5
178
 10
-19.5
 20
0.0
 30
0.0
 11
19.5
 21
0.0
 31
0.0
  0
LINE
  8
0
  6
CONTINUOUS
 62
     3
  5
179
 10
-19.5
 20
0.0
 30
0.0
 11
-20.0
 21
-0.5
 31
0.0
  0
LINE
  8
0
  6
CONTINUOUS
 62
     3
  5
17A
 10
-20.0
 20
-0.5
 30
0.0
 11
-20.0
 21
-109.5
 31
0.0
  0
ARC
  8
0
  6
CONTINUOUS
 62
     3
  5
17B
 10
23.0
 20
-110.5
 30
0.0
 40
3.0
 50
180.0
 51
260.405932
  0
ARC
  8
0
  6
CONTINUOUS
 62
     3
  5
17C
 10
-23.0
 20
-110.5
 30
0.0
 40
3.0
 50
279.594068
 51
0.0
  0
LINE
  8
0
  6
CONTINUOUS
 62
     3
  5
17D
 10
10.693185
 20
-119.0
 30
0.0
 11
10.693185
 21
-125.2
 31
0.0
  0
LINE
  8
0
  6
CONTINUOUS
 62
     3
  5
17E
 10
14.014785
 20
-160.517452
 30
0.0
 11
14.140544
 21
-153.312738
 31
0.0
  0
ARC
  8
0
  6
CONTINUOUS
 62
     3
  5
17F
 10
13.014937
 20
-160.5
 30
0.0
 40
1.0
 50
270.0
 51
359.0
  0
ARC
  8
0
  6
CONTINUOUS
 62
     3
  5
180
 10
19.139782
 20
-153.4
 30
0.0
 40
5.0
 50
90.0
 51
179.0
  0
LINE
  8
0
  6
CONTINUOUS
 62
     3
  5
181
 10
-22.5
 20
-132.5
 30
0.0
 11
-22.0
 21
-133.0
 31
0.0
  0
LINE
  8
0
  6
CONTINUOUS
 62
     3
  5
182
 10
-20.469398
 20
-137.4
 30
0.0
 11
-22.5
 21
-134.5
 31
0.0
  0
LINE
  8
0
  6
CONTINUOUS
 62
     3
  5
183
 10
-22.0
 20
-133.0
 30
0.0
 11
-22.5
 21
-133.5
 31
0.0
  0
LINE
  8
0
  6
CONTINUOUS
 62
     3
  5
184
 10
-14.014785
 20
-160.517452
 30
0.0
 11
-14.140544
 21
-153.312738
 31
0.0
  0
LINE
  8
0
  6
CONTINUOUS
 62
     3
  5
185
 10
-21.0
 20
-125.2
 30
0.0
 11
-21.0
 21
-119.0
 31
0.0
  0
ARC
  8
0
  6
CONTINUOUS
 62
     3
  5
186
 10
-13.014938
 20
-160.5
 30
0.0
 40
1.0
 50
181.0
 51
270.0
  0
ARC
  8
0
  6
CONTINUOUS
 62
     3
  5
187
 10
177.5
 20
-134.5
 30
0.0
 40
197.990638
 50
180.83925
 51
184.025781
  0
ARC
  8
0
  6
CONTINUOUS
 62
     3
  5
188
 10
-19.139783
 20
-153.4
 30
0.0
 40
5.0
 50
1.0
 51
90.0
  0
LINE
  8
0
  6
CONTINUOUS
 62
     3
  5
189
 10
-22.5
 20
-134.5
 30
0.0
 11
-22.5
 21
-133.5
 31
0.0
  0
LINE
  8
0
  6
CONTINUOUS
 62
     3
  5
18A
 10
-10.693185
 20
-119.0
 30
0.0
 11
-10.693185
 21
-125.2
 31
0.0
  0
LINE
  8
0
  6
CONTINUOUS
 62
     3
  5
18B
 10
13.050581
 20
-161.5
 30
0.0
 11
-13.050581
 21
-161.5
 31
0.0
  0
LINE
  8
0
  6
CONTINUOUS
 62
     3
  5
18C
 10
-20.002108
 20
-148.4
 30
0.0
 11
20.002108
 21
-148.4
 31
0.0
  0
LINE
  8
0
  6
CONTINUOUS
 62
     3
  5
18D
 10
-22.0
 20
-116.0
 30
0.0
 11
-22.5
 21
-116.5
 31
0.0
  0
LINE
  8
0
  6
CONTINUOUS
 62
     3
  5
18E
 10
-22.0
 20
-116.0
 30
0.0
 11
-22.5
 21
-115.5
 31
0.0
  0
LINE
  8
0
  6
CONTINUOUS
 62
     3
  5
18F
 10
-22.5
 20
-117.5
 30
0.0
 11
-22.5
 21
-116.5
 31
0.0
  0
LINE
  8
0
  6
CONTINUOUS
 62
     3
  5
190
 10
-22.5
 20
-113.45804
 30
0.0
 11
-22.5
 21
-115.5
 31
0.0
  0
LINE
  8
0
  6
CONTINUOUS
 62
     3
  5
191
 10
-22.5
 20
-132.5
 30
0.0
 11
-22.5
 21
-126.7
 31
0.0
  0
ARC
  8
0
  6
CONTINUOUS
 62
     3
  5
192
 10
-21.0
 20
-126.7
 30
0.0
 40
1.5
 50
90.0
 51
180.0
  0
ARC
  8
0
  6
CONTINUOUS
 62
     3
  5
193
 10
-21.0
 20
-117.5
 30
0.0
 40
1.5
 50
180.0
 51
270.0
  0
LINE
  8
0
  6
CONTINUOUS
 62
     3
  5
194
 10
22.0
 20
-133.0
 30
0.0
 11
22.5
 21
-133.5
 31
0.0
  0
LINE
  8
0
  6
CONTINUOUS
 62
     3
  5
195
 10
20.469398
 20
-137.4
 30
0.0
 11
22.5
 21
-134.5
 31
0.0
  0
LINE
  8
0
  6
CONTINUOUS
 62
     3
  5
196
 10
22.5
 20
-134.5
 30
0.0
 11
22.5
 21
-133.5
 31
0.0
  0
LINE
  8
0
  6
CONTINUOUS
 62
     3
  5
197
 10
22.0
 20
-116.0
 30
0.0
 11
22.5
 21
-115.5
 31
0.0
  0
LINE
  8
0
  6
CONTINUOUS
 62
     3
  5
198
 10
22.5
 20
-113.45804
 30
0.0
 11
22.5
 21
-115.5
 31
0.0
  0
LINE
  8
0
  6
CONTINUOUS
 62
     3
  5
199
 10
22.5
 20
-132.5
 30
0.0
 11
22.0
 21
-133.0
 31
0.0
  0
LINE
  8
0
  6
CONTINUOUS
 62
     3
  5
19A
 10
22.0
 20
-116.0
 30
0.0
 11
22.5
 21
-116.5
 31
0.0
  0
LINE
  8
0
  6
CONTINUOUS
 62
     3
  5
19B
 10
22.5
 20
-132.5
 30
0.0
 11
22.5
 21
-126.7
 31
0.0
  0
LINE
  8
0
  6
CONTINUOUS
 62
     3
  5
19C
 10
22.5
 20
-117.5
 30
0.0
 11
22.5
 21
-116.5
 31
0.0
  0
LINE
  8
0
  6
CONTINUOUS
 62
     3
  5
19D
 10
21.0
 20
-125.2
 30
0.0
 11
21.0
 21
-119.0
 31
0.0
  0
ARC
  8
0
  6
CONTINUOUS
 62
     3
  5
19E
 10
21.0
 20
-117.5
 30
0.0
 40
1.5
 50
270.0
 51
0.0
  0
ARC
  8
0
  6
CONTINUOUS
 62
     3
  5
19F
 10
21.0
 20
-126.7
 30
0.0
 40
1.5
 50
0.0
 51
90.0
  0
ARC
  8
0
  6
CONTINUOUS
 62
     3
  5
1A0
 10
-177.5
 20
-134.5
 30
0.0
 40
197.990638
 50
355.974219
 51
359.16075
  0
LINE
  8
0
  6
CONTINUOUS
 62
     3
  5
1A1
 10
-22.0
 20
-116.0
 30
0.0
 11
22.0
 21
-116.0
 31
0.0
  0
LINE
  8
0
  6
CONTINUOUS
 62
     3
  5
1A2
 10
-22.0
 20
-133.0
 30
0.0
 11
22.0
 21
-133.0
 31
0.0
  0
LINE
  8
0
  6
CONTINUOUS
 62
     3
  5
1A3
 10
-21.0
 20
-119.0
 30
0.0
 11
21.0
 21
-119.0
 31
0.0
  0
LINE
  8
0
  6
CONTINUOUS
 62
     3
  5
1A4
 10
-21.0
 20
-125.2
 30
0.0
 11
21.0
 21
-125.2
 31
0.0
  0
LINE
  8
0
  6
CONTINUOUS
 62
     3
  5
1A5
 10
-20.469398
 20
-137.4
 30
0.0
 11
20.469398
 21
-137.4
 31
0.0
  0
LINE
  8
0
  6
CONTINUOUS
 62
     3
  5
1A6
 10
-22.5
 20
-113.45804
 30
0.0
 11
22.5
 21
-113.45804
 31
0.0
  0
LINE
  8
0
  6
CONTINUOUS
 62
     3
  5
1A7
 10
19.5
 20
-110.0
 30
0.0
 11
20.0
 21
-110.5
 31
0.0
  0
LINE
  8
0
  6
CONTINUOUS
 62
     3
  5
1A8
 10
-19.5
 20
-110.0
 30
0.0
 11
-20.0
 21
-110.5
 31
0.0
  0
LINE
  8
0
  6
CONTINUOUS
 62
     3
  5
1A9
 10
-3.542398
 20
-124.5
 30
0.0
 11
3.542398
 21
-124.5
 31
0.0
  0
LINE
  8
0
  6
CONTINUOUS
 62
     3
  5
1AA
 10
-9.8
 20
-119.2
 30
0.0
 11
9.8
 21
-119.2
 31
0.0
  0
LINE
  8
0
  6
CONTINUOUS
 62
     3
  5
1AB
 10
-9.76509
 20
-121.2
 30
0.0
 11
9.76509
 21
-121.2
 31
0.0
  0
LINE
  8
0
  6
CONTINUOUS
 62
     3
  5
1AC
 10
-7.694062
 20
-123.9
 30
0.0
 11
-7.741191
 21
-121.2
 31
0.0
  0
LINE
  8
0
  6
CONTINUOUS
 62
     3
  5
1AD
 10
-9.8
 20
-119.2
 30
0.0
 11
-9.76509
 21
-121.2
 31
0.0
  0
LINE
  8
0
  6
CONTINUOUS
 62
     3
  5
1AE
 10
-9.706061
 20
-119.2
 30
0.0
 11
-9.669823
 21
-121.2
 31
0.0
  0
LINE
  8
0
  6
CONTINUOUS
 62
     3
  5
1AF
 10
-9.323545
 20
-119.2
 30
0.0
 11
-9.286634
 21
-121.2
 31
0.0
  0
LINE
  8
0
  6
CONTINUOUS
 62
     3
  5
1B0
 10
-8.657737
 20
-119.2
 30
0.0
 11
-8.621275
 21
-121.2
 31
0.0
  0
LINE
  8
0
  6
CONTINUOUS
 62
     3
  5
1B1
 10
-7.728868
 20
-119.2
 30
0.0
 11
-7.693964
 21
-121.2
 31
0.0
  0
LINE
  8
0
  6
CONTINUOUS
 62
     3
  5
1B2
 10
-6.565162
 20
-119.2
 30
0.0
 11
-6.532875
 21
-121.2
 31
0.0
  0
LINE
  8
0
  6
CONTINUOUS
 62
     3
  5
1B3
 10
-5.78832
 20
-123.9
 30
0.0
 11
-5.741191
 21
-121.2
 31
0.0
  0
LINE
  8
0
  6
CONTINUOUS
 62
     3
  5
1B4
 10
-3.6
 20
-121.2
 30
0.0
 11
-3.542398
 21
-124.5
 31
0.0
  0
LINE
  8
0
  6
CONTINUOUS
 62
     3
  5
1B5
 10
-5.201977
 20
-119.2
 30
0.0
 11
-5.173288
 21
-121.2
 31
0.0
  0
LINE
  8
0
  6
CONTINUOUS
 62
     3
  5
1B6
 10
-3.680732
 20
-119.2
 30
0.0
 11
-3.656513
 21
-121.2
 31
0.0
  0
LINE
  8
0
  6
CONTINUOUS
 62
     3
  5
1B7
 10
-5.78832
 20
-123.9
 30
0.0
 11
-7.694062
 21
-123.9
 31
0.0
  0
LINE
  8
0
  6
CONTINUOUS
 62
     3
  5
1B8
 10
-2.04765
 20
-119.2
 30
0.0
 11
-2.028637
 21
-121.2
 31
0.0
  0
LINE
  8
0
  6
CONTINUOUS
 62
     3
  5
1B9
 10
0.160693
 20
-119.2
 30
0.0
 11
0.147463
 21
-121.2
 31
0.0
  0
LINE
  8
0
  6
CONTINUOUS
 62
     3
  5
1BA
 10
-0.160693
 20
-119.2
 30
0.0
 11
-0.147463
 21
-121.2
 31
0.0
  0
LINE
  8
0
  6
CONTINUOUS
 62
     3
  5
1BB
 10
2.04765
 20
-119.2
 30
0.0
 11
2.028636
 21
-121.2
 31
0.0
  0
LINE
  8
0
  6
CONTINUOUS
 62
     3
  5
1BC
 10
3.680732
 20
-119.2
 30
0.0
 11
3.656513
 21
-121.2
 31
0.0
  0
LINE
  8
0
  6
CONTINUOUS
 62
     3
  5
1BD
 10
8.657737
 20
-119.2
 30
0.0
 11
8.621275
 21
-121.2
 31
0.0
  0
LINE
  8
0
  6
CONTINUOUS
 62
     3
  5
1BE
 10
9.323545
 20
-119.2
 30
0.0
 11
9.286634
 21
-121.2
 31
0.0
  0
LINE
  8
0
  6
CONTINUOUS
 62
     3
  5
1BF
 10
7.728868
 20
-119.2
 30
0.0
 11
7.693964
 21
-121.2
 31
0.0
  0
LINE
  8
0
  6
CONTINUOUS
 62
     3
  5
1C0
 10
6.565162
 20
-119.2
 30
0.0
 11
6.532875
 21
-121.2
 31
0.0
  0
LINE
  8
0
  6
CONTINUOUS
 62
     3
  5
1C1
 10
5.201977
 20
-119.2
 30
0.0
 11
5.173287
 21
-121.2
 31
0.0
  0
LINE
  8
0
  6
CONTINUOUS
 62
     3
  5
1C2
 10
3.6
 20
-121.2
 30
0.0
 11
3.542398
 21
-124.5
 31
0.0
  0
LINE
  8
0
  6
CONTINUOUS
 62
     3
  5
1C3
 10
5.78832
 20
-123.9
 30
0.0
 11
5.741191
 21
-121.2
 31
0.0
  0
LINE
  8
0
  6
CONTINUOUS
 62
     3
  5
1C4
 10
7.694062
 20
-123.9
 30
0.0
 11
7.741191
 21
-121.2
 31
0.0
  0
LINE
  8
0
  6
CONTINUOUS
 62
     3
  5
1C5
 10
5.78832
 20
-123.9
 30
0.0
 11
7.694062
 21
-123.9
 31
0.0
  0
LINE
  8
0
  6
CONTINUOUS
 62
     3
  5
1C6
 10
9.8
 20
-119.2
 30
0.0
 11
9.76509
 21
-121.2
 31
0.0
  0
LINE
  8
0
  6
CONTINUOUS
 62
     3
  5
1C7
 10
9.706061
 20
-119.2
 30
0.0
 11
9.669823
 21
-121.2
 31
0.0
  0
ENDBLK
  8
0
  5
1C8
  0
BLOCK
  8
0
  5
1C9
  2
MS_8
 70
     0
 10
0.0
 20
0.0
 30
0.0
  3
MS_8
  0
LINE
  8
0
  6
CONTINUOUS
 62
     3
  5
1CA
 10
17.55
 20
0.0
 30
0.0
 11
-17.55
 21
0.0
 31
0.0
  0
LINE
  8
0
  6
CONTINUOUS
 62
     3
  5
1CB
 10
19.508726
 20
-0.034281
 30
0.0
 11
17.544764
 21
0.0
 31
0.0
  0
LINE
  8
0
  6
CONTINUOUS
 62
     3
  5
1CC
 10
-19.508726
 20
-0.034281
 30
0.0
 11
-17.544764
 21
0.0
 31
0.0
  0
LINE
  8
0
  6
CONTINUOUS
 62
    80
  5
1CD
 10
-24.5
 20
-99.034129
 30
0.0
 11
24.5
 21
-99.034129
 31
0.0
  0
LINE
  8
0
  6
CONTINUOUS
 62
     3
  5
1CE
 10
-24.5
 20
-99.516674
 30
0.0
 11
-24.5
 21
-99.034129
 31
0.0
  0
LINE
  8
0
  6
CONTINUOUS
 62
     3
  5
1CF
 10
-25.0
 20
-99.525401
 30
0.0
 11
-24.5
 21
-99.516674
 31
0.0
  0
LINE
  8
0
  6
CONTINUOUS
 62
     3
  5
1D0
 10
25.0
 20
-99.525401
 30
0.0
 11
24.5
 21
-99.516674
 31
0.0
  0
LINE
  8
0
  6
CONTINUOUS
 62
     3
  5
1D1
 10
24.5
 20
-99.516674
 30
0.0
 11
24.5
 21
-99.034129
 31
0.0
  0
LINE
  8
0
  6
CONTINUOUS
 62
     3
  5
1D2
 10
25.0
 20
-99.525401
 30
0.0
 11
25.0
 21
-138.542856
 31
0.0
  0
LINE
  8
0
  6
CONTINUOUS
 62
     3
  5
1D3
 10
24.5
 20
-138.551584
 30
0.0
 11
24.5
 21
-139.034129
 31
0.0
  0
LINE
  8
0
  6
CONTINUOUS
 62
     3
  5
1D4
 10
25.0
 20
-138.542856
 30
0.0
 11
24.5
 21
-138.551584
 31
0.0
  0
LINE
  8
0
  6
CONTINUOUS
 62
     3
  5
1D5
 10
-25.0
 20
-99.525401
 30
0.0
 11
-25.0
 21
-138.542856
 31
0.0
  0
LINE
  8
0
  6
CONTINUOUS
 62
     3
  5
1D6
 10
-25.0
 20
-138.542856
 30
0.0
 11
-24.5
 21
-138.551584
 31
0.0
  0
LINE
  8
0
  6
CONTINUOUS
 62
     3
  5
1D7
 10
-24.5
 20
-138.551584
 30
0.0
 11
-24.5
 21
-139.034129
 31
0.0
  0
ARC
  8
0
  6
CONTINUOUS
 62
     3
  5
1D8
 10
19.5
 20
-0.534205
 30
0.0
 40
0.5
 50
360.0
 51
89.0
  0
ARC
  8
0
  6
CONTINUOUS
 62
     3
  5
1D9
 10
-19.5
 20
-0.534205
 30
0.0
 40
0.5
 50
91.0
 51
180.0
  0
LINE
  8
0
  6
CONTINUOUS
 62
     3
  5
1DA
 10
24.5
 20
-98.551584
 30
0.0
 11
24.5
 21
-99.034129
 31
0.0
  0
LINE
  8
0
  6
CONTINUOUS
 62
     3
  5
1DB
 10
25.0
 20
-98.542856
 30
0.0
 11
24.5
 21
-98.551584
 31
0.0
  0
LINE
  8
0
  6
CONTINUOUS
 62
     3
  5
1DC
 10
25.0
 20
-51.469963
 30
0.0
 11
25.0
 21
-98.542856
 31
0.0
  0
LINE
  8
0
  6
CONTINUOUS
 62
     3
  5
1DD
 10
-25.0
 20
-98.542856
 30
0.0
 11
-24.5
 21
-98.551584
 31
0.0
  0
LINE
  8
0
  6
CONTINUOUS
 62
     3
  5
1DE
 10
-25.0
 20
-51.469963
 30
0.0
 11
-25.0
 21
-98.542856
 31
0.0
  0
LINE
  8
0
  6
CONTINUOUS
 62
     3
  5
1DF
 10
-24.5
 20
-98.551584
 30
0.0
 11
-24.5
 21
-99.034129
 31
0.0
  0
LINE
  8
0
  6
CONTINUOUS
 62
     3
  5
1E0
 10
25.0
 20
-139.034129
 30
0.0
 11
-25.0
 21
-139.034129
 31
0.0
  0
LINE
  8
0
  6
CONTINUOUS
 62
     3
  5
1E1
 10
24.5
 20
-98.551584
 30
0.0
 11
-24.5
 21
-98.551584
 31
0.0
  0
LINE
  8
0
  6
CONTINUOUS
 62
     3
  5
1E2
 10
-23.5
 20
-148.007946
 30
0.0
 11
23.5
 21
-148.007946
 31
0.0
  0
LINE
  8
0
  6
CONTINUOUS
 62
     3
  5
1E3
 10
25.0
 20
-140.560083
 30
0.0
 11
25.0
 21
-139.034129
 31
0.0
  0
LINE
  8
0
  6
CONTINUOUS
 62
     3
  5
1E4
 10
-25.0
 20
-140.560083
 30
0.0
 11
-25.0
 21
-139.034129
 31
0.0
  0
LINE
  8
0
  6
CONTINUOUS
 62
     3
  5
1E5
 10
25.0
 20
-164.234129
 30
0.0
 11
24.5
 21
-164.242856
 31
0.0
  0
LINE
  8
0
  6
CONTINUOUS
 62
     3
  5
1E6
 10
24.5
 20
-164.734129
 30
0.0
 11
24.5
 21
-164.242856
 31
0.0
  0
LINE
  8
0
  6
CONTINUOUS
 62
     3
  5
1E7
 10
-25.0
 20
-164.234129
 30
0.0
 11
-25.0
 21
-149.508175
 31
0.0
  0
LINE
  8
0
  6
CONTINUOUS
 62
     3
  5
1E8
 10
25.0
 20
-164.234129
 30
0.0
 11
25.0
 21
-149.508175
 31
0.0
  0
LINE
  8
0
  6
CONTINUOUS
 62
     3
  5
1E9
 10
24.5
 20
-164.242856
 30
0.0
 11
-24.5
 21
-164.242856
 31
0.0
  0
LINE
  8
0
  6
CONTINUOUS
 62
     3
  5
1EA
 10
23.526179
 20
-142.059855
 30
0.0
 11
23.5
 21
-142.060312
 31
0.0
  0
LINE
  8
0
  6
CONTINUOUS
 62
     3
  5
1EB
 10
-23.5
 20
-142.060312
 30
0.0
 11
23.5
 21
-142.060312
 31
0.0
  0
LINE
  8
0
  6
CONTINUOUS
 62
     3
  5
1EC
 10
-23.526179
 20
-142.059855
 30
0.0
 11
-23.5
 21
-142.060312
 31
0.0
  0
LINE
  8
0
  6
CONTINUOUS
 62
     3
  5
1ED
 10
-24.5
 20
-164.734129
 30
0.0
 11
-24.5
 21
-164.242856
 31
0.0
  0
LINE
  8
0
  6
CONTINUOUS
 62
     3
  5
1EE
 10
-25.0
 20
-164.234129
 30
0.0
 11
-24.5
 21
-164.242856
 31
0.0
  0
LINE
  8
0
  6
CONTINUOUS
 62
     3
  5
1EF
 10
23.237127
 20
-142.060312
 30
0.0
 11
23.237127
 21
-148.007946
 31
0.0
  0
LINE
  8
0
  6
CONTINUOUS
 62
     3
  5
1F0
 10
10.693185
 20
-142.060312
 30
0.0
 11
10.693185
 21
-148.007946
 31
0.0
  0
LINE
  8
0
  6
CONTINUOUS
 62
     3
  5
1F1
 10
-10.693185
 20
-142.060312
 30
0.0
 11
-10.693185
 21
-148.007946
 31
0.0
  0
LINE
  8
0
  6
CONTINUOUS
 62
     3
  5
1F2
 10
-23.237127
 20
-142.060312
 30
0.0
 11
-23.237127
 21
-148.007946
 31
0.0
  0
ARC
  8
0
  6
CONTINUOUS
 62
     3
  5
1F3
 10
-15.0
 20
-51.469963
 30
0.0
 40
40.0
 50
360.0
 51
20.364135
  0
ARC
  8
0
  6
CONTINUOUS
 62
     3
  5
1F4
 10
15.0
 20
-51.469963
 30
0.0
 40
40.0
 50
159.635865
 51
180.0
  0
ARC
  8
0
  6
CONTINUOUS
 62
     3
  5
1F5
 10
60.0
 20
-23.631141
 30
0.0
 40
40.0
 50
180.0
 51
200.364135
  0
ARC
  8
0
  6
CONTINUOUS
 62
     3
  5
1F6
 10
-60.0
 20
-23.631141
 30
0.0
 40
40.0
 50
339.635865
 51
360.0
  0
ARC
  8
0
  6
CONTINUOUS
 62
     3
  5
1F7
 10
-23.5
 20
-149.508175
 30
0.0
 40
1.5
 50
90.0
 51
180.0
  0
ARC
  8
0
  6
CONTINUOUS
 62
     3
  5
1F8
 10
23.5
 20
-140.560083
 30
0.0
 40
1.5
 50
271.0
 51
0.0
  0
ARC
  8
0
  6
CONTINUOUS
 62
     3
  5
1F9
 10
23.5
 20
-149.508175
 30
0.0
 40
1.5
 50
0.0
 51
90.0
  0
ARC
  8
0
  6
CONTINUOUS
 62
     3
  5
1FA
 10
-23.5
 20
-140.560083
 30
0.0
 40
1.5
 50
180.0
 51
269.0
  0
LINE
  8
0
  6
CONTINUOUS
 62
     3
  5
1FB
 10
-20.0
 20
-0.534205
 30
0.0
 11
-20.0
 21
-23.61575
 31
0.0
  0
LINE
  8
0
  6
CONTINUOUS
 62
     3
  5
1FC
 10
20.0
 20
-0.534205
 30
0.0
 11
20.0
 21
-23.61575
 31
0.0
  0
LINE
  8
0
  6
CONTINUOUS
 62
     3
  5
1FD
 10
25.0
 20
-164.734129
 30
0.0
 11
-25.0
 21
-164.734129
 31
0.0
  0
ARC
  8
0
  6
CONTINUOUS
 62
     3
  5
1FE
 10
13.014938
 20
-203.241402
 30
0.0
 40
1.0
 50
270.0
 51
359.0
  0
LINE
  8
0
  6
CONTINUOUS
 62
     3
  5
1FF
 10
13.014938
 20
-204.241402
 30
0.0
 11
-13.014938
 21
-204.241402
 31
0.0
  0
ARC
  8
0
  6
CONTINUOUS
 62
     3
  5
200
 10
22.50619
 20
-190.241402
 30
0.0
 40
1.0
 50
270.0
 51
352.96756
  0
ARC
  8
0
  6
CONTINUOUS
 62
     3
  5
201
 10
21.103431
 20
-198.241402
 30
0.0
 40
7.0
 50
90.0
 51
179.0
  0
LINE
  8
0
  6
CONTINUOUS
 62
     3
  5
202
 10
14.104498
 20
-198.119235
 30
0.0
 11
14.014785
 21
-203.258855
 31
0.0
  0
ARC
  8
0
  6
CONTINUOUS
 62
     3
  5
203
 10
-21.103431
 20
-198.241402
 30
0.0
 40
7.0
 50
1.0
 51
90.0
  0
ARC
  8
0
  6
CONTINUOUS
 62
     3
  5
204
 10
-22.50619
 20
-190.241402
 30
0.0
 40
1.0
 50
187.03244
 51
270.0
  0
LINE
  8
0
  6
CONTINUOUS
 62
     3
  5
205
 10
-14.104498
 20
-198.119235
 30
0.0
 11
-14.014785
 21
-203.258855
 31
0.0
  0
LINE
  8
0
  6
CONTINUOUS
 62
     3
  5
206
 10
22.50619
 20
-191.241402
 30
0.0
 11
-22.50619
 21
-191.241402
 31
0.0
  0
ARC
  8
0
  6
CONTINUOUS
 62
     3
  5
207
 10
-13.014938
 20
-203.241402
 30
0.0
 40
1.0
 50
181.0
 51
270.0
  0
ARC
  8
0
  6
CONTINUOUS
 62
     3
  5
208
 10
-174.996731
 20
-165.877577
 30
0.0
 40
200.0
 50
352.96756
 51
0.327575
  0
ARC
  8
0
  6
CONTINUOUS
 62
     3
  5
209
 10
174.996731
 20
-165.877577
 30
0.0
 40
200.0
 50
179.672425
 51
187.03244
  0
LINE
  8
0
  6
CONTINUOUS
 62
     3
  5
20A
 10
-3.542398
 20
-147.560312
 30
0.0
 11
3.542398
 21
-147.560312
 31
0.0
  0
LINE
  8
0
  6
CONTINUOUS
 62
     3
  5
20B
 10
-9.76509
 20
-144.260312
 30
0.0
 11
9.76509
 21
-144.260312
 31
0.0
  0
LINE
  8
0
  6
CONTINUOUS
 62
     3
  5
20C
 10
-9.8
 20
-142.260312
 30
0.0
 11
9.8
 21
-142.260312
 31
0.0
  0
LINE
  8
0
  6
CONTINUOUS
 62
     3
  5
20D
 10
7.694062
 20
-146.960312
 30
0.0
 11
7.741191
 21
-144.260312
 31
0.0
  0
LINE
  8
0
  6
CONTINUOUS
 62
     3
  5
20E
 10
5.78832
 20
-146.960312
 30
0.0
 11
5.741191
 21
-144.260312
 31
0.0
  0
LINE
  8
0
  6
CONTINUOUS
 62
     3
  5
20F
 10
5.201977
 20
-142.260312
 30
0.0
 11
5.173287
 21
-144.260312
 31
0.0
  0
LINE
  8
0
  6
CONTINUOUS
 62
     3
  5
210
 10
6.565162
 20
-142.260312
 30
0.0
 11
6.532875
 21
-144.260312
 31
0.0
  0
LINE
  8
0
  6
CONTINUOUS
 62
     3
  5
211
 10
7.728868
 20
-142.260312
 30
0.0
 11
7.693964
 21
-144.260312
 31
0.0
  0
LINE
  8
0
  6
CONTINUOUS
 62
     3
  5
212
 10
9.706061
 20
-142.260312
 30
0.0
 11
9.669823
 21
-144.260312
 31
0.0
  0
LINE
  8
0
  6
CONTINUOUS
 62
     3
  5
213
 10
9.323545
 20
-142.260312
 30
0.0
 11
9.286634
 21
-144.260312
 31
0.0
  0
LINE
  8
0
  6
CONTINUOUS
 62
     3
  5
214
 10
8.657737
 20
-142.260312
 30
0.0
 11
8.621275
 21
-144.260312
 31
0.0
  0
LINE
  8
0
  6
CONTINUOUS
 62
     3
  5
215
 10
9.8
 20
-142.260312
 30
0.0
 11
9.76509
 21
-144.260312
 31
0.0
  0
LINE
  8
0
  6
CONTINUOUS
 62
     3
  5
216
 10
5.78832
 20
-146.960312
 30
0.0
 11
7.694062
 21
-146.960312
 31
0.0
  0
LINE
  8
0
  6
CONTINUOUS
 62
     3
  5
217
 10
3.680732
 20
-142.260312
 30
0.0
 11
3.656513
 21
-144.260312
 31
0.0
  0
LINE
  8
0
  6
CONTINUOUS
 62
     3
  5
218
 10
2.04765
 20
-142.260312
 30
0.0
 11
2.028637
 21
-144.260312
 31
0.0
  0
LINE
  8
0
  6
CONTINUOUS
 62
     3
  5
219
 10
3.6
 20
-144.260312
 30
0.0
 11
3.542398
 21
-147.560312
 31
0.0
  0
LINE
  8
0
  6
CONTINUOUS
 62
     3
  5
21A
 10
0.160693
 20
-142.260312
 30
0.0
 11
0.147463
 21
-144.260312
 31
0.0
  0
LINE
  8
0
  6
CONTINUOUS
 62
     3
  5
21B
 10
-0.160693
 20
-142.260312
 30
0.0
 11
-0.147463
 21
-144.260312
 31
0.0
  0
LINE
  8
0
  6
CONTINUOUS
 62
     3
  5
21C
 10
-2.04765
 20
-142.260312
 30
0.0
 11
-2.028637
 21
-144.260312
 31
0.0
  0
LINE
  8
0
  6
CONTINUOUS
 62
     3
  5
21D
 10
-3.680732
 20
-142.260312
 30
0.0
 11
-3.656513
 21
-144.260312
 31
0.0
  0
LINE
  8
0
  6
CONTINUOUS
 62
     3
  5
21E
 10
-5.201977
 20
-142.260312
 30
0.0
 11
-5.173287
 21
-144.260312
 31
0.0
  0
LINE
  8
0
  6
CONTINUOUS
 62
     3
  5
21F
 10
-6.565162
 20
-142.260312
 30
0.0
 11
-6.532875
 21
-144.260312
 31
0.0
  0
LINE
  8
0
  6
CONTINUOUS
 62
     3
  5
220
 10
-7.728868
 20
-142.260312
 30
0.0
 11
-7.693964
 21
-144.260312
 31
0.0
  0
LINE
  8
0
  6
CONTINUOUS
 62
     3
  5
221
 10
-8.657737
 20
-142.260312
 30
0.0
 11
-8.621275
 21
-144.260312
 31
0.0
  0
LINE
  8
0
  6
CONTINUOUS
 62
     3
  5
222
 10
-9.323545
 20
-142.260312
 30
0.0
 11
-9.286634
 21
-144.260312
 31
0.0
  0
LINE
  8
0
  6
CONTINUOUS
 62
     3
  5
223
 10
-9.706061
 20
-142.260312
 30
0.0
 11
-9.669823
 21
-144.260312
 31
0.0
  0
LINE
  8
0
  6
CONTINUOUS
 62
     3
  5
224
 10
-9.8
 20
-142.260312
 30
0.0
 11
-9.76509
 21
-144.260312
 31
0.0
  0
LINE
  8
0
  6
CONTINUOUS
 62
     3
  5
225
 10
-3.6
 20
-144.260312
 30
0.0
 11
-3.542398
 21
-147.560312
 31
0.0
  0
LINE
  8
0
  6
CONTINUOUS
 62
     3
  5
226
 10
-7.694062
 20
-146.960312
 30
0.0
 11
-7.741191
 21
-144.260312
 31
0.0
  0
LINE
  8
0
  6
CONTINUOUS
 62
     3
  5
227
 10
-5.78832
 20
-146.960312
 30
0.0
 11
-5.741191
 21
-144.260312
 31
0.0
  0
LINE
  8
0
  6
CONTINUOUS
 62
     3
  5
228
 10
-5.78832
 20
-146.960312
 30
0.0
 11
-7.694062
 21
-146.960312
 31
0.0
  0
ENDBLK
  8
0
  5
229
  0
BLOCK
  8
0
  5
22A
  2
MS_9
 70
     0
 10
0.0
 20
0.0
 30
0.0
  3
MS_9
  0
LINE
  8
0
  6
CONTINUOUS
 62
     3
  5
22B
 10
-20.0
 20
-0.5
 30
0.0
 11
-20.0
 21
-34.542856
 31
0.0
  0
LINE
  8
0
  6
CONTINUOUS
 62
     3
  5
22C
 10
20.0
 20
-0.5
 30
0.0
 11
20.0
 21
-34.542856
 31
0.0
  0
ARC
  8
0
  6
CONTINUOUS
 62
     3
  5
22D
 10
-20.585085
 20
-36.000334
 30
0.0
 40
0.500334
 50
90.0
 51
179.0
  0
ARC
  8
0
  6
CONTINUOUS
 62
     3
  5
22E
 10
20.585085
 20
-36.000334
 30
0.0
 40
0.500334
 50
1.0
 51
90.0
  0
ARC
  8
0
  6
CONTINUOUS
 62
    80
  5
22F
 10
-12.999071
 20
-44.050658
 30
0.0
 40
5.253887
 50
247.380135
 51
292.619865
  0
ARC
  8
0
  6
CONTINUOUS
 62
    80
  5
230
 10
-12.999071
 20
-51.358433
 30
0.0
 40
5.253887
 50
67.380135
 51
112.619865
  0
ARC
  8
0
  6
CONTINUOUS
 62
    80
  5
231
 10
-9.967982
 20
-47.839519
 30
0.0
 40
1.465026
 50
226.397181
 51
300.0
  0
ARC
  8
0
  6
CONTINUOUS
 62
    80
  5
232
 10
-9.967982
 20
-47.569572
 30
0.0
 40
1.465026
 50
60.0
 51
133.602819
  0
ARC
  8
0
  6
CONTINUOUS
 62
    80
  5
233
 10
-16.03016
 20
-47.839519
 30
0.0
 40
1.465026
 50
240.0
 51
313.602819
  0
ARC
  8
0
  6
CONTINUOUS
 62
    80
  5
234
 10
-16.03016
 20
-47.569572
 30
0.0
 40
1.465026
 50
46.397181
 51
120.0
  0
ARC
  8
0
  6
CONTINUOUS
 62
    80
  5
235
 10
16.03016
 20
-47.569572
 30
0.0
 40
1.465026
 50
60.0
 51
133.602819
  0
ARC
  8
0
  6
CONTINUOUS
 62
    80
  5
236
 10
16.03016
 20
-47.839519
 30
0.0
 40
1.465026
 50
226.397181
 51
300.0
  0
ARC
  8
0
  6
CONTINUOUS
 62
     3
  5
237
 10
19.5
 20
-34.542856
 30
0.0
 40
0.5
 50
277.542123
 51
0.0
  0
ARC
  8
0
  6
CONTINUOUS
 62
     3
  5
238
 10
-19.5
 20
-34.542856
 30
0.0
 40
0.5
 50
180.0
 51
262.457877
  0
ARC
  8
0
  6
CONTINUOUS
 62
    80
  5
239
 10
9.967982
 20
-47.569572
 30
0.0
 40
1.465026
 50
46.397181
 51
120.0
  0
ARC
  8
0
  6
CONTINUOUS
 62
    80
  5
23A
 10
9.967982
 20
-47.839519
 30
0.0
 40
1.465026
 50
240.0
 51
313.602819
  0
ARC
  8
0
  6
CONTINUOUS
 62
    80
  5
23B
 10
12.999071
 20
-51.358433
 30
0.0
 40
5.253887
 50
67.380135
 51
112.619865
  0
ARC
  8
0
  6
CONTINUOUS
 62
    80
  5
23C
 10
12.999071
 20
-44.050658
 30
0.0
 40
5.253887
 50
247.380135
 51
292.619865
  0
LINE
  8
0
  6
CONTINUOUS
 62
     3
  5
23D
 10
17.040523
 20
-46.461238
 30
0.0
 11
16.422713
 21
-46.104545
 31
0.0
  0
LINE
  8
0
  6
CONTINUOUS
 62
     3
  5
23E
 10
21.085343
 20
-35.991602
 30
0.0
 11
21.195535
 21
-42.304545
 31
0.0
  0
LINE
  8
0
  6
CONTINUOUS
 62
     3
  5
23F
 10
19.207139
 20
-35.0
 30
0.0
 11
19.207139
 21
-35.5
 31
0.0
  0
LINE
  8
0
  6
CONTINUOUS
 62
     3
  5
240
 10
-15.000408
 20
-55.313236
 30
0.0
 11
-14.500074
 21
-55.81357
 31
0.0
  0
LINE
  8
0
  6
CONTINUOUS
 62
    80
  5
241
 10
-15.000408
 20
-55.313236
 30
0.0
 11
-10.997734
 21
-55.313236
 31
0.0
  0
LINE
  8
0
  6
CONTINUOUS
 62
     3
  5
242
 10
-15.000408
 20
-49.304545
 30
0.0
 11
-15.000408
 21
-55.313236
 31
0.0
  0
LINE
  8
0
  6
CONTINUOUS
 62
     3
  5
243
 10
-10.997734
 20
-49.304545
 30
0.0
 11
-10.997734
 21
-55.313236
 31
0.0
  0
LINE
  8
0
  6
CONTINUOUS
 62
     3
  5
244
 10
-11.498068
 20
-55.81357
 30
0.0
 11
-10.997734
 21
-55.313236
 31
0.0
  0
LINE
  8
0
  6
CONTINUOUS
 62
    80
  5
245
 10
-11.498068
 20
-49.304545
 30
0.0
 11
-11.498068
 21
-55.81357
 31
0.0
  0
LINE
  8
0
  6
CONTINUOUS
 62
    80
  5
246
 10
-14.500074
 20
-49.304545
 30
0.0
 11
-14.500074
 21
-55.81357
 31
0.0
  0
LINE
  8
0
  6
CONTINUOUS
 62
     3
  5
247
 10
-14.500074
 20
-55.81357
 30
0.0
 11
-11.498068
 21
-55.81357
 31
0.0
  0
LINE
  8
0
  6
CONTINUOUS
 62
     3
  5
248
 10
-22.0
 20
-44.304545
 30
0.0
 11
22.0
 21
-44.304545
 31
0.0
  0
LINE
  8
0
  6
CONTINUOUS
 62
     3
  5
249
 10
-22.0
 20
-42.304545
 30
0.0
 11
-22.0
 21
-44.304545
 31
0.0
  0
LINE
  8
0
  6
CONTINUOUS
 62
     3
  5
24A
 10
22.0
 20
-42.304545
 30
0.0
 11
22.0
 21
-44.304545
 31
0.0
  0
LINE
  8
0
  6
CONTINUOUS
 62
     3
  5
24B
 10
17.999071
 20
-44.304545
 30
0.0
 11
17.999071
 21
-45.104545
 31
0.0
  0
LINE
  8
0
  6
CONTINUOUS
 62
     3
  5
24C
 10
16.422713
 20
-49.304545
 30
0.0
 11
9.57543
 21
-49.304545
 31
0.0
  0
LINE
  8
0
  6
CONTINUOUS
 62
     3
  5
24D
 10
17.040523
 20
-46.461238
 30
0.0
 11
17.040523
 21
-48.947853
 31
0.0
  0
LINE
  8
0
  6
CONTINUOUS
 62
     3
  5
24E
 10
11.498068
 20
-55.81357
 30
0.0
 11
10.997734
 21
-55.313236
 31
0.0
  0
LINE
  8
0
  6
CONTINUOUS
 62
     3
  5
24F
 10
9.199071
 20
-45.104545
 30
0.0
 11
9.199071
 21
-46.104545
 31
0.0
  0
LINE
  8
0
  6
CONTINUOUS
 62
     3
  5
250
 10
16.799071
 20
-45.104545
 30
0.0
 11
16.799071
 21
-46.104545
 31
0.0
  0
LINE
  8
0
  6
CONTINUOUS
 62
     3
  5
251
 10
-19.207139
 20
-35.0
 30
0.0
 11
-19.207139
 21
-35.5
 31
0.0
  0
LINE
  8
0
  6
CONTINUOUS
 62
    80
  5
252
 10
10.978345
 20
-46.508691
 30
0.0
 11
10.978345
 21
-48.9004
 31
0.0
  0
LINE
  8
0
  6
CONTINUOUS
 62
     3
  5
253
 10
8.957619
 20
-46.461238
 30
0.0
 11
8.957619
 21
-48.947853
 31
0.0
  0
LINE
  8
0
  6
CONTINUOUS
 62
     3
  5
254
 10
8.957619
 20
-46.461238
 30
0.0
 11
9.57543
 21
-46.104545
 31
0.0
  0
LINE
  8
0
  6
CONTINUOUS
 62
     3
  5
255
 10
7.999071
 20
-44.304545
 30
0.0
 11
7.999071
 21
-45.104545
 31
0.0
  0
LINE
  8
0
  6
CONTINUOUS
 62
     3
  5
256
 10
8.957619
 20
-48.947853
 30
0.0
 11
9.57543
 21
-49.304545
 31
0.0
  0
LINE
  8
0
  6
CONTINUOUS
 62
     3
  5
257
 10
17.999071
 20
-45.104545
 30
0.0
 11
7.999071
 21
-45.104545
 31
0.0
  0
LINE
  8
0
  6
CONTINUOUS
 62
     3
  5
258
 10
17.040523
 20
-48.947853
 30
0.0
 11
16.422713
 21
-49.304545
 31
0.0
  0
LINE
  8
0
  6
CONTINUOUS
 62
     3
  5
259
 10
-21.085343
 20
-35.991602
 30
0.0
 11
-21.195535
 21
-42.304545
 31
0.0
  0
LINE
  8
0
  6
CONTINUOUS
 62
     3
  5
25A
 10
-20.585085
 20
-35.5
 30
0.0
 11
20.585085
 21
-35.5
 31
0.0
  0
LINE
  8
0
  6
CONTINUOUS
 62
     3
  5
25B
 10
-22.0
 20
-42.304545
 30
0.0
 11
22.0
 21
-42.304545
 31
0.0
  0
LINE
  8
0
  6
CONTINUOUS
 62
     3
  5
25C
 10
-16.799071
 20
-45.104545
 30
0.0
 11
-16.799071
 21
-46.104545
 31
0.0
  0
LINE
  8
0
  6
CONTINUOUS
 62
     3
  5
25D
 10
-9.199071
 20
-45.104545
 30
0.0
 11
-9.199071
 21
-46.104545
 31
0.0
  0
LINE
  8
0
  6
CONTINUOUS
 62
    80
  5
25E
 10
-13.499071
 20
-46.104545
 30
0.0
 11
-12.499071
 21
-45.104545
 31
0.0
  0
LINE
  8
0
  6
CONTINUOUS
 62
     3
  5
25F
 10
-16.799071
 20
-46.104545
 30
0.0
 11
-9.199071
 21
-46.104545
 31
0.0
  0
LINE
  8
0
  6
CONTINUOUS
 62
     3
  5
260
 10
-17.999071
 20
-44.304545
 30
0.0
 11
-17.999071
 21
-45.104545
 31
0.0
  0
LINE
  8
0
  6
CONTINUOUS
 62
     3
  5
261
 10
-7.999071
 20
-44.304545
 30
0.0
 11
-7.999071
 21
-45.104545
 31
0.0
  0
LINE
  8
0
  6
CONTINUOUS
 62
     3
  5
262
 10
-17.999071
 20
-45.104545
 30
0.0
 11
-7.999071
 21
-45.104545
 31
0.0
  0
LINE
  8
0
  6
CONTINUOUS
 62
     3
  5
263
 10
-8.957619
 20
-48.947853
 30
0.0
 11
-9.57543
 21
-49.304545
 31
0.0
  0
LINE
  8
0
  6
CONTINUOUS
 62
     3
  5
264
 10
-8.957619
 20
-46.461238
 30
0.0
 11
-9.57543
 21
-46.104545
 31
0.0
  0
LINE
  8
0
  6
CONTINUOUS
 62
    80
  5
265
 10
-10.978345
 20
-46.508691
 30
0.0
 11
-10.978345
 21
-48.9004
 31
0.0
  0
LINE
  8
0
  6
CONTINUOUS
 62
     3
  5
266
 10
-8.957619
 20
-46.461238
 30
0.0
 11
-8.957619
 21
-48.947853
 31
0.0
  0
LINE
  8
0
  6
CONTINUOUS
 62
     3
  5
267
 10
-17.040523
 20
-48.947853
 30
0.0
 11
-16.422713
 21
-49.304545
 31
0.0
  0
LINE
  8
0
  6
CONTINUOUS
 62
     3
  5
268
 10
-17.040523
 20
-46.461238
 30
0.0
 11
-16.422713
 21
-46.104545
 31
0.0
  0
LINE
  8
0
  6
CONTINUOUS
 62
    80
  5
269
 10
-15.019797
 20
-46.508691
 30
0.0
 11
-15.019797
 21
-48.9004
 31
0.0
  0
LINE
  8
0
  6
CONTINUOUS
 62
     3
  5
26A
 10
-17.040523
 20
-46.461238
 30
0.0
 11
-17.040523
 21
-48.947853
 31
0.0
  0
LINE
  8
0
  6
CONTINUOUS
 62
     3
  5
26B
 10
-16.422713
 20
-49.304545
 30
0.0
 11
-9.57543
 21
-49.304545
 31
0.0
  0
LINE
  8
0
  6
CONTINUOUS
 62
    80
  5
26C
 10
15.019797
 20
-46.508691
 30
0.0
 11
15.019797
 21
-48.9004
 31
0.0
  0
LINE
  8
0
  6
CONTINUOUS
 62
     3
  5
26D
 10
14.500074
 20
-55.81357
 30
0.0
 11
11.498068
 21
-55.81357
 31
0.0
  0
LINE
  8
0
  6
CONTINUOUS
 62
     3
  5
26E
 10
15.000408
 20
-55.313236
 30
0.0
 11
14.500074
 21
-55.81357
 31
0.0
  0
LINE
  8
0
  6
CONTINUOUS
 62
    80
  5
26F
 10
15.000408
 20
-55.313236
 30
0.0
 11
10.997734
 21
-55.313236
 31
0.0
  0
LINE
  8
0
  6
CONTINUOUS
 62
    80
  5
270
 10
14.500074
 20
-49.304545
 30
0.0
 11
14.500074
 21
-55.81357
 31
0.0
  0
LINE
  8
0
  6
CONTINUOUS
 62
     3
  5
271
 10
19.508726
 20
-35.034281
 30
0.0
 11
17.544754
 21
-35.0
 31
0.0
  0
LINE
  8
0
  6
CONTINUOUS
 62
    80
  5
272
 10
11.498068
 20
-49.304545
 30
0.0
 11
11.498068
 21
-55.81357
 31
0.0
  0
LINE
  8
0
  6
CONTINUOUS
 62
     3
  5
273
 10
17.544754
 20
-35.0
 30
0.0
 11
-17.544754
 21
-35.0
 31
0.0
  0
LINE
  8
0
  6
CONTINUOUS
 62
     3
  5
274
 10
-19.508726
 20
-35.034281
 30
0.0
 11
-17.544754
 21
-35.0
 31
0.0
  0
LINE
  8
0
  6
CONTINUOUS
 62
     3
  5
275
 10
10.997734
 20
-49.304545
 30
0.0
 11
10.997734
 21
-55.313236
 31
0.0
  0
LINE
  8
0
  6
CONTINUOUS
 62
     3
  5
276
 10
15.000408
 20
-49.304545
 30
0.0
 11
15.000408
 21
-55.313236
 31
0.0
  0
LINE
  8
0
  6
CONTINUOUS
 62
    80
  5
277
 10
12.499071
 20
-46.104545
 30
0.0
 11
13.499071
 21
-45.104545
 31
0.0
  0
LINE
  8
0
  6
CONTINUOUS
 62
     3
  5
278
 10
16.799071
 20
-46.104545
 30
0.0
 11
9.199071
 21
-46.104545
 31
0.0
  0
ARC
  8
0
  6
CONTINUOUS
 62
     3
  5
279
 10
19.5
 20
-0.5
 30
0.0
 40
0.5
 50
0.0
 51
73.165186
  0
ARC
  8
0
  6
CONTINUOUS
 62
     3
  5
27A
 10
-19.5
 20
-0.5
 30
0.0
 40
0.5
 50
106.834814
 51
180.0
  0
LINE
  8
0
  6
CONTINUOUS
 62
     3
  5
27B
 10
17.55
 20
0.0
 30
0.0
 11
-17.55
 21
0.0
 31
0.0
  0
LINE
  8
0
  6
CONTINUOUS
 62
     3
  5
27C
 10
19.508726
 20
-0.034281
 30
0.0
 11
17.544764
 21
0.0
 31
0.0
  0
LINE
  8
0
  6
CONTINUOUS
 62
     3
  5
27D
 10
-19.508726
 20
-0.034281
 30
0.0
 11
-17.544764
 21
0.0
 31
0.0
  0
ENDBLK
  8
0
  5
27E
  0
BLOCK
  8
0
  5
27F
  2
MS_10
 70
     0
 10
0.0
 20
0.0
 30
0.0
  3
MS_10
  0
CIRCLE
  8
0
  6
CONTINUOUS
 62
     3
  5
280
 10
0.0
 20
0.0
 30
0.0
 40
22.0
  0
CIRCLE
  8
0
  6
CONTINUOUS
 62
     3
  5
281
 10
0.0
 20
0.0
 30
0.0
 40
5.0
  0
CIRCLE
  8
0
  6
CONTINUOUS
 62
     3
  5
282
 10
12.990381
 20
7.5
 30
0.0
 40
2.0
  0
CIRCLE
  8
0
  6
CONTINUOUS
 62
     3
  5
283
 10
0.0
 20
-15.0
 30
0.0
 40
2.0
  0
CIRCLE
  8
0
  6
CONTINUOUS
 62
     3
  5
284
 10
-12.990381
 20
7.5
 30
0.0
 40
2.0
  0
ARC
  8
0
  6
CONTINUOUS
 62
     3
  5
285
 10
-16.995744
 20
9.812498
 30
0.0
 40
3.5
 50
149.972043
 51
150.0
  0
LINE
  8
0
  6
CONTINUOUS
 62
     3
  5
286
 10
2.020726
 20
-11.5
 30
0.0
 11
-2.020726
 21
-11.5
 31
0.0
  0
LINE
  8
0
  6
CONTINUOUS
 62
     3
  5
287
 10
2.020726
 20
-18.5
 30
0.0
 11
-2.020726
 21
-18.5
 31
0.0
  0
LINE
  8
0
  6
CONTINUOUS
 62
     3
  5
288
 10
4.041452
 20
-15.0
 30
0.0
 11
2.020726
 21
-11.5
 31
0.0
  0
LINE
  8
0
  6
CONTINUOUS
 62
     3
  5
289
 10
-2.020726
 20
-18.5
 30
0.0
 11
-4.041452
 21
-15.0
 31
0.0
  0
LINE
  8
0
  6
CONTINUOUS
 62
     3
  5
28A
 10
4.041452
 20
-15.0
 30
0.0
 11
2.020726
 21
-18.5
 31
0.0
  0
LINE
  8
0
  6
CONTINUOUS
 62
     3
  5
28B
 10
-2.020726
 20
-11.5
 30
0.0
 11
-4.041452
 21
-15.0
 31
0.0
  0
LINE
  8
0
  6
CONTINUOUS
 62
     3
  5
28C
 10
-10.969655
 20
4.0
 30
0.0
 11
-8.948929
 21
7.5
 31
0.0
  0
LINE
  8
0
  6
CONTINUOUS
 62
     3
  5
28D
 10
-17.031833
 20
7.5
 30
0.0
 11
-15.011107
 21
11.0
 31
0.0
  0
LINE
  8
0
  6
CONTINUOUS
 62
     3
  5
28E
 10
-15.011107
 20
4.0
 30
0.0
 11
-10.969655
 21
4.0
 31
0.0
  0
LINE
  8
0
  6
CONTINUOUS
 62
     3
  5
28F
 10
-15.011107
 20
11.0
 30
0.0
 11
-10.969655
 21
11.0
 31
0.0
  0
LINE
  8
0
  6
CONTINUOUS
 62
     3
  5
290
 10
-15.011107
 20
4.0
 30
0.0
 11
-17.031833
 21
7.5
 31
0.0
  0
LINE
  8
0
  6
CONTINUOUS
 62
     3
  5
291
 10
-8.948929
 20
7.5
 30
0.0
 11
-10.969655
 21
11.0
 31
0.0
  0
LINE
  8
0
  6
CONTINUOUS
 62
     3
  5
292
 10
8.948929
 20
7.5
 30
0.0
 11
10.969655
 21
4.0
 31
0.0
  0
LINE
  8
0
  6
CONTINUOUS
 62
     3
  5
293
 10
15.011107
 20
11.0
 30
0.0
 11
17.031833
 21
7.5
 31
0.0
  0
LINE
  8
0
  6
CONTINUOUS
 62
     3
  5
294
 10
10.969655
 20
11.0
 30
0.0
 11
8.948929
 21
7.5
 31
0.0
  0
LINE
  8
0
  6
CONTINUOUS
 62
     3
  5
295
 10
17.031833
 20
7.5
 30
0.0
 11
15.011107
 21
4.0
 31
0.0
  0
LINE
  8
0
  6
CONTINUOUS
 62
     3
  5
296
 10
10.969655
 20
11.0
 30
0.0
 11
15.011107
 21
11.0
 31
0.0
  0
LINE
  8
0
  6
CONTINUOUS
 62
     3
  5
297
 10
10.969655
 20
4.0
 30
0.0
 11
15.011107
 21
4.0
 31
0.0
  0
CIRCLE
  8
0
  6
CONTINUOUS
 62
     3
  5
298
 10
12.990381
 20
7.5
 30
0.0
 40
5.0
  0
CIRCLE
  8
0
  6
CONTINUOUS
 62
     3
  5
299
 10
-12.990381
 20
7.5
 30
0.0
 40
5.0
  0
CIRCLE
  8
0
  6
CONTINUOUS
 62
     3
  5
29A
 10
0.0
 20
-15.0
 30
0.0
 40
5.0
  0
ENDBLK
  8
0
  5
29B
  0
BLOCK
  8
0
  5
29C
  2
MS_11
 70
     0
 10
0.0
 20
0.0
 30
0.0
  3
MS_11
  0
LINE
  8
0
  6
CONTINUOUS
 62
     3
  5
29D
 10
-19.5
 20
-110.0
 30
0.0
 11
-20.0
 21
-110.5
 31
0.0
  0
LINE
  8
0
  6
CONTINUOUS
 62
     3
  5
29E
 10
-19.999999
 20
-109.500001
 30
0.0
 11
-19.5
 21
-110.0
 31
0.0
  0
LINE
  8
0
  6
CONTINUOUS
 62
     3
  5
29F
 10
19.999999
 20
-109.500001
 30
0.0
 11
19.5
 21
-110.0
 31
0.0
  0
LINE
  8
0
  6
CONTINUOUS
 62
     3
  5
2A0
 10
19.5
 20
-110.0
 30
0.0
 11
-19.5
 21
-110.0
 31
0.0
  0
LINE
  8
0
  6
CONTINUOUS
 62
     3
  5
2A1
 10
19.5
 20
0.0
 30
0.0
 11
20.0
 21
-0.5
 31
0.0
  0
LINE
  8
0
  6
CONTINUOUS
 62
     3
  5
2A2
 10
20.0
 20
-0.5
 30
0.0
 11
20.0
 21
-109.5
 31
0.0
  0
LINE
  8
0
  6
CONTINUOUS
 62
     3
  5
2A3
 10
-19.5
 20
0.0
 30
0.0
 11
19.5
 21
0.0
 31
0.0
  0
LINE
  8
0
  6
CONTINUOUS
 62
     3
  5
2A4
 10
-19.5
 20
0.0
 30
0.0
 11
-20.0
 21
-0.5
 31
0.0
  0
LINE
  8
0
  6
CONTINUOUS
 62
     3
  5
2A5
 10
-20.0
 20
-0.5
 30
0.0
 11
-20.0
 21
-109.5
 31
0.0
  0
LINE
  8
0
  6
CONTINUOUS
 62
     3
  5
2A6
 10
22.0
 20
-116.0
 30
0.0
 11
22.5
 21
-116.5
 31
0.0
  0
LINE
  8
0
  6
CONTINUOUS
 62
     3
  5
2A7
 10
-22.0
 20
-116.0
 30
0.0
 11
-22.5
 21
-116.5
 31
0.0
  0
LINE
  8
0
  6
CONTINUOUS
 62
     3
  5
2A8
 10
14.500074
 20
-148.8
 30
0.0
 11
15.000408
 21
-148.299666
 31
0.0
  0
LINE
  8
0
  6
CONTINUOUS
 62
     3
  5
2A9
 10
15.000408
 20
-140.0
 30
0.0
 11
15.000408
 21
-148.299666
 31
0.0
  0
LINE
  8
0
  6
CONTINUOUS
 62
    80
  5
2AA
 10
14.500074
 20
-140.0
 30
0.0
 11
14.500074
 21
-148.8
 31
0.0
  0
ARC
  8
0
  6
CONTINUOUS
 62
    80
  5
2AB
 10
16.03016
 20
-138.265026
 30
0.0
 40
1.465026
 50
60.0
 51
133.602819
  0
ARC
  8
0
  6
CONTINUOUS
 62
    80
  5
2AC
 10
16.03016
 20
-138.534974
 30
0.0
 40
1.465026
 50
226.397181
 51
300.0
  0
LINE
  8
0
  6
CONTINUOUS
 62
     3
  5
2AD
 10
17.040523
 20
-137.156693
 30
0.0
 11
16.422713
 21
-136.8
 31
0.0
  0
LINE
  8
0
  6
CONTINUOUS
 62
     3
  5
2AE
 10
17.040523
 20
-137.156693
 30
0.0
 11
17.040523
 21
-139.643307
 31
0.0
  0
LINE
  8
0
  6
CONTINUOUS
 62
     3
  5
2AF
 10
16.799071
 20
-135.8
 30
0.0
 11
16.799071
 21
-136.8
 31
0.0
  0
LINE
  8
0
  6
CONTINUOUS
 62
     3
  5
2B0
 10
17.040523
 20
-139.643307
 30
0.0
 11
16.422713
 21
-140.0
 31
0.0
  0
LINE
  8
0
  6
CONTINUOUS
 62
    80
  5
2B1
 10
15.019797
 20
-137.204145
 30
0.0
 11
15.019797
 21
-139.595855
 31
0.0
  0
LINE
  8
0
  6
CONTINUOUS
 62
     3
  5
2B2
 10
17.999071
 20
-135.0
 30
0.0
 11
17.999071
 21
-135.8
 31
0.0
  0
ARC
  8
0
  6
CONTINUOUS
 62
    80
  5
2B3
 10
-16.03016
 20
-138.534974
 30
0.0
 40
1.465026
 50
240.0
 51
313.602819
  0
ARC
  8
0
  6
CONTINUOUS
 62
    80
  5
2B4
 10
-16.03016
 20
-138.265026
 30
0.0
 40
1.465026
 50
46.397181
 51
120.0
  0
LINE
  8
0
  6
CONTINUOUS
 62
     3
  5
2B5
 10
-15.000408
 20
-148.299666
 30
0.0
 11
-14.500074
 21
-148.8
 31
0.0
  0
LINE
  8
0
  6
CONTINUOUS
 62
     3
  5
2B6
 10
-15.000408
 20
-140.0
 30
0.0
 11
-15.000408
 21
-148.299666
 31
0.0
  0
LINE
  8
0
  6
CONTINUOUS
 62
    80
  5
2B7
 10
-11.498069
 20
-140.0
 30
0.0
 11
-11.498069
 21
-148.8
 31
0.0
  0
LINE
  8
0
  6
CONTINUOUS
 62
    80
  5
2B8
 10
-14.500074
 20
-140.0
 30
0.0
 11
-14.500074
 21
-148.8
 31
0.0
  0
LINE
  8
0
  6
CONTINUOUS
 62
     3
  5
2B9
 10
-14.500074
 20
-148.8
 30
0.0
 11
-11.498069
 21
-148.8
 31
0.0
  0
LINE
  8
0
  6
CONTINUOUS
 62
     3
  5
2BA
 10
-16.799071
 20
-135.8
 30
0.0
 11
-16.799071
 21
-136.8
 31
0.0
  0
LINE
  8
0
  6
CONTINUOUS
 62
    80
  5
2BB
 10
-13.499071
 20
-136.8
 30
0.0
 11
-12.499071
 21
-135.8
 31
0.0
  0
LINE
  8
0
  6
CONTINUOUS
 62
     3
  5
2BC
 10
-17.040523
 20
-139.643307
 30
0.0
 11
-16.422713
 21
-140.0
 31
0.0
  0
LINE
  8
0
  6
CONTINUOUS
 62
     3
  5
2BD
 10
-17.040523
 20
-137.156693
 30
0.0
 11
-16.422713
 21
-136.8
 31
0.0
  0
LINE
  8
0
  6
CONTINUOUS
 62
    80
  5
2BE
 10
-15.019797
 20
-137.204145
 30
0.0
 11
-15.019797
 21
-139.595855
 31
0.0
  0
LINE
  8
0
  6
CONTINUOUS
 62
     3
  5
2BF
 10
-17.040523
 20
-137.156693
 30
0.0
 11
-17.040523
 21
-139.643307
 31
0.0
  0
LINE
  8
0
  6
CONTINUOUS
 62
     3
  5
2C0
 10
-17.999071
 20
-135.0
 30
0.0
 11
-17.999071
 21
-135.8
 31
0.0
  0
LINE
  8
0
  6
CONTINUOUS
 62
     3
  5
2C1
 10
22.0
 20
-133.0
 30
0.0
 11
24.0
 21
-133.0
 31
0.0
  0
LINE
  8
0
  6
CONTINUOUS
 62
     3
  5
2C2
 10
-24.0
 20
-133.0
 30
0.0
 11
-22.0
 21
-133.0
 31
0.0
  0
LINE
  8
0
  6
CONTINUOUS
 62
     3
  5
2C3
 10
24.0
 20
-135.0
 30
0.0
 11
24.0
 21
-133.0
 31
0.0
  0
LINE
  8
0
  6
CONTINUOUS
 62
     3
  5
2C4
 10
-24.0
 20
-135.0
 30
0.0
 11
-24.0
 21
-133.0
 31
0.0
  0
LINE
  8
0
  6
CONTINUOUS
 62
     3
  5
2C5
 10
-21.0
 20
-125.2
 30
0.0
 11
-21.0
 21
-119.0
 31
0.0
  0
LINE
  8
0
  6
CONTINUOUS
 62
     3
  5
2C6
 10
22.5
 20
-132.5
 30
0.0
 11
22.0
 21
-133.0
 31
0.0
  0
LINE
  8
0
  6
CONTINUOUS
 62
     3
  5
2C7
 10
-22.5
 20
-132.5
 30
0.0
 11
-22.0
 21
-133.0
 31
0.0
  0
LINE
  8
0
  6
CONTINUOUS
 62
     3
  5
2C8
 10
-22.5
 20
-132.5
 30
0.0
 11
-22.5
 21
-126.7
 31
0.0
  0
LINE
  8
0
  6
CONTINUOUS
 62
     3
  5
2C9
 10
-22.5
 20
-117.5
 30
0.0
 11
-22.5
 21
-116.5
 31
0.0
  0
LINE
  8
0
  6
CONTINUOUS
 62
     3
  5
2CA
 10
22.5
 20
-132.5
 30
0.0
 11
22.5
 21
-126.7
 31
0.0
  0
LINE
  8
0
  6
CONTINUOUS
 62
     3
  5
2CB
 10
22.5
 20
-117.5
 30
0.0
 11
22.5
 21
-116.5
 31
0.0
  0
LINE
  8
0
  6
CONTINUOUS
 62
     3
  5
2CC
 10
21.0
 20
-125.2
 30
0.0
 11
21.0
 21
-119.0
 31
0.0
  0
ARC
  8
0
  6
CONTINUOUS
 62
     3
  5
2CD
 10
-21.0
 20
-126.7
 30
0.0
 40
1.5
 50
90.0
 51
180.0
  0
ARC
  8
0
  6
CONTINUOUS
 62
     3
  5
2CE
 10
-21.0
 20
-117.5
 30
0.0
 40
1.5
 50
180.0
 51
270.0
  0
ARC
  8
0
  6
CONTINUOUS
 62
     3
  5
2CF
 10
21.0
 20
-117.5
 30
0.0
 40
1.5
 50
270.0
 51
0.0
  0
ARC
  8
0
  6
CONTINUOUS
 62
     3
  5
2D0
 10
21.0
 20
-126.7
 30
0.0
 40
1.5
 50
0.0
 51
90.0
  0
LINE
  8
0
  6
CONTINUOUS
 62
     3
  5
2D1
 10
10.997734
 20
-148.299666
 30
0.0
 11
11.498068
 21
-148.8
 31
0.0
  0
LINE
  8
0
  6
CONTINUOUS
 62
     3
  5
2D2
 10
10.997734
 20
-140.0
 30
0.0
 11
10.997734
 21
-148.299666
 31
0.0
  0
LINE
  8
0
  6
CONTINUOUS
 62
    80
  5
2D3
 10
11.498068
 20
-140.0
 30
0.0
 11
11.498068
 21
-148.8
 31
0.0
  0
ARC
  8
0
  6
CONTINUOUS
 62
    80
  5
2D4
 10
9.967982
 20
-138.265026
 30
0.0
 40
1.465026
 50
46.397181
 51
120.0
  0
ARC
  8
0
  6
CONTINUOUS
 62
    80
  5
2D5
 10
9.967982
 20
-138.534974
 30
0.0
 40
1.465026
 50
240.0
 51
313.602819
  0
LINE
  8
0
  6
CONTINUOUS
 62
     3
  5
2D6
 10
9.199071
 20
-135.8
 30
0.0
 11
9.199071
 21
-136.8
 31
0.0
  0
LINE
  8
0
  6
CONTINUOUS
 62
    80
  5
2D7
 10
10.978345
 20
-137.204145
 30
0.0
 11
10.978345
 21
-139.595855
 31
0.0
  0
LINE
  8
0
  6
CONTINUOUS
 62
     3
  5
2D8
 10
8.957619
 20
-137.156693
 30
0.0
 11
8.957619
 21
-139.643307
 31
0.0
  0
LINE
  8
0
  6
CONTINUOUS
 62
     3
  5
2D9
 10
8.957619
 20
-137.156693
 30
0.0
 11
9.57543
 21
-136.8
 31
0.0
  0
LINE
  8
0
  6
CONTINUOUS
 62
     3
  5
2DA
 10
8.957619
 20
-139.643307
 30
0.0
 11
9.57543
 21
-140.0
 31
0.0
  0
LINE
  8
0
  6
CONTINUOUS
 62
    80
  5
2DB
 10
12.499071
 20
-136.8
 30
0.0
 11
13.499071
 21
-135.8
 31
0.0
  0
LINE
  8
0
  6
CONTINUOUS
 62
     3
  5
2DC
 10
7.999071
 20
-135.0
 30
0.0
 11
7.999071
 21
-135.8
 31
0.0
  0
ARC
  8
0
  6
CONTINUOUS
 62
    80
  5
2DD
 10
-9.967982
 20
-138.534974
 30
0.0
 40
1.465026
 50
226.397181
 51
300.0
  0
ARC
  8
0
  6
CONTINUOUS
 62
    80
  5
2DE
 10
-9.967982
 20
-138.265026
 30
0.0
 40
1.465026
 50
60.0
 51
133.602819
  0
LINE
  8
0
  6
CONTINUOUS
 62
     3
  5
2DF
 10
-10.997734
 20
-140.0
 30
0.0
 11
-10.997734
 21
-148.299666
 31
0.0
  0
LINE
  8
0
  6
CONTINUOUS
 62
     3
  5
2E0
 10
-9.199071
 20
-135.8
 30
0.0
 11
-9.199071
 21
-136.8
 31
0.0
  0
LINE
  8
0
  6
CONTINUOUS
 62
     3
  5
2E1
 10
-8.957619
 20
-139.643307
 30
0.0
 11
-9.57543
 21
-140.0
 31
0.0
  0
LINE
  8
0
  6
CONTINUOUS
 62
     3
  5
2E2
 10
-8.957619
 20
-137.156693
 30
0.0
 11
-9.57543
 21
-136.8
 31
0.0
  0
LINE
  8
0
  6
CONTINUOUS
 62
    80
  5
2E3
 10
-10.978345
 20
-137.204145
 30
0.0
 11
-10.978345
 21
-139.595855
 31
0.0
  0
LINE
  8
0
  6
CONTINUOUS
 62
     3
  5
2E4
 10
-8.957619
 20
-137.156693
 30
0.0
 11
-8.957619
 21
-139.643307
 31
0.0
  0
LINE
  8
0
  6
CONTINUOUS
 62
     3
  5
2E5
 10
-7.999071
 20
-135.0
 30
0.0
 11
-7.999071
 21
-135.8
 31
0.0
  0
LINE
  8
0
  6
CONTINUOUS
 62
     3
  5
2E6
 10
-22.0
 20
-133.0
 30
0.0
 11
22.0
 21
-133.0
 31
0.0
  0
LINE
  8
0
  6
CONTINUOUS
 62
     3
  5
2E7
 10
-21.0
 20
-125.2
 30
0.0
 11
21.0
 21
-125.2
 31
0.0
  0
LINE
  8
0
  6
CONTINUOUS
 62
     3
  5
2E8
 10
-24.0
 20
-135.0
 30
0.0
 11
24.0
 21
-135.0
 31
0.0
  0
LINE
  8
0
  6
CONTINUOUS
 62
     3
  5
2E9
 10
-16.422713
 20
-140.0
 30
0.0
 11
-9.57543
 21
-140.0
 31
0.0
  0
LINE
  8
0
  6
CONTINUOUS
 62
     3
  5
2EA
 10
-17.999071
 20
-135.8
 30
0.0
 11
-7.999071
 21
-135.8
 31
0.0
  0
LINE
  8
0
  6
CONTINUOUS
 62
     3
  5
2EB
 10
-16.799071
 20
-136.8
 30
0.0
 11
-9.199071
 21
-136.8
 31
0.0
  0
LINE
  8
0
  6
CONTINUOUS
 62
     3
  5
2EC
 10
-11.498069
 20
-148.8
 30
0.0
 11
-10.997734
 21
-148.299666
 31
0.0
  0
LINE
  8
0
  6
CONTINUOUS
 62
    80
  5
2ED
 10
-15.000408
 20
-148.299666
 30
0.0
 11
-10.997734
 21
-148.299666
 31
0.0
  0
ARC
  8
0
  6
CONTINUOUS
 62
    80
  5
2EE
 10
-12.999071
 20
-142.053888
 30
0.0
 40
5.253887
 50
67.380135
 51
112.619865
  0
ARC
  8
0
  6
CONTINUOUS
 62
    80
  5
2EF
 10
-12.999071
 20
-134.746113
 30
0.0
 40
5.253887
 50
247.380135
 51
292.619865
  0
LINE
  8
0
  6
CONTINUOUS
 62
     3
  5
2F0
 10
16.799071
 20
-136.8
 30
0.0
 11
9.199071
 21
-136.8
 31
0.0
  0
LINE
  8
0
  6
CONTINUOUS
 62
     3
  5
2F1
 10
17.999071
 20
-135.8
 30
0.0
 11
7.999071
 21
-135.8
 31
0.0
  0
LINE
  8
0
  6
CONTINUOUS
 62
     3
  5
2F2
 10
16.422713
 20
-140.0
 30
0.0
 11
9.57543
 21
-140.0
 31
0.0
  0
ARC
  8
0
  6
CONTINUOUS
 62
    80
  5
2F3
 10
12.999071
 20
-134.746113
 30
0.0
 40
5.253887
 50
247.380135
 51
292.619865
  0
ARC
  8
0
  6
CONTINUOUS
 62
    80
  5
2F4
 10
12.999071
 20
-142.053888
 30
0.0
 40
5.253887
 50
67.380135
 51
112.619865
  0
LINE
  8
0
  6
CONTINUOUS
 62
    80
  5
2F5
 10
10.997734
 20
-148.299666
 30
0.0
 11
15.000408
 21
-148.299666
 31
0.0
  0
LINE
  8
0
  6
CONTINUOUS
 62
     3
  5
2F6
 10
11.498068
 20
-148.8
 30
0.0
 11
14.500074
 21
-148.8
 31
0.0
  0
LINE
  8
0
  6
CONTINUOUS
 62
     3
  5
2F7
 10
-21.0
 20
-119.0
 30
0.0
 11
21.0
 21
-119.0
 31
0.0
  0
LINE
  8
0
  6
CONTINUOUS
 62
     3
  5
2F8
 10
-22.5
 20
-113.45804
 30
0.0
 11
22.5
 21
-113.45804
 31
0.0
  0
LINE
  8
0
  6
CONTINUOUS
 62
     3
  5
2F9
 10
-22.0
 20
-116.0
 30
0.0
 11
-22.5
 21
-115.5
 31
0.0
  0
LINE
  8
0
  6
CONTINUOUS
 62
     3
  5
2FA
 10
19.5
 20
-110.0
 30
0.0
 11
20.0
 21
-110.5
 31
0.0
  0
LINE
  8
0
  6
CONTINUOUS
 62
     3
  5
2FB
 10
22.5
 20
-113.45804
 30
0.0
 11
22.5
 21
-115.5
 31
0.0
  0
ARC
  8
0
  6
CONTINUOUS
 62
     3
  5
2FC
 10
23.0
 20
-110.5
 30
0.0
 40
3.0
 50
180.0
 51
260.405932
  0
LINE
  8
0
  6
CONTINUOUS
 62
     3
  5
2FD
 10
-22.0
 20
-116.0
 30
0.0
 11
22.0
 21
-116.0
 31
0.0
  0
ARC
  8
0
  6
CONTINUOUS
 62
     3
  5
2FE
 10
-23.0
 20
-110.5
 30
0.0
 40
3.0
 50
279.594068
 51
0.0
  0
LINE
  8
0
  6
CONTINUOUS
 62
     3
  5
2FF
 10
-22.5
 20
-113.45804
 30
0.0
 11
-22.5
 21
-115.5
 31
0.0
  0
LINE
  8
0
  6
CONTINUOUS
 62
     3
  5
300
 10
22.0
 20
-116.0
 30
0.0
 11
22.5
 21
-115.5
 31
0.0
  0
ENDBLK
  8
0
  5
301
  0
BLOCK
  8
0
  5
302
  2
MS_12
 70
     0
 10
0.0
 20
0.0
 30
0.0
  3
MS_12
  0
LINE
  8
0
  6
CONTINUOUS
 62
     3
  5
303
 10
-19.5
 20
-110.0
 30
0.0
 11
-20.0
 21
-110.5
 31
0.0
  0
LINE
  8
0
  6
CONTINUOUS
 62
     3
  5
304
 10
-19.999999
 20
-109.500001
 30
0.0
 11
-19.5
 21
-110.0
 31
0.0
  0
LINE
  8
0
  6
CONTINUOUS
 62
     3
  5
305
 10
19.999999
 20
-109.500001
 30
0.0
 11
19.5
 21
-110.0
 31
0.0
  0
LINE
  8
0
  6
CONTINUOUS
 62
     3
  5
306
 10
19.5
 20
-110.0
 30
0.0
 11
-19.5
 21
-110.0
 31
0.0
  0
LINE
  8
0
  6
CONTINUOUS
 62
     3
  5
307
 10
19.5
 20
0.0
 30
0.0
 11
20.0
 21
-0.5
 31
0.0
  0
LINE
  8
0
  6
CONTINUOUS
 62
     3
  5
308
 10
20.0
 20
-0.5
 30
0.0
 11
20.0
 21
-109.5
 31
0.0
  0
LINE
  8
0
  6
CONTINUOUS
 62
     3
  5
309
 10
-19.5
 20
0.0
 30
0.0
 11
19.5
 21
0.0
 31
0.0
  0
LINE
  8
0
  6
CONTINUOUS
 62
     3
  5
30A
 10
-19.5
 20
0.0
 30
0.0
 11
-20.0
 21
-0.5
 31
0.0
  0
LINE
  8
0
  6
CONTINUOUS
 62
     3
  5
30B
 10
-20.0
 20
-0.5
 30
0.0
 11
-20.0
 21
-109.5
 31
0.0
  0
LINE
  8
0
  6
CONTINUOUS
 62
     3
  5
30C
 10
22.0
 20
-116.0
 30
0.0
 11
22.5
 21
-116.5
 31
0.0
  0
LINE
  8
0
  6
CONTINUOUS
 62
     3
  5
30D
 10
-22.0
 20
-116.0
 30
0.0
 11
-22.5
 21
-116.5
 31
0.0
  0
LINE
  8
0
  6
CONTINUOUS
 62
     3
  5
30E
 10
14.500074
 20
-148.8
 30
0.0
 11
15.000408
 21
-148.299666
 31
0.0
  0
LINE
  8
0
  6
CONTINUOUS
 62
     3
  5
30F
 10
15.000408
 20
-140.0
 30
0.0
 11
15.000408
 21
-148.299666
 31
0.0
  0
LINE
  8
0
  6
CONTINUOUS
 62
    80
  5
310
 10
14.500074
 20
-140.0
 30
0.0
 11
14.500074
 21
-148.8
 31
0.0
  0
ARC
  8
0
  6
CONTINUOUS
 62
    80
  5
311
 10
16.03016
 20
-138.265026
 30
0.0
 40
1.465026
 50
60.0
 51
133.602819
  0
ARC
  8
0
  6
CONTINUOUS
 62
    80
  5
312
 10
16.03016
 20
-138.534974
 30
0.0
 40
1.465026
 50
226.397181
 51
300.0
  0
LINE
  8
0
  6
CONTINUOUS
 62
     3
  5
313
 10
17.040523
 20
-137.156693
 30
0.0
 11
16.422713
 21
-136.8
 31
0.0
  0
LINE
  8
0
  6
CONTINUOUS
 62
     3
  5
314
 10
17.040523
 20
-137.156693
 30
0.0
 11
17.040523
 21
-139.643307
 31
0.0
  0
LINE
  8
0
  6
CONTINUOUS
 62
     3
  5
315
 10
16.799071
 20
-135.8
 30
0.0
 11
16.799071
 21
-136.8
 31
0.0
  0
LINE
  8
0
  6
CONTINUOUS
 62
     3
  5
316
 10
17.040523
 20
-139.643307
 30
0.0
 11
16.422713
 21
-140.0
 31
0.0
  0
LINE
  8
0
  6
CONTINUOUS
 62
    80
  5
317
 10
15.019797
 20
-137.204145
 30
0.0
 11
15.019797
 21
-139.595855
 31
0.0
  0
LINE
  8
0
  6
CONTINUOUS
 62
     3
  5
318
 10
17.999071
 20
-135.0
 30
0.0
 11
17.999071
 21
-135.8
 31
0.0
  0
ARC
  8
0
  6
CONTINUOUS
 62
    80
  5
319
 10
-16.03016
 20
-138.534974
 30
0.0
 40
1.465026
 50
240.0
 51
313.602819
  0
ARC
  8
0
  6
CONTINUOUS
 62
    80
  5
31A
 10
-16.03016
 20
-138.265026
 30
0.0
 40
1.465026
 50
46.397181
 51
120.0
  0
LINE
  8
0
  6
CONTINUOUS
 62
     3
  5
31B
 10
-15.000408
 20
-148.299666
 30
0.0
 11
-14.500074
 21
-148.8
 31
0.0
  0
LINE
  8
0
  6
CONTINUOUS
 62
     3
  5
31C
 10
-15.000408
 20
-140.0
 30
0.0
 11
-15.000408
 21
-148.299666
 31
0.0
  0
LINE
  8
0
  6
CONTINUOUS
 62
    80
  5
31D
 10
-11.498069
 20
-140.0
 30
0.0
 11
-11.498069
 21
-148.8
 31
0.0
  0
LINE
  8
0
  6
CONTINUOUS
 62
    80
  5
31E
 10
-14.500074
 20
-140.0
 30
0.0
 11
-14.500074
 21
-148.8
 31
0.0
  0
LINE
  8
0
  6
CONTINUOUS
 62
     3
  5
31F
 10
-14.500074
 20
-148.8
 30
0.0
 11
-11.498069
 21
-148.8
 31
0.0
  0
LINE
  8
0
  6
CONTINUOUS
 62
     3
  5
320
 10
-16.799071
 20
-135.8
 30
0.0
 11
-16.799071
 21
-136.8
 31
0.0
  0
LINE
  8
0
  6
CONTINUOUS
 62
    80
  5
321
 10
-13.499071
 20
-136.8
 30
0.0
 11
-12.499071
 21
-135.8
 31
0.0
  0
LINE
  8
0
  6
CONTINUOUS
 62
     3
  5
322
 10
-17.040523
 20
-139.643307
 30
0.0
 11
-16.422713
 21
-140.0
 31
0.0
  0
LINE
  8
0
  6
CONTINUOUS
 62
     3
  5
323
 10
-17.040523
 20
-137.156693
 30
0.0
 11
-16.422713
 21
-136.8
 31
0.0
  0
LINE
  8
0
  6
CONTINUOUS
 62
    80
  5
324
 10
-15.019797
 20
-137.204145
 30
0.0
 11
-15.019797
 21
-139.595855
 31
0.0
  0
LINE
  8
0
  6
CONTINUOUS
 62
     3
  5
325
 10
-17.040523
 20
-137.156693
 30
0.0
 11
-17.040523
 21
-139.643307
 31
0.0
  0
LINE
  8
0
  6
CONTINUOUS
 62
     3
  5
326
 10
-17.999071
 20
-135.0
 30
0.0
 11
-17.999071
 21
-135.8
 31
0.0
  0
LINE
  8
0
  6
CONTINUOUS
 62
     3
  5
327
 10
22.0
 20
-133.0
 30
0.0
 11
24.0
 21
-133.0
 31
0.0
  0
LINE
  8
0
  6
CONTINUOUS
 62
     3
  5
328
 10
-24.0
 20
-133.0
 30
0.0
 11
-22.0
 21
-133.0
 31
0.0
  0
LINE
  8
0
  6
CONTINUOUS
 62
     3
  5
329
 10
24.0
 20
-135.0
 30
0.0
 11
24.0
 21
-133.0
 31
0.0
  0
LINE
  8
0
  6
CONTINUOUS
 62
     3
  5
32A
 10
-24.0
 20
-135.0
 30
0.0
 11
-24.0
 21
-133.0
 31
0.0
  0
LINE
  8
0
  6
CONTINUOUS
 62
     3
  5
32B
 10
-21.0
 20
-125.2
 30
0.0
 11
-21.0
 21
-119.0
 31
0.0
  0
LINE
  8
0
  6
CONTINUOUS
 62
     3
  5
32C
 10
22.5
 20
-132.5
 30
0.0
 11
22.0
 21
-133.0
 31
0.0
  0
LINE
  8
0
  6
CONTINUOUS
 62
     3
  5
32D
 10
-22.5
 20
-132.5
 30
0.0
 11
-22.0
 21
-133.0
 31
0.0
  0
LINE
  8
0
  6
CONTINUOUS
 62
     3
  5
32E
 10
-22.5
 20
-132.5
 30
0.0
 11
-22.5
 21
-126.7
 31
0.0
  0
LINE
  8
0
  6
CONTINUOUS
 62
     3
  5
32F
 10
-22.5
 20
-117.5
 30
0.0
 11
-22.5
 21
-116.5
 31
0.0
  0
LINE
  8
0
  6
CONTINUOUS
 62
     3
  5
330
 10
22.5
 20
-132.5
 30
0.0
 11
22.5
 21
-126.7
 31
0.0
  0
LINE
  8
0
  6
CONTINUOUS
 62
     3
  5
331
 10
22.5
 20
-117.5
 30
0.0
 11
22.5
 21
-116.5
 31
0.0
  0
LINE
  8
0
  6
CONTINUOUS
 62
     3
  5
332
 10
21.0
 20
-125.2
 30
0.0
 11
21.0
 21
-119.0
 31
0.0
  0
ARC
  8
0
  6
CONTINUOUS
 62
     3
  5
333
 10
-21.0
 20
-126.7
 30
0.0
 40
1.5
 50
90.0
 51
180.0
  0
ARC
  8
0
  6
CONTINUOUS
 62
     3
  5
334
 10
-21.0
 20
-117.5
 30
0.0
 40
1.5
 50
180.0
 51
270.0
  0
ARC
  8
0
  6
CONTINUOUS
 62
     3
  5
335
 10
21.0
 20
-117.5
 30
0.0
 40
1.5
 50
270.0
 51
0.0
  0
ARC
  8
0
  6
CONTINUOUS
 62
     3
  5
336
 10
21.0
 20
-126.7
 30
0.0
 40
1.5
 50
0.0
 51
90.0
  0
LINE
  8
0
  6
CONTINUOUS
 62
     3
  5
337
 10
-5.78832
 20
-123.9
 30
0.0
 11
-7.694063
 21
-123.9
 31
0.0
  0
LINE
  8
0
  6
CONTINUOUS
 62
     3
  5
338
 10
-5.78832
 20
-123.9
 30
0.0
 11
-5.741191
 21
-121.2
 31
0.0
  0
LINE
  8
0
  6
CONTINUOUS
 62
     3
  5
339
 10
-7.694063
 20
-123.9
 30
0.0
 11
-7.741191
 21
-121.2
 31
0.0
  0
LINE
  8
0
  6
CONTINUOUS
 62
     3
  5
33A
 10
-3.6
 20
-121.2
 30
0.0
 11
-3.542398
 21
-124.5
 31
0.0
  0
LINE
  8
0
  6
CONTINUOUS
 62
     3
  5
33B
 10
-9.8
 20
-119.2
 30
0.0
 11
-9.76509
 21
-121.2
 31
0.0
  0
LINE
  8
0
  6
CONTINUOUS
 62
     3
  5
33C
 10
-9.706061
 20
-119.2
 30
0.0
 11
-9.669823
 21
-121.2
 31
0.0
  0
LINE
  8
0
  6
CONTINUOUS
 62
     3
  5
33D
 10
-9.323545
 20
-119.2
 30
0.0
 11
-9.286634
 21
-121.2
 31
0.0
  0
LINE
  8
0
  6
CONTINUOUS
 62
     3
  5
33E
 10
-8.657737
 20
-119.2
 30
0.0
 11
-8.621276
 21
-121.2
 31
0.0
  0
LINE
  8
0
  6
CONTINUOUS
 62
     3
  5
33F
 10
-7.728869
 20
-119.2
 30
0.0
 11
-7.693964
 21
-121.2
 31
0.0
  0
LINE
  8
0
  6
CONTINUOUS
 62
     3
  5
340
 10
-6.565162
 20
-119.2
 30
0.0
 11
-6.532875
 21
-121.2
 31
0.0
  0
LINE
  8
0
  6
CONTINUOUS
 62
     3
  5
341
 10
-5.201977
 20
-119.2
 30
0.0
 11
-5.173288
 21
-121.2
 31
0.0
  0
LINE
  8
0
  6
CONTINUOUS
 62
     3
  5
342
 10
-3.680732
 20
-119.2
 30
0.0
 11
-3.656513
 21
-121.2
 31
0.0
  0
LINE
  8
0
  6
CONTINUOUS
 62
     3
  5
343
 10
-10.693185
 20
-119.0
 30
0.0
 11
-10.693185
 21
-125.2
 31
0.0
  0
LINE
  8
0
  6
CONTINUOUS
 62
     3
  5
344
 10
-8.648088
 20
-121.2
 30
0.0
 11
-8.648088
 21
-125.2
 31
0.0
  0
LINE
  8
0
  6
CONTINUOUS
 62
     3
  5
345
 10
5.78832
 20
-123.9
 30
0.0
 11
7.694062
 21
-123.9
 31
0.0
  0
LINE
  8
0
  6
CONTINUOUS
 62
     3
  5
346
 10
9.8
 20
-119.2
 30
0.0
 11
9.76509
 21
-121.2
 31
0.0
  0
LINE
  8
0
  6
CONTINUOUS
 62
     3
  5
347
 10
8.657737
 20
-119.2
 30
0.0
 11
8.621275
 21
-121.2
 31
0.0
  0
LINE
  8
0
  6
CONTINUOUS
 62
     3
  5
348
 10
9.323544
 20
-119.2
 30
0.0
 11
9.286634
 21
-121.2
 31
0.0
  0
LINE
  8
0
  6
CONTINUOUS
 62
     3
  5
349
 10
9.706061
 20
-119.2
 30
0.0
 11
9.669823
 21
-121.2
 31
0.0
  0
LINE
  8
0
  6
CONTINUOUS
 62
     3
  5
34A
 10
7.728868
 20
-119.2
 30
0.0
 11
7.693963
 21
-121.2
 31
0.0
  0
LINE
  8
0
  6
CONTINUOUS
 62
     3
  5
34B
 10
6.565162
 20
-119.2
 30
0.0
 11
6.532874
 21
-121.2
 31
0.0
  0
LINE
  8
0
  6
CONTINUOUS
 62
     3
  5
34C
 10
5.201976
 20
-119.2
 30
0.0
 11
5.173287
 21
-121.2
 31
0.0
  0
LINE
  8
0
  6
CONTINUOUS
 62
     3
  5
34D
 10
5.78832
 20
-123.9
 30
0.0
 11
5.741191
 21
-121.2
 31
0.0
  0
LINE
  8
0
  6
CONTINUOUS
 62
     3
  5
34E
 10
7.694062
 20
-123.9
 30
0.0
 11
7.741191
 21
-121.2
 31
0.0
  0
LINE
  8
0
  6
CONTINUOUS
 62
     3
  5
34F
 10
-3.542398
 20
-124.5
 30
0.0
 11
3.542398
 21
-124.5
 31
0.0
  0
LINE
  8
0
  6
CONTINUOUS
 62
     3
  5
350
 10
10.693185
 20
-119.0
 30
0.0
 11
10.693185
 21
-125.2
 31
0.0
  0
LINE
  8
0
  6
CONTINUOUS
 62
     3
  5
351
 10
8.648087
 20
-121.2
 30
0.0
 11
8.648087
 21
-125.2
 31
0.0
  0
LINE
  8
0
  6
CONTINUOUS
 62
     3
  5
352
 10
10.997734
 20
-148.299666
 30
0.0
 11
11.498068
 21
-148.8
 31
0.0
  0
LINE
  8
0
  6
CONTINUOUS
 62
     3
  5
353
 10
10.997734
 20
-140.0
 30
0.0
 11
10.997734
 21
-148.299666
 31
0.0
  0
LINE
  8
0
  6
CONTINUOUS
 62
    80
  5
354
 10
11.498068
 20
-140.0
 30
0.0
 11
11.498068
 21
-148.8
 31
0.0
  0
ARC
  8
0
  6
CONTINUOUS
 62
    80
  5
355
 10
9.967982
 20
-138.265026
 30
0.0
 40
1.465026
 50
46.397181
 51
120.0
  0
ARC
  8
0
  6
CONTINUOUS
 62
    80
  5
356
 10
9.967982
 20
-138.534974
 30
0.0
 40
1.465026
 50
240.0
 51
313.602819
  0
LINE
  8
0
  6
CONTINUOUS
 62
     3
  5
357
 10
9.199071
 20
-135.8
 30
0.0
 11
9.199071
 21
-136.8
 31
0.0
  0
LINE
  8
0
  6
CONTINUOUS
 62
    80
  5
358
 10
10.978345
 20
-137.204145
 30
0.0
 11
10.978345
 21
-139.595855
 31
0.0
  0
LINE
  8
0
  6
CONTINUOUS
 62
     3
  5
359
 10
8.957619
 20
-137.156693
 30
0.0
 11
8.957619
 21
-139.643307
 31
0.0
  0
LINE
  8
0
  6
CONTINUOUS
 62
     3
  5
35A
 10
8.957619
 20
-137.156693
 30
0.0
 11
9.57543
 21
-136.8
 31
0.0
  0
LINE
  8
0
  6
CONTINUOUS
 62
     3
  5
35B
 10
8.957619
 20
-139.643307
 30
0.0
 11
9.57543
 21
-140.0
 31
0.0
  0
LINE
  8
0
  6
CONTINUOUS
 62
    80
  5
35C
 10
12.499071
 20
-136.8
 30
0.0
 11
13.499071
 21
-135.8
 31
0.0
  0
LINE
  8
0
  6
CONTINUOUS
 62
     3
  5
35D
 10
7.999071
 20
-135.0
 30
0.0
 11
7.999071
 21
-135.8
 31
0.0
  0
ARC
  8
0
  6
CONTINUOUS
 62
    80
  5
35E
 10
-9.967982
 20
-138.534974
 30
0.0
 40
1.465026
 50
226.397181
 51
300.0
  0
ARC
  8
0
  6
CONTINUOUS
 62
    80
  5
35F
 10
-9.967982
 20
-138.265026
 30
0.0
 40
1.465026
 50
60.0
 51
133.602819
  0
LINE
  8
0
  6
CONTINUOUS
 62
     3
  5
360
 10
-10.997734
 20
-140.0
 30
0.0
 11
-10.997734
 21
-148.299666
 31
0.0
  0
LINE
  8
0
  6
CONTINUOUS
 62
     3
  5
361
 10
-9.199071
 20
-135.8
 30
0.0
 11
-9.199071
 21
-136.8
 31
0.0
  0
LINE
  8
0
  6
CONTINUOUS
 62
     3
  5
362
 10
-8.957619
 20
-139.643307
 30
0.0
 11
-9.57543
 21
-140.0
 31
0.0
  0
LINE
  8
0
  6
CONTINUOUS
 62
     3
  5
363
 10
-8.957619
 20
-137.156693
 30
0.0
 11
-9.57543
 21
-136.8
 31
0.0
  0
LINE
  8
0
  6
CONTINUOUS
 62
    80
  5
364
 10
-10.978345
 20
-137.204145
 30
0.0
 11
-10.978345
 21
-139.595855
 31
0.0
  0
LINE
  8
0
  6
CONTINUOUS
 62
     3
  5
365
 10
-8.957619
 20
-137.156693
 30
0.0
 11
-8.957619
 21
-139.643307
 31
0.0
  0
LINE
  8
0
  6
CONTINUOUS
 62
     3
  5
366
 10
-7.999071
 20
-135.0
 30
0.0
 11
-7.999071
 21
-135.8
 31
0.0
  0
LINE
  8
0
  6
CONTINUOUS
 62
     3
  5
367
 10
-22.0
 20
-133.0
 30
0.0
 11
22.0
 21
-133.0
 31
0.0
  0
LINE
  8
0
  6
CONTINUOUS
 62
     3
  5
368
 10
-21.0
 20
-125.2
 30
0.0
 11
21.0
 21
-125.2
 31
0.0
  0
LINE
  8
0
  6
CONTINUOUS
 62
     3
  5
369
 10
-24.0
 20
-135.0
 30
0.0
 11
24.0
 21
-135.0
 31
0.0
  0
LINE
  8
0
  6
CONTINUOUS
 62
     3
  5
36A
 10
-16.422713
 20
-140.0
 30
0.0
 11
-9.57543
 21
-140.0
 31
0.0
  0
LINE
  8
0
  6
CONTINUOUS
 62
     3
  5
36B
 10
-17.999071
 20
-135.8
 30
0.0
 11
-7.999071
 21
-135.8
 31
0.0
  0
LINE
  8
0
  6
CONTINUOUS
 62
     3
  5
36C
 10
-16.799071
 20
-136.8
 30
0.0
 11
-9.199071
 21
-136.8
 31
0.0
  0
LINE
  8
0
  6
CONTINUOUS
 62
     3
  5
36D
 10
-11.498069
 20
-148.8
 30
0.0
 11
-10.997734
 21
-148.299666
 31
0.0
  0
LINE
  8
0
  6
CONTINUOUS
 62
    80
  5
36E
 10
-15.000408
 20
-148.299666
 30
0.0
 11
-10.997734
 21
-148.299666
 31
0.0
  0
ARC
  8
0
  6
CONTINUOUS
 62
    80
  5
36F
 10
-12.999071
 20
-142.053888
 30
0.0
 40
5.253887
 50
67.380135
 51
112.619865
  0
ARC
  8
0
  6
CONTINUOUS
 62
    80
  5
370
 10
-12.999071
 20
-134.746113
 30
0.0
 40
5.253887
 50
247.380135
 51
292.619865
  0
LINE
  8
0
  6
CONTINUOUS
 62
     3
  5
371
 10
16.799071
 20
-136.8
 30
0.0
 11
9.199071
 21
-136.8
 31
0.0
  0
LINE
  8
0
  6
CONTINUOUS
 62
     3
  5
372
 10
17.999071
 20
-135.8
 30
0.0
 11
7.999071
 21
-135.8
 31
0.0
  0
LINE
  8
0
  6
CONTINUOUS
 62
     3
  5
373
 10
16.422713
 20
-140.0
 30
0.0
 11
9.57543
 21
-140.0
 31
0.0
  0
ARC
  8
0
  6
CONTINUOUS
 62
    80
  5
374
 10
12.999071
 20
-134.746113
 30
0.0
 40
5.253887
 50
247.380135
 51
292.619865
  0
ARC
  8
0
  6
CONTINUOUS
 62
    80
  5
375
 10
12.999071
 20
-142.053888
 30
0.0
 40
5.253887
 50
67.380135
 51
112.619865
  0
LINE
  8
0
  6
CONTINUOUS
 62
    80
  5
376
 10
10.997734
 20
-148.299666
 30
0.0
 11
15.000408
 21
-148.299666
 31
0.0
  0
LINE
  8
0
  6
CONTINUOUS
 62
     3
  5
377
 10
11.498068
 20
-148.8
 30
0.0
 11
14.500074
 21
-148.8
 31
0.0
  0
LINE
  8
0
  6
CONTINUOUS
 62
     3
  5
378
 10
-2.04765
 20
-119.2
 30
0.0
 11
-2.028637
 21
-121.2
 31
0.0
  0
LINE
  8
0
  6
CONTINUOUS
 62
     3
  5
379
 10
-0.160693
 20
-119.2
 30
0.0
 11
-0.147463
 21
-121.2
 31
0.0
  0
LINE
  8
0
  6
CONTINUOUS
 62
     3
  5
37A
 10
0.160693
 20
-119.2
 30
0.0
 11
0.147463
 21
-121.2
 31
0.0
  0
LINE
  8
0
  6
CONTINUOUS
 62
     3
  5
37B
 10
2.04765
 20
-119.2
 30
0.0
 11
2.028636
 21
-121.2
 31
0.0
  0
LINE
  8
0
  6
CONTINUOUS
 62
     3
  5
37C
 10
3.680732
 20
-119.2
 30
0.0
 11
3.656512
 21
-121.2
 31
0.0
  0
LINE
  8
0
  6
CONTINUOUS
 62
     3
  5
37D
 10
-21.0
 20
-119.0
 30
0.0
 11
21.0
 21
-119.0
 31
0.0
  0
LINE
  8
0
  6
CONTINUOUS
 62
     3
  5
37E
 10
-9.76509
 20
-121.2
 30
0.0
 11
9.76509
 21
-121.2
 31
0.0
  0
LINE
  8
0
  6
CONTINUOUS
 62
     3
  5
37F
 10
-9.8
 20
-119.2
 30
0.0
 11
9.8
 21
-119.2
 31
0.0
  0
LINE
  8
0
  6
CONTINUOUS
 62
     3
  5
380
 10
3.6
 20
-121.2
 30
0.0
 11
3.542398
 21
-124.5
 31
0.0
  0
LINE
  8
0
  6
CONTINUOUS
 62
     3
  5
381
 10
-22.5
 20
-113.45804
 30
0.0
 11
22.5
 21
-113.45804
 31
0.0
  0
LINE
  8
0
  6
CONTINUOUS
 62
     3
  5
382
 10
22.0
 20
-116.0
 30
0.0
 11
22.5
 21
-115.5
 31
0.0
  0
LINE
  8
0
  6
CONTINUOUS
 62
     3
  5
383
 10
19.5
 20
-110.0
 30
0.0
 11
20.0
 21
-110.5
 31
0.0
  0
LINE
  8
0
  6
CONTINUOUS
 62
     3
  5
384
 10
22.5
 20
-113.45804
 30
0.0
 11
22.5
 21
-115.5
 31
0.0
  0
ARC
  8
0
  6
CONTINUOUS
 62
     3
  5
385
 10
23.0
 20
-110.5
 30
0.0
 40
3.0
 50
180.0
 51
260.405932
  0
LINE
  8
0
  6
CONTINUOUS
 62
     3
  5
386
 10
-22.0
 20
-116.0
 30
0.0
 11
22.0
 21
-116.0
 31
0.0
  0
ARC
  8
0
  6
CONTINUOUS
 62
     3
  5
387
 10
-23.0
 20
-110.5
 30
0.0
 40
3.0
 50
279.594068
 51
0.0
  0
LINE
  8
0
  6
CONTINUOUS
 62
     3
  5
388
 10
-22.5
 20
-113.45804
 30
0.0
 11
-22.5
 21
-115.5
 31
0.0
  0
ENDBLK
  8
0
  5
389
  0
BLOCK
  8
0
  5
38A
  2
MS_13
 70
     0
 10
0.0
 20
0.0
 30
0.0
  3
MS_13
  0
CIRCLE
  8
0
  6
CONTINUOUS
 62
     3
  5
38B
 10
0.0
 20
0.0
 30
0.0
 40
24.0
  0
CIRCLE
  8
0
  6
CONTINUOUS
 62
     3
  5
38C
 10
0.0
 20
0.0
 30
0.0
 40
5.0
  0
CIRCLE
  8
0
  6
CONTINUOUS
 62
     3
  5
38D
 10
-7.5
 20
12.990381
 30
0.0
 40
2.0
  0
CIRCLE
  8
0
  6
CONTINUOUS
 62
     3
  5
38E
 10
15.0
 20
0.0
 30
0.0
 40
2.0
  0
CIRCLE
  8
0
  6
CONTINUOUS
 62
     3
  5
38F
 10
-7.5
 20
-12.990381
 30
0.0
 40
2.0
  0
ARC
  8
0
  6
CONTINUOUS
 62
     3
  5
390
 10
-9.812498
 20
-16.995744
 30
0.0
 40
3.5
 50
239.972043
 51
240.0
  0
LINE
  8
0
  6
CONTINUOUS
 62
     3
  5
391
 10
11.5
 20
2.020726
 30
0.0
 11
11.5
 21
-2.020726
 31
0.0
  0
LINE
  8
0
  6
CONTINUOUS
 62
     3
  5
392
 10
18.5
 20
2.020726
 30
0.0
 11
18.5
 21
-2.020726
 31
0.0
  0
LINE
  8
0
  6
CONTINUOUS
 62
     3
  5
393
 10
15.0
 20
4.041452
 30
0.0
 11
11.5
 21
2.020726
 31
0.0
  0
LINE
  8
0
  6
CONTINUOUS
 62
     3
  5
394
 10
18.5
 20
-2.020726
 30
0.0
 11
15.0
 21
-4.041452
 31
0.0
  0
LINE
  8
0
  6
CONTINUOUS
 62
     3
  5
395
 10
15.0
 20
4.041452
 30
0.0
 11
18.5
 21
2.020726
 31
0.0
  0
LINE
  8
0
  6
CONTINUOUS
 62
     3
  5
396
 10
11.5
 20
-2.020726
 30
0.0
 11
15.0
 21
-4.041452
 31
0.0
  0
LINE
  8
0
  6
CONTINUOUS
 62
     3
  5
397
 10
-4.0
 20
-10.969655
 30
0.0
 11
-7.5
 21
-8.948929
 31
0.0
  0
LINE
  8
0
  6
CONTINUOUS
 62
     3
  5
398
 10
-7.5
 20
-17.031833
 30
0.0
 11
-11.0
 21
-15.011107
 31
0.0
  0
LINE
  8
0
  6
CONTINUOUS
 62
     3
  5
399
 10
-4.0
 20
-15.011107
 30
0.0
 11
-4.0
 21
-10.969655
 31
0.0
  0
LINE
  8
0
  6
CONTINUOUS
 62
     3
  5
39A
 10
-11.0
 20
-15.011107
 30
0.0
 11
-11.0
 21
-10.969655
 31
0.0
  0
LINE
  8
0
  6
CONTINUOUS
 62
     3
  5
39B
 10
-4.0
 20
-15.011107
 30
0.0
 11
-7.5
 21
-17.031833
 31
0.0
  0
LINE
  8
0
  6
CONTINUOUS
 62
     3
  5
39C
 10
-7.5
 20
-8.948929
 30
0.0
 11
-11.0
 21
-10.969655
 31
0.0
  0
LINE
  8
0
  6
CONTINUOUS
 62
     3
  5
39D
 10
-7.5
 20
8.948929
 30
0.0
 11
-4.0
 21
10.969655
 31
0.0
  0
LINE
  8
0
  6
CONTINUOUS
 62
     3
  5
39E
 10
-11.0
 20
15.011107
 30
0.0
 11
-7.5
 21
17.031833
 31
0.0
  0
LINE
  8
0
  6
CONTINUOUS
 62
     3
  5
39F
 10
-11.0
 20
10.969655
 30
0.0
 11
-7.5
 21
8.948929
 31
0.0
  0
LINE
  8
0
  6
CONTINUOUS
 62
     3
  5
3A0
 10
-7.5
 20
17.031833
 30
0.0
 11
-4.0
 21
15.011107
 31
0.0
  0
LINE
  8
0
  6
CONTINUOUS
 62
     3
  5
3A1
 10
-11.0
 20
10.969655
 30
0.0
 11
-11.0
 21
15.011107
 31
0.0
  0
LINE
  8
0
  6
CONTINUOUS
 62
     3
  5
3A2
 10
-4.0
 20
10.969655
 30
0.0
 11
-4.0
 21
15.011107
 31
0.0
  0
CIRCLE
  8
0
  6
CONTINUOUS
 62
     3
  5
3A3
 10
-7.5
 20
12.990381
 30
0.0
 40
5.0
  0
CIRCLE
  8
0
  6
CONTINUOUS
 62
     3
  5
3A4
 10
-7.5
 20
-12.990381
 30
0.0
 40
5.0
  0
CIRCLE
  8
0
  6
CONTINUOUS
 62
     3
  5
3A5
 10
15.0
 20
0.0
 30
0.0
 40
5.0
  0
ENDBLK
  8
0
  5
3A6
  0
ENDSEC
  0
SECTION
  2
ENTITIES
  0
ARC
  8
LY_1
  6
CONTINUOUS
 62
    80
  5
3A7
 10
283.004255
 20
189.812498
 30
0.0
 40
3.5
 50
149.972043
 51
150.0
  0
INSERT
  8
LY_1
  6
BYBLOCK
  5
3A8
  2
MS_13
 10
300.0
 20
180.0
 30
0.0
 50
270.0
  0
INSERT
  8
LY_1
  6
BYBLOCK
  5
3A9
  2
MS_2
 10
300.0
 20
559.304545
 30
0.0
  0
CIRCLE
  8
LY_1
  6
CONTINUOUS
 62
     3
  5
3AA
 10
300.0
 20
559.304545
 30
0.0
 40
24.0
  0
INSERT
  8
LY_1
  6
BYBLOCK
  5
3AB
  2
MS_10
 10
-300.0
 20
180.0
 30
0.0
  0
INSERT
  8
LY_1
  6
BYBLOCK
  5
3AC
  2
MS_2
 10
-300.0
 20
559.304545
 30
0.0
  0
CIRCLE
  8
LY_1
  6
CONTINUOUS
 62
     3
  5
3AD
 10
-300.0
 20
559.304545
 30
0.0
 40
22.0
  0
ARC
  8
LY_1
  6
CONTINUOUS
 62
    80
  5
3AE
 10
483.004255
 20
189.812498
 30
0.0
 40
3.5
 50
149.972043
 51
150.0
  0
INSERT
  8
LY_1
  6
BYBLOCK
  5
3AF
  2
MS_13
 10
500.0
 20
180.0
 30
0.0
 50
270.0
  0
INSERT
  8
LY_1
  6
BYBLOCK
  5
3B0
  2
MS_2
 10
500.0
 20
559.304545
 30
0.0
  0
CIRCLE
  8
LY_1
  6
CONTINUOUS
 62
     3
  5
3B1
 10
500.0
 20
559.304545
 30
0.0
 40
24.0
  0
INSERT
  8
LY_1
  6
BYBLOCK
  5
3B2
  2
MS_10
 10
-100.0
 20
180.0
 30
0.0
  0
INSERT
  8
LY_1
  6
BYBLOCK
  5
3B3
  2
MS_2
 10
-100.0
 20
559.304545
 30
0.0
  0
CIRCLE
  8
LY_1
  6
CONTINUOUS
 62
     3
  5
3B4
 10
-100.0
 20
559.304545
 30
0.0
 40
22.0
  0
TEXT
  8
LY_1
  6
CONTINUOUS
 62
   255
  5
3B5
 10
334.375
 20
666.804545
 30
0.0
 40
30.0
  1
ROMG
 41
0.9375
  7
MX_NOTE_STANDARD
 11
334.375
 21
681.804545
 31
0.0
 73
     2
  0
TEXT
  8
LY_1
  6
CONTINUOUS
 62
   255
  5
3B6
 10
334.375
 20
621.804545
 30
0.0
 40
30.0
  1
ROMGB
 41
0.9375
  7
MX_NOTE_STANDARD
 11
334.375
 21
636.804545
 31
0.0
 73
     2
  0
TEXT
  8
LY_1
  6
CONTINUOUS
 62
   255
  5
3B7
 10
-237.5
 20
644.304545
 30
0.0
 40
30.0
  1
ROG
 41
0.9375
  7
MX_NOTE_STANDARD
 11
-237.5
 21
659.304545
 31
0.0
 73
     2
  0
INSERT
  8
LY_1
  6
BYBLOCK
  5
3B8
  2
MS_12
 10
300.0
 20
415.0
 30
0.0
  0
INSERT
  8
LY_1
  6
BYBLOCK
  5
3B9
  2
MS_12
 10
500.0
 20
415.0
 30
0.0
  0
INSERT
  8
LY_1
  6
BYBLOCK
  5
3BA
  2
MS_9
 10
-100.0
 20
324.304545
 30
0.0
  0
INSERT
  8
LY_1
  6
BYBLOCK
  5
3BB
  2
MS_9
 10
-300.0
 20
324.304545
 30
0.0
  0
INSERT
  8
LY_1
  6
BYBLOCK
  5
3BC
  2
MS_3
 10
500.0
 20
485.0
 30
0.0
  0
INSERT
  8
LY_1
  6
BYBLOCK
  5
3BD
  2
MS_1
 10
500.0
 20
450.0
 30
0.0
  0
INSERT
  8
LY_1
  6
BYBLOCK
  5
3BE
  2
MS_1
 10
500.0
 20
415.0
 30
0.0
  0
INSERT
  8
LY_1
  6
BYBLOCK
  5
3BF
  2
MS_3
 10
300.0
 20
450.0
 30
0.0
  0
INSERT
  8
LY_1
  6
BYBLOCK
  5
3C0
  2
MS_1
 10
300.0
 20
415.0
 30
0.0
  0
INSERT
  8
LY_1
  6
BYBLOCK
  5
3C1
  2
MS_1
 10
-300.0
 20
324.304545
 30
0.0
  0
INSERT
  8
LY_1
  6
BYBLOCK
  5
3C2
  2
MS_3
 10
-300.0
 20
359.304545
 30
0.0
  0
INSERT
  8
LY_1
  6
BYBLOCK
  5
3C3
  2
MS_1
 10
-100.0
 20
324.304545
 30
0.0
  0
INSERT
  8
LY_1
  6
BYBLOCK
  5
3C4
  2
MS_1
 10
-100.0
 20
359.304545
 30
0.0
  0
INSERT
  8
LY_1
  6
BYBLOCK
  5
3C5
  2
MS_3
 10
-100.0
 20
394.304545
 30
0.0
  0
ENDSEC
  0
EOF
