  0
SECTION
  2
HEADER
  9
$ACADVER
  1
AC1009
  9
$DWGCODEPAGE
  3
dos932
  9
$INSBASE
 10
0.0
 20
0.0
 30
0.0
  9
$EXTMIN
 10
-329.999921
 20
239.400013
 30
0.0
  9
$EXTMAX
 10
565.000081
 20
1058.300012
 30
0.0
  9
$LIMMIN
 10
-329.999921
 20
239.400013
  9
$LIMMAX
 10
565.000081
 20
1058.300012
  9
$ORTHOMODE
 70
     0
  9
$REGENMODE
 70
     1
  9
$FILLMODE
 70
     1
  9
$QTEXTMODE
 70
     0
  9
$MIRRTEXT
 70
     1
  9
$DRAGMODE
 70
     2
  9
$LTSCALE
 40
1.0
  9
$OSMODE
 70
     0
  9
$ATTMODE
 70
     1
  9
$TEXTSIZE
 40
4.1656
  9
$TRACEWID
 40
0.05
  9
$TEXTSTYLE
  7
MX_NOTE_STANDARD
  9
$CLAYER
  8
LY_1
  9
$CELTYPE
  6
CONTINUOUS
  9
$CECOLOR
 62
   256
  9
$DIMSCALE
 40
1.0
  9
$DIMASZ
 40
2.5
  9
$DIMEXO
 40
0.5
  9
$DIMDLI
 40
3.75
  9
$DIMRND
 40
0.0
  9
$DIMDLE
 40
0.0
  9
$DIMEXE
 40
1.0
  9
$DIMTP
 40
0.0
  9
$DIMTM
 40
0.0
  9
$DIMTXT
 40
2.5
  9
$DIMCEN
 40
2.5
  9
$DIMTSZ
 40
0.0
  9
$DIMTOL
 70
     0
  9
$DIMLIM
 70
     0
  9
$DIMTIH
 70
     0
  9
$DIMTOH
 70
     0
  9
$DIMSE1
 70
     0
  9
$DIMSE2
 70
     0
  9
$DIMTAD
 70
     1
  9
$DIMZIN
 70
     8
  9
$DIMBLK
  1

  9
$DIMASO
 70
     1
  9
$DIMSHO
 70
     1
  9
$DIMPOST
  1

  9
$DIMAPOST
  1

  9
$DIMALT
 70
     0
  9
$DIMALTD
 70
     4
  9
$DIMALTF
 40
0.03937
  9
$DIMLFAC
 40
1.0
  9
$DIMTOFL
 70
     1
  9
$DIMTVP
 40
0.0
  9
$DIMTIX
 70
     0
  9
$DIMSOXD
 70
     0
  9
$DIMSAH
 70
     0
  9
$DIMBLK1
  1

  9
$DIMBLK2
  1

  9
$DIMSTYLE
  2
MXDIMSTYLE
  9
$DIMCLRD
 70
     0
  9
$DIMCLRE
 70
     0
  9
$DIMCLRT
 70
     0
  9
$DIMTFAC
 40
1.0
  9
$DIMGAP
 40
1.0
  9
$LUNITS
 70
     2
  9
$LUPREC
 70
     4
  9
$AXISMODE
 70
     0
  9
$AXISUNIT
 10
0.0
 20
0.0
  9
$SKETCHINC
 40
0.1
  9
$FILLETRAD
 40
0.0
  9
$AUNITS
 70
     0
  9
$AUPREC
 70
     0
  9
$MENU
  1
acad
  9
$ELEVATION
 40
0.0
  9
$PELEVATION
 40
0.0
  9
$THICKNESS
 40
0.0
  9
$LIMCHECK
 70
     0
  9
$BLIPMODE
 70
     1
  9
$CHAMFERA
 40
0.0
  9
$CHAMFERB
 40
0.0
  9
$SKPOLY
 70
     0
  9
$TDCREATE
 40
2453781.727858796
  9
$TDUPDATE
 40
2453781.727858796
  9
$TDINDWG
 40
0.0000000000
  9
$TDUSRTIMER
 40
0.0000000000
  9
$USRTIMER
 70
     1
  9
$ANGBASE
 50
0.0
  9
$ANGDIR
 70
     0
  9
$PDMODE
 70
     0
  9
$PDSIZE
 40
0.0
  9
$PLINEWID
 40
0.0
  9
$COORDS
 70
     1
  9
$SPLFRAME
 70
     0
  9
$SPLINETYPE
 70
     6
  9
$SPLINESEGS
 70
     8
  9
$ATTDIA
 70
     0
  9
$ATTREQ
 70
     1
  9
$HANDLING
 70
     1
  9
$HANDSEED
  5
C19
  9
$SURFTAB1
 70
     6
  9
$SURFTAB2
 70
     6
  9
$SURFTYPE
 70
     6
  9
$SURFU
 70
     6
  9
$SURFV
 70
     6
  9
$UCSNAME
  2

  9
$UCSORG
 10
0.0
 20
0.0
 30
0.0
  9
$UCSXDIR
 10
1.0
 20
0.0
 30
0.0
  9
$UCSYDIR
 10
0.0
 20
1.0
 30
0.0
  9
$PUCSNAME
  2

  9
$PUCSORG
 10
0.0
 20
0.0
 30
0.0
  9
$PUCSXDIR
 10
1.0
 20
0.0
 30
0.0
  9
$PUCSYDIR
 10
0.0
 20
1.0
 30
0.0
  9
$USERI1
 70
     0
  9
$USERI2
 70
     0
  9
$USERI3
 70
     0
  9
$USERI4
 70
     0
  9
$USERI5
 70
     0
  9
$USERR1
 40
0.0
  9
$USERR2
 40
0.0
  9
$USERR3
 40
0.0
  9
$USERR4
 40
0.0
  9
$USERR5
 40
0.0
  9
$WORLDVIEW
 70
     1
  9
$SHADEDGE
 70
     3
  9
$SHADEDIF
 70
    70
  9
$TILEMODE
 70
     1
  9
$MAXACTVP
 70
    16
  9
$PINSBASE
 10
0.0
 20
0.0
 30
0.0
  9
$PLIMCHECK
 70
     0
  9
$PEXTMIN
 10
1.000000E+20
 20
1.000000E+20
 30
1.000000E+20
  9
$PEXTMAX
 10
-1.000000E+20
 20
-1.000000E+20
 30
-1.000000E+20
  9
$PLIMMIN
 10
0.0
 20
0.0
  9
$PLIMMAX
 10
12.0
 20
9.0
  9
$UNITMODE
 70
     0
  9
$VISRETAIN
 70
     0
  9
$PLINEGEN
 70
     1
  9
$PSLTSCALE
 70
     0
  9
$TREEDEPTH
 70
  3020
  9
$DWGCODEPAGE
  3
dos932
  0
ENDSEC
  0
SECTION
  2
TABLES
  0
TABLE
  2
VPORT
 70
     1
  0
VPORT
  2
*ACTIVE
 70
     0
 10
0.0
 20
0.0
 11
1.0
 21
1.0
 12
117.50008
 22
648.850012
 13
0.0
 23
0.0
 14
1.0
 24
1.0
 15
0.0
 25
0.0
 16
0.0
 26
0.0
 36
1.0
 17
0.0
 27
0.0
 37
0.0
 40
827.088999
 41
1.732051
 42
50.0
 43
0.0
 44
0.0
 50
0.0
 51
0.0
 71
     0
 72
   100
 73
     1
 74
     1
 75
     0
 76
     0
 77
     0
 78
     0
  0
ENDTAB
  0
TABLE
  2
LTYPE
 70
     3
  0
LTYPE
  2
CONTINUOUS
 70
    64
  3
Solid line
 72
    65
 73
     0
 40
0.0
  0
LTYPE
  2
CENTER
 70
    64
  3
Center ____ _ ____ _ ____ _ ____ _ ____ _ ____
 72
    65
 73
     4
 40
50.8
 49
31.75
 49
-6.35
 49
6.35
 49
-6.35
  0
LTYPE
  2
DASHED
 70
    64
  3
Dashed __ __ __ __ __ __ __ __ __ __ __ __ __ _
 72
    65
 73
     2
 40
19.05
 49
12.7
 49
-6.35
  0
ENDTAB
  0
TABLE
  2
LAYER
 70
     3
  0
LAYER
  2
0
 70
     0
 62
     7
  6
CONTINUOUS
  0
LAYER
  2
LY_1
 70
     0
 62
     7
  6
CONTINUOUS
  0
LAYER
  2
DEFPOINTS
 70
     0
 62
     7
  6
CONTINUOUS
  0
ENDTAB
  0
TABLE
  2
STYLE
 70
     1
  0
STYLE
  2
MX_NOTE_STANDARD
 70
     0
 40
0.0
 41
1.0
 50
0.0
 71
     0
 42
4.1656
  3
txt.shx
  4
extfont.shx
  0
ENDTAB
  0
TABLE
  2
VIEW
 70
     0
  0
ENDTAB
  0
TABLE
  2
UCS
 70
     0
  0
ENDTAB
  0
TABLE
  2
APPID
 70
     1
  0
APPID
  2
ACAD
 70
     0
  0
ENDTAB
  0
TABLE
  2
DIMSTYLE
 70
     1
  0
DIMSTYLE
  2
MXDIMSTYLE
 70
     0
  3

  4

  5

  6

  7

 40
1.0
 41
2.5
 42
0.5
 43
3.75
 44
1.0
 45
0.0
 46
0.0
 47
0.0
 48
0.0
 71
     0
 72
     0
 73
     0
 74
     0
 75
     0
 76
     0
 77
     1
 78
     8
140
2.5
141
2.5
142
0.0
143
0.03937
144
1.0
145
0.0
146
1.0
147
1.0
170
     0
171
     4
172
     1
173
     0
174
     0
175
     0
176
     0
177
     0
178
     0
  0
ENDTAB
  0
ENDSEC
  0
SECTION
  2
BLOCKS
  0
BLOCK
  8
0
  5
2F
  2
MS_1
 70
     0
 10
0.0
 20
0.0
 30
0.0
  3
MS_1
  0
LINE
  8
0
  6
CONTINUOUS
 62
     3
  5
30
 10
19.508726
 20
34.965719
 30
0.0
 11
17.544764
 21
35.0
 31
0.0
  0
LINE
  8
0
  6
CONTINUOUS
 62
     3
  5
31
 10
-19.508726
 20
34.965719
 30
0.0
 11
-17.544764
 21
35.0
 31
0.0
  0
LINE
  8
0
  6
CONTINUOUS
 62
     3
  5
32
 10
-19.508726
 20
-0.034281
 30
0.0
 11
-17.544764
 21
0.0
 31
0.0
  0
LINE
  8
0
  6
CONTINUOUS
 62
     3
  5
33
 10
19.508726
 20
-0.034281
 30
0.0
 11
17.544764
 21
0.0
 31
0.0
  0
LINE
  8
0
  6
CONTINUOUS
 62
     3
  5
34
 10
17.55
 20
0.0
 30
0.0
 11
-17.55
 21
0.0
 31
0.0
  0
LINE
  8
0
  6
CONTINUOUS
 62
     3
  5
35
 10
17.55
 20
35.0
 30
0.0
 11
-17.55
 21
35.0
 31
0.0
  0
LINE
  8
0
  6
CONTINUOUS
 62
    80
  5
36
 10
-17.24337
 20
5.957144
 30
0.0
 11
-17.24337
 21
32.957144
 31
0.0
  0
LINE
  8
0
  6
CONTINUOUS
 62
    80
  5
37
 10
18.399477
 20
5.957144
 30
0.0
 11
18.399477
 21
32.957144
 31
0.0
  0
LINE
  8
0
  6
CONTINUOUS
 62
    80
  5
38
 10
16.251734
 20
5.957144
 30
0.0
 11
16.251734
 21
32.957144
 31
0.0
  0
LINE
  8
0
  6
CONTINUOUS
 62
    80
  5
39
 10
13.519245
 20
5.957144
 30
0.0
 11
13.519245
 21
32.957144
 31
0.0
  0
LINE
  8
0
  6
CONTINUOUS
 62
    80
  5
3A
 10
9.937291
 20
5.957144
 30
0.0
 11
9.937291
 21
32.957144
 31
0.0
  0
LINE
  8
0
  6
CONTINUOUS
 62
    80
  5
3B
 10
5.730941
 20
5.957144
 30
0.0
 11
5.730941
 21
32.957144
 31
0.0
  0
LINE
  8
0
  6
CONTINUOUS
 62
    80
  5
3C
 10
1.164495
 20
5.957144
 30
0.0
 11
1.164495
 21
32.957144
 31
0.0
  0
LINE
  8
0
  6
CONTINUOUS
 62
    80
  5
3D
 10
-3.475121
 20
5.957144
 30
0.0
 11
-3.475121
 21
32.957144
 31
0.0
  0
LINE
  8
0
  6
CONTINUOUS
 62
    80
  5
3E
 10
-7.896382
 20
5.957144
 30
0.0
 11
-7.896382
 21
32.957144
 31
0.0
  0
LINE
  8
0
  6
CONTINUOUS
 62
    80
  5
3F
 10
-15.003799
 20
5.957144
 30
0.0
 11
-15.003799
 21
32.957144
 31
0.0
  0
LINE
  8
0
  6
CONTINUOUS
 62
    80
  5
40
 10
11.821484
 20
5.957144
 30
0.0
 11
11.821484
 21
32.957144
 31
0.0
  0
LINE
  8
0
  6
CONTINUOUS
 62
    80
  5
41
 10
7.896382
 20
5.957144
 30
0.0
 11
7.896382
 21
32.957144
 31
0.0
  0
LINE
  8
0
  6
CONTINUOUS
 62
    80
  5
42
 10
3.475121
 20
5.957144
 30
0.0
 11
3.475121
 21
32.957144
 31
0.0
  0
LINE
  8
0
  6
CONTINUOUS
 62
    80
  5
43
 10
-1.164495
 20
5.957144
 30
0.0
 11
-1.164495
 21
32.957144
 31
0.0
  0
LINE
  8
0
  6
CONTINUOUS
 62
    80
  5
44
 10
-9.937291
 20
5.957144
 30
0.0
 11
-9.937291
 21
32.957144
 31
0.0
  0
LINE
  8
0
  6
CONTINUOUS
 62
    80
  5
45
 10
-5.730941
 20
5.957144
 30
0.0
 11
-5.730941
 21
32.957144
 31
0.0
  0
LINE
  8
0
  6
CONTINUOUS
 62
    80
  5
46
 10
-18.545715
 20
5.957144
 30
0.0
 11
-18.545715
 21
32.957144
 31
0.0
  0
LINE
  8
0
  6
CONTINUOUS
 62
    80
  5
47
 10
-18.399477
 20
5.957144
 30
0.0
 11
-18.399477
 21
32.957144
 31
0.0
  0
LINE
  8
0
  6
CONTINUOUS
 62
    80
  5
48
 10
-17.963068
 20
5.957144
 30
0.0
 11
-17.963068
 21
32.957144
 31
0.0
  0
LINE
  8
0
  6
CONTINUOUS
 62
    80
  5
49
 10
-16.251734
 20
5.957144
 30
0.0
 11
-16.251734
 21
32.957144
 31
0.0
  0
LINE
  8
0
  6
CONTINUOUS
 62
    80
  5
4A
 10
-13.519245
 20
5.957144
 30
0.0
 11
-13.519245
 21
32.957144
 31
0.0
  0
LINE
  8
0
  6
CONTINUOUS
 62
    80
  5
4B
 10
-11.821484
 20
5.957144
 30
0.0
 11
-11.821484
 21
32.957144
 31
0.0
  0
LINE
  8
0
  6
CONTINUOUS
 62
    80
  5
4C
 10
18.545715
 20
5.957144
 30
0.0
 11
18.545715
 21
32.957144
 31
0.0
  0
LINE
  8
0
  6
CONTINUOUS
 62
    80
  5
4D
 10
17.963068
 20
5.957144
 30
0.0
 11
17.963068
 21
32.957144
 31
0.0
  0
LINE
  8
0
  6
CONTINUOUS
 62
    80
  5
4E
 10
17.24337
 20
5.957144
 30
0.0
 11
17.24337
 21
32.957144
 31
0.0
  0
LINE
  8
0
  6
CONTINUOUS
 62
    80
  5
4F
 10
15.003799
 20
5.957144
 30
0.0
 11
15.003799
 21
32.957144
 31
0.0
  0
LINE
  8
0
  6
CONTINUOUS
 62
    80
  5
50
 10
-20.0
 20
3.5
 30
0.0
 11
20.0
 21
3.5
 31
0.0
  0
LINE
  8
0
  6
CONTINUOUS
 62
    80
  5
51
 10
-20.0
 20
32.5
 30
0.0
 11
20.0
 21
32.5
 31
0.0
  0
LINE
  8
0
  6
CONTINUOUS
 62
    80
  5
52
 10
-19.971065
 20
12.5
 30
0.0
 11
19.971065
 21
12.5
 31
0.0
  0
LINE
  8
0
  6
CONTINUOUS
 62
    80
  5
53
 10
-19.954939
 20
17.5
 30
0.0
 11
19.954939
 21
17.5
 31
0.0
  0
LINE
  8
0
  6
CONTINUOUS
 62
    80
  5
54
 10
-19.888054
 20
22.0
 30
0.0
 11
19.888054
 21
22.0
 31
0.0
  0
LINE
  8
0
  6
CONTINUOUS
 62
    80
  5
55
 10
-19.863787
 20
26.0
 30
0.0
 11
19.863787
 21
26.0
 31
0.0
  0
LINE
  8
0
  6
CONTINUOUS
 62
    80
  5
56
 10
-19.784944
 20
30.0
 30
0.0
 11
19.784944
 21
30.0
 31
0.0
  0
LINE
  8
0
  6
CONTINUOUS
 62
    80
  5
57
 10
-19.954178
 20
9.5
 30
0.0
 11
19.954178
 21
9.5
 31
0.0
  0
LINE
  8
0
  6
CONTINUOUS
 62
    80
  5
58
 10
-19.954178
 20
6.5
 30
0.0
 11
19.954178
 21
6.5
 31
0.0
  0
ARC
  8
0
  6
CONTINUOUS
 62
     3
  5
59
 10
-20.630476
 20
31.25
 30
0.0
 40
1.4
 50
314.639988
 51
63.234499
  0
ARC
  8
0
  6
CONTINUOUS
 62
     3
  5
5A
 10
-22.236068
 20
28.0
 30
0.0
 40
3.0
 50
325.150095
 51
32.84097
  0
ARC
  8
0
  6
CONTINUOUS
 62
     3
  5
5B
 10
-22.236068
 20
24.0
 30
0.0
 40
3.0
 50
324.423779
 51
34.849905
  0
ARC
  8
0
  6
CONTINUOUS
 62
     3
  5
5C
 10
-23.307189
 20
19.75
 30
0.0
 40
4.0
 50
328.679478
 51
29.468478
  0
ARC
  8
0
  6
CONTINUOUS
 62
     3
  5
5D
 10
-29.682458
 20
15.0
 30
0.0
 40
10.0
 50
346.485281
 51
13.27345
  0
ARC
  8
0
  6
CONTINUOUS
 62
     3
  5
5E
 10
-23.162278
 20
11.0
 30
0.0
 40
3.5
 50
337.975687
 51
22.740014
  0
ARC
  8
0
  6
CONTINUOUS
 62
     3
  5
5F
 10
-23.162278
 20
8.0
 30
0.0
 40
3.5
 50
337.975687
 51
22.024313
  0
ARC
  8
0
  6
CONTINUOUS
 62
     3
  5
60
 10
-23.162278
 20
5.0
 30
0.0
 40
3.5
 50
334.623066
 51
22.024313
  0
ARC
  8
0
  6
CONTINUOUS
 62
     3
  5
61
 10
-19.295441
 20
29.898082
 30
0.0
 40
0.5
 50
134.639988
 51
212.84097
  0
ARC
  8
0
  6
CONTINUOUS
 62
     3
  5
62
 10
-19.363787
 20
26.0
 30
0.0
 40
0.5
 50
145.150095
 51
214.849905
  0
ARC
  8
0
  6
CONTINUOUS
 62
     3
  5
63
 10
-19.38937
 20
21.963751
 30
0.0
 40
0.5
 50
144.423779
 51
209.468478
  0
ARC
  8
0
  6
CONTINUOUS
 62
     3
  5
64
 10
-19.454178
 20
6.5
 30
0.0
 40
0.5
 50
157.975687
 51
202.024313
  0
ARC
  8
0
  6
CONTINUOUS
 62
     3
  5
65
 10
-19.454178
 20
9.5
 30
0.0
 40
0.5
 50
157.975687
 51
202.024313
  0
ARC
  8
0
  6
CONTINUOUS
 62
     3
  5
66
 10
-19.462962
 20
17.410787
 30
0.0
 40
0.5
 50
148.679478
 51
193.27345
  0
ARC
  8
0
  6
CONTINUOUS
 62
     3
  5
67
 10
-19.473204
 20
12.546201
 30
0.0
 40
0.5
 50
166.485281
 51
202.740014
  0
LINE
  8
0
  6
CONTINUOUS
 62
     3
  5
68
 10
-20.0
 20
3.5
 30
0.0
 11
-20.0
 21
0.457144
 31
0.0
  0
LINE
  8
0
  6
CONTINUOUS
 62
     3
  5
69
 10
-20.0
 20
34.465795
 30
0.0
 11
-20.0
 21
32.5
 31
0.0
  0
ARC
  8
0
  6
CONTINUOUS
 62
     3
  5
6A
 10
19.473204
 20
12.546201
 30
0.0
 40
0.5
 50
337.259986
 51
13.514719
  0
ARC
  8
0
  6
CONTINUOUS
 62
     3
  5
6B
 10
19.462962
 20
17.410787
 30
0.0
 40
0.5
 50
346.72655
 51
31.320522
  0
ARC
  8
0
  6
CONTINUOUS
 62
     3
  5
6C
 10
19.454178
 20
9.5
 30
0.0
 40
0.5
 50
337.975687
 51
22.024313
  0
ARC
  8
0
  6
CONTINUOUS
 62
     3
  5
6D
 10
19.454178
 20
6.5
 30
0.0
 40
0.5
 50
337.975687
 51
22.024313
  0
ARC
  8
0
  6
CONTINUOUS
 62
     3
  5
6E
 10
19.38937
 20
21.963751
 30
0.0
 40
0.5
 50
330.531522
 51
35.576221
  0
ARC
  8
0
  6
CONTINUOUS
 62
     3
  5
6F
 10
19.363787
 20
26.0
 30
0.0
 40
0.5
 50
325.150095
 51
34.849905
  0
ARC
  8
0
  6
CONTINUOUS
 62
     3
  5
70
 10
19.295441
 20
29.898082
 30
0.0
 40
0.5
 50
327.15903
 51
45.360012
  0
LINE
  8
0
  6
CONTINUOUS
 62
     3
  5
71
 10
20.0
 20
3.5
 30
0.0
 11
20.0
 21
0.457144
 31
0.0
  0
ARC
  8
0
  6
CONTINUOUS
 62
     3
  5
72
 10
23.162278
 20
5.0
 30
0.0
 40
3.5
 50
157.975687
 51
205.376934
  0
ARC
  8
0
  6
CONTINUOUS
 62
     3
  5
73
 10
23.162278
 20
8.0
 30
0.0
 40
3.5
 50
157.975687
 51
202.024313
  0
ARC
  8
0
  6
CONTINUOUS
 62
     3
  5
74
 10
23.162278
 20
11.0
 30
0.0
 40
3.5
 50
157.259986
 51
202.024313
  0
ARC
  8
0
  6
CONTINUOUS
 62
     3
  5
75
 10
29.682458
 20
15.0
 30
0.0
 40
10.0
 50
166.72655
 51
193.514719
  0
ARC
  8
0
  6
CONTINUOUS
 62
     3
  5
76
 10
23.307189
 20
19.75
 30
0.0
 40
4.0
 50
150.531522
 51
211.320522
  0
ARC
  8
0
  6
CONTINUOUS
 62
     3
  5
77
 10
22.236068
 20
24.0
 30
0.0
 40
3.0
 50
145.150095
 51
215.576221
  0
ARC
  8
0
  6
CONTINUOUS
 62
     3
  5
78
 10
22.236068
 20
28.0
 30
0.0
 40
3.0
 50
147.15903
 51
214.849905
  0
ARC
  8
0
  6
CONTINUOUS
 62
     3
  5
79
 10
20.630476
 20
31.25
 30
0.0
 40
1.4
 50
116.765501
 51
225.360012
  0
LINE
  8
0
  6
CONTINUOUS
 62
     3
  5
7A
 10
20.0
 20
34.465795
 30
0.0
 11
20.0
 21
32.5
 31
0.0
  0
ARC
  8
0
  6
CONTINUOUS
 62
     3
  5
7B
 10
-19.5
 20
34.465795
 30
0.0
 40
0.5
 50
91.0
 51
180.0
  0
ARC
  8
0
  6
CONTINUOUS
 62
     3
  5
7C
 10
19.5
 20
34.465795
 30
0.0
 40
0.5
 50
0.0
 51
89.0
  0
ARC
  8
0
  6
CONTINUOUS
 62
     3
  5
7D
 10
-19.5
 20
0.457144
 30
0.0
 40
0.5
 50
180.0
 51
262.457877
  0
ARC
  8
0
  6
CONTINUOUS
 62
     3
  5
7E
 10
19.5
 20
0.457144
 30
0.0
 40
0.5
 50
277.542123
 51
0.0
  0
ENDBLK
  8
0
  5
7F
  0
BLOCK
  8
0
  5
80
  2
MS_2
 70
     0
 10
0.0
 20
0.0
 30
0.0
  3
MS_2
  0
POLYLINE
  8
0
  6
CONTINUOUS
 62
    80
  5
81
 66
     1
 10
0.0
 20
0.0
 30
0.0
 70
     1
  0
VERTEX
  8
0
  6
CONTINUOUS
 62
    80
  5
432
 10
4.250141
 20
-11.528829
 30
0.0
  0
VERTEX
  8
0
  6
CONTINUOUS
 62
    80
  5
433
 10
4.250046
 20
-11.517567
 30
0.0
  0
VERTEX
  8
0
  6
CONTINUOUS
 62
    80
  5
434
 10
4.249762
 20
-11.506299
 30
0.0
  0
VERTEX
  8
0
  6
CONTINUOUS
 62
    80
  5
435
 10
4.249291
 20
-11.495029
 30
0.0
  0
VERTEX
  8
0
  6
CONTINUOUS
 62
    80
  5
436
 10
4.248633
 20
-11.483761
 30
0.0
  0
VERTEX
  8
0
  6
CONTINUOUS
 62
    80
  5
437
 10
4.247791
 20
-11.472499
 30
0.0
  0
VERTEX
  8
0
  6
CONTINUOUS
 62
    80
  5
438
 10
4.246766
 20
-11.461248
 30
0.0
  0
VERTEX
  8
0
  6
CONTINUOUS
 62
    80
  5
439
 10
4.245558
 20
-11.450011
 30
0.0
  0
VERTEX
  8
0
  6
CONTINUOUS
 62
    80
  5
43A
 10
4.244171
 20
-11.438794
 30
0.0
  0
VERTEX
  8
0
  6
CONTINUOUS
 62
    80
  5
43B
 10
4.242605
 20
-11.427599
 30
0.0
  0
VERTEX
  8
0
  6
CONTINUOUS
 62
    80
  5
43C
 10
4.240861
 20
-11.416432
 30
0.0
  0
VERTEX
  8
0
  6
CONTINUOUS
 62
    80
  5
43D
 10
4.238942
 20
-11.405296
 30
0.0
  0
VERTEX
  8
0
  6
CONTINUOUS
 62
    80
  5
43E
 10
4.236847
 20
-11.394197
 30
0.0
  0
VERTEX
  8
0
  6
CONTINUOUS
 62
    80
  5
43F
 10
4.23458
 20
-11.383137
 30
0.0
  0
VERTEX
  8
0
  6
CONTINUOUS
 62
    80
  5
440
 10
4.232141
 20
-11.372121
 30
0.0
  0
VERTEX
  8
0
  6
CONTINUOUS
 62
    80
  5
441
 10
4.229532
 20
-11.361153
 30
0.0
  0
VERTEX
  8
0
  6
CONTINUOUS
 62
    80
  5
442
 10
4.226754
 20
-11.350238
 30
0.0
  0
VERTEX
  8
0
  6
CONTINUOUS
 62
    80
  5
443
 10
4.223517
 20
-11.338331
 30
0.0
  0
VERTEX
  8
0
  6
CONTINUOUS
 62
    80
  5
444
 10
4.220079
 20
-11.326472
 30
0.0
  0
VERTEX
  8
0
  6
CONTINUOUS
 62
    80
  5
445
 10
4.216445
 20
-11.314664
 30
0.0
  0
VERTEX
  8
0
  6
CONTINUOUS
 62
    80
  5
446
 10
4.212618
 20
-11.302909
 30
0.0
  0
VERTEX
  8
0
  6
CONTINUOUS
 62
    80
  5
447
 10
4.208601
 20
-11.291212
 30
0.0
  0
VERTEX
  8
0
  6
CONTINUOUS
 62
    80
  5
448
 10
4.204399
 20
-11.279574
 30
0.0
  0
VERTEX
  8
0
  6
CONTINUOUS
 62
    80
  5
449
 10
4.200015
 20
-11.268
 30
0.0
  0
VERTEX
  8
0
  6
CONTINUOUS
 62
    80
  5
44A
 10
4.195453
 20
-11.256491
 30
0.0
  0
VERTEX
  8
0
  6
CONTINUOUS
 62
    80
  5
44B
 10
4.190717
 20
-11.245052
 30
0.0
  0
VERTEX
  8
0
  6
CONTINUOUS
 62
    80
  5
44C
 10
4.185811
 20
-11.233686
 30
0.0
  0
VERTEX
  8
0
  6
CONTINUOUS
 62
    80
  5
44D
 10
4.180738
 20
-11.222395
 30
0.0
  0
VERTEX
  8
0
  6
CONTINUOUS
 62
    80
  5
44E
 10
4.175502
 20
-11.211183
 30
0.0
  0
VERTEX
  8
0
  6
CONTINUOUS
 62
    80
  5
44F
 10
4.170107
 20
-11.200052
 30
0.0
  0
VERTEX
  8
0
  6
CONTINUOUS
 62
    80
  5
450
 10
4.164557
 20
-11.189007
 30
0.0
  0
VERTEX
  8
0
  6
CONTINUOUS
 62
    80
  5
451
 10
4.158855
 20
-11.178049
 30
0.0
  0
VERTEX
  8
0
  6
CONTINUOUS
 62
    80
  5
452
 10
4.153005
 20
-11.167183
 30
0.0
  0
VERTEX
  8
0
  6
CONTINUOUS
 62
    80
  5
453
 10
4.146105
 20
-11.154808
 30
0.0
  0
VERTEX
  8
0
  6
CONTINUOUS
 62
    80
  5
454
 10
4.13901
 20
-11.142535
 30
0.0
  0
VERTEX
  8
0
  6
CONTINUOUS
 62
    80
  5
455
 10
4.131724
 20
-11.130365
 30
0.0
  0
VERTEX
  8
0
  6
CONTINUOUS
 62
    80
  5
456
 10
4.124254
 20
-11.1183
 30
0.0
  0
VERTEX
  8
0
  6
CONTINUOUS
 62
    80
  5
457
 10
4.116603
 20
-11.106341
 30
0.0
  0
VERTEX
  8
0
  6
CONTINUOUS
 62
    80
  5
458
 10
4.108777
 20
-11.094491
 30
0.0
  0
VERTEX
  8
0
  6
CONTINUOUS
 62
    80
  5
459
 10
4.100779
 20
-11.082751
 30
0.0
  0
VERTEX
  8
0
  6
CONTINUOUS
 62
    80
  5
45A
 10
4.092617
 20
-11.071122
 30
0.0
  0
VERTEX
  8
0
  6
CONTINUOUS
 62
    80
  5
45B
 10
4.084293
 20
-11.059606
 30
0.0
  0
VERTEX
  8
0
  6
CONTINUOUS
 62
    80
  5
45C
 10
4.075813
 20
-11.048204
 30
0.0
  0
VERTEX
  8
0
  6
CONTINUOUS
 62
    80
  5
45D
 10
4.067182
 20
-11.036919
 30
0.0
  0
VERTEX
  8
0
  6
CONTINUOUS
 62
    80
  5
45E
 10
4.058405
 20
-11.025751
 30
0.0
  0
VERTEX
  8
0
  6
CONTINUOUS
 62
    80
  5
45F
 10
4.049487
 20
-11.014703
 30
0.0
  0
VERTEX
  8
0
  6
CONTINUOUS
 62
    80
  5
460
 10
4.040431
 20
-11.003775
 30
0.0
  0
VERTEX
  8
0
  6
CONTINUOUS
 62
    80
  5
461
 10
4.031245
 20
-10.99297
 30
0.0
  0
VERTEX
  8
0
  6
CONTINUOUS
 62
    80
  5
462
 10
4.021931
 20
-10.982289
 30
0.0
  0
VERTEX
  8
0
  6
CONTINUOUS
 62
    80
  5
463
 10
4.011052
 20
-10.970141
 30
0.0
  0
VERTEX
  8
0
  6
CONTINUOUS
 62
    80
  5
464
 10
4.000001
 20
-10.958139
 30
0.0
  0
VERTEX
  8
0
  6
CONTINUOUS
 62
    80
  5
465
 10
3.988782
 20
-10.946285
 30
0.0
  0
VERTEX
  8
0
  6
CONTINUOUS
 62
    80
  5
466
 10
3.977401
 20
-10.934577
 30
0.0
  0
VERTEX
  8
0
  6
CONTINUOUS
 62
    80
  5
467
 10
3.965862
 20
-10.923017
 30
0.0
  0
VERTEX
  8
0
  6
CONTINUOUS
 62
    80
  5
468
 10
3.954171
 20
-10.911606
 30
0.0
  0
VERTEX
  8
0
  6
CONTINUOUS
 62
    80
  5
469
 10
3.942332
 20
-10.900342
 30
0.0
  0
VERTEX
  8
0
  6
CONTINUOUS
 62
    80
  5
46A
 10
3.930349
 20
-10.889227
 30
0.0
  0
VERTEX
  8
0
  6
CONTINUOUS
 62
    80
  5
46B
 10
3.918229
 20
-10.878262
 30
0.0
  0
VERTEX
  8
0
  6
CONTINUOUS
 62
    80
  5
46C
 10
3.905975
 20
-10.867445
 30
0.0
  0
VERTEX
  8
0
  6
CONTINUOUS
 62
    80
  5
46D
 10
3.893593
 20
-10.856778
 30
0.0
  0
VERTEX
  8
0
  6
CONTINUOUS
 62
    80
  5
46E
 10
3.881088
 20
-10.846261
 30
0.0
  0
VERTEX
  8
0
  6
CONTINUOUS
 62
    80
  5
46F
 10
3.868464
 20
-10.835894
 30
0.0
  0
VERTEX
  8
0
  6
CONTINUOUS
 62
    80
  5
470
 10
3.855726
 20
-10.825678
 30
0.0
  0
VERTEX
  8
0
  6
CONTINUOUS
 62
    80
  5
471
 10
3.842879
 20
-10.815612
 30
0.0
  0
VERTEX
  8
0
  6
CONTINUOUS
 62
    80
  5
472
 10
3.829929
 20
-10.805698
 30
0.0
  0
VERTEX
  8
0
  6
CONTINUOUS
 62
    80
  5
473
 10
3.81521
 20
-10.794702
 30
0.0
  0
VERTEX
  8
0
  6
CONTINUOUS
 62
    80
  5
474
 10
3.800352
 20
-10.783884
 30
0.0
  0
VERTEX
  8
0
  6
CONTINUOUS
 62
    80
  5
475
 10
3.785359
 20
-10.773243
 30
0.0
  0
VERTEX
  8
0
  6
CONTINUOUS
 62
    80
  5
476
 10
3.770235
 20
-10.762779
 30
0.0
  0
VERTEX
  8
0
  6
CONTINUOUS
 62
    80
  5
477
 10
3.754984
 20
-10.752491
 30
0.0
  0
VERTEX
  8
0
  6
CONTINUOUS
 62
    80
  5
478
 10
3.739612
 20
-10.742378
 30
0.0
  0
VERTEX
  8
0
  6
CONTINUOUS
 62
    80
  5
479
 10
3.724122
 20
-10.732442
 30
0.0
  0
VERTEX
  8
0
  6
CONTINUOUS
 62
    80
  5
47A
 10
3.708518
 20
-10.72268
 30
0.0
  0
VERTEX
  8
0
  6
CONTINUOUS
 62
    80
  5
47B
 10
3.692806
 20
-10.713094
 30
0.0
  0
VERTEX
  8
0
  6
CONTINUOUS
 62
    80
  5
47C
 10
3.676988
 20
-10.703681
 30
0.0
  0
VERTEX
  8
0
  6
CONTINUOUS
 62
    80
  5
47D
 10
3.661071
 20
-10.694443
 30
0.0
  0
VERTEX
  8
0
  6
CONTINUOUS
 62
    80
  5
47E
 10
3.645057
 20
-10.685378
 30
0.0
  0
VERTEX
  8
0
  6
CONTINUOUS
 62
    80
  5
47F
 10
3.628951
 20
-10.676486
 30
0.0
  0
VERTEX
  8
0
  6
CONTINUOUS
 62
    80
  5
480
 10
3.612758
 20
-10.667767
 30
0.0
  0
VERTEX
  8
0
  6
CONTINUOUS
 62
    80
  5
481
 10
3.596482
 20
-10.65922
 30
0.0
  0
VERTEX
  8
0
  6
CONTINUOUS
 62
    80
  5
482
 10
3.580128
 20
-10.650846
 30
0.0
  0
VERTEX
  8
0
  6
CONTINUOUS
 62
    80
  5
483
 10
3.56214
 20
-10.641875
 30
0.0
  0
VERTEX
  8
0
  6
CONTINUOUS
 62
    80
  5
484
 10
3.544049
 20
-10.6331
 30
0.0
  0
VERTEX
  8
0
  6
CONTINUOUS
 62
    80
  5
485
 10
3.525858
 20
-10.624519
 30
0.0
  0
VERTEX
  8
0
  6
CONTINUOUS
 62
    80
  5
486
 10
3.507572
 20
-10.616133
 30
0.0
  0
VERTEX
  8
0
  6
CONTINUOUS
 62
    80
  5
487
 10
3.489192
 20
-10.60794
 30
0.0
  0
VERTEX
  8
0
  6
CONTINUOUS
 62
    80
  5
488
 10
3.470724
 20
-10.59994
 30
0.0
  0
VERTEX
  8
0
  6
CONTINUOUS
 62
    80
  5
489
 10
3.452171
 20
-10.592132
 30
0.0
  0
VERTEX
  8
0
  6
CONTINUOUS
 62
    80
  5
48A
 10
3.433537
 20
-10.584516
 30
0.0
  0
VERTEX
  8
0
  6
CONTINUOUS
 62
    80
  5
48B
 10
3.414825
 20
-10.577092
 30
0.0
  0
VERTEX
  8
0
  6
CONTINUOUS
 62
    80
  5
48C
 10
3.396039
 20
-10.569857
 30
0.0
  0
VERTEX
  8
0
  6
CONTINUOUS
 62
    80
  5
48D
 10
3.377183
 20
-10.562813
 30
0.0
  0
VERTEX
  8
0
  6
CONTINUOUS
 62
    80
  5
48E
 10
3.358261
 20
-10.555958
 30
0.0
  0
VERTEX
  8
0
  6
CONTINUOUS
 62
    80
  5
48F
 10
3.339275
 20
-10.549291
 30
0.0
  0
VERTEX
  8
0
  6
CONTINUOUS
 62
    80
  5
490
 10
3.32023
 20
-10.542812
 30
0.0
  0
VERTEX
  8
0
  6
CONTINUOUS
 62
    80
  5
491
 10
3.30113
 20
-10.536521
 30
0.0
  0
VERTEX
  8
0
  6
CONTINUOUS
 62
    80
  5
492
 10
3.281977
 20
-10.530417
 30
0.0
  0
VERTEX
  8
0
  6
CONTINUOUS
 62
    80
  5
493
 10
3.261593
 20
-10.52414
 30
0.0
  0
VERTEX
  8
0
  6
CONTINUOUS
 62
    80
  5
494
 10
3.241141
 20
-10.518067
 30
0.0
  0
VERTEX
  8
0
  6
CONTINUOUS
 62
    80
  5
495
 10
3.220623
 20
-10.512198
 30
0.0
  0
VERTEX
  8
0
  6
CONTINUOUS
 62
    80
  5
496
 10
3.200043
 20
-10.506531
 30
0.0
  0
VERTEX
  8
0
  6
CONTINUOUS
 62
    80
  5
497
 10
3.179405
 20
-10.501066
 30
0.0
  0
VERTEX
  8
0
  6
CONTINUOUS
 62
    80
  5
498
 10
3.158711
 20
-10.495803
 30
0.0
  0
VERTEX
  8
0
  6
CONTINUOUS
 62
    80
  5
499
 10
3.137964
 20
-10.490741
 30
0.0
  0
VERTEX
  8
0
  6
CONTINUOUS
 62
    80
  5
49A
 10
3.117168
 20
-10.485881
 30
0.0
  0
VERTEX
  8
0
  6
CONTINUOUS
 62
    80
  5
49B
 10
3.096326
 20
-10.48122
 30
0.0
  0
VERTEX
  8
0
  6
CONTINUOUS
 62
    80
  5
49C
 10
3.075441
 20
-10.476759
 30
0.0
  0
VERTEX
  8
0
  6
CONTINUOUS
 62
    80
  5
49D
 10
3.054516
 20
-10.472497
 30
0.0
  0
VERTEX
  8
0
  6
CONTINUOUS
 62
    80
  5
49E
 10
3.033554
 20
-10.468435
 30
0.0
  0
VERTEX
  8
0
  6
CONTINUOUS
 62
    80
  5
49F
 10
3.012559
 20
-10.46457
 30
0.0
  0
VERTEX
  8
0
  6
CONTINUOUS
 62
    80
  5
4A0
 10
2.991533
 20
-10.460903
 30
0.0
  0
VERTEX
  8
0
  6
CONTINUOUS
 62
    80
  5
4A1
 10
2.97048
 20
-10.457434
 30
0.0
  0
VERTEX
  8
0
  6
CONTINUOUS
 62
    80
  5
4A2
 10
2.949404
 20
-10.454161
 30
0.0
  0
VERTEX
  8
0
  6
CONTINUOUS
 62
    80
  5
4A3
 10
2.927669
 20
-10.450995
 30
0.0
  0
VERTEX
  8
0
  6
CONTINUOUS
 62
    80
  5
4A4
 10
2.905899
 20
-10.448035
 30
0.0
  0
VERTEX
  8
0
  6
CONTINUOUS
 62
    80
  5
4A5
 10
2.884096
 20
-10.44528
 30
0.0
  0
VERTEX
  8
0
  6
CONTINUOUS
 62
    80
  5
4A6
 10
2.862264
 20
-10.44273
 30
0.0
  0
VERTEX
  8
0
  6
CONTINUOUS
 62
    80
  5
4A7
 10
2.840405
 20
-10.440386
 30
0.0
  0
VERTEX
  8
0
  6
CONTINUOUS
 62
    80
  5
4A8
 10
2.818521
 20
-10.438246
 30
0.0
  0
VERTEX
  8
0
  6
CONTINUOUS
 62
    80
  5
4A9
 10
2.796617
 20
-10.43631
 30
0.0
  0
VERTEX
  8
0
  6
CONTINUOUS
 62
    80
  5
4AA
 10
2.774695
 20
-10.43458
 30
0.0
  0
VERTEX
  8
0
  6
CONTINUOUS
 62
    80
  5
4AB
 10
2.752757
 20
-10.433053
 30
0.0
  0
VERTEX
  8
0
  6
CONTINUOUS
 62
    80
  5
4AC
 10
2.730807
 20
-10.431731
 30
0.0
  0
VERTEX
  8
0
  6
CONTINUOUS
 62
    80
  5
4AD
 10
2.708847
 20
-10.430612
 30
0.0
  0
VERTEX
  8
0
  6
CONTINUOUS
 62
    80
  5
4AE
 10
2.686881
 20
-10.429698
 30
0.0
  0
VERTEX
  8
0
  6
CONTINUOUS
 62
    80
  5
4AF
 10
2.66491
 20
-10.428987
 30
0.0
  0
VERTEX
  8
0
  6
CONTINUOUS
 62
    80
  5
4B0
 10
2.64294
 20
-10.428479
 30
0.0
  0
VERTEX
  8
0
  6
CONTINUOUS
 62
    80
  5
4B1
 10
2.620971
 20
-10.428175
 30
0.0
  0
VERTEX
  8
0
  6
CONTINUOUS
 62
    80
  5
4B2
 10
2.599007
 20
-10.428073
 30
0.0
  0
VERTEX
  8
0
  6
CONTINUOUS
 62
    80
  5
4B3
 10
2.577043
 20
-10.428175
 30
0.0
  0
VERTEX
  8
0
  6
CONTINUOUS
 62
    80
  5
4B4
 10
2.555074
 20
-10.428479
 30
0.0
  0
VERTEX
  8
0
  6
CONTINUOUS
 62
    80
  5
4B5
 10
2.533103
 20
-10.428987
 30
0.0
  0
VERTEX
  8
0
  6
CONTINUOUS
 62
    80
  5
4B6
 10
2.511133
 20
-10.429698
 30
0.0
  0
VERTEX
  8
0
  6
CONTINUOUS
 62
    80
  5
4B7
 10
2.489167
 20
-10.430612
 30
0.0
  0
VERTEX
  8
0
  6
CONTINUOUS
 62
    80
  5
4B8
 10
2.467207
 20
-10.431731
 30
0.0
  0
VERTEX
  8
0
  6
CONTINUOUS
 62
    80
  5
4B9
 10
2.445257
 20
-10.433053
 30
0.0
  0
VERTEX
  8
0
  6
CONTINUOUS
 62
    80
  5
4BA
 10
2.423319
 20
-10.43458
 30
0.0
  0
VERTEX
  8
0
  6
CONTINUOUS
 62
    80
  5
4BB
 10
2.401397
 20
-10.43631
 30
0.0
  0
VERTEX
  8
0
  6
CONTINUOUS
 62
    80
  5
4BC
 10
2.379492
 20
-10.438246
 30
0.0
  0
VERTEX
  8
0
  6
CONTINUOUS
 62
    80
  5
4BD
 10
2.357609
 20
-10.440386
 30
0.0
  0
VERTEX
  8
0
  6
CONTINUOUS
 62
    80
  5
4BE
 10
2.33575
 20
-10.44273
 30
0.0
  0
VERTEX
  8
0
  6
CONTINUOUS
 62
    80
  5
4BF
 10
2.313917
 20
-10.44528
 30
0.0
  0
VERTEX
  8
0
  6
CONTINUOUS
 62
    80
  5
4C0
 10
2.292115
 20
-10.448035
 30
0.0
  0
VERTEX
  8
0
  6
CONTINUOUS
 62
    80
  5
4C1
 10
2.270345
 20
-10.450995
 30
0.0
  0
VERTEX
  8
0
  6
CONTINUOUS
 62
    80
  5
4C2
 10
2.24861
 20
-10.454161
 30
0.0
  0
VERTEX
  8
0
  6
CONTINUOUS
 62
    80
  5
4C3
 10
2.227533
 20
-10.457434
 30
0.0
  0
VERTEX
  8
0
  6
CONTINUOUS
 62
    80
  5
4C4
 10
2.206481
 20
-10.460903
 30
0.0
  0
VERTEX
  8
0
  6
CONTINUOUS
 62
    80
  5
4C5
 10
2.185455
 20
-10.46457
 30
0.0
  0
VERTEX
  8
0
  6
CONTINUOUS
 62
    80
  5
4C6
 10
2.16446
 20
-10.468435
 30
0.0
  0
VERTEX
  8
0
  6
CONTINUOUS
 62
    80
  5
4C7
 10
2.143498
 20
-10.472497
 30
0.0
  0
VERTEX
  8
0
  6
CONTINUOUS
 62
    80
  5
4C8
 10
2.122573
 20
-10.476759
 30
0.0
  0
VERTEX
  8
0
  6
CONTINUOUS
 62
    80
  5
4C9
 10
2.101688
 20
-10.48122
 30
0.0
  0
VERTEX
  8
0
  6
CONTINUOUS
 62
    80
  5
4CA
 10
2.080846
 20
-10.485881
 30
0.0
  0
VERTEX
  8
0
  6
CONTINUOUS
 62
    80
  5
4CB
 10
2.06005
 20
-10.490741
 30
0.0
  0
VERTEX
  8
0
  6
CONTINUOUS
 62
    80
  5
4CC
 10
2.039303
 20
-10.495803
 30
0.0
  0
VERTEX
  8
0
  6
CONTINUOUS
 62
    80
  5
4CD
 10
2.018609
 20
-10.501066
 30
0.0
  0
VERTEX
  8
0
  6
CONTINUOUS
 62
    80
  5
4CE
 10
1.997971
 20
-10.506531
 30
0.0
  0
VERTEX
  8
0
  6
CONTINUOUS
 62
    80
  5
4CF
 10
1.977391
 20
-10.512198
 30
0.0
  0
VERTEX
  8
0
  6
CONTINUOUS
 62
    80
  5
4D0
 10
1.956873
 20
-10.518067
 30
0.0
  0
VERTEX
  8
0
  6
CONTINUOUS
 62
    80
  5
4D1
 10
1.936421
 20
-10.52414
 30
0.0
  0
VERTEX
  8
0
  6
CONTINUOUS
 62
    80
  5
4D2
 10
1.916037
 20
-10.530417
 30
0.0
  0
VERTEX
  8
0
  6
CONTINUOUS
 62
    80
  5
4D3
 10
1.896884
 20
-10.536521
 30
0.0
  0
VERTEX
  8
0
  6
CONTINUOUS
 62
    80
  5
4D4
 10
1.877784
 20
-10.542812
 30
0.0
  0
VERTEX
  8
0
  6
CONTINUOUS
 62
    80
  5
4D5
 10
1.858739
 20
-10.549291
 30
0.0
  0
VERTEX
  8
0
  6
CONTINUOUS
 62
    80
  5
4D6
 10
1.839753
 20
-10.555958
 30
0.0
  0
VERTEX
  8
0
  6
CONTINUOUS
 62
    80
  5
4D7
 10
1.82083
 20
-10.562813
 30
0.0
  0
VERTEX
  8
0
  6
CONTINUOUS
 62
    80
  5
4D8
 10
1.801974
 20
-10.569857
 30
0.0
  0
VERTEX
  8
0
  6
CONTINUOUS
 62
    80
  5
4D9
 10
1.783188
 20
-10.577092
 30
0.0
  0
VERTEX
  8
0
  6
CONTINUOUS
 62
    80
  5
4DA
 10
1.764477
 20
-10.584516
 30
0.0
  0
VERTEX
  8
0
  6
CONTINUOUS
 62
    80
  5
4DB
 10
1.745842
 20
-10.592132
 30
0.0
  0
VERTEX
  8
0
  6
CONTINUOUS
 62
    80
  5
4DC
 10
1.727289
 20
-10.59994
 30
0.0
  0
VERTEX
  8
0
  6
CONTINUOUS
 62
    80
  5
4DD
 10
1.708821
 20
-10.60794
 30
0.0
  0
VERTEX
  8
0
  6
CONTINUOUS
 62
    80
  5
4DE
 10
1.690442
 20
-10.616133
 30
0.0
  0
VERTEX
  8
0
  6
CONTINUOUS
 62
    80
  5
4DF
 10
1.672155
 20
-10.624519
 30
0.0
  0
VERTEX
  8
0
  6
CONTINUOUS
 62
    80
  5
4E0
 10
1.653965
 20
-10.6331
 30
0.0
  0
VERTEX
  8
0
  6
CONTINUOUS
 62
    80
  5
4E1
 10
1.635874
 20
-10.641875
 30
0.0
  0
VERTEX
  8
0
  6
CONTINUOUS
 62
    80
  5
4E2
 10
1.617886
 20
-10.650846
 30
0.0
  0
VERTEX
  8
0
  6
CONTINUOUS
 62
    80
  5
4E3
 10
1.601531
 20
-10.65922
 30
0.0
  0
VERTEX
  8
0
  6
CONTINUOUS
 62
    80
  5
4E4
 10
1.585255
 20
-10.667767
 30
0.0
  0
VERTEX
  8
0
  6
CONTINUOUS
 62
    80
  5
4E5
 10
1.569062
 20
-10.676486
 30
0.0
  0
VERTEX
  8
0
  6
CONTINUOUS
 62
    80
  5
4E6
 10
1.552957
 20
-10.685378
 30
0.0
  0
VERTEX
  8
0
  6
CONTINUOUS
 62
    80
  5
4E7
 10
1.536943
 20
-10.694443
 30
0.0
  0
VERTEX
  8
0
  6
CONTINUOUS
 62
    80
  5
4E8
 10
1.521025
 20
-10.703681
 30
0.0
  0
VERTEX
  8
0
  6
CONTINUOUS
 62
    80
  5
4E9
 10
1.505208
 20
-10.713094
 30
0.0
  0
VERTEX
  8
0
  6
CONTINUOUS
 62
    80
  5
4EA
 10
1.489496
 20
-10.72268
 30
0.0
  0
VERTEX
  8
0
  6
CONTINUOUS
 62
    80
  5
4EB
 10
1.473892
 20
-10.732442
 30
0.0
  0
VERTEX
  8
0
  6
CONTINUOUS
 62
    80
  5
4EC
 10
1.458402
 20
-10.742378
 30
0.0
  0
VERTEX
  8
0
  6
CONTINUOUS
 62
    80
  5
4ED
 10
1.443029
 20
-10.752491
 30
0.0
  0
VERTEX
  8
0
  6
CONTINUOUS
 62
    80
  5
4EE
 10
1.427779
 20
-10.762779
 30
0.0
  0
VERTEX
  8
0
  6
CONTINUOUS
 62
    80
  5
4EF
 10
1.412655
 20
-10.773243
 30
0.0
  0
VERTEX
  8
0
  6
CONTINUOUS
 62
    80
  5
4F0
 10
1.397662
 20
-10.783884
 30
0.0
  0
VERTEX
  8
0
  6
CONTINUOUS
 62
    80
  5
4F1
 10
1.382804
 20
-10.794702
 30
0.0
  0
VERTEX
  8
0
  6
CONTINUOUS
 62
    80
  5
4F2
 10
1.368085
 20
-10.805698
 30
0.0
  0
VERTEX
  8
0
  6
CONTINUOUS
 62
    80
  5
4F3
 10
1.355135
 20
-10.815612
 30
0.0
  0
VERTEX
  8
0
  6
CONTINUOUS
 62
    80
  5
4F4
 10
1.342288
 20
-10.825678
 30
0.0
  0
VERTEX
  8
0
  6
CONTINUOUS
 62
    80
  5
4F5
 10
1.32955
 20
-10.835894
 30
0.0
  0
VERTEX
  8
0
  6
CONTINUOUS
 62
    80
  5
4F6
 10
1.316926
 20
-10.846261
 30
0.0
  0
VERTEX
  8
0
  6
CONTINUOUS
 62
    80
  5
4F7
 10
1.304421
 20
-10.856778
 30
0.0
  0
VERTEX
  8
0
  6
CONTINUOUS
 62
    80
  5
4F8
 10
1.292039
 20
-10.867445
 30
0.0
  0
VERTEX
  8
0
  6
CONTINUOUS
 62
    80
  5
4F9
 10
1.279785
 20
-10.878262
 30
0.0
  0
VERTEX
  8
0
  6
CONTINUOUS
 62
    80
  5
4FA
 10
1.267665
 20
-10.889227
 30
0.0
  0
VERTEX
  8
0
  6
CONTINUOUS
 62
    80
  5
4FB
 10
1.255682
 20
-10.900342
 30
0.0
  0
VERTEX
  8
0
  6
CONTINUOUS
 62
    80
  5
4FC
 10
1.243843
 20
-10.911606
 30
0.0
  0
VERTEX
  8
0
  6
CONTINUOUS
 62
    80
  5
4FD
 10
1.232151
 20
-10.923017
 30
0.0
  0
VERTEX
  8
0
  6
CONTINUOUS
 62
    80
  5
4FE
 10
1.220613
 20
-10.934577
 30
0.0
  0
VERTEX
  8
0
  6
CONTINUOUS
 62
    80
  5
4FF
 10
1.209232
 20
-10.946285
 30
0.0
  0
VERTEX
  8
0
  6
CONTINUOUS
 62
    80
  5
500
 10
1.198013
 20
-10.958139
 30
0.0
  0
VERTEX
  8
0
  6
CONTINUOUS
 62
    80
  5
501
 10
1.186962
 20
-10.970141
 30
0.0
  0
VERTEX
  8
0
  6
CONTINUOUS
 62
    80
  5
502
 10
1.176083
 20
-10.982289
 30
0.0
  0
VERTEX
  8
0
  6
CONTINUOUS
 62
    80
  5
503
 10
1.166769
 20
-10.99297
 30
0.0
  0
VERTEX
  8
0
  6
CONTINUOUS
 62
    80
  5
504
 10
1.157582
 20
-11.003775
 30
0.0
  0
VERTEX
  8
0
  6
CONTINUOUS
 62
    80
  5
505
 10
1.148527
 20
-11.014703
 30
0.0
  0
VERTEX
  8
0
  6
CONTINUOUS
 62
    80
  5
506
 10
1.139609
 20
-11.025751
 30
0.0
  0
VERTEX
  8
0
  6
CONTINUOUS
 62
    80
  5
507
 10
1.130831
 20
-11.036919
 30
0.0
  0
VERTEX
  8
0
  6
CONTINUOUS
 62
    80
  5
508
 10
1.122201
 20
-11.048204
 30
0.0
  0
VERTEX
  8
0
  6
CONTINUOUS
 62
    80
  5
509
 10
1.113721
 20
-11.059606
 30
0.0
  0
VERTEX
  8
0
  6
CONTINUOUS
 62
    80
  5
50A
 10
1.105397
 20
-11.071122
 30
0.0
  0
VERTEX
  8
0
  6
CONTINUOUS
 62
    80
  5
50B
 10
1.097234
 20
-11.082751
 30
0.0
  0
VERTEX
  8
0
  6
CONTINUOUS
 62
    80
  5
50C
 10
1.089237
 20
-11.094491
 30
0.0
  0
VERTEX
  8
0
  6
CONTINUOUS
 62
    80
  5
50D
 10
1.081411
 20
-11.106341
 30
0.0
  0
VERTEX
  8
0
  6
CONTINUOUS
 62
    80
  5
50E
 10
1.07376
 20
-11.1183
 30
0.0
  0
VERTEX
  8
0
  6
CONTINUOUS
 62
    80
  5
50F
 10
1.066289
 20
-11.130365
 30
0.0
  0
VERTEX
  8
0
  6
CONTINUOUS
 62
    80
  5
510
 10
1.059004
 20
-11.142535
 30
0.0
  0
VERTEX
  8
0
  6
CONTINUOUS
 62
    80
  5
511
 10
1.051909
 20
-11.154808
 30
0.0
  0
VERTEX
  8
0
  6
CONTINUOUS
 62
    80
  5
512
 10
1.045009
 20
-11.167183
 30
0.0
  0
VERTEX
  8
0
  6
CONTINUOUS
 62
    80
  5
513
 10
1.039159
 20
-11.178049
 30
0.0
  0
VERTEX
  8
0
  6
CONTINUOUS
 62
    80
  5
514
 10
1.033457
 20
-11.189007
 30
0.0
  0
VERTEX
  8
0
  6
CONTINUOUS
 62
    80
  5
515
 10
1.027907
 20
-11.200052
 30
0.0
  0
VERTEX
  8
0
  6
CONTINUOUS
 62
    80
  5
516
 10
1.022512
 20
-11.211183
 30
0.0
  0
VERTEX
  8
0
  6
CONTINUOUS
 62
    80
  5
517
 10
1.017276
 20
-11.222395
 30
0.0
  0
VERTEX
  8
0
  6
CONTINUOUS
 62
    80
  5
518
 10
1.012203
 20
-11.233686
 30
0.0
  0
VERTEX
  8
0
  6
CONTINUOUS
 62
    80
  5
519
 10
1.007297
 20
-11.245052
 30
0.0
  0
VERTEX
  8
0
  6
CONTINUOUS
 62
    80
  5
51A
 10
1.002561
 20
-11.256491
 30
0.0
  0
VERTEX
  8
0
  6
CONTINUOUS
 62
    80
  5
51B
 10
0.997999
 20
-11.268
 30
0.0
  0
VERTEX
  8
0
  6
CONTINUOUS
 62
    80
  5
51C
 10
0.993615
 20
-11.279574
 30
0.0
  0
VERTEX
  8
0
  6
CONTINUOUS
 62
    80
  5
51D
 10
0.989413
 20
-11.291212
 30
0.0
  0
VERTEX
  8
0
  6
CONTINUOUS
 62
    80
  5
51E
 10
0.985396
 20
-11.302909
 30
0.0
  0
VERTEX
  8
0
  6
CONTINUOUS
 62
    80
  5
51F
 10
0.981569
 20
-11.314664
 30
0.0
  0
VERTEX
  8
0
  6
CONTINUOUS
 62
    80
  5
520
 10
0.977934
 20
-11.326472
 30
0.0
  0
VERTEX
  8
0
  6
CONTINUOUS
 62
    80
  5
521
 10
0.974497
 20
-11.338331
 30
0.0
  0
VERTEX
  8
0
  6
CONTINUOUS
 62
    80
  5
522
 10
0.971259
 20
-11.350238
 30
0.0
  0
VERTEX
  8
0
  6
CONTINUOUS
 62
    80
  5
523
 10
0.968482
 20
-11.361153
 30
0.0
  0
VERTEX
  8
0
  6
CONTINUOUS
 62
    80
  5
524
 10
0.965873
 20
-11.372121
 30
0.0
  0
VERTEX
  8
0
  6
CONTINUOUS
 62
    80
  5
525
 10
0.963434
 20
-11.383137
 30
0.0
  0
VERTEX
  8
0
  6
CONTINUOUS
 62
    80
  5
526
 10
0.961166
 20
-11.394197
 30
0.0
  0
VERTEX
  8
0
  6
CONTINUOUS
 62
    80
  5
527
 10
0.959072
 20
-11.405296
 30
0.0
  0
VERTEX
  8
0
  6
CONTINUOUS
 62
    80
  5
528
 10
0.957153
 20
-11.416432
 30
0.0
  0
VERTEX
  8
0
  6
CONTINUOUS
 62
    80
  5
529
 10
0.955409
 20
-11.427599
 30
0.0
  0
VERTEX
  8
0
  6
CONTINUOUS
 62
    80
  5
52A
 10
0.953843
 20
-11.438794
 30
0.0
  0
VERTEX
  8
0
  6
CONTINUOUS
 62
    80
  5
52B
 10
0.952455
 20
-11.450011
 30
0.0
  0
VERTEX
  8
0
  6
CONTINUOUS
 62
    80
  5
52C
 10
0.951248
 20
-11.461248
 30
0.0
  0
VERTEX
  8
0
  6
CONTINUOUS
 62
    80
  5
52D
 10
0.950223
 20
-11.472499
 30
0.0
  0
VERTEX
  8
0
  6
CONTINUOUS
 62
    80
  5
52E
 10
0.949381
 20
-11.483761
 30
0.0
  0
VERTEX
  8
0
  6
CONTINUOUS
 62
    80
  5
52F
 10
0.948723
 20
-11.495029
 30
0.0
  0
VERTEX
  8
0
  6
CONTINUOUS
 62
    80
  5
530
 10
0.948252
 20
-11.506299
 30
0.0
  0
VERTEX
  8
0
  6
CONTINUOUS
 62
    80
  5
531
 10
0.947968
 20
-11.517567
 30
0.0
  0
VERTEX
  8
0
  6
CONTINUOUS
 62
    80
  5
532
 10
0.947873
 20
-11.528829
 30
0.0
  0
VERTEX
  8
0
  6
CONTINUOUS
 62
    80
  5
533
 10
0.947968
 20
-11.540091
 30
0.0
  0
VERTEX
  8
0
  6
CONTINUOUS
 62
    80
  5
534
 10
0.948252
 20
-11.551359
 30
0.0
  0
VERTEX
  8
0
  6
CONTINUOUS
 62
    80
  5
535
 10
0.948723
 20
-11.562629
 30
0.0
  0
VERTEX
  8
0
  6
CONTINUOUS
 62
    80
  5
536
 10
0.949381
 20
-11.573897
 30
0.0
  0
VERTEX
  8
0
  6
CONTINUOUS
 62
    80
  5
537
 10
0.950223
 20
-11.585159
 30
0.0
  0
VERTEX
  8
0
  6
CONTINUOUS
 62
    80
  5
538
 10
0.951248
 20
-11.59641
 30
0.0
  0
VERTEX
  8
0
  6
CONTINUOUS
 62
    80
  5
539
 10
0.952455
 20
-11.607647
 30
0.0
  0
VERTEX
  8
0
  6
CONTINUOUS
 62
    80
  5
53A
 10
0.953843
 20
-11.618864
 30
0.0
  0
VERTEX
  8
0
  6
CONTINUOUS
 62
    80
  5
53B
 10
0.955409
 20
-11.630059
 30
0.0
  0
VERTEX
  8
0
  6
CONTINUOUS
 62
    80
  5
53C
 10
0.957153
 20
-11.641226
 30
0.0
  0
VERTEX
  8
0
  6
CONTINUOUS
 62
    80
  5
53D
 10
0.959072
 20
-11.652362
 30
0.0
  0
VERTEX
  8
0
  6
CONTINUOUS
 62
    80
  5
53E
 10
0.961166
 20
-11.663462
 30
0.0
  0
VERTEX
  8
0
  6
CONTINUOUS
 62
    80
  5
53F
 10
0.963434
 20
-11.674522
 30
0.0
  0
VERTEX
  8
0
  6
CONTINUOUS
 62
    80
  5
540
 10
0.965873
 20
-11.685538
 30
0.0
  0
VERTEX
  8
0
  6
CONTINUOUS
 62
    80
  5
541
 10
0.968482
 20
-11.696505
 30
0.0
  0
VERTEX
  8
0
  6
CONTINUOUS
 62
    80
  5
542
 10
0.971259
 20
-11.70742
 30
0.0
  0
VERTEX
  8
0
  6
CONTINUOUS
 62
    80
  5
543
 10
0.974497
 20
-11.719327
 30
0.0
  0
VERTEX
  8
0
  6
CONTINUOUS
 62
    80
  5
544
 10
0.977934
 20
-11.731186
 30
0.0
  0
VERTEX
  8
0
  6
CONTINUOUS
 62
    80
  5
545
 10
0.981569
 20
-11.742994
 30
0.0
  0
VERTEX
  8
0
  6
CONTINUOUS
 62
    80
  5
546
 10
0.985396
 20
-11.754749
 30
0.0
  0
VERTEX
  8
0
  6
CONTINUOUS
 62
    80
  5
547
 10
0.989413
 20
-11.766446
 30
0.0
  0
VERTEX
  8
0
  6
CONTINUOUS
 62
    80
  5
548
 10
0.993615
 20
-11.778084
 30
0.0
  0
VERTEX
  8
0
  6
CONTINUOUS
 62
    80
  5
549
 10
0.997999
 20
-11.789659
 30
0.0
  0
VERTEX
  8
0
  6
CONTINUOUS
 62
    80
  5
54A
 10
1.002561
 20
-11.801167
 30
0.0
  0
VERTEX
  8
0
  6
CONTINUOUS
 62
    80
  5
54B
 10
1.007297
 20
-11.812606
 30
0.0
  0
VERTEX
  8
0
  6
CONTINUOUS
 62
    80
  5
54C
 10
1.012203
 20
-11.823972
 30
0.0
  0
VERTEX
  8
0
  6
CONTINUOUS
 62
    80
  5
54D
 10
1.017276
 20
-11.835263
 30
0.0
  0
VERTEX
  8
0
  6
CONTINUOUS
 62
    80
  5
54E
 10
1.022512
 20
-11.846475
 30
0.0
  0
VERTEX
  8
0
  6
CONTINUOUS
 62
    80
  5
54F
 10
1.027907
 20
-11.857606
 30
0.0
  0
VERTEX
  8
0
  6
CONTINUOUS
 62
    80
  5
550
 10
1.033457
 20
-11.868651
 30
0.0
  0
VERTEX
  8
0
  6
CONTINUOUS
 62
    80
  5
551
 10
1.039159
 20
-11.879609
 30
0.0
  0
VERTEX
  8
0
  6
CONTINUOUS
 62
    80
  5
552
 10
1.045009
 20
-11.890475
 30
0.0
  0
VERTEX
  8
0
  6
CONTINUOUS
 62
    80
  5
553
 10
1.051909
 20
-11.90285
 30
0.0
  0
VERTEX
  8
0
  6
CONTINUOUS
 62
    80
  5
554
 10
1.059004
 20
-11.915124
 30
0.0
  0
VERTEX
  8
0
  6
CONTINUOUS
 62
    80
  5
555
 10
1.066289
 20
-11.927294
 30
0.0
  0
VERTEX
  8
0
  6
CONTINUOUS
 62
    80
  5
556
 10
1.07376
 20
-11.939359
 30
0.0
  0
VERTEX
  8
0
  6
CONTINUOUS
 62
    80
  5
557
 10
1.081411
 20
-11.951317
 30
0.0
  0
VERTEX
  8
0
  6
CONTINUOUS
 62
    80
  5
558
 10
1.089237
 20
-11.963167
 30
0.0
  0
VERTEX
  8
0
  6
CONTINUOUS
 62
    80
  5
559
 10
1.097234
 20
-11.974907
 30
0.0
  0
VERTEX
  8
0
  6
CONTINUOUS
 62
    80
  5
55A
 10
1.105397
 20
-11.986536
 30
0.0
  0
VERTEX
  8
0
  6
CONTINUOUS
 62
    80
  5
55B
 10
1.113721
 20
-11.998052
 30
0.0
  0
VERTEX
  8
0
  6
CONTINUOUS
 62
    80
  5
55C
 10
1.122201
 20
-12.009454
 30
0.0
  0
VERTEX
  8
0
  6
CONTINUOUS
 62
    80
  5
55D
 10
1.130831
 20
-12.020739
 30
0.0
  0
VERTEX
  8
0
  6
CONTINUOUS
 62
    80
  5
55E
 10
1.139609
 20
-12.031907
 30
0.0
  0
VERTEX
  8
0
  6
CONTINUOUS
 62
    80
  5
55F
 10
1.148527
 20
-12.042955
 30
0.0
  0
VERTEX
  8
0
  6
CONTINUOUS
 62
    80
  5
560
 10
1.157582
 20
-12.053883
 30
0.0
  0
VERTEX
  8
0
  6
CONTINUOUS
 62
    80
  5
561
 10
1.166769
 20
-12.064688
 30
0.0
  0
VERTEX
  8
0
  6
CONTINUOUS
 62
    80
  5
562
 10
1.176083
 20
-12.075369
 30
0.0
  0
VERTEX
  8
0
  6
CONTINUOUS
 62
    80
  5
563
 10
1.186962
 20
-12.087517
 30
0.0
  0
VERTEX
  8
0
  6
CONTINUOUS
 62
    80
  5
564
 10
1.198013
 20
-12.099519
 30
0.0
  0
VERTEX
  8
0
  6
CONTINUOUS
 62
    80
  5
565
 10
1.209232
 20
-12.111374
 30
0.0
  0
VERTEX
  8
0
  6
CONTINUOUS
 62
    80
  5
566
 10
1.220613
 20
-12.123081
 30
0.0
  0
VERTEX
  8
0
  6
CONTINUOUS
 62
    80
  5
567
 10
1.232151
 20
-12.134641
 30
0.0
  0
VERTEX
  8
0
  6
CONTINUOUS
 62
    80
  5
568
 10
1.243843
 20
-12.146053
 30
0.0
  0
VERTEX
  8
0
  6
CONTINUOUS
 62
    80
  5
569
 10
1.255682
 20
-12.157316
 30
0.0
  0
VERTEX
  8
0
  6
CONTINUOUS
 62
    80
  5
56A
 10
1.267665
 20
-12.168431
 30
0.0
  0
VERTEX
  8
0
  6
CONTINUOUS
 62
    80
  5
56B
 10
1.279785
 20
-12.179397
 30
0.0
  0
VERTEX
  8
0
  6
CONTINUOUS
 62
    80
  5
56C
 10
1.292039
 20
-12.190213
 30
0.0
  0
VERTEX
  8
0
  6
CONTINUOUS
 62
    80
  5
56D
 10
1.304421
 20
-12.20088
 30
0.0
  0
VERTEX
  8
0
  6
CONTINUOUS
 62
    80
  5
56E
 10
1.316926
 20
-12.211397
 30
0.0
  0
VERTEX
  8
0
  6
CONTINUOUS
 62
    80
  5
56F
 10
1.32955
 20
-12.221764
 30
0.0
  0
VERTEX
  8
0
  6
CONTINUOUS
 62
    80
  5
570
 10
1.342288
 20
-12.231981
 30
0.0
  0
VERTEX
  8
0
  6
CONTINUOUS
 62
    80
  5
571
 10
1.355135
 20
-12.242046
 30
0.0
  0
VERTEX
  8
0
  6
CONTINUOUS
 62
    80
  5
572
 10
1.368085
 20
-12.25196
 30
0.0
  0
VERTEX
  8
0
  6
CONTINUOUS
 62
    80
  5
573
 10
1.382804
 20
-12.262956
 30
0.0
  0
VERTEX
  8
0
  6
CONTINUOUS
 62
    80
  5
574
 10
1.397662
 20
-12.273774
 30
0.0
  0
VERTEX
  8
0
  6
CONTINUOUS
 62
    80
  5
575
 10
1.412655
 20
-12.284415
 30
0.0
  0
VERTEX
  8
0
  6
CONTINUOUS
 62
    80
  5
576
 10
1.427779
 20
-12.29488
 30
0.0
  0
VERTEX
  8
0
  6
CONTINUOUS
 62
    80
  5
577
 10
1.443029
 20
-12.305168
 30
0.0
  0
VERTEX
  8
0
  6
CONTINUOUS
 62
    80
  5
578
 10
1.458402
 20
-12.31528
 30
0.0
  0
VERTEX
  8
0
  6
CONTINUOUS
 62
    80
  5
579
 10
1.473892
 20
-12.325216
 30
0.0
  0
VERTEX
  8
0
  6
CONTINUOUS
 62
    80
  5
57A
 10
1.489496
 20
-12.334978
 30
0.0
  0
VERTEX
  8
0
  6
CONTINUOUS
 62
    80
  5
57B
 10
1.505208
 20
-12.344565
 30
0.0
  0
VERTEX
  8
0
  6
CONTINUOUS
 62
    80
  5
57C
 10
1.521025
 20
-12.353977
 30
0.0
  0
VERTEX
  8
0
  6
CONTINUOUS
 62
    80
  5
57D
 10
1.536943
 20
-12.363215
 30
0.0
  0
VERTEX
  8
0
  6
CONTINUOUS
 62
    80
  5
57E
 10
1.552957
 20
-12.37228
 30
0.0
  0
VERTEX
  8
0
  6
CONTINUOUS
 62
    80
  5
57F
 10
1.569062
 20
-12.381172
 30
0.0
  0
VERTEX
  8
0
  6
CONTINUOUS
 62
    80
  5
580
 10
1.585255
 20
-12.389891
 30
0.0
  0
VERTEX
  8
0
  6
CONTINUOUS
 62
    80
  5
581
 10
1.601531
 20
-12.398438
 30
0.0
  0
VERTEX
  8
0
  6
CONTINUOUS
 62
    80
  5
582
 10
1.617886
 20
-12.406812
 30
0.0
  0
VERTEX
  8
0
  6
CONTINUOUS
 62
    80
  5
583
 10
1.635874
 20
-12.415783
 30
0.0
  0
VERTEX
  8
0
  6
CONTINUOUS
 62
    80
  5
584
 10
1.653965
 20
-12.424559
 30
0.0
  0
VERTEX
  8
0
  6
CONTINUOUS
 62
    80
  5
585
 10
1.672155
 20
-12.433139
 30
0.0
  0
VERTEX
  8
0
  6
CONTINUOUS
 62
    80
  5
586
 10
1.690442
 20
-12.441526
 30
0.0
  0
VERTEX
  8
0
  6
CONTINUOUS
 62
    80
  5
587
 10
1.708821
 20
-12.449718
 30
0.0
  0
VERTEX
  8
0
  6
CONTINUOUS
 62
    80
  5
588
 10
1.727289
 20
-12.457718
 30
0.0
  0
VERTEX
  8
0
  6
CONTINUOUS
 62
    80
  5
589
 10
1.745842
 20
-12.465526
 30
0.0
  0
VERTEX
  8
0
  6
CONTINUOUS
 62
    80
  5
58A
 10
1.764477
 20
-12.473142
 30
0.0
  0
VERTEX
  8
0
  6
CONTINUOUS
 62
    80
  5
58B
 10
1.783188
 20
-12.480567
 30
0.0
  0
VERTEX
  8
0
  6
CONTINUOUS
 62
    80
  5
58C
 10
1.801974
 20
-12.487801
 30
0.0
  0
VERTEX
  8
0
  6
CONTINUOUS
 62
    80
  5
58D
 10
1.82083
 20
-12.494846
 30
0.0
  0
VERTEX
  8
0
  6
CONTINUOUS
 62
    80
  5
58E
 10
1.839753
 20
-12.501701
 30
0.0
  0
VERTEX
  8
0
  6
CONTINUOUS
 62
    80
  5
58F
 10
1.858739
 20
-12.508367
 30
0.0
  0
VERTEX
  8
0
  6
CONTINUOUS
 62
    80
  5
590
 10
1.877784
 20
-12.514846
 30
0.0
  0
VERTEX
  8
0
  6
CONTINUOUS
 62
    80
  5
591
 10
1.896884
 20
-12.521137
 30
0.0
  0
VERTEX
  8
0
  6
CONTINUOUS
 62
    80
  5
592
 10
1.916037
 20
-12.527242
 30
0.0
  0
VERTEX
  8
0
  6
CONTINUOUS
 62
    80
  5
593
 10
1.936421
 20
-12.533518
 30
0.0
  0
VERTEX
  8
0
  6
CONTINUOUS
 62
    80
  5
594
 10
1.956873
 20
-12.539591
 30
0.0
  0
VERTEX
  8
0
  6
CONTINUOUS
 62
    80
  5
595
 10
1.977391
 20
-12.545461
 30
0.0
  0
VERTEX
  8
0
  6
CONTINUOUS
 62
    80
  5
596
 10
1.997971
 20
-12.551127
 30
0.0
  0
VERTEX
  8
0
  6
CONTINUOUS
 62
    80
  5
597
 10
2.018609
 20
-12.556592
 30
0.0
  0
VERTEX
  8
0
  6
CONTINUOUS
 62
    80
  5
598
 10
2.039303
 20
-12.561855
 30
0.0
  0
VERTEX
  8
0
  6
CONTINUOUS
 62
    80
  5
599
 10
2.06005
 20
-12.566917
 30
0.0
  0
VERTEX
  8
0
  6
CONTINUOUS
 62
    80
  5
59A
 10
2.080846
 20
-12.571778
 30
0.0
  0
VERTEX
  8
0
  6
CONTINUOUS
 62
    80
  5
59B
 10
2.101688
 20
-12.576438
 30
0.0
  0
VERTEX
  8
0
  6
CONTINUOUS
 62
    80
  5
59C
 10
2.122573
 20
-12.580899
 30
0.0
  0
VERTEX
  8
0
  6
CONTINUOUS
 62
    80
  5
59D
 10
2.143498
 20
-12.585161
 30
0.0
  0
VERTEX
  8
0
  6
CONTINUOUS
 62
    80
  5
59E
 10
2.16446
 20
-12.589224
 30
0.0
  0
VERTEX
  8
0
  6
CONTINUOUS
 62
    80
  5
59F
 10
2.185455
 20
-12.593088
 30
0.0
  0
VERTEX
  8
0
  6
CONTINUOUS
 62
    80
  5
5A0
 10
2.206481
 20
-12.596755
 30
0.0
  0
VERTEX
  8
0
  6
CONTINUOUS
 62
    80
  5
5A1
 10
2.227533
 20
-12.600224
 30
0.0
  0
VERTEX
  8
0
  6
CONTINUOUS
 62
    80
  5
5A2
 10
2.24861
 20
-12.603497
 30
0.0
  0
VERTEX
  8
0
  6
CONTINUOUS
 62
    80
  5
5A3
 10
2.270345
 20
-12.606663
 30
0.0
  0
VERTEX
  8
0
  6
CONTINUOUS
 62
    80
  5
5A4
 10
2.292115
 20
-12.609623
 30
0.0
  0
VERTEX
  8
0
  6
CONTINUOUS
 62
    80
  5
5A5
 10
2.313917
 20
-12.612378
 30
0.0
  0
VERTEX
  8
0
  6
CONTINUOUS
 62
    80
  5
5A6
 10
2.33575
 20
-12.614928
 30
0.0
  0
VERTEX
  8
0
  6
CONTINUOUS
 62
    80
  5
5A7
 10
2.357609
 20
-12.617273
 30
0.0
  0
VERTEX
  8
0
  6
CONTINUOUS
 62
    80
  5
5A8
 10
2.379492
 20
-12.619413
 30
0.0
  0
VERTEX
  8
0
  6
CONTINUOUS
 62
    80
  5
5A9
 10
2.401397
 20
-12.621348
 30
0.0
  0
VERTEX
  8
0
  6
CONTINUOUS
 62
    80
  5
5AA
 10
2.423319
 20
-12.623079
 30
0.0
  0
VERTEX
  8
0
  6
CONTINUOUS
 62
    80
  5
5AB
 10
2.445257
 20
-12.624605
 30
0.0
  0
VERTEX
  8
0
  6
CONTINUOUS
 62
    80
  5
5AC
 10
2.467207
 20
-12.625927
 30
0.0
  0
VERTEX
  8
0
  6
CONTINUOUS
 62
    80
  5
5AD
 10
2.489167
 20
-12.627046
 30
0.0
  0
VERTEX
  8
0
  6
CONTINUOUS
 62
    80
  5
5AE
 10
2.511133
 20
-12.627961
 30
0.0
  0
VERTEX
  8
0
  6
CONTINUOUS
 62
    80
  5
5AF
 10
2.533103
 20
-12.628672
 30
0.0
  0
VERTEX
  8
0
  6
CONTINUOUS
 62
    80
  5
5B0
 10
2.555074
 20
-12.629179
 30
0.0
  0
VERTEX
  8
0
  6
CONTINUOUS
 62
    80
  5
5B1
 10
2.577043
 20
-12.629484
 30
0.0
  0
VERTEX
  8
0
  6
CONTINUOUS
 62
    80
  5
5B2
 10
2.599007
 20
-12.629585
 30
0.0
  0
VERTEX
  8
0
  6
CONTINUOUS
 62
    80
  5
5B3
 10
2.620971
 20
-12.629484
 30
0.0
  0
VERTEX
  8
0
  6
CONTINUOUS
 62
    80
  5
5B4
 10
2.64294
 20
-12.629179
 30
0.0
  0
VERTEX
  8
0
  6
CONTINUOUS
 62
    80
  5
5B5
 10
2.66491
 20
-12.628672
 30
0.0
  0
VERTEX
  8
0
  6
CONTINUOUS
 62
    80
  5
5B6
 10
2.686881
 20
-12.627961
 30
0.0
  0
VERTEX
  8
0
  6
CONTINUOUS
 62
    80
  5
5B7
 10
2.708847
 20
-12.627046
 30
0.0
  0
VERTEX
  8
0
  6
CONTINUOUS
 62
    80
  5
5B8
 10
2.730807
 20
-12.625927
 30
0.0
  0
VERTEX
  8
0
  6
CONTINUOUS
 62
    80
  5
5B9
 10
2.752757
 20
-12.624605
 30
0.0
  0
VERTEX
  8
0
  6
CONTINUOUS
 62
    80
  5
5BA
 10
2.774695
 20
-12.623079
 30
0.0
  0
VERTEX
  8
0
  6
CONTINUOUS
 62
    80
  5
5BB
 10
2.796617
 20
-12.621348
 30
0.0
  0
VERTEX
  8
0
  6
CONTINUOUS
 62
    80
  5
5BC
 10
2.818521
 20
-12.619413
 30
0.0
  0
VERTEX
  8
0
  6
CONTINUOUS
 62
    80
  5
5BD
 10
2.840405
 20
-12.617273
 30
0.0
  0
VERTEX
  8
0
  6
CONTINUOUS
 62
    80
  5
5BE
 10
2.862264
 20
-12.614928
 30
0.0
  0
VERTEX
  8
0
  6
CONTINUOUS
 62
    80
  5
5BF
 10
2.884096
 20
-12.612378
 30
0.0
  0
VERTEX
  8
0
  6
CONTINUOUS
 62
    80
  5
5C0
 10
2.905899
 20
-12.609623
 30
0.0
  0
VERTEX
  8
0
  6
CONTINUOUS
 62
    80
  5
5C1
 10
2.927669
 20
-12.606663
 30
0.0
  0
VERTEX
  8
0
  6
CONTINUOUS
 62
    80
  5
5C2
 10
2.949404
 20
-12.603497
 30
0.0
  0
VERTEX
  8
0
  6
CONTINUOUS
 62
    80
  5
5C3
 10
2.97048
 20
-12.600224
 30
0.0
  0
VERTEX
  8
0
  6
CONTINUOUS
 62
    80
  5
5C4
 10
2.991533
 20
-12.596755
 30
0.0
  0
VERTEX
  8
0
  6
CONTINUOUS
 62
    80
  5
5C5
 10
3.012559
 20
-12.593088
 30
0.0
  0
VERTEX
  8
0
  6
CONTINUOUS
 62
    80
  5
5C6
 10
3.033554
 20
-12.589224
 30
0.0
  0
VERTEX
  8
0
  6
CONTINUOUS
 62
    80
  5
5C7
 10
3.054516
 20
-12.585161
 30
0.0
  0
VERTEX
  8
0
  6
CONTINUOUS
 62
    80
  5
5C8
 10
3.075441
 20
-12.580899
 30
0.0
  0
VERTEX
  8
0
  6
CONTINUOUS
 62
    80
  5
5C9
 10
3.096326
 20
-12.576438
 30
0.0
  0
VERTEX
  8
0
  6
CONTINUOUS
 62
    80
  5
5CA
 10
3.117168
 20
-12.571778
 30
0.0
  0
VERTEX
  8
0
  6
CONTINUOUS
 62
    80
  5
5CB
 10
3.137964
 20
-12.566917
 30
0.0
  0
VERTEX
  8
0
  6
CONTINUOUS
 62
    80
  5
5CC
 10
3.158711
 20
-12.561855
 30
0.0
  0
VERTEX
  8
0
  6
CONTINUOUS
 62
    80
  5
5CD
 10
3.179405
 20
-12.556592
 30
0.0
  0
VERTEX
  8
0
  6
CONTINUOUS
 62
    80
  5
5CE
 10
3.200043
 20
-12.551127
 30
0.0
  0
VERTEX
  8
0
  6
CONTINUOUS
 62
    80
  5
5CF
 10
3.220623
 20
-12.545461
 30
0.0
  0
VERTEX
  8
0
  6
CONTINUOUS
 62
    80
  5
5D0
 10
3.241141
 20
-12.539591
 30
0.0
  0
VERTEX
  8
0
  6
CONTINUOUS
 62
    80
  5
5D1
 10
3.261593
 20
-12.533518
 30
0.0
  0
VERTEX
  8
0
  6
CONTINUOUS
 62
    80
  5
5D2
 10
3.281977
 20
-12.527242
 30
0.0
  0
VERTEX
  8
0
  6
CONTINUOUS
 62
    80
  5
5D3
 10
3.30113
 20
-12.521137
 30
0.0
  0
VERTEX
  8
0
  6
CONTINUOUS
 62
    80
  5
5D4
 10
3.32023
 20
-12.514846
 30
0.0
  0
VERTEX
  8
0
  6
CONTINUOUS
 62
    80
  5
5D5
 10
3.339275
 20
-12.508367
 30
0.0
  0
VERTEX
  8
0
  6
CONTINUOUS
 62
    80
  5
5D6
 10
3.358261
 20
-12.501701
 30
0.0
  0
VERTEX
  8
0
  6
CONTINUOUS
 62
    80
  5
5D7
 10
3.377183
 20
-12.494846
 30
0.0
  0
VERTEX
  8
0
  6
CONTINUOUS
 62
    80
  5
5D8
 10
3.396039
 20
-12.487801
 30
0.0
  0
VERTEX
  8
0
  6
CONTINUOUS
 62
    80
  5
5D9
 10
3.414825
 20
-12.480567
 30
0.0
  0
VERTEX
  8
0
  6
CONTINUOUS
 62
    80
  5
5DA
 10
3.433537
 20
-12.473142
 30
0.0
  0
VERTEX
  8
0
  6
CONTINUOUS
 62
    80
  5
5DB
 10
3.452171
 20
-12.465526
 30
0.0
  0
VERTEX
  8
0
  6
CONTINUOUS
 62
    80
  5
5DC
 10
3.470724
 20
-12.457718
 30
0.0
  0
VERTEX
  8
0
  6
CONTINUOUS
 62
    80
  5
5DD
 10
3.489192
 20
-12.449718
 30
0.0
  0
VERTEX
  8
0
  6
CONTINUOUS
 62
    80
  5
5DE
 10
3.507572
 20
-12.441526
 30
0.0
  0
VERTEX
  8
0
  6
CONTINUOUS
 62
    80
  5
5DF
 10
3.525858
 20
-12.433139
 30
0.0
  0
VERTEX
  8
0
  6
CONTINUOUS
 62
    80
  5
5E0
 10
3.544049
 20
-12.424559
 30
0.0
  0
VERTEX
  8
0
  6
CONTINUOUS
 62
    80
  5
5E1
 10
3.56214
 20
-12.415783
 30
0.0
  0
VERTEX
  8
0
  6
CONTINUOUS
 62
    80
  5
5E2
 10
3.580128
 20
-12.406812
 30
0.0
  0
VERTEX
  8
0
  6
CONTINUOUS
 62
    80
  5
5E3
 10
3.596482
 20
-12.398438
 30
0.0
  0
VERTEX
  8
0
  6
CONTINUOUS
 62
    80
  5
5E4
 10
3.612758
 20
-12.389891
 30
0.0
  0
VERTEX
  8
0
  6
CONTINUOUS
 62
    80
  5
5E5
 10
3.628951
 20
-12.381172
 30
0.0
  0
VERTEX
  8
0
  6
CONTINUOUS
 62
    80
  5
5E6
 10
3.645057
 20
-12.37228
 30
0.0
  0
VERTEX
  8
0
  6
CONTINUOUS
 62
    80
  5
5E7
 10
3.661071
 20
-12.363215
 30
0.0
  0
VERTEX
  8
0
  6
CONTINUOUS
 62
    80
  5
5E8
 10
3.676988
 20
-12.353977
 30
0.0
  0
VERTEX
  8
0
  6
CONTINUOUS
 62
    80
  5
5E9
 10
3.692806
 20
-12.344565
 30
0.0
  0
VERTEX
  8
0
  6
CONTINUOUS
 62
    80
  5
5EA
 10
3.708518
 20
-12.334978
 30
0.0
  0
VERTEX
  8
0
  6
CONTINUOUS
 62
    80
  5
5EB
 10
3.724122
 20
-12.325216
 30
0.0
  0
VERTEX
  8
0
  6
CONTINUOUS
 62
    80
  5
5EC
 10
3.739612
 20
-12.31528
 30
0.0
  0
VERTEX
  8
0
  6
CONTINUOUS
 62
    80
  5
5ED
 10
3.754984
 20
-12.305168
 30
0.0
  0
VERTEX
  8
0
  6
CONTINUOUS
 62
    80
  5
5EE
 10
3.770235
 20
-12.29488
 30
0.0
  0
VERTEX
  8
0
  6
CONTINUOUS
 62
    80
  5
5EF
 10
3.785359
 20
-12.284415
 30
0.0
  0
VERTEX
  8
0
  6
CONTINUOUS
 62
    80
  5
5F0
 10
3.800352
 20
-12.273774
 30
0.0
  0
VERTEX
  8
0
  6
CONTINUOUS
 62
    80
  5
5F1
 10
3.81521
 20
-12.262956
 30
0.0
  0
VERTEX
  8
0
  6
CONTINUOUS
 62
    80
  5
5F2
 10
3.829929
 20
-12.25196
 30
0.0
  0
VERTEX
  8
0
  6
CONTINUOUS
 62
    80
  5
5F3
 10
3.842879
 20
-12.242046
 30
0.0
  0
VERTEX
  8
0
  6
CONTINUOUS
 62
    80
  5
5F4
 10
3.855726
 20
-12.231981
 30
0.0
  0
VERTEX
  8
0
  6
CONTINUOUS
 62
    80
  5
5F5
 10
3.868464
 20
-12.221764
 30
0.0
  0
VERTEX
  8
0
  6
CONTINUOUS
 62
    80
  5
5F6
 10
3.881088
 20
-12.211397
 30
0.0
  0
VERTEX
  8
0
  6
CONTINUOUS
 62
    80
  5
5F7
 10
3.893593
 20
-12.20088
 30
0.0
  0
VERTEX
  8
0
  6
CONTINUOUS
 62
    80
  5
5F8
 10
3.905975
 20
-12.190213
 30
0.0
  0
VERTEX
  8
0
  6
CONTINUOUS
 62
    80
  5
5F9
 10
3.918229
 20
-12.179397
 30
0.0
  0
VERTEX
  8
0
  6
CONTINUOUS
 62
    80
  5
5FA
 10
3.930349
 20
-12.168431
 30
0.0
  0
VERTEX
  8
0
  6
CONTINUOUS
 62
    80
  5
5FB
 10
3.942332
 20
-12.157316
 30
0.0
  0
VERTEX
  8
0
  6
CONTINUOUS
 62
    80
  5
5FC
 10
3.954171
 20
-12.146053
 30
0.0
  0
VERTEX
  8
0
  6
CONTINUOUS
 62
    80
  5
5FD
 10
3.965862
 20
-12.134641
 30
0.0
  0
VERTEX
  8
0
  6
CONTINUOUS
 62
    80
  5
5FE
 10
3.977401
 20
-12.123081
 30
0.0
  0
VERTEX
  8
0
  6
CONTINUOUS
 62
    80
  5
5FF
 10
3.988782
 20
-12.111374
 30
0.0
  0
VERTEX
  8
0
  6
CONTINUOUS
 62
    80
  5
600
 10
4.000001
 20
-12.099519
 30
0.0
  0
VERTEX
  8
0
  6
CONTINUOUS
 62
    80
  5
601
 10
4.011052
 20
-12.087517
 30
0.0
  0
VERTEX
  8
0
  6
CONTINUOUS
 62
    80
  5
602
 10
4.021931
 20
-12.075369
 30
0.0
  0
VERTEX
  8
0
  6
CONTINUOUS
 62
    80
  5
603
 10
4.031245
 20
-12.064688
 30
0.0
  0
VERTEX
  8
0
  6
CONTINUOUS
 62
    80
  5
604
 10
4.040431
 20
-12.053883
 30
0.0
  0
VERTEX
  8
0
  6
CONTINUOUS
 62
    80
  5
605
 10
4.049487
 20
-12.042955
 30
0.0
  0
VERTEX
  8
0
  6
CONTINUOUS
 62
    80
  5
606
 10
4.058405
 20
-12.031907
 30
0.0
  0
VERTEX
  8
0
  6
CONTINUOUS
 62
    80
  5
607
 10
4.067182
 20
-12.020739
 30
0.0
  0
VERTEX
  8
0
  6
CONTINUOUS
 62
    80
  5
608
 10
4.075813
 20
-12.009454
 30
0.0
  0
VERTEX
  8
0
  6
CONTINUOUS
 62
    80
  5
609
 10
4.084293
 20
-11.998052
 30
0.0
  0
VERTEX
  8
0
  6
CONTINUOUS
 62
    80
  5
60A
 10
4.092617
 20
-11.986536
 30
0.0
  0
VERTEX
  8
0
  6
CONTINUOUS
 62
    80
  5
60B
 10
4.100779
 20
-11.974907
 30
0.0
  0
VERTEX
  8
0
  6
CONTINUOUS
 62
    80
  5
60C
 10
4.108777
 20
-11.963167
 30
0.0
  0
VERTEX
  8
0
  6
CONTINUOUS
 62
    80
  5
60D
 10
4.116603
 20
-11.951317
 30
0.0
  0
VERTEX
  8
0
  6
CONTINUOUS
 62
    80
  5
60E
 10
4.124254
 20
-11.939359
 30
0.0
  0
VERTEX
  8
0
  6
CONTINUOUS
 62
    80
  5
60F
 10
4.131724
 20
-11.927294
 30
0.0
  0
VERTEX
  8
0
  6
CONTINUOUS
 62
    80
  5
610
 10
4.13901
 20
-11.915124
 30
0.0
  0
VERTEX
  8
0
  6
CONTINUOUS
 62
    80
  5
611
 10
4.146105
 20
-11.90285
 30
0.0
  0
VERTEX
  8
0
  6
CONTINUOUS
 62
    80
  5
612
 10
4.153005
 20
-11.890475
 30
0.0
  0
VERTEX
  8
0
  6
CONTINUOUS
 62
    80
  5
613
 10
4.158855
 20
-11.879609
 30
0.0
  0
VERTEX
  8
0
  6
CONTINUOUS
 62
    80
  5
614
 10
4.164557
 20
-11.868651
 30
0.0
  0
VERTEX
  8
0
  6
CONTINUOUS
 62
    80
  5
615
 10
4.170107
 20
-11.857606
 30
0.0
  0
VERTEX
  8
0
  6
CONTINUOUS
 62
    80
  5
616
 10
4.175502
 20
-11.846475
 30
0.0
  0
VERTEX
  8
0
  6
CONTINUOUS
 62
    80
  5
617
 10
4.180738
 20
-11.835263
 30
0.0
  0
VERTEX
  8
0
  6
CONTINUOUS
 62
    80
  5
618
 10
4.185811
 20
-11.823972
 30
0.0
  0
VERTEX
  8
0
  6
CONTINUOUS
 62
    80
  5
619
 10
4.190717
 20
-11.812606
 30
0.0
  0
VERTEX
  8
0
  6
CONTINUOUS
 62
    80
  5
61A
 10
4.195453
 20
-11.801167
 30
0.0
  0
VERTEX
  8
0
  6
CONTINUOUS
 62
    80
  5
61B
 10
4.200015
 20
-11.789659
 30
0.0
  0
VERTEX
  8
0
  6
CONTINUOUS
 62
    80
  5
61C
 10
4.204399
 20
-11.778084
 30
0.0
  0
VERTEX
  8
0
  6
CONTINUOUS
 62
    80
  5
61D
 10
4.208601
 20
-11.766446
 30
0.0
  0
VERTEX
  8
0
  6
CONTINUOUS
 62
    80
  5
61E
 10
4.212618
 20
-11.754749
 30
0.0
  0
VERTEX
  8
0
  6
CONTINUOUS
 62
    80
  5
61F
 10
4.216445
 20
-11.742994
 30
0.0
  0
VERTEX
  8
0
  6
CONTINUOUS
 62
    80
  5
620
 10
4.220079
 20
-11.731186
 30
0.0
  0
VERTEX
  8
0
  6
CONTINUOUS
 62
    80
  5
621
 10
4.223517
 20
-11.719327
 30
0.0
  0
VERTEX
  8
0
  6
CONTINUOUS
 62
    80
  5
622
 10
4.226754
 20
-11.70742
 30
0.0
  0
VERTEX
  8
0
  6
CONTINUOUS
 62
    80
  5
623
 10
4.229532
 20
-11.696505
 30
0.0
  0
VERTEX
  8
0
  6
CONTINUOUS
 62
    80
  5
624
 10
4.232141
 20
-11.685538
 30
0.0
  0
VERTEX
  8
0
  6
CONTINUOUS
 62
    80
  5
625
 10
4.23458
 20
-11.674522
 30
0.0
  0
VERTEX
  8
0
  6
CONTINUOUS
 62
    80
  5
626
 10
4.236847
 20
-11.663462
 30
0.0
  0
VERTEX
  8
0
  6
CONTINUOUS
 62
    80
  5
627
 10
4.238942
 20
-11.652362
 30
0.0
  0
VERTEX
  8
0
  6
CONTINUOUS
 62
    80
  5
628
 10
4.240861
 20
-11.641226
 30
0.0
  0
VERTEX
  8
0
  6
CONTINUOUS
 62
    80
  5
629
 10
4.242605
 20
-11.630059
 30
0.0
  0
VERTEX
  8
0
  6
CONTINUOUS
 62
    80
  5
62A
 10
4.244171
 20
-11.618864
 30
0.0
  0
VERTEX
  8
0
  6
CONTINUOUS
 62
    80
  5
62B
 10
4.245558
 20
-11.607647
 30
0.0
  0
VERTEX
  8
0
  6
CONTINUOUS
 62
    80
  5
62C
 10
4.246766
 20
-11.59641
 30
0.0
  0
VERTEX
  8
0
  6
CONTINUOUS
 62
    80
  5
62D
 10
4.247791
 20
-11.585159
 30
0.0
  0
VERTEX
  8
0
  6
CONTINUOUS
 62
    80
  5
62E
 10
4.248633
 20
-11.573897
 30
0.0
  0
VERTEX
  8
0
  6
CONTINUOUS
 62
    80
  5
62F
 10
4.249291
 20
-11.562629
 30
0.0
  0
VERTEX
  8
0
  6
CONTINUOUS
 62
    80
  5
630
 10
4.249762
 20
-11.551359
 30
0.0
  0
VERTEX
  8
0
  6
CONTINUOUS
 62
    80
  5
631
 10
4.250046
 20
-11.540091
 30
0.0
  0
VERTEX
  8
0
  6
CONTINUOUS
 62
    80
  5
632
 10
4.250141
 20
-11.528829
 30
0.0
  0
SEQEND
  8
0
  6
CONTINUOUS
 62
    80
  5
633
  0
POLYLINE
  8
0
  6
CONTINUOUS
 62
    80
  5
82
 66
     1
 10
0.0
 20
0.0
 30
0.0
 70
     1
  0
VERTEX
  8
0
  6
CONTINUOUS
 62
    80
  5
634
 10
4.861672
 20
-11.528829
 30
0.0
  0
VERTEX
  8
0
  6
CONTINUOUS
 62
    80
  5
635
 10
4.853062
 20
-11.379593
 30
0.0
  0
VERTEX
  8
0
  6
CONTINUOUS
 62
    80
  5
636
 10
4.827297
 20
-11.231494
 30
0.0
  0
VERTEX
  8
0
  6
CONTINUOUS
 62
    80
  5
637
 10
4.784574
 20
-11.085657
 30
0.0
  0
VERTEX
  8
0
  6
CONTINUOUS
 62
    80
  5
638
 10
4.725217
 20
-10.943192
 30
0.0
  0
VERTEX
  8
0
  6
CONTINUOUS
 62
    80
  5
639
 10
4.649678
 20
-10.805185
 30
0.0
  0
VERTEX
  8
0
  6
CONTINUOUS
 62
    80
  5
63A
 10
4.558532
 20
-10.672686
 30
0.0
  0
VERTEX
  8
0
  6
CONTINUOUS
 62
    80
  5
63B
 10
4.452474
 20
-10.546702
 30
0.0
  0
VERTEX
  8
0
  6
CONTINUOUS
 62
    80
  5
63C
 10
4.332309
 20
-10.428192
 30
0.0
  0
VERTEX
  8
0
  6
CONTINUOUS
 62
    80
  5
63D
 10
4.198953
 20
-10.318059
 30
0.0
  0
VERTEX
  8
0
  6
CONTINUOUS
 62
    80
  5
63E
 10
4.05342
 20
-10.217141
 30
0.0
  0
VERTEX
  8
0
  6
CONTINUOUS
 62
    80
  5
63F
 10
3.896818
 20
-10.126206
 30
0.0
  0
VERTEX
  8
0
  6
CONTINUOUS
 62
    80
  5
640
 10
3.730339
 20
-10.045945
 30
0.0
  0
VERTEX
  8
0
  6
CONTINUOUS
 62
    80
  5
641
 10
3.55525
 20
-9.97697
 30
0.0
  0
VERTEX
  8
0
  6
CONTINUOUS
 62
    80
  5
642
 10
3.372884
 20
-9.919805
 30
0.0
  0
VERTEX
  8
0
  6
CONTINUOUS
 62
    80
  5
643
 10
3.184628
 20
-9.874887
 30
0.0
  0
VERTEX
  8
0
  6
CONTINUOUS
 62
    80
  5
644
 10
2.991915
 20
-9.842555
 30
0.0
  0
VERTEX
  8
0
  6
CONTINUOUS
 62
    80
  5
645
 10
2.796211
 20
-9.823058
 30
0.0
  0
VERTEX
  8
0
  6
CONTINUOUS
 62
    80
  5
646
 10
2.599007
 20
-9.816542
 30
0.0
  0
VERTEX
  8
0
  6
CONTINUOUS
 62
    80
  5
647
 10
2.401803
 20
-9.823058
 30
0.0
  0
VERTEX
  8
0
  6
CONTINUOUS
 62
    80
  5
648
 10
2.206099
 20
-9.842555
 30
0.0
  0
VERTEX
  8
0
  6
CONTINUOUS
 62
    80
  5
649
 10
2.013386
 20
-9.874887
 30
0.0
  0
VERTEX
  8
0
  6
CONTINUOUS
 62
    80
  5
64A
 10
1.82513
 20
-9.919805
 30
0.0
  0
VERTEX
  8
0
  6
CONTINUOUS
 62
    80
  5
64B
 10
1.642763
 20
-9.97697
 30
0.0
  0
VERTEX
  8
0
  6
CONTINUOUS
 62
    80
  5
64C
 10
1.467674
 20
-10.045945
 30
0.0
  0
VERTEX
  8
0
  6
CONTINUOUS
 62
    80
  5
64D
 10
1.301195
 20
-10.126206
 30
0.0
  0
VERTEX
  8
0
  6
CONTINUOUS
 62
    80
  5
64E
 10
1.144594
 20
-10.217141
 30
0.0
  0
VERTEX
  8
0
  6
CONTINUOUS
 62
    80
  5
64F
 10
0.999061
 20
-10.318059
 30
0.0
  0
VERTEX
  8
0
  6
CONTINUOUS
 62
    80
  5
650
 10
0.865705
 20
-10.428192
 30
0.0
  0
VERTEX
  8
0
  6
CONTINUOUS
 62
    80
  5
651
 10
0.74554
 20
-10.546702
 30
0.0
  0
VERTEX
  8
0
  6
CONTINUOUS
 62
    80
  5
652
 10
0.639481
 20
-10.672686
 30
0.0
  0
VERTEX
  8
0
  6
CONTINUOUS
 62
    80
  5
653
 10
0.548336
 20
-10.805185
 30
0.0
  0
VERTEX
  8
0
  6
CONTINUOUS
 62
    80
  5
654
 10
0.472797
 20
-10.943192
 30
0.0
  0
VERTEX
  8
0
  6
CONTINUOUS
 62
    80
  5
655
 10
0.41344
 20
-11.085657
 30
0.0
  0
VERTEX
  8
0
  6
CONTINUOUS
 62
    80
  5
656
 10
0.370717
 20
-11.231494
 30
0.0
  0
VERTEX
  8
0
  6
CONTINUOUS
 62
    80
  5
657
 10
0.344952
 20
-11.379593
 30
0.0
  0
VERTEX
  8
0
  6
CONTINUOUS
 62
    80
  5
658
 10
0.336342
 20
-11.528829
 30
0.0
  0
VERTEX
  8
0
  6
CONTINUOUS
 62
    80
  5
659
 10
0.344952
 20
-11.678065
 30
0.0
  0
VERTEX
  8
0
  6
CONTINUOUS
 62
    80
  5
65A
 10
0.370717
 20
-11.826165
 30
0.0
  0
VERTEX
  8
0
  6
CONTINUOUS
 62
    80
  5
65B
 10
0.41344
 20
-11.972002
 30
0.0
  0
VERTEX
  8
0
  6
CONTINUOUS
 62
    80
  5
65C
 10
0.472797
 20
-12.114466
 30
0.0
  0
VERTEX
  8
0
  6
CONTINUOUS
 62
    80
  5
65D
 10
0.548336
 20
-12.252473
 30
0.0
  0
VERTEX
  8
0
  6
CONTINUOUS
 62
    80
  5
65E
 10
0.639481
 20
-12.384973
 30
0.0
  0
VERTEX
  8
0
  6
CONTINUOUS
 62
    80
  5
65F
 10
0.74554
 20
-12.510957
 30
0.0
  0
VERTEX
  8
0
  6
CONTINUOUS
 62
    80
  5
660
 10
0.865705
 20
-12.629466
 30
0.0
  0
VERTEX
  8
0
  6
CONTINUOUS
 62
    80
  5
661
 10
0.999061
 20
-12.739599
 30
0.0
  0
VERTEX
  8
0
  6
CONTINUOUS
 62
    80
  5
662
 10
1.144594
 20
-12.840517
 30
0.0
  0
VERTEX
  8
0
  6
CONTINUOUS
 62
    80
  5
663
 10
1.301195
 20
-12.931453
 30
0.0
  0
VERTEX
  8
0
  6
CONTINUOUS
 62
    80
  5
664
 10
1.467674
 20
-13.011713
 30
0.0
  0
VERTEX
  8
0
  6
CONTINUOUS
 62
    80
  5
665
 10
1.642763
 20
-13.080688
 30
0.0
  0
VERTEX
  8
0
  6
CONTINUOUS
 62
    80
  5
666
 10
1.82513
 20
-13.137853
 30
0.0
  0
VERTEX
  8
0
  6
CONTINUOUS
 62
    80
  5
667
 10
2.013386
 20
-13.182772
 30
0.0
  0
VERTEX
  8
0
  6
CONTINUOUS
 62
    80
  5
668
 10
2.206099
 20
-13.215103
 30
0.0
  0
VERTEX
  8
0
  6
CONTINUOUS
 62
    80
  5
669
 10
2.401803
 20
-13.234601
 30
0.0
  0
VERTEX
  8
0
  6
CONTINUOUS
 62
    80
  5
66A
 10
2.599007
 20
-13.241116
 30
0.0
  0
VERTEX
  8
0
  6
CONTINUOUS
 62
    80
  5
66B
 10
2.796211
 20
-13.234601
 30
0.0
  0
VERTEX
  8
0
  6
CONTINUOUS
 62
    80
  5
66C
 10
2.991915
 20
-13.215103
 30
0.0
  0
VERTEX
  8
0
  6
CONTINUOUS
 62
    80
  5
66D
 10
3.184628
 20
-13.182772
 30
0.0
  0
VERTEX
  8
0
  6
CONTINUOUS
 62
    80
  5
66E
 10
3.372884
 20
-13.137853
 30
0.0
  0
VERTEX
  8
0
  6
CONTINUOUS
 62
    80
  5
66F
 10
3.55525
 20
-13.080688
 30
0.0
  0
VERTEX
  8
0
  6
CONTINUOUS
 62
    80
  5
670
 10
3.730339
 20
-13.011713
 30
0.0
  0
VERTEX
  8
0
  6
CONTINUOUS
 62
    80
  5
671
 10
3.896818
 20
-12.931453
 30
0.0
  0
VERTEX
  8
0
  6
CONTINUOUS
 62
    80
  5
672
 10
4.05342
 20
-12.840517
 30
0.0
  0
VERTEX
  8
0
  6
CONTINUOUS
 62
    80
  5
673
 10
4.198953
 20
-12.739599
 30
0.0
  0
VERTEX
  8
0
  6
CONTINUOUS
 62
    80
  5
674
 10
4.332309
 20
-12.629466
 30
0.0
  0
VERTEX
  8
0
  6
CONTINUOUS
 62
    80
  5
675
 10
4.452474
 20
-12.510957
 30
0.0
  0
VERTEX
  8
0
  6
CONTINUOUS
 62
    80
  5
676
 10
4.558532
 20
-12.384973
 30
0.0
  0
VERTEX
  8
0
  6
CONTINUOUS
 62
    80
  5
677
 10
4.649678
 20
-12.252473
 30
0.0
  0
VERTEX
  8
0
  6
CONTINUOUS
 62
    80
  5
678
 10
4.725217
 20
-12.114466
 30
0.0
  0
VERTEX
  8
0
  6
CONTINUOUS
 62
    80
  5
679
 10
4.784574
 20
-11.972002
 30
0.0
  0
VERTEX
  8
0
  6
CONTINUOUS
 62
    80
  5
67A
 10
4.827297
 20
-11.826165
 30
0.0
  0
VERTEX
  8
0
  6
CONTINUOUS
 62
    80
  5
67B
 10
4.853062
 20
-11.678065
 30
0.0
  0
VERTEX
  8
0
  6
CONTINUOUS
 62
    80
  5
67C
 10
4.861672
 20
-11.528829
 30
0.0
  0
SEQEND
  8
0
  6
CONTINUOUS
 62
    80
  5
67D
  0
CIRCLE
  8
0
  6
CONTINUOUS
 62
     3
  5
83
 10
0.0
 20
0.0
 30
0.0
 40
3.5
  0
ARC
  8
0
  6
CONTINUOUS
 62
    80
  5
84
 10
-0.886721
 20
-11.039603
 30
0.0
 40
0.305766
 50
269.999997
 51
90.000003
  0
CIRCLE
  8
0
  6
CONTINUOUS
 62
     3
  5
85
 10
0.0
 20
0.0
 30
0.0
 40
4.3
  0
ARC
  8
0
  6
CONTINUOUS
 62
    80
  5
86
 10
-0.886721
 20
-11.039603
 30
0.0
 40
1.039603
 50
286.927344
 51
90.000003
  0
ARC
  8
0
  6
CONTINUOUS
 62
    80
  5
87
 10
-4.066682
 20
-11.039603
 30
0.0
 40
1.039603
 50
286.927344
 51
90.000003
  0
ARC
  8
0
  6
CONTINUOUS
 62
    80
  5
88
 10
-4.066682
 20
-11.039603
 30
0.0
 40
0.305766
 50
269.999997
 51
90.000003
  0
CIRCLE
  8
0
  6
CONTINUOUS
 62
     3
  5
89
 10
0.0
 20
0.0
 30
0.0
 40
19.991194
  0
LINE
  8
0
  6
CONTINUOUS
 62
     3
  5
8A
 10
2.545584
 20
-1.555635
 30
0.0
 11
0.989949
 21
0.0
 31
0.0
  0
LINE
  8
0
  6
CONTINUOUS
 62
     3
  5
8B
 10
-2.545584
 20
-1.555635
 30
0.0
 11
-1.555635
 21
-2.545584
 31
0.0
  0
LINE
  8
0
  6
CONTINUOUS
 62
     3
  5
8C
 10
-2.545584
 20
1.555635
 30
0.0
 11
-0.989949
 21
0.0
 31
0.0
  0
LINE
  8
0
  6
CONTINUOUS
 62
     3
  5
8D
 10
-1.555635
 20
2.545584
 30
0.0
 11
0.0
 21
0.989949
 31
0.0
  0
LINE
  8
0
  6
CONTINUOUS
 62
     3
  5
8E
 10
2.545584
 20
1.555635
 30
0.0
 11
0.989949
 21
0.0
 31
0.0
  0
LINE
  8
0
  6
CONTINUOUS
 62
     3
  5
8F
 10
1.555635
 20
2.545584
 30
0.0
 11
0.0
 21
0.989949
 31
0.0
  0
LINE
  8
0
  6
CONTINUOUS
 62
     3
  5
90
 10
-2.545584
 20
-1.555635
 30
0.0
 11
-0.989949
 21
0.0
 31
0.0
  0
LINE
  8
0
  6
CONTINUOUS
 62
     3
  5
91
 10
1.555635
 20
-2.545584
 30
0.0
 11
2.545584
 21
-1.555635
 31
0.0
  0
LINE
  8
0
  6
CONTINUOUS
 62
     3
  5
92
 10
2.545584
 20
1.555635
 30
0.0
 11
1.555635
 21
2.545584
 31
0.0
  0
LINE
  8
0
  6
CONTINUOUS
 62
     3
  5
93
 10
-1.555635
 20
2.545584
 30
0.0
 11
-2.545584
 21
1.555635
 31
0.0
  0
LINE
  8
0
  6
CONTINUOUS
 62
     3
  5
94
 10
1.555635
 20
-2.545584
 30
0.0
 11
0.0
 21
-0.989949
 31
0.0
  0
LINE
  8
0
  6
CONTINUOUS
 62
     3
  5
95
 10
-1.555635
 20
-2.545584
 30
0.0
 11
0.0
 21
-0.989949
 31
0.0
  0
LINE
  8
0
  6
CONTINUOUS
 62
    80
  5
96
 10
-5.962429
 20
-10.0
 30
0.0
 11
-5.962429
 21
-10.733838
 31
0.0
  0
LINE
  8
0
  6
CONTINUOUS
 62
    80
  5
97
 10
-2.782467
 20
-11.345369
 30
0.0
 11
-2.782467
 21
-13.057657
 31
0.0
  0
LINE
  8
0
  6
CONTINUOUS
 62
    80
  5
98
 10
-5.228592
 20
-12.079207
 30
0.0
 11
-5.228592
 21
-13.057657
 31
0.0
  0
LINE
  8
0
  6
CONTINUOUS
 62
    80
  5
99
 10
-5.962429
 20
-10.733838
 30
0.0
 11
-4.066682
 21
-10.733838
 31
0.0
  0
LINE
  8
0
  6
CONTINUOUS
 62
    80
  5
9A
 10
9.190779
 20
-10.0
 30
0.0
 11
9.998533
 21
-10.0
 31
0.0
  0
LINE
  8
0
  6
CONTINUOUS
 62
    80
  5
9B
 10
-5.962429
 20
-11.345369
 30
0.0
 11
-4.066682
 21
-11.345369
 31
0.0
  0
LINE
  8
0
  6
CONTINUOUS
 62
    80
  5
9C
 10
-5.228592
 20
-12.079207
 30
0.0
 11
-4.635822
 21
-12.079207
 31
0.0
  0
LINE
  8
0
  6
CONTINUOUS
 62
    80
  5
9D
 10
7.063184
 20
-10.0
 30
0.0
 11
7.552409
 21
-10.0
 31
0.0
  0
LINE
  8
0
  6
CONTINUOUS
 62
    80
  5
9E
 10
8.592012
 20
-13.057656
 30
0.0
 11
9.998533
 21
-10.000001
 31
0.0
  0
LINE
  8
0
  6
CONTINUOUS
 62
    80
  5
9F
 10
7.307796
 20
-11.224223
 30
0.0
 11
6.464417
 21
-13.057657
 31
0.0
  0
LINE
  8
0
  6
CONTINUOUS
 62
    80
  5
A0
 10
8.371594
 20
-11.780837
 30
0.0
 11
9.190778
 21
-10.000002
 31
0.0
  0
LINE
  8
0
  6
CONTINUOUS
 62
    80
  5
A1
 10
7.063184
 20
-10.0
 30
0.0
 11
6.243999
 21
-11.780838
 31
0.0
  0
LINE
  8
0
  6
CONTINUOUS
 62
    80
  5
A2
 10
-2.782467
 20
-10.0
 30
0.0
 11
-2.782467
 21
-10.733838
 31
0.0
  0
LINE
  8
0
  6
CONTINUOUS
 62
    80
  5
A3
 10
4.617059
 20
-10.0
 30
0.0
 11
6.023581
 21
-13.057657
 31
0.0
  0
LINE
  8
0
  6
CONTINUOUS
 62
    80
  5
A4
 10
5.424814
 20
-10.000001
 30
0.0
 11
6.243999
 21
-11.780838
 31
0.0
  0
LINE
  8
0
  6
CONTINUOUS
 62
    80
  5
A5
 10
-7.858175
 20
-10.0
 30
0.0
 11
-6.207041
 21
-13.057656
 31
0.0
  0
LINE
  8
0
  6
CONTINUOUS
 62
    80
  5
A6
 10
7.307796
 20
-11.224222
 30
0.0
 11
8.151175
 21
-13.057656
 31
0.0
  0
LINE
  8
0
  6
CONTINUOUS
 62
    80
  5
A7
 10
-8.347401
 20
-10.000001
 30
0.0
 11
-9.998535
 21
-13.057656
 31
0.0
  0
LINE
  8
0
  6
CONTINUOUS
 62
    80
  5
A8
 10
-8.347401
 20
-10.0
 30
0.0
 11
-7.858176
 21
-10.0
 31
0.0
  0
LINE
  8
0
  6
CONTINUOUS
 62
    80
  5
A9
 10
-9.998534
 20
-13.057657
 30
0.0
 11
-9.164539
 21
-13.057657
 31
0.0
  0
LINE
  8
0
  6
CONTINUOUS
 62
    80
  5
AA
 10
-5.962429
 20
-10.0
 30
0.0
 11
-4.066682
 21
-10.0
 31
0.0
  0
LINE
  8
0
  6
CONTINUOUS
 62
    80
  5
AB
 10
-5.962429
 20
-11.345369
 30
0.0
 11
-5.962429
 21
-13.057657
 31
0.0
  0
LINE
  8
0
  6
CONTINUOUS
 62
    80
  5
AC
 10
-5.962429
 20
-13.057657
 30
0.0
 11
-5.228592
 21
-13.057657
 31
0.0
  0
LINE
  8
0
  6
CONTINUOUS
 62
    80
  5
AD
 10
-3.931339
 20
-13.057657
 30
0.0
 11
-3.021447
 21
-13.057657
 31
0.0
  0
LINE
  8
0
  6
CONTINUOUS
 62
    80
  5
AE
 10
4.61706
 20
-10.0
 30
0.0
 11
5.424814
 21
-10.0
 31
0.0
  0
LINE
  8
0
  6
CONTINUOUS
 62
    80
  5
AF
 10
-2.782467
 20
-10.733838
 30
0.0
 11
-0.886721
 21
-10.733838
 31
0.0
  0
LINE
  8
0
  6
CONTINUOUS
 62
    80
  5
B0
 10
6.023581
 20
-13.057657
 30
0.0
 11
6.464417
 21
-13.057657
 31
0.0
  0
LINE
  8
0
  6
CONTINUOUS
 62
    80
  5
B1
 10
8.151176
 20
-13.057657
 30
0.0
 11
8.592012
 21
-13.057657
 31
0.0
  0
LINE
  8
0
  6
CONTINUOUS
 62
    80
  5
B2
 10
-0.751377
 20
-13.057657
 30
0.0
 11
0.152882
 21
-13.057657
 31
0.0
  0
LINE
  8
0
  6
CONTINUOUS
 62
    80
  5
B3
 10
-2.782467
 20
-13.057657
 30
0.0
 11
-2.04863
 21
-13.057657
 31
0.0
  0
LINE
  8
0
  6
CONTINUOUS
 62
    80
  5
B4
 10
-2.782467
 20
-11.345369
 30
0.0
 11
-0.886721
 21
-11.345369
 31
0.0
  0
LINE
  8
0
  6
CONTINUOUS
 62
    80
  5
B5
 10
-1.455861
 20
-12.079208
 30
0.0
 11
-0.751377
 21
-13.057657
 31
0.0
  0
LINE
  8
0
  6
CONTINUOUS
 62
    80
  5
B6
 10
-0.584031
 20
-12.034166
 30
0.0
 11
0.152883
 21
-13.057657
 31
0.0
  0
LINE
  8
0
  6
CONTINUOUS
 62
    80
  5
B7
 10
-2.04863
 20
-12.079207
 30
0.0
 11
-1.455861
 21
-12.079207
 31
0.0
  0
LINE
  8
0
  6
CONTINUOUS
 62
    80
  5
B8
 10
-2.782467
 20
-10.0
 30
0.0
 11
-0.886721
 21
-10.0
 31
0.0
  0
LINE
  8
0
  6
CONTINUOUS
 62
    80
  5
B9
 10
7.552409
 20
-10.0
 30
0.0
 11
8.371594
 21
-11.780837
 31
0.0
  0
LINE
  8
0
  6
CONTINUOUS
 62
    80
  5
BA
 10
-2.04863
 20
-12.079207
 30
0.0
 11
-2.04863
 21
-13.057657
 31
0.0
  0
LINE
  8
0
  6
CONTINUOUS
 62
    80
  5
BB
 10
-3.027079
 20
-13.057657
 30
0.0
 11
-3.763993
 21
-12.034166
 31
0.0
  0
LINE
  8
0
  6
CONTINUOUS
 62
    80
  5
BC
 10
-7.041036
 20
-13.057657
 30
0.0
 11
-6.207041
 21
-13.057657
 31
0.0
  0
LINE
  8
0
  6
CONTINUOUS
 62
    80
  5
BD
 10
-3.931338
 20
-13.057657
 30
0.0
 11
-4.635823
 21
-12.079206
 31
0.0
  0
LINE
  8
0
  6
CONTINUOUS
 62
    80
  5
BE
 10
-8.102788
 20
-11.09145
 30
0.0
 11
-7.041037
 21
-13.057656
 31
0.0
  0
LINE
  8
0
  6
CONTINUOUS
 62
    80
  5
BF
 10
-8.102789
 20
-11.091451
 30
0.0
 11
-9.16454
 21
-13.057656
 31
0.0
  0
ENDBLK
  8
0
  5
C0
  0
BLOCK
  8
0
  5
C1
  2
MS_3
 70
     0
 10
0.0
 20
0.0
 30
0.0
  3
MS_3
  0
ARC
  8
0
  6
CONTINUOUS
 62
     3
  5
C2
 10
-16.922369
 20
4.430078
 30
0.0
 40
3.0
 50
107.270525
 51
179.0
  0
ARC
  8
0
  6
CONTINUOUS
 62
     3
  5
C3
 10
-19.491194
 20
0.457144
 30
0.0
 40
0.5
 50
179.0
 51
261.966012
  0
ARC
  8
0
  6
CONTINUOUS
 62
     3
  5
C4
 10
16.922369
 20
4.430078
 30
0.0
 40
3.0
 50
1.0
 51
72.729475
  0
ARC
  8
0
  6
CONTINUOUS
 62
     3
  5
C5
 10
19.491194
 20
0.457144
 30
0.0
 40
0.5
 50
278.033988
 51
1.0
  0
ARC
  8
0
  6
CONTINUOUS
 62
     3
  5
C6
 10
0.0
 20
-50.0
 30
0.0
 40
60.0
 50
72.729475
 51
107.270525
  0
LINE
  8
0
  6
CONTINUOUS
 62
     3
  5
C7
 10
17.55
 20
0.0
 30
0.0
 11
-17.55
 21
0.0
 31
0.0
  0
LINE
  8
0
  6
CONTINUOUS
 62
     3
  5
C8
 10
19.508726
 20
-0.034281
 30
0.0
 11
17.544764
 21
0.0
 31
0.0
  0
LINE
  8
0
  6
CONTINUOUS
 62
     3
  5
C9
 10
-19.508726
 20
-0.034281
 30
0.0
 11
-17.544764
 21
0.0
 31
0.0
  0
LINE
  8
0
  6
CONTINUOUS
 62
     3
  5
CA
 10
-19.921912
 20
4.482435
 30
0.0
 11
-19.991117
 21
0.46587
 31
0.0
  0
LINE
  8
0
  6
CONTINUOUS
 62
     3
  5
CB
 10
19.921912
 20
4.482435
 30
0.0
 11
19.991117
 21
0.46587
 31
0.0
  0
ENDBLK
  8
0
  5
CC
  0
BLOCK
  8
0
  5
CD
  2
MS_4
 70
     0
 10
0.0
 20
0.0
 30
0.0
  3
MS_4
  0
POLYLINE
  8
0
  6
CONTINUOUS
 62
     3
  5
CE
 66
     1
 10
0.0
 20
0.0
 30
0.0
  0
VERTEX
  8
0
  6
CONTINUOUS
 62
     3
  5
67E
 10
19.51696
 20
-0.042569
 30
0.0
  0
VERTEX
  8
0
  6
CONTINUOUS
 62
     3
  5
67F
 10
19.617376
 20
-0.083318
 30
0.0
  0
VERTEX
  8
0
  6
CONTINUOUS
 62
     3
  5
680
 10
19.709763
 20
-0.136452
 30
0.0
  0
VERTEX
  8
0
  6
CONTINUOUS
 62
     3
  5
681
 10
19.7921
 20
-0.200811
 30
0.0
  0
VERTEX
  8
0
  6
CONTINUOUS
 62
     3
  5
682
 10
19.86259
 20
-0.274987
 30
0.0
  0
VERTEX
  8
0
  6
CONTINUOUS
 62
     3
  5
683
 10
19.919691
 20
-0.357359
 30
0.0
  0
VERTEX
  8
0
  6
CONTINUOUS
 62
     3
  5
684
 10
19.962155
 20
-0.446127
 30
0.0
  0
VERTEX
  8
0
  6
CONTINUOUS
 62
     3
  5
685
 10
19.989054
 20
-0.539351
 30
0.0
  0
VERTEX
  8
0
  6
CONTINUOUS
 62
     3
  5
686
 10
19.9998
 20
-0.634994
 30
0.0
  0
VERTEX
  8
0
  6
CONTINUOUS
 62
     3
  5
687
 10
19.994159
 20
-0.730964
 30
0.0
  0
VERTEX
  8
0
  6
CONTINUOUS
 62
     3
  5
688
 10
19.972253
 20
-0.825165
 30
0.0
  0
VERTEX
  8
0
  6
CONTINUOUS
 62
     3
  5
689
 10
19.934561
 20
-0.915537
 30
0.0
  0
VERTEX
  8
0
  6
CONTINUOUS
 62
     3
  5
68A
 10
19.881908
 20
-1.000105
 30
0.0
  0
VERTEX
  8
0
  6
CONTINUOUS
 62
     3
  5
68B
 10
19.881908
 20
-1.000105
 30
0.0
  0
SEQEND
  8
0
  6
CONTINUOUS
 62
     3
  5
68C
  0
LINE
  8
0
  6
CONTINUOUS
 62
     3
  5
CF
 10
-19.508726
 20
-0.034281
 30
0.0
 11
-17.544764
 21
0.0
 31
0.0
  0
POLYLINE
  8
0
  6
CONTINUOUS
 62
     3
  5
D0
 66
     1
 10
0.0
 20
0.0
 30
0.0
  0
VERTEX
  8
0
  6
CONTINUOUS
 62
     3
  5
68D
 10
-19.881908
 20
-1.000105
 30
0.0
  0
VERTEX
  8
0
  6
CONTINUOUS
 62
     3
  5
68E
 10
-19.934561
 20
-0.915537
 30
0.0
  0
VERTEX
  8
0
  6
CONTINUOUS
 62
     3
  5
68F
 10
-19.972253
 20
-0.825165
 30
0.0
  0
VERTEX
  8
0
  6
CONTINUOUS
 62
     3
  5
690
 10
-19.994159
 20
-0.730964
 30
0.0
  0
VERTEX
  8
0
  6
CONTINUOUS
 62
     3
  5
691
 10
-19.9998
 20
-0.634994
 30
0.0
  0
VERTEX
  8
0
  6
CONTINUOUS
 62
     3
  5
692
 10
-19.989054
 20
-0.539351
 30
0.0
  0
VERTEX
  8
0
  6
CONTINUOUS
 62
     3
  5
693
 10
-19.962155
 20
-0.446127
 30
0.0
  0
VERTEX
  8
0
  6
CONTINUOUS
 62
     3
  5
694
 10
-19.919691
 20
-0.357359
 30
0.0
  0
VERTEX
  8
0
  6
CONTINUOUS
 62
     3
  5
695
 10
-19.86259
 20
-0.274987
 30
0.0
  0
VERTEX
  8
0
  6
CONTINUOUS
 62
     3
  5
696
 10
-19.7921
 20
-0.200811
 30
0.0
  0
VERTEX
  8
0
  6
CONTINUOUS
 62
     3
  5
697
 10
-19.709763
 20
-0.136452
 30
0.0
  0
VERTEX
  8
0
  6
CONTINUOUS
 62
     3
  5
698
 10
-19.617376
 20
-0.083318
 30
0.0
  0
VERTEX
  8
0
  6
CONTINUOUS
 62
     3
  5
699
 10
-19.51696
 20
-0.042569
 30
0.0
  0
VERTEX
  8
0
  6
CONTINUOUS
 62
     3
  5
69A
 10
-19.51696
 20
-0.042569
 30
0.0
  0
SEQEND
  8
0
  6
CONTINUOUS
 62
     3
  5
69B
  0
ARC
  8
0
  6
CONTINUOUS
 62
     3
  5
D1
 10
-130.0
 20
-1.0
 30
0.0
 40
150.0
 50
352.325676
 51
359.999995
  0
ARC
  8
0
  6
CONTINUOUS
 62
     3
  5
D2
 10
13.014923
 20
-39.5
 30
0.0
 40
1.0
 50
270.000003
 51
358.999997
  0
ARC
  8
0
  6
CONTINUOUS
 62
     3
  5
D3
 10
-13.014954
 20
-39.5
 30
0.0
 40
1.0
 50
181.0
 51
270.000003
  0
ARC
  8
0
  6
CONTINUOUS
 62
     3
  5
D4
 10
-17.665428
 20
-20.897769
 30
0.0
 40
1.0
 50
187.674324
 51
236.841821
  0
ARC
  8
0
  6
CONTINUOUS
 62
     3
  5
D5
 10
17.665428
 20
-20.897769
 30
0.0
 40
1.0
 50
303.158179
 51
352.325676
  0
ARC
  8
0
  6
CONTINUOUS
 62
     3
  5
D6
 10
23.059998
 20
-29.154683
 30
0.0
 40
8.862961
 50
123.158179
 51
178.999983
  0
ARC
  8
0
  6
CONTINUOUS
 62
     3
  5
D7
 10
-23.059998
 20
-29.154683
 30
0.0
 40
8.862961
 50
1.000017
 51
56.841821
  0
ARC
  8
0
  6
CONTINUOUS
 62
     3
  5
D8
 10
130.0
 20
-1.0
 30
0.0
 40
150.0
 50
180.0
 51
187.674324
  0
LINE
  8
0
  6
CONTINUOUS
 62
     3
  5
D9
 10
-14.014804
 20
-39.517445
 30
0.0
 11
-14.198387
 21
-29.0
 31
0.0
  0
LINE
  8
0
  6
CONTINUOUS
 62
     3
  5
DA
 10
13.014923
 20
-40.5
 30
0.0
 11
-13.014954
 21
-40.5
 31
0.0
  0
LINE
  8
0
  6
CONTINUOUS
 62
     3
  5
DB
 10
14.014804
 20
-39.517445
 30
0.0
 11
14.198387
 21
-29.0
 31
0.0
  0
LINE
  8
0
  6
CONTINUOUS
 62
     3
  5
DC
 10
-18.463747
 20
-21.500004
 30
0.0
 11
18.463747
 21
-21.500004
 31
0.0
  0
LINE
  8
0
  6
CONTINUOUS
 62
     3
  5
DD
 10
20.0
 20
-1.0
 30
0.0
 11
-20.0
 21
-1.0
 31
0.0
  0
LINE
  8
0
  6
CONTINUOUS
 62
     3
  5
DE
 10
-17.55
 20
0.0
 30
0.0
 11
17.55
 21
0.0
 31
0.0
  0
LINE
  8
0
  6
CONTINUOUS
 62
     3
  5
DF
 10
19.508726
 20
-0.034281
 30
0.0
 11
17.544764
 21
0.0
 31
0.0
  0
ENDBLK
  8
0
  5
E0
  0
BLOCK
  8
0
  5
E1
  2
MS_5
 70
     0
 10
0.0
 20
0.0
 30
0.0
  3
MS_5
  0
LINE
  8
0
  6
CONTINUOUS
 62
     3
  5
E2
 10
-8.65
 20
-40.499997
 30
0.0
 11
8.65
 21
-40.499997
 31
0.0
  0
LINE
  8
0
  6
CONTINUOUS
 62
     3
  5
E3
 10
14.000015
 20
-295.5
 30
0.0
 11
14.000015
 21
-293.5
 31
0.0
  0
LINE
  8
0
  6
CONTINUOUS
 62
     3
  5
E4
 10
-13.999985
 20
-295.5
 30
0.0
 11
-13.999985
 21
-293.5
 31
0.0
  0
LINE
  8
0
  6
CONTINUOUS
 62
     3
  5
E5
 10
-14.999985
 20
-293.5
 30
0.0
 11
15.000015
 21
-293.5
 31
0.0
  0
ARC
  8
0
  6
CONTINUOUS
 62
     3
  5
E6
 10
0.000015
 20
-322.5
 30
0.0
 40
4.5
 50
153.6122
 51
26.3878
  0
ARC
  8
0
  6
CONTINUOUS
 62
     3
  5
E7
 10
7.000015
 20
-319.5
 30
0.0
 40
1.0
 50
270.0
 51
0.0
  0
ARC
  8
0
  6
CONTINUOUS
 62
     3
  5
E8
 10
-6.999985
 20
-319.5
 30
0.0
 40
1.0
 50
180.0
 51
270.0
  0
ARC
  8
0
  6
CONTINUOUS
 62
     3
  5
E9
 10
11.625015
 20
-306.253906
 30
0.0
 40
4.753906
 50
35.400856
 51
144.599144
  0
ARC
  8
0
  6
CONTINUOUS
 62
     3
  5
EA
 10
0.000015
 20
-317.515625
 30
0.0
 40
16.015625
 50
61.059412
 51
118.940588
  0
ARC
  8
0
  6
CONTINUOUS
 62
     3
  5
EB
 10
-11.624985
 20
-306.253906
 30
0.0
 40
4.753906
 50
35.400856
 51
144.599144
  0
ARC
  8
0
  6
CONTINUOUS
 62
     3
  5
EC
 10
-11.624985
 20
-307.746094
 30
0.0
 40
4.753906
 50
215.400856
 51
324.599144
  0
ARC
  8
0
  6
CONTINUOUS
 62
     3
  5
ED
 10
0.000015
 20
-296.484375
 30
0.0
 40
16.015625
 50
241.059412
 51
298.940588
  0
ARC
  8
0
  6
CONTINUOUS
 62
     3
  5
EE
 10
11.625015
 20
-307.746094
 30
0.0
 40
4.753906
 50
215.400856
 51
324.599144
  0
ARC
  8
0
  6
CONTINUOUS
 62
     3
  5
EF
 10
-11.624985
 20
-285.746094
 30
0.0
 40
4.753906
 50
215.400856
 51
324.599144
  0
ARC
  8
0
  6
CONTINUOUS
 62
     3
  5
F0
 10
0.000015
 20
-274.484375
 30
0.0
 40
16.015625
 50
241.059412
 51
298.940588
  0
ARC
  8
0
  6
CONTINUOUS
 62
     3
  5
F1
 10
11.625015
 20
-285.746094
 30
0.0
 40
4.753906
 50
215.400856
 51
324.599144
  0
ARC
  8
0
  6
CONTINUOUS
 62
     3
  5
F2
 10
11.625015
 20
-284.253906
 30
0.0
 40
4.753906
 50
35.400856
 51
144.599144
  0
ARC
  8
0
  6
CONTINUOUS
 62
     3
  5
F3
 10
-11.624985
 20
-284.253906
 30
0.0
 40
4.753906
 50
35.400856
 51
144.599144
  0
ARC
  8
0
  6
CONTINUOUS
 62
     3
  5
F4
 10
0.000015
 20
-295.515625
 30
0.0
 40
16.015625
 50
61.059412
 51
118.940588
  0
CIRCLE
  8
0
  6
CONTINUOUS
 62
     3
  5
F5
 10
0.000015
 20
-342.5
 30
0.0
 40
4.5
  0
ARC
  8
0
  6
CONTINUOUS
 62
     3
  5
F6
 10
0.000015
 20
-342.5
 30
0.0
 40
16.0
 50
180.0
 51
0.0
  0
LINE
  8
0
  6
CONTINUOUS
 62
     3
  5
F7
 10
-8.65
 20
-40.499997
 30
0.0
 11
-8.65
 21
-279.5
 31
0.0
  0
LINE
  8
0
  6
CONTINUOUS
 62
     3
  5
F8
 10
8.65
 20
-40.499997
 30
0.0
 11
8.65
 21
-279.5
 31
0.0
  0
LINE
  8
0
  6
CONTINUOUS
 62
     3
  5
F9
 10
-15.999985
 20
-295.5
 30
0.0
 11
16.000015
 21
-295.5
 31
0.0
  0
LINE
  8
0
  6
CONTINUOUS
 62
     3
  5
FA
 10
-15.999985
 20
-298.5
 30
0.0
 11
16.000015
 21
-298.5
 31
0.0
  0
LINE
  8
0
  6
CONTINUOUS
 62
     3
  5
FB
 10
8.000015
 20
-319.5
 30
0.0
 11
8.000015
 21
-318.5
 31
0.0
  0
LINE
  8
0
  6
CONTINUOUS
 62
     3
  5
FC
 10
8.000015
 20
-317.5
 30
0.0
 11
8.000015
 21
-316.5
 31
0.0
  0
LINE
  8
0
  6
CONTINUOUS
 62
     3
  5
FD
 10
-7.999985
 20
-317.5
 30
0.0
 11
-7.999985
 21
-316.5
 31
0.0
  0
LINE
  8
0
  6
CONTINUOUS
 62
     3
  5
FE
 10
8.000015
 20
-318.5
 30
0.0
 11
-7.999985
 21
-318.5
 31
0.0
  0
LINE
  8
0
  6
CONTINUOUS
 62
     3
  5
FF
 10
8.000015
 20
-318.5
 30
0.0
 11
9.100015
 21
-317.8
 31
0.0
  0
LINE
  8
0
  6
CONTINUOUS
 62
     3
  5
100
 10
-7.999985
 20
-318.5
 30
0.0
 11
-9.099985
 21
-317.8
 31
0.0
  0
LINE
  8
0
  6
CONTINUOUS
 62
     3
  5
101
 10
7.000015
 20
-320.5
 30
0.0
 11
-6.999985
 21
-320.5
 31
0.0
  0
LINE
  8
0
  6
CONTINUOUS
 62
     3
  5
102
 10
-9.099985
 20
-317.8
 30
0.0
 11
-9.099985
 21
-317.5
 31
0.0
  0
LINE
  8
0
  6
CONTINUOUS
 62
     3
  5
103
 10
9.100015
 20
-317.8
 30
0.0
 11
-9.099985
 21
-317.8
 31
0.0
  0
LINE
  8
0
  6
CONTINUOUS
 62
     3
  5
104
 10
9.100015
 20
-317.8
 30
0.0
 11
9.100015
 21
-317.5
 31
0.0
  0
LINE
  8
0
  6
CONTINUOUS
 62
     3
  5
105
 10
-7.999985
 20
-319.5
 30
0.0
 11
-7.999985
 21
-318.5
 31
0.0
  0
LINE
  8
0
  6
CONTINUOUS
 62
     3
  5
106
 10
9.100015
 20
-317.5
 30
0.0
 11
-9.099985
 21
-317.5
 31
0.0
  0
LINE
  8
0
  6
CONTINUOUS
 62
     3
  5
107
 10
6.650015
 20
-316.5
 30
0.0
 11
8.650015
 21
-314.5
 31
0.0
  0
LINE
  8
0
  6
CONTINUOUS
 62
     3
  5
108
 10
-6.649985
 20
-316.5
 30
0.0
 11
-8.649985
 21
-314.5
 31
0.0
  0
LINE
  8
0
  6
CONTINUOUS
 62
     3
  5
109
 10
6.650015
 20
-312.5
 30
0.0
 11
6.650015
 21
-316.5
 31
0.0
  0
LINE
  8
0
  6
CONTINUOUS
 62
     3
  5
10A
 10
-6.649985
 20
-312.5
 30
0.0
 11
-6.649985
 21
-316.5
 31
0.0
  0
LINE
  8
0
  6
CONTINUOUS
 62
     3
  5
10B
 10
8.650015
 20
-312.5
 30
0.0
 11
8.650015
 21
-314.5
 31
0.0
  0
LINE
  8
0
  6
CONTINUOUS
 62
     3
  5
10C
 10
-8.649985
 20
-312.5
 30
0.0
 11
-8.649985
 21
-314.5
 31
0.0
  0
LINE
  8
0
  6
CONTINUOUS
 62
     3
  5
10D
 10
-7.999985
 20
-316.5
 30
0.0
 11
8.000015
 21
-316.5
 31
0.0
  0
LINE
  8
0
  6
CONTINUOUS
 62
     3
  5
10E
 10
-8.649985
 20
-314.5
 30
0.0
 11
8.650015
 21
-314.5
 31
0.0
  0
LINE
  8
0
  6
CONTINUOUS
 62
     3
  5
10F
 10
-15.499985
 20
-303.405868
 30
0.0
 11
-13.594117
 21
-301.5
 31
0.0
  0
LINE
  8
0
  6
CONTINUOUS
 62
     3
  5
110
 10
7.750015
 20
-310.5
 30
0.0
 11
7.750015
 21
-303.5
 31
0.0
  0
LINE
  8
0
  6
CONTINUOUS
 62
     3
  5
111
 10
-13.594117
 20
-312.5
 30
0.0
 11
13.594148
 21
-312.5
 31
0.0
  0
LINE
  8
0
  6
CONTINUOUS
 62
     3
  5
112
 10
15.500015
 20
-303.405868
 30
0.0
 11
13.594148
 21
-301.5
 31
0.0
  0
LINE
  8
0
  6
CONTINUOUS
 62
     3
  5
113
 10
15.500015
 20
-310.594132
 30
0.0
 11
13.594148
 21
-312.5
 31
0.0
  0
LINE
  8
0
  6
CONTINUOUS
 62
     3
  5
114
 10
-15.499985
 20
-310.594132
 30
0.0
 11
-13.594117
 21
-312.5
 31
0.0
  0
LINE
  8
0
  6
CONTINUOUS
 62
     3
  5
115
 10
15.500015
 20
-310.594132
 30
0.0
 11
15.500015
 21
-303.405868
 31
0.0
  0
LINE
  8
0
  6
CONTINUOUS
 62
     3
  5
116
 10
-15.499985
 20
-310.594132
 30
0.0
 11
-15.499985
 21
-303.405868
 31
0.0
  0
LINE
  8
0
  6
CONTINUOUS
 62
     3
  5
117
 10
-7.749985
 20
-310.5
 30
0.0
 11
-7.749985
 21
-303.5
 31
0.0
  0
LINE
  8
0
  6
CONTINUOUS
 62
     3
  5
118
 10
15.500015
 20
-288.594132
 30
0.0
 11
13.594148
 21
-290.5
 31
0.0
  0
LINE
  8
0
  6
CONTINUOUS
 62
     3
  5
119
 10
-15.499985
 20
-288.594132
 30
0.0
 11
-13.594117
 21
-290.5
 31
0.0
  0
LINE
  8
0
  6
CONTINUOUS
 62
     3
  5
11A
 10
15.500015
 20
-281.405868
 30
0.0
 11
13.594148
 21
-279.5
 31
0.0
  0
LINE
  8
0
  6
CONTINUOUS
 62
     3
  5
11B
 10
-15.499985
 20
-281.405868
 30
0.0
 11
-13.594117
 21
-279.5
 31
0.0
  0
LINE
  8
0
  6
CONTINUOUS
 62
     3
  5
11C
 10
7.750015
 20
-281.5
 30
0.0
 11
7.750015
 21
-288.5
 31
0.0
  0
LINE
  8
0
  6
CONTINUOUS
 62
     3
  5
11D
 10
-7.749985
 20
-281.5
 30
0.0
 11
-7.749985
 21
-288.5
 31
0.0
  0
LINE
  8
0
  6
CONTINUOUS
 62
     3
  5
11E
 10
-13.594117
 20
-279.5
 30
0.0
 11
13.594148
 21
-279.5
 31
0.0
  0
LINE
  8
0
  6
CONTINUOUS
 62
     3
  5
11F
 10
-15.499985
 20
-281.405868
 30
0.0
 11
-15.499985
 21
-288.594132
 31
0.0
  0
LINE
  8
0
  6
CONTINUOUS
 62
     3
  5
120
 10
15.500015
 20
-281.405868
 30
0.0
 11
15.500015
 21
-288.594132
 31
0.0
  0
LINE
  8
0
  6
CONTINUOUS
 62
     3
  5
121
 10
15.000015
 20
-298.5
 30
0.0
 11
15.000015
 21
-301.5
 31
0.0
  0
LINE
  8
0
  6
CONTINUOUS
 62
     3
  5
122
 10
-14.999985
 20
-298.5
 30
0.0
 11
-14.999985
 21
-301.5
 31
0.0
  0
LINE
  8
0
  6
CONTINUOUS
 62
     3
  5
123
 10
-14.999985
 20
-290.5
 30
0.0
 11
15.000015
 21
-290.5
 31
0.0
  0
LINE
  8
0
  6
CONTINUOUS
 62
     3
  5
124
 10
-14.999985
 20
-301.5
 30
0.0
 11
15.000015
 21
-301.5
 31
0.0
  0
LINE
  8
0
  6
CONTINUOUS
 62
     3
  5
125
 10
15.000015
 20
-290.5
 30
0.0
 11
15.000015
 21
-293.5
 31
0.0
  0
LINE
  8
0
  6
CONTINUOUS
 62
     3
  5
126
 10
-14.999985
 20
-290.5
 30
0.0
 11
-14.999985
 21
-293.5
 31
0.0
  0
LINE
  8
0
  6
CONTINUOUS
 62
     3
  5
127
 10
-15.999985
 20
-295.5
 30
0.0
 11
-15.999985
 21
-342.5
 31
0.0
  0
LINE
  8
0
  6
CONTINUOUS
 62
     3
  5
128
 10
16.000015
 20
-295.5
 30
0.0
 11
16.000015
 21
-342.5
 31
0.0
  0
ENDBLK
  8
0
  5
129
  0
BLOCK
  8
0
  5
12A
  2
MS_6
 70
     0
 10
0.0
 20
0.0
 30
0.0
  3
MS_6
  0
LINE
  8
0
  6
CONTINUOUS
 62
     3
  5
12B
 10
-8.65
 20
0.0
 30
0.0
 11
8.65
 21
0.0
 31
0.0
  0
POINT
  8
0
  6
CONTINUOUS
 62
    80
  5
12C
 10
0.0
 20
0.0
 30
0.0
  0
LINE
  8
0
  6
CONTINUOUS
 62
     3
  5
12D
 10
-16.000015
 20
-255.000003
 30
0.0
 11
-16.000015
 21
-258.000003
 31
0.0
  0
LINE
  8
0
  6
CONTINUOUS
 62
     3
  5
12E
 10
35.999985
 20
-265.000003
 30
0.0
 11
35.999985
 21
-318.000003
 31
0.0
  0
LINE
  8
0
  6
CONTINUOUS
 62
     3
  5
12F
 10
35.999985
 20
-318.000003
 30
0.0
 11
32.999985
 21
-318.000003
 31
0.0
  0
LINE
  8
0
  6
CONTINUOUS
 62
     3
  5
130
 10
32.999985
 20
-265.000003
 30
0.0
 11
32.999985
 21
-318.000003
 31
0.0
  0
LINE
  8
0
  6
CONTINUOUS
 62
     3
  5
131
 10
14.999985
 20
-250.000003
 30
0.0
 11
14.999985
 21
-253.000003
 31
0.0
  0
LINE
  8
0
  6
CONTINUOUS
 62
     3
  5
132
 10
-15.000015
 20
-250.000003
 30
0.0
 11
-15.000015
 21
-253.000003
 31
0.0
  0
LINE
  8
0
  6
CONTINUOUS
 62
     3
  5
133
 10
14.999985
 20
-261.000003
 30
0.0
 11
-15.000015
 21
-261.000003
 31
0.0
  0
LINE
  8
0
  6
CONTINUOUS
 62
     3
  5
134
 10
14.999985
 20
-250.000003
 30
0.0
 11
-15.000015
 21
-250.000003
 31
0.0
  0
LINE
  8
0
  6
CONTINUOUS
 62
     3
  5
135
 10
14.999985
 20
-258.000003
 30
0.0
 11
14.999985
 21
-261.000003
 31
0.0
  0
LINE
  8
0
  6
CONTINUOUS
 62
     3
  5
136
 10
-15.000015
 20
-258.000003
 30
0.0
 11
-15.000015
 21
-261.000003
 31
0.0
  0
LINE
  8
0
  6
CONTINUOUS
 62
     3
  5
137
 10
-15.500015
 20
-240.90587
 30
0.0
 11
-15.500015
 21
-248.094135
 31
0.0
  0
LINE
  8
0
  6
CONTINUOUS
 62
     3
  5
138
 10
15.499985
 20
-240.90587
 30
0.0
 11
15.499985
 21
-248.094135
 31
0.0
  0
LINE
  8
0
  6
CONTINUOUS
 62
     3
  5
139
 10
13.594117
 20
-239.000003
 30
0.0
 11
-13.594148
 21
-239.000003
 31
0.0
  0
LINE
  8
0
  6
CONTINUOUS
 62
     3
  5
13A
 10
7.749985
 20
-241.000003
 30
0.0
 11
7.749985
 21
-248.000003
 31
0.0
  0
LINE
  8
0
  6
CONTINUOUS
 62
     3
  5
13B
 10
-7.750015
 20
-241.000003
 30
0.0
 11
-7.750015
 21
-248.000003
 31
0.0
  0
LINE
  8
0
  6
CONTINUOUS
 62
     3
  5
13C
 10
15.499985
 20
-240.90587
 30
0.0
 11
13.594117
 21
-239.000003
 31
0.0
  0
LINE
  8
0
  6
CONTINUOUS
 62
     3
  5
13D
 10
-15.500015
 20
-240.90587
 30
0.0
 11
-13.594148
 21
-239.000003
 31
0.0
  0
LINE
  8
0
  6
CONTINUOUS
 62
     3
  5
13E
 10
15.499985
 20
-248.094135
 30
0.0
 11
13.594117
 21
-250.000003
 31
0.0
  0
LINE
  8
0
  6
CONTINUOUS
 62
     3
  5
13F
 10
-15.500015
 20
-248.094135
 30
0.0
 11
-13.594148
 21
-250.000003
 31
0.0
  0
LINE
  8
0
  6
CONTINUOUS
 62
     3
  5
140
 10
7.749985
 20
-270.000003
 30
0.0
 11
7.749985
 21
-263.000003
 31
0.0
  0
LINE
  8
0
  6
CONTINUOUS
 62
     3
  5
141
 10
15.499985
 20
-270.094135
 30
0.0
 11
15.499985
 21
-262.90587
 31
0.0
  0
LINE
  8
0
  6
CONTINUOUS
 62
     3
  5
142
 10
-15.500015
 20
-270.094135
 30
0.0
 11
-15.500015
 21
-262.90587
 31
0.0
  0
LINE
  8
0
  6
CONTINUOUS
 62
     3
  5
143
 10
15.499985
 20
-270.094135
 30
0.0
 11
13.594117
 21
-272.000003
 31
0.0
  0
LINE
  8
0
  6
CONTINUOUS
 62
     3
  5
144
 10
-15.500015
 20
-270.094135
 30
0.0
 11
-13.594148
 21
-272.000003
 31
0.0
  0
LINE
  8
0
  6
CONTINUOUS
 62
     3
  5
145
 10
-15.500015
 20
-262.90587
 30
0.0
 11
-13.594148
 21
-261.000003
 31
0.0
  0
LINE
  8
0
  6
CONTINUOUS
 62
     3
  5
146
 10
13.594117
 20
-272.000003
 30
0.0
 11
-13.594148
 21
-272.000003
 31
0.0
  0
LINE
  8
0
  6
CONTINUOUS
 62
     3
  5
147
 10
-7.750015
 20
-270.000003
 30
0.0
 11
-7.750015
 21
-263.000003
 31
0.0
  0
LINE
  8
0
  6
CONTINUOUS
 62
     3
  5
148
 10
15.499985
 20
-262.90587
 30
0.0
 11
13.594117
 21
-261.000003
 31
0.0
  0
LINE
  8
0
  6
CONTINUOUS
 62
     3
  5
149
 10
8.649985
 20
-274.000003
 30
0.0
 11
-8.650015
 21
-274.000003
 31
0.0
  0
LINE
  8
0
  6
CONTINUOUS
 62
     3
  5
14A
 10
7.999985
 20
-276.000003
 30
0.0
 11
-8.000015
 21
-276.000003
 31
0.0
  0
LINE
  8
0
  6
CONTINUOUS
 62
     3
  5
14B
 10
8.649985
 20
-272.000003
 30
0.0
 11
8.649985
 21
-274.000003
 31
0.0
  0
LINE
  8
0
  6
CONTINUOUS
 62
     3
  5
14C
 10
-8.650015
 20
-272.000003
 30
0.0
 11
-8.650015
 21
-274.000003
 31
0.0
  0
LINE
  8
0
  6
CONTINUOUS
 62
     3
  5
14D
 10
6.649985
 20
-272.000003
 30
0.0
 11
6.649985
 21
-276.000003
 31
0.0
  0
LINE
  8
0
  6
CONTINUOUS
 62
     3
  5
14E
 10
-6.650015
 20
-272.000003
 30
0.0
 11
-6.650015
 21
-276.000003
 31
0.0
  0
LINE
  8
0
  6
CONTINUOUS
 62
     3
  5
14F
 10
6.649985
 20
-276.000003
 30
0.0
 11
8.649985
 21
-274.000003
 31
0.0
  0
LINE
  8
0
  6
CONTINUOUS
 62
     3
  5
150
 10
-6.650015
 20
-276.000003
 30
0.0
 11
-8.650015
 21
-274.000003
 31
0.0
  0
LINE
  8
0
  6
CONTINUOUS
 62
     3
  5
151
 10
-9.100015
 20
-277.000003
 30
0.0
 11
9.099985
 21
-277.000003
 31
0.0
  0
LINE
  8
0
  6
CONTINUOUS
 62
     3
  5
152
 10
7.999985
 20
-279.000003
 30
0.0
 11
7.999985
 21
-278.000003
 31
0.0
  0
LINE
  8
0
  6
CONTINUOUS
 62
     3
  5
153
 10
-9.100015
 20
-277.300003
 30
0.0
 11
-9.100015
 21
-277.000003
 31
0.0
  0
LINE
  8
0
  6
CONTINUOUS
 62
     3
  5
154
 10
-9.100015
 20
-277.300003
 30
0.0
 11
9.099985
 21
-277.300003
 31
0.0
  0
LINE
  8
0
  6
CONTINUOUS
 62
     3
  5
155
 10
9.099985
 20
-277.300003
 30
0.0
 11
9.099985
 21
-277.000003
 31
0.0
  0
LINE
  8
0
  6
CONTINUOUS
 62
     3
  5
156
 10
-7.000015
 20
-280.000003
 30
0.0
 11
6.999985
 21
-280.000003
 31
0.0
  0
LINE
  8
0
  6
CONTINUOUS
 62
     3
  5
157
 10
7.999985
 20
-278.000003
 30
0.0
 11
9.099985
 21
-277.300003
 31
0.0
  0
LINE
  8
0
  6
CONTINUOUS
 62
     3
  5
158
 10
-8.000015
 20
-278.000003
 30
0.0
 11
-9.100015
 21
-277.300003
 31
0.0
  0
LINE
  8
0
  6
CONTINUOUS
 62
     3
  5
159
 10
-8.000015
 20
-278.000003
 30
0.0
 11
7.999985
 21
-278.000003
 31
0.0
  0
LINE
  8
0
  6
CONTINUOUS
 62
     3
  5
15A
 10
7.999985
 20
-277.000003
 30
0.0
 11
7.999985
 21
-276.000003
 31
0.0
  0
LINE
  8
0
  6
CONTINUOUS
 62
     3
  5
15B
 10
-8.000015
 20
-277.000003
 30
0.0
 11
-8.000015
 21
-276.000003
 31
0.0
  0
LINE
  8
0
  6
CONTINUOUS
 62
     3
  5
15C
 10
-8.000015
 20
-279.000003
 30
0.0
 11
-8.000015
 21
-278.000003
 31
0.0
  0
LINE
  8
0
  6
CONTINUOUS
 62
     3
  5
15D
 10
25.999985
 20
-258.000003
 30
0.0
 11
-16.000015
 21
-258.000003
 31
0.0
  0
LINE
  8
0
  6
CONTINUOUS
 62
     3
  5
15E
 10
25.999985
 20
-255.000003
 30
0.0
 11
-16.000015
 21
-255.000003
 31
0.0
  0
ARC
  8
0
  6
CONTINUOUS
 62
     3
  5
15F
 10
25.999985
 20
-265.000003
 30
0.0
 40
10.0
 50
0.0
 51
90.0
  0
ARC
  8
0
  6
CONTINUOUS
 62
     3
  5
160
 10
25.999985
 20
-265.000003
 30
0.0
 40
7.0
 50
0.0
 51
90.0
  0
ARC
  8
0
  6
CONTINUOUS
 62
     3
  5
161
 10
-0.000015
 20
-255.015628
 30
0.0
 40
16.015625
 50
61.059412
 51
118.940588
  0
ARC
  8
0
  6
CONTINUOUS
 62
     3
  5
162
 10
11.624985
 20
-243.753909
 30
0.0
 40
4.753906
 50
35.400856
 51
144.599144
  0
ARC
  8
0
  6
CONTINUOUS
 62
     3
  5
163
 10
-11.625015
 20
-243.753909
 30
0.0
 40
4.753906
 50
35.400856
 51
144.599144
  0
ARC
  8
0
  6
CONTINUOUS
 62
     3
  5
164
 10
-11.625015
 20
-245.246096
 30
0.0
 40
4.753906
 50
215.400856
 51
324.599144
  0
ARC
  8
0
  6
CONTINUOUS
 62
     3
  5
165
 10
-0.000015
 20
-233.984378
 30
0.0
 40
16.015625
 50
241.059412
 51
298.940588
  0
ARC
  8
0
  6
CONTINUOUS
 62
     3
  5
166
 10
11.624985
 20
-245.246096
 30
0.0
 40
4.753906
 50
215.400856
 51
324.599144
  0
ARC
  8
0
  6
CONTINUOUS
 62
     3
  5
167
 10
-11.625015
 20
-267.246096
 30
0.0
 40
4.753906
 50
215.400856
 51
324.599144
  0
ARC
  8
0
  6
CONTINUOUS
 62
     3
  5
168
 10
-0.000015
 20
-255.984378
 30
0.0
 40
16.015625
 50
241.059412
 51
298.940588
  0
ARC
  8
0
  6
CONTINUOUS
 62
     3
  5
169
 10
11.624985
 20
-267.246096
 30
0.0
 40
4.753906
 50
215.400856
 51
324.599144
  0
ARC
  8
0
  6
CONTINUOUS
 62
     3
  5
16A
 10
11.624985
 20
-265.753909
 30
0.0
 40
4.753906
 50
35.400856
 51
144.599144
  0
ARC
  8
0
  6
CONTINUOUS
 62
     3
  5
16B
 10
-0.000015
 20
-277.015628
 30
0.0
 40
16.015625
 50
61.059412
 51
118.940588
  0
ARC
  8
0
  6
CONTINUOUS
 62
     3
  5
16C
 10
-11.625015
 20
-265.753909
 30
0.0
 40
4.753906
 50
35.400856
 51
144.599144
  0
ARC
  8
0
  6
CONTINUOUS
 62
     3
  5
16D
 10
6.999985
 20
-279.000003
 30
0.0
 40
1.0
 50
270.0
 51
0.0
  0
ARC
  8
0
  6
CONTINUOUS
 62
     3
  5
16E
 10
-7.000015
 20
-279.000003
 30
0.0
 40
1.0
 50
180.0
 51
270.0
  0
LINE
  8
0
  6
CONTINUOUS
 62
     3
  5
16F
 10
14.999985
 20
-253.000003
 30
0.0
 11
-15.000015
 21
-253.000003
 31
0.0
  0
LINE
  8
0
  6
CONTINUOUS
 62
     3
  5
170
 10
13.999985
 20
-255.000002
 30
0.0
 11
13.999985
 21
-253.000002
 31
0.0
  0
LINE
  8
0
  6
CONTINUOUS
 62
     3
  5
171
 10
-14.000015
 20
-255.000002
 30
0.0
 11
-14.000015
 21
-253.000002
 31
0.0
  0
LINE
  8
0
  6
CONTINUOUS
 62
     3
  5
172
 10
8.65
 20
0.0
 30
0.0
 11
8.65
 21
-239.000003
 31
0.0
  0
LINE
  8
0
  6
CONTINUOUS
 62
     3
  5
173
 10
-8.65
 20
0.0
 30
0.0
 11
-8.65
 21
-239.000003
 31
0.0
  0
ENDBLK
  8
0
  5
174
  0
BLOCK
  8
0
  5
175
  2
MS_7
 70
     0
 10
0.0
 20
0.0
 30
0.0
  3
MS_7
  0
LINE
  8
0
  6
CONTINUOUS
 62
     3
  5
176
 10
-19.999999
 20
-109.500001
 30
0.0
 11
-19.5
 21
-110.0
 31
0.0
  0
LINE
  8
0
  6
CONTINUOUS
 62
     3
  5
177
 10
19.999999
 20
-109.500001
 30
0.0
 11
19.5
 21
-110.0
 31
0.0
  0
LINE
  8
0
  6
CONTINUOUS
 62
     3
  5
178
 10
19.5
 20
-110.0
 30
0.0
 11
-19.5
 21
-110.0
 31
0.0
  0
LINE
  8
0
  6
CONTINUOUS
 62
     3
  5
179
 10
19.5
 20
0.0
 30
0.0
 11
20.0
 21
-0.5
 31
0.0
  0
LINE
  8
0
  6
CONTINUOUS
 62
     3
  5
17A
 10
20.0
 20
-0.5
 30
0.0
 11
20.0
 21
-109.5
 31
0.0
  0
LINE
  8
0
  6
CONTINUOUS
 62
     3
  5
17B
 10
-19.5
 20
0.0
 30
0.0
 11
19.5
 21
0.0
 31
0.0
  0
LINE
  8
0
  6
CONTINUOUS
 62
     3
  5
17C
 10
-19.5
 20
0.0
 30
0.0
 11
-20.0
 21
-0.5
 31
0.0
  0
LINE
  8
0
  6
CONTINUOUS
 62
     3
  5
17D
 10
-20.0
 20
-0.5
 30
0.0
 11
-20.0
 21
-109.5
 31
0.0
  0
ARC
  8
0
  6
CONTINUOUS
 62
     3
  5
17E
 10
23.0
 20
-110.5
 30
0.0
 40
3.0
 50
180.0
 51
260.405932
  0
ARC
  8
0
  6
CONTINUOUS
 62
     3
  5
17F
 10
-23.0
 20
-110.5
 30
0.0
 40
3.0
 50
279.594068
 51
0.0
  0
LINE
  8
0
  6
CONTINUOUS
 62
     3
  5
180
 10
10.693185
 20
-119.0
 30
0.0
 11
10.693185
 21
-125.2
 31
0.0
  0
LINE
  8
0
  6
CONTINUOUS
 62
     3
  5
181
 10
14.014785
 20
-160.517452
 30
0.0
 11
14.140544
 21
-153.312738
 31
0.0
  0
ARC
  8
0
  6
CONTINUOUS
 62
     3
  5
182
 10
13.014937
 20
-160.5
 30
0.0
 40
1.0
 50
270.0
 51
359.0
  0
ARC
  8
0
  6
CONTINUOUS
 62
     3
  5
183
 10
19.139782
 20
-153.4
 30
0.0
 40
5.0
 50
90.0
 51
179.0
  0
LINE
  8
0
  6
CONTINUOUS
 62
     3
  5
184
 10
-22.5
 20
-132.5
 30
0.0
 11
-22.0
 21
-133.0
 31
0.0
  0
LINE
  8
0
  6
CONTINUOUS
 62
     3
  5
185
 10
-20.469398
 20
-137.4
 30
0.0
 11
-22.5
 21
-134.5
 31
0.0
  0
LINE
  8
0
  6
CONTINUOUS
 62
     3
  5
186
 10
-22.0
 20
-133.0
 30
0.0
 11
-22.5
 21
-133.5
 31
0.0
  0
LINE
  8
0
  6
CONTINUOUS
 62
     3
  5
187
 10
-14.014785
 20
-160.517452
 30
0.0
 11
-14.140544
 21
-153.312738
 31
0.0
  0
LINE
  8
0
  6
CONTINUOUS
 62
     3
  5
188
 10
-21.0
 20
-125.2
 30
0.0
 11
-21.0
 21
-119.0
 31
0.0
  0
ARC
  8
0
  6
CONTINUOUS
 62
     3
  5
189
 10
-13.014938
 20
-160.5
 30
0.0
 40
1.0
 50
181.0
 51
270.0
  0
ARC
  8
0
  6
CONTINUOUS
 62
     3
  5
18A
 10
177.5
 20
-134.5
 30
0.0
 40
197.990638
 50
180.83925
 51
184.025781
  0
ARC
  8
0
  6
CONTINUOUS
 62
     3
  5
18B
 10
-19.139783
 20
-153.4
 30
0.0
 40
5.0
 50
1.0
 51
90.0
  0
LINE
  8
0
  6
CONTINUOUS
 62
     3
  5
18C
 10
-22.5
 20
-134.5
 30
0.0
 11
-22.5
 21
-133.5
 31
0.0
  0
LINE
  8
0
  6
CONTINUOUS
 62
     3
  5
18D
 10
-10.693185
 20
-119.0
 30
0.0
 11
-10.693185
 21
-125.2
 31
0.0
  0
LINE
  8
0
  6
CONTINUOUS
 62
     3
  5
18E
 10
13.050581
 20
-161.5
 30
0.0
 11
-13.050581
 21
-161.5
 31
0.0
  0
LINE
  8
0
  6
CONTINUOUS
 62
     3
  5
18F
 10
-20.002108
 20
-148.4
 30
0.0
 11
20.002108
 21
-148.4
 31
0.0
  0
LINE
  8
0
  6
CONTINUOUS
 62
     3
  5
190
 10
-22.0
 20
-116.0
 30
0.0
 11
-22.5
 21
-116.5
 31
0.0
  0
LINE
  8
0
  6
CONTINUOUS
 62
     3
  5
191
 10
-22.0
 20
-116.0
 30
0.0
 11
-22.5
 21
-115.5
 31
0.0
  0
LINE
  8
0
  6
CONTINUOUS
 62
     3
  5
192
 10
-22.5
 20
-117.5
 30
0.0
 11
-22.5
 21
-116.5
 31
0.0
  0
LINE
  8
0
  6
CONTINUOUS
 62
     3
  5
193
 10
-22.5
 20
-113.45804
 30
0.0
 11
-22.5
 21
-115.5
 31
0.0
  0
LINE
  8
0
  6
CONTINUOUS
 62
     3
  5
194
 10
-22.5
 20
-132.5
 30
0.0
 11
-22.5
 21
-126.7
 31
0.0
  0
ARC
  8
0
  6
CONTINUOUS
 62
     3
  5
195
 10
-21.0
 20
-126.7
 30
0.0
 40
1.5
 50
90.0
 51
180.0
  0
ARC
  8
0
  6
CONTINUOUS
 62
     3
  5
196
 10
-21.0
 20
-117.5
 30
0.0
 40
1.5
 50
180.0
 51
270.0
  0
LINE
  8
0
  6
CONTINUOUS
 62
     3
  5
197
 10
22.0
 20
-133.0
 30
0.0
 11
22.5
 21
-133.5
 31
0.0
  0
LINE
  8
0
  6
CONTINUOUS
 62
     3
  5
198
 10
20.469398
 20
-137.4
 30
0.0
 11
22.5
 21
-134.5
 31
0.0
  0
LINE
  8
0
  6
CONTINUOUS
 62
     3
  5
199
 10
22.5
 20
-134.5
 30
0.0
 11
22.5
 21
-133.5
 31
0.0
  0
LINE
  8
0
  6
CONTINUOUS
 62
     3
  5
19A
 10
22.0
 20
-116.0
 30
0.0
 11
22.5
 21
-115.5
 31
0.0
  0
LINE
  8
0
  6
CONTINUOUS
 62
     3
  5
19B
 10
22.5
 20
-113.45804
 30
0.0
 11
22.5
 21
-115.5
 31
0.0
  0
LINE
  8
0
  6
CONTINUOUS
 62
     3
  5
19C
 10
22.5
 20
-132.5
 30
0.0
 11
22.0
 21
-133.0
 31
0.0
  0
LINE
  8
0
  6
CONTINUOUS
 62
     3
  5
19D
 10
22.0
 20
-116.0
 30
0.0
 11
22.5
 21
-116.5
 31
0.0
  0
LINE
  8
0
  6
CONTINUOUS
 62
     3
  5
19E
 10
22.5
 20
-132.5
 30
0.0
 11
22.5
 21
-126.7
 31
0.0
  0
LINE
  8
0
  6
CONTINUOUS
 62
     3
  5
19F
 10
22.5
 20
-117.5
 30
0.0
 11
22.5
 21
-116.5
 31
0.0
  0
LINE
  8
0
  6
CONTINUOUS
 62
     3
  5
1A0
 10
21.0
 20
-125.2
 30
0.0
 11
21.0
 21
-119.0
 31
0.0
  0
ARC
  8
0
  6
CONTINUOUS
 62
     3
  5
1A1
 10
21.0
 20
-117.5
 30
0.0
 40
1.5
 50
270.0
 51
0.0
  0
ARC
  8
0
  6
CONTINUOUS
 62
     3
  5
1A2
 10
21.0
 20
-126.7
 30
0.0
 40
1.5
 50
0.0
 51
90.0
  0
ARC
  8
0
  6
CONTINUOUS
 62
     3
  5
1A3
 10
-177.5
 20
-134.5
 30
0.0
 40
197.990638
 50
355.974219
 51
359.16075
  0
LINE
  8
0
  6
CONTINUOUS
 62
     3
  5
1A4
 10
-22.0
 20
-116.0
 30
0.0
 11
22.0
 21
-116.0
 31
0.0
  0
LINE
  8
0
  6
CONTINUOUS
 62
     3
  5
1A5
 10
-22.0
 20
-133.0
 30
0.0
 11
22.0
 21
-133.0
 31
0.0
  0
LINE
  8
0
  6
CONTINUOUS
 62
     3
  5
1A6
 10
-21.0
 20
-119.0
 30
0.0
 11
21.0
 21
-119.0
 31
0.0
  0
LINE
  8
0
  6
CONTINUOUS
 62
     3
  5
1A7
 10
-21.0
 20
-125.2
 30
0.0
 11
21.0
 21
-125.2
 31
0.0
  0
LINE
  8
0
  6
CONTINUOUS
 62
     3
  5
1A8
 10
-20.469398
 20
-137.4
 30
0.0
 11
20.469398
 21
-137.4
 31
0.0
  0
LINE
  8
0
  6
CONTINUOUS
 62
     3
  5
1A9
 10
-22.5
 20
-113.45804
 30
0.0
 11
22.5
 21
-113.45804
 31
0.0
  0
LINE
  8
0
  6
CONTINUOUS
 62
     3
  5
1AA
 10
19.5
 20
-110.0
 30
0.0
 11
20.0
 21
-110.5
 31
0.0
  0
LINE
  8
0
  6
CONTINUOUS
 62
     3
  5
1AB
 10
-19.5
 20
-110.0
 30
0.0
 11
-20.0
 21
-110.5
 31
0.0
  0
LINE
  8
0
  6
CONTINUOUS
 62
     3
  5
1AC
 10
-3.542398
 20
-124.5
 30
0.0
 11
3.542398
 21
-124.5
 31
0.0
  0
LINE
  8
0
  6
CONTINUOUS
 62
     3
  5
1AD
 10
-9.8
 20
-119.2
 30
0.0
 11
9.8
 21
-119.2
 31
0.0
  0
LINE
  8
0
  6
CONTINUOUS
 62
     3
  5
1AE
 10
-9.76509
 20
-121.2
 30
0.0
 11
9.76509
 21
-121.2
 31
0.0
  0
LINE
  8
0
  6
CONTINUOUS
 62
     3
  5
1AF
 10
-7.694062
 20
-123.9
 30
0.0
 11
-7.741191
 21
-121.2
 31
0.0
  0
LINE
  8
0
  6
CONTINUOUS
 62
     3
  5
1B0
 10
-9.8
 20
-119.2
 30
0.0
 11
-9.76509
 21
-121.2
 31
0.0
  0
LINE
  8
0
  6
CONTINUOUS
 62
     3
  5
1B1
 10
-9.706061
 20
-119.2
 30
0.0
 11
-9.669823
 21
-121.2
 31
0.0
  0
LINE
  8
0
  6
CONTINUOUS
 62
     3
  5
1B2
 10
-9.323545
 20
-119.2
 30
0.0
 11
-9.286634
 21
-121.2
 31
0.0
  0
LINE
  8
0
  6
CONTINUOUS
 62
     3
  5
1B3
 10
-8.657737
 20
-119.2
 30
0.0
 11
-8.621275
 21
-121.2
 31
0.0
  0
LINE
  8
0
  6
CONTINUOUS
 62
     3
  5
1B4
 10
-7.728868
 20
-119.2
 30
0.0
 11
-7.693964
 21
-121.2
 31
0.0
  0
LINE
  8
0
  6
CONTINUOUS
 62
     3
  5
1B5
 10
-6.565162
 20
-119.2
 30
0.0
 11
-6.532875
 21
-121.2
 31
0.0
  0
LINE
  8
0
  6
CONTINUOUS
 62
     3
  5
1B6
 10
-5.78832
 20
-123.9
 30
0.0
 11
-5.741191
 21
-121.2
 31
0.0
  0
LINE
  8
0
  6
CONTINUOUS
 62
     3
  5
1B7
 10
-3.6
 20
-121.2
 30
0.0
 11
-3.542398
 21
-124.5
 31
0.0
  0
LINE
  8
0
  6
CONTINUOUS
 62
     3
  5
1B8
 10
-5.201977
 20
-119.2
 30
0.0
 11
-5.173288
 21
-121.2
 31
0.0
  0
LINE
  8
0
  6
CONTINUOUS
 62
     3
  5
1B9
 10
-3.680732
 20
-119.2
 30
0.0
 11
-3.656513
 21
-121.2
 31
0.0
  0
LINE
  8
0
  6
CONTINUOUS
 62
     3
  5
1BA
 10
-5.78832
 20
-123.9
 30
0.0
 11
-7.694062
 21
-123.9
 31
0.0
  0
LINE
  8
0
  6
CONTINUOUS
 62
     3
  5
1BB
 10
-2.04765
 20
-119.2
 30
0.0
 11
-2.028637
 21
-121.2
 31
0.0
  0
LINE
  8
0
  6
CONTINUOUS
 62
     3
  5
1BC
 10
0.160693
 20
-119.2
 30
0.0
 11
0.147463
 21
-121.2
 31
0.0
  0
LINE
  8
0
  6
CONTINUOUS
 62
     3
  5
1BD
 10
-0.160693
 20
-119.2
 30
0.0
 11
-0.147463
 21
-121.2
 31
0.0
  0
LINE
  8
0
  6
CONTINUOUS
 62
     3
  5
1BE
 10
2.04765
 20
-119.2
 30
0.0
 11
2.028636
 21
-121.2
 31
0.0
  0
LINE
  8
0
  6
CONTINUOUS
 62
     3
  5
1BF
 10
3.680732
 20
-119.2
 30
0.0
 11
3.656513
 21
-121.2
 31
0.0
  0
LINE
  8
0
  6
CONTINUOUS
 62
     3
  5
1C0
 10
8.657737
 20
-119.2
 30
0.0
 11
8.621275
 21
-121.2
 31
0.0
  0
LINE
  8
0
  6
CONTINUOUS
 62
     3
  5
1C1
 10
9.323545
 20
-119.2
 30
0.0
 11
9.286634
 21
-121.2
 31
0.0
  0
LINE
  8
0
  6
CONTINUOUS
 62
     3
  5
1C2
 10
7.728868
 20
-119.2
 30
0.0
 11
7.693964
 21
-121.2
 31
0.0
  0
LINE
  8
0
  6
CONTINUOUS
 62
     3
  5
1C3
 10
6.565162
 20
-119.2
 30
0.0
 11
6.532875
 21
-121.2
 31
0.0
  0
LINE
  8
0
  6
CONTINUOUS
 62
     3
  5
1C4
 10
5.201977
 20
-119.2
 30
0.0
 11
5.173287
 21
-121.2
 31
0.0
  0
LINE
  8
0
  6
CONTINUOUS
 62
     3
  5
1C5
 10
3.6
 20
-121.2
 30
0.0
 11
3.542398
 21
-124.5
 31
0.0
  0
LINE
  8
0
  6
CONTINUOUS
 62
     3
  5
1C6
 10
5.78832
 20
-123.9
 30
0.0
 11
5.741191
 21
-121.2
 31
0.0
  0
LINE
  8
0
  6
CONTINUOUS
 62
     3
  5
1C7
 10
7.694062
 20
-123.9
 30
0.0
 11
7.741191
 21
-121.2
 31
0.0
  0
LINE
  8
0
  6
CONTINUOUS
 62
     3
  5
1C8
 10
5.78832
 20
-123.9
 30
0.0
 11
7.694062
 21
-123.9
 31
0.0
  0
LINE
  8
0
  6
CONTINUOUS
 62
     3
  5
1C9
 10
9.8
 20
-119.2
 30
0.0
 11
9.76509
 21
-121.2
 31
0.0
  0
LINE
  8
0
  6
CONTINUOUS
 62
     3
  5
1CA
 10
9.706061
 20
-119.2
 30
0.0
 11
9.669823
 21
-121.2
 31
0.0
  0
ENDBLK
  8
0
  5
1CB
  0
BLOCK
  8
0
  5
1CC
  2
MS_8
 70
     0
 10
0.0
 20
0.0
 30
0.0
  3
MS_8
  0
LINE
  8
0
  6
CONTINUOUS
 62
     3
  5
1CD
 10
17.55
 20
0.0
 30
0.0
 11
-17.55
 21
0.0
 31
0.0
  0
LINE
  8
0
  6
CONTINUOUS
 62
     3
  5
1CE
 10
19.508726
 20
-0.034281
 30
0.0
 11
17.544764
 21
0.0
 31
0.0
  0
LINE
  8
0
  6
CONTINUOUS
 62
     3
  5
1CF
 10
-19.508726
 20
-0.034281
 30
0.0
 11
-17.544764
 21
0.0
 31
0.0
  0
LINE
  8
0
  6
CONTINUOUS
 62
    80
  5
1D0
 10
-24.5
 20
-99.034129
 30
0.0
 11
24.5
 21
-99.034129
 31
0.0
  0
LINE
  8
0
  6
CONTINUOUS
 62
     3
  5
1D1
 10
-24.5
 20
-99.516674
 30
0.0
 11
-24.5
 21
-99.034129
 31
0.0
  0
LINE
  8
0
  6
CONTINUOUS
 62
     3
  5
1D2
 10
-25.0
 20
-99.525401
 30
0.0
 11
-24.5
 21
-99.516674
 31
0.0
  0
LINE
  8
0
  6
CONTINUOUS
 62
     3
  5
1D3
 10
25.0
 20
-99.525401
 30
0.0
 11
24.5
 21
-99.516674
 31
0.0
  0
LINE
  8
0
  6
CONTINUOUS
 62
     3
  5
1D4
 10
24.5
 20
-99.516674
 30
0.0
 11
24.5
 21
-99.034129
 31
0.0
  0
LINE
  8
0
  6
CONTINUOUS
 62
     3
  5
1D5
 10
25.0
 20
-99.525401
 30
0.0
 11
25.0
 21
-138.542856
 31
0.0
  0
LINE
  8
0
  6
CONTINUOUS
 62
     3
  5
1D6
 10
24.5
 20
-138.551584
 30
0.0
 11
24.5
 21
-139.034129
 31
0.0
  0
LINE
  8
0
  6
CONTINUOUS
 62
     3
  5
1D7
 10
25.0
 20
-138.542856
 30
0.0
 11
24.5
 21
-138.551584
 31
0.0
  0
LINE
  8
0
  6
CONTINUOUS
 62
     3
  5
1D8
 10
-25.0
 20
-99.525401
 30
0.0
 11
-25.0
 21
-138.542856
 31
0.0
  0
LINE
  8
0
  6
CONTINUOUS
 62
     3
  5
1D9
 10
-25.0
 20
-138.542856
 30
0.0
 11
-24.5
 21
-138.551584
 31
0.0
  0
LINE
  8
0
  6
CONTINUOUS
 62
     3
  5
1DA
 10
-24.5
 20
-138.551584
 30
0.0
 11
-24.5
 21
-139.034129
 31
0.0
  0
ARC
  8
0
  6
CONTINUOUS
 62
     3
  5
1DB
 10
19.5
 20
-0.534205
 30
0.0
 40
0.5
 50
360.0
 51
89.0
  0
ARC
  8
0
  6
CONTINUOUS
 62
     3
  5
1DC
 10
-19.5
 20
-0.534205
 30
0.0
 40
0.5
 50
91.0
 51
180.0
  0
LINE
  8
0
  6
CONTINUOUS
 62
     3
  5
1DD
 10
24.5
 20
-98.551584
 30
0.0
 11
24.5
 21
-99.034129
 31
0.0
  0
LINE
  8
0
  6
CONTINUOUS
 62
     3
  5
1DE
 10
25.0
 20
-98.542856
 30
0.0
 11
24.5
 21
-98.551584
 31
0.0
  0
LINE
  8
0
  6
CONTINUOUS
 62
     3
  5
1DF
 10
25.0
 20
-51.469963
 30
0.0
 11
25.0
 21
-98.542856
 31
0.0
  0
LINE
  8
0
  6
CONTINUOUS
 62
     3
  5
1E0
 10
-25.0
 20
-98.542856
 30
0.0
 11
-24.5
 21
-98.551584
 31
0.0
  0
LINE
  8
0
  6
CONTINUOUS
 62
     3
  5
1E1
 10
-25.0
 20
-51.469963
 30
0.0
 11
-25.0
 21
-98.542856
 31
0.0
  0
LINE
  8
0
  6
CONTINUOUS
 62
     3
  5
1E2
 10
-24.5
 20
-98.551584
 30
0.0
 11
-24.5
 21
-99.034129
 31
0.0
  0
LINE
  8
0
  6
CONTINUOUS
 62
     3
  5
1E3
 10
25.0
 20
-139.034129
 30
0.0
 11
-25.0
 21
-139.034129
 31
0.0
  0
LINE
  8
0
  6
CONTINUOUS
 62
     3
  5
1E4
 10
24.5
 20
-98.551584
 30
0.0
 11
-24.5
 21
-98.551584
 31
0.0
  0
LINE
  8
0
  6
CONTINUOUS
 62
     3
  5
1E5
 10
-23.5
 20
-148.007946
 30
0.0
 11
23.5
 21
-148.007946
 31
0.0
  0
LINE
  8
0
  6
CONTINUOUS
 62
     3
  5
1E6
 10
25.0
 20
-140.560083
 30
0.0
 11
25.0
 21
-139.034129
 31
0.0
  0
LINE
  8
0
  6
CONTINUOUS
 62
     3
  5
1E7
 10
-25.0
 20
-140.560083
 30
0.0
 11
-25.0
 21
-139.034129
 31
0.0
  0
LINE
  8
0
  6
CONTINUOUS
 62
     3
  5
1E8
 10
25.0
 20
-164.234129
 30
0.0
 11
24.5
 21
-164.242856
 31
0.0
  0
LINE
  8
0
  6
CONTINUOUS
 62
     3
  5
1E9
 10
24.5
 20
-164.734129
 30
0.0
 11
24.5
 21
-164.242856
 31
0.0
  0
LINE
  8
0
  6
CONTINUOUS
 62
     3
  5
1EA
 10
-25.0
 20
-164.234129
 30
0.0
 11
-25.0
 21
-149.508175
 31
0.0
  0
LINE
  8
0
  6
CONTINUOUS
 62
     3
  5
1EB
 10
25.0
 20
-164.234129
 30
0.0
 11
25.0
 21
-149.508175
 31
0.0
  0
LINE
  8
0
  6
CONTINUOUS
 62
     3
  5
1EC
 10
24.5
 20
-164.242856
 30
0.0
 11
-24.5
 21
-164.242856
 31
0.0
  0
LINE
  8
0
  6
CONTINUOUS
 62
     3
  5
1ED
 10
23.526179
 20
-142.059855
 30
0.0
 11
23.5
 21
-142.060312
 31
0.0
  0
LINE
  8
0
  6
CONTINUOUS
 62
     3
  5
1EE
 10
-23.5
 20
-142.060312
 30
0.0
 11
23.5
 21
-142.060312
 31
0.0
  0
LINE
  8
0
  6
CONTINUOUS
 62
     3
  5
1EF
 10
-23.526179
 20
-142.059855
 30
0.0
 11
-23.5
 21
-142.060312
 31
0.0
  0
LINE
  8
0
  6
CONTINUOUS
 62
     3
  5
1F0
 10
-24.5
 20
-164.734129
 30
0.0
 11
-24.5
 21
-164.242856
 31
0.0
  0
LINE
  8
0
  6
CONTINUOUS
 62
     3
  5
1F1
 10
-25.0
 20
-164.234129
 30
0.0
 11
-24.5
 21
-164.242856
 31
0.0
  0
LINE
  8
0
  6
CONTINUOUS
 62
     3
  5
1F2
 10
23.237127
 20
-142.060312
 30
0.0
 11
23.237127
 21
-148.007946
 31
0.0
  0
LINE
  8
0
  6
CONTINUOUS
 62
     3
  5
1F3
 10
10.693185
 20
-142.060312
 30
0.0
 11
10.693185
 21
-148.007946
 31
0.0
  0
LINE
  8
0
  6
CONTINUOUS
 62
     3
  5
1F4
 10
-10.693185
 20
-142.060312
 30
0.0
 11
-10.693185
 21
-148.007946
 31
0.0
  0
LINE
  8
0
  6
CONTINUOUS
 62
     3
  5
1F5
 10
-23.237127
 20
-142.060312
 30
0.0
 11
-23.237127
 21
-148.007946
 31
0.0
  0
ARC
  8
0
  6
CONTINUOUS
 62
     3
  5
1F6
 10
-15.0
 20
-51.469963
 30
0.0
 40
40.0
 50
360.0
 51
20.364135
  0
ARC
  8
0
  6
CONTINUOUS
 62
     3
  5
1F7
 10
15.0
 20
-51.469963
 30
0.0
 40
40.0
 50
159.635865
 51
180.0
  0
ARC
  8
0
  6
CONTINUOUS
 62
     3
  5
1F8
 10
60.0
 20
-23.631141
 30
0.0
 40
40.0
 50
180.0
 51
200.364135
  0
ARC
  8
0
  6
CONTINUOUS
 62
     3
  5
1F9
 10
-60.0
 20
-23.631141
 30
0.0
 40
40.0
 50
339.635865
 51
360.0
  0
ARC
  8
0
  6
CONTINUOUS
 62
     3
  5
1FA
 10
-23.5
 20
-149.508175
 30
0.0
 40
1.5
 50
90.0
 51
180.0
  0
ARC
  8
0
  6
CONTINUOUS
 62
     3
  5
1FB
 10
23.5
 20
-140.560083
 30
0.0
 40
1.5
 50
271.0
 51
0.0
  0
ARC
  8
0
  6
CONTINUOUS
 62
     3
  5
1FC
 10
23.5
 20
-149.508175
 30
0.0
 40
1.5
 50
0.0
 51
90.0
  0
ARC
  8
0
  6
CONTINUOUS
 62
     3
  5
1FD
 10
-23.5
 20
-140.560083
 30
0.0
 40
1.5
 50
180.0
 51
269.0
  0
LINE
  8
0
  6
CONTINUOUS
 62
     3
  5
1FE
 10
-20.0
 20
-0.534205
 30
0.0
 11
-20.0
 21
-23.61575
 31
0.0
  0
LINE
  8
0
  6
CONTINUOUS
 62
     3
  5
1FF
 10
20.0
 20
-0.534205
 30
0.0
 11
20.0
 21
-23.61575
 31
0.0
  0
LINE
  8
0
  6
CONTINUOUS
 62
     3
  5
200
 10
25.0
 20
-164.734129
 30
0.0
 11
-25.0
 21
-164.734129
 31
0.0
  0
ARC
  8
0
  6
CONTINUOUS
 62
     3
  5
201
 10
13.014938
 20
-203.241402
 30
0.0
 40
1.0
 50
270.0
 51
359.0
  0
LINE
  8
0
  6
CONTINUOUS
 62
     3
  5
202
 10
13.014938
 20
-204.241402
 30
0.0
 11
-13.014938
 21
-204.241402
 31
0.0
  0
ARC
  8
0
  6
CONTINUOUS
 62
     3
  5
203
 10
22.50619
 20
-190.241402
 30
0.0
 40
1.0
 50
270.0
 51
352.96756
  0
ARC
  8
0
  6
CONTINUOUS
 62
     3
  5
204
 10
21.103431
 20
-198.241402
 30
0.0
 40
7.0
 50
90.0
 51
179.0
  0
LINE
  8
0
  6
CONTINUOUS
 62
     3
  5
205
 10
14.104498
 20
-198.119235
 30
0.0
 11
14.014785
 21
-203.258855
 31
0.0
  0
ARC
  8
0
  6
CONTINUOUS
 62
     3
  5
206
 10
-21.103431
 20
-198.241402
 30
0.0
 40
7.0
 50
1.0
 51
90.0
  0
ARC
  8
0
  6
CONTINUOUS
 62
     3
  5
207
 10
-22.50619
 20
-190.241402
 30
0.0
 40
1.0
 50
187.03244
 51
270.0
  0
LINE
  8
0
  6
CONTINUOUS
 62
     3
  5
208
 10
-14.104498
 20
-198.119235
 30
0.0
 11
-14.014785
 21
-203.258855
 31
0.0
  0
LINE
  8
0
  6
CONTINUOUS
 62
     3
  5
209
 10
22.50619
 20
-191.241402
 30
0.0
 11
-22.50619
 21
-191.241402
 31
0.0
  0
ARC
  8
0
  6
CONTINUOUS
 62
     3
  5
20A
 10
-13.014938
 20
-203.241402
 30
0.0
 40
1.0
 50
181.0
 51
270.0
  0
ARC
  8
0
  6
CONTINUOUS
 62
     3
  5
20B
 10
-174.996731
 20
-165.877577
 30
0.0
 40
200.0
 50
352.96756
 51
0.327575
  0
ARC
  8
0
  6
CONTINUOUS
 62
     3
  5
20C
 10
174.996731
 20
-165.877577
 30
0.0
 40
200.0
 50
179.672425
 51
187.03244
  0
LINE
  8
0
  6
CONTINUOUS
 62
     3
  5
20D
 10
-3.542398
 20
-147.560312
 30
0.0
 11
3.542398
 21
-147.560312
 31
0.0
  0
LINE
  8
0
  6
CONTINUOUS
 62
     3
  5
20E
 10
-9.76509
 20
-144.260312
 30
0.0
 11
9.76509
 21
-144.260312
 31
0.0
  0
LINE
  8
0
  6
CONTINUOUS
 62
     3
  5
20F
 10
-9.8
 20
-142.260312
 30
0.0
 11
9.8
 21
-142.260312
 31
0.0
  0
LINE
  8
0
  6
CONTINUOUS
 62
     3
  5
210
 10
7.694062
 20
-146.960312
 30
0.0
 11
7.741191
 21
-144.260312
 31
0.0
  0
LINE
  8
0
  6
CONTINUOUS
 62
     3
  5
211
 10
5.78832
 20
-146.960312
 30
0.0
 11
5.741191
 21
-144.260312
 31
0.0
  0
LINE
  8
0
  6
CONTINUOUS
 62
     3
  5
212
 10
5.201977
 20
-142.260312
 30
0.0
 11
5.173287
 21
-144.260312
 31
0.0
  0
LINE
  8
0
  6
CONTINUOUS
 62
     3
  5
213
 10
6.565162
 20
-142.260312
 30
0.0
 11
6.532875
 21
-144.260312
 31
0.0
  0
LINE
  8
0
  6
CONTINUOUS
 62
     3
  5
214
 10
7.728868
 20
-142.260312
 30
0.0
 11
7.693964
 21
-144.260312
 31
0.0
  0
LINE
  8
0
  6
CONTINUOUS
 62
     3
  5
215
 10
9.706061
 20
-142.260312
 30
0.0
 11
9.669823
 21
-144.260312
 31
0.0
  0
LINE
  8
0
  6
CONTINUOUS
 62
     3
  5
216
 10
9.323545
 20
-142.260312
 30
0.0
 11
9.286634
 21
-144.260312
 31
0.0
  0
LINE
  8
0
  6
CONTINUOUS
 62
     3
  5
217
 10
8.657737
 20
-142.260312
 30
0.0
 11
8.621275
 21
-144.260312
 31
0.0
  0
LINE
  8
0
  6
CONTINUOUS
 62
     3
  5
218
 10
9.8
 20
-142.260312
 30
0.0
 11
9.76509
 21
-144.260312
 31
0.0
  0
LINE
  8
0
  6
CONTINUOUS
 62
     3
  5
219
 10
5.78832
 20
-146.960312
 30
0.0
 11
7.694062
 21
-146.960312
 31
0.0
  0
LINE
  8
0
  6
CONTINUOUS
 62
     3
  5
21A
 10
3.680732
 20
-142.260312
 30
0.0
 11
3.656513
 21
-144.260312
 31
0.0
  0
LINE
  8
0
  6
CONTINUOUS
 62
     3
  5
21B
 10
2.04765
 20
-142.260312
 30
0.0
 11
2.028637
 21
-144.260312
 31
0.0
  0
LINE
  8
0
  6
CONTINUOUS
 62
     3
  5
21C
 10
3.6
 20
-144.260312
 30
0.0
 11
3.542398
 21
-147.560312
 31
0.0
  0
LINE
  8
0
  6
CONTINUOUS
 62
     3
  5
21D
 10
0.160693
 20
-142.260312
 30
0.0
 11
0.147463
 21
-144.260312
 31
0.0
  0
LINE
  8
0
  6
CONTINUOUS
 62
     3
  5
21E
 10
-0.160693
 20
-142.260312
 30
0.0
 11
-0.147463
 21
-144.260312
 31
0.0
  0
LINE
  8
0
  6
CONTINUOUS
 62
     3
  5
21F
 10
-2.04765
 20
-142.260312
 30
0.0
 11
-2.028637
 21
-144.260312
 31
0.0
  0
LINE
  8
0
  6
CONTINUOUS
 62
     3
  5
220
 10
-3.680732
 20
-142.260312
 30
0.0
 11
-3.656513
 21
-144.260312
 31
0.0
  0
LINE
  8
0
  6
CONTINUOUS
 62
     3
  5
221
 10
-5.201977
 20
-142.260312
 30
0.0
 11
-5.173287
 21
-144.260312
 31
0.0
  0
LINE
  8
0
  6
CONTINUOUS
 62
     3
  5
222
 10
-6.565162
 20
-142.260312
 30
0.0
 11
-6.532875
 21
-144.260312
 31
0.0
  0
LINE
  8
0
  6
CONTINUOUS
 62
     3
  5
223
 10
-7.728868
 20
-142.260312
 30
0.0
 11
-7.693964
 21
-144.260312
 31
0.0
  0
LINE
  8
0
  6
CONTINUOUS
 62
     3
  5
224
 10
-8.657737
 20
-142.260312
 30
0.0
 11
-8.621275
 21
-144.260312
 31
0.0
  0
LINE
  8
0
  6
CONTINUOUS
 62
     3
  5
225
 10
-9.323545
 20
-142.260312
 30
0.0
 11
-9.286634
 21
-144.260312
 31
0.0
  0
LINE
  8
0
  6
CONTINUOUS
 62
     3
  5
226
 10
-9.706061
 20
-142.260312
 30
0.0
 11
-9.669823
 21
-144.260312
 31
0.0
  0
LINE
  8
0
  6
CONTINUOUS
 62
     3
  5
227
 10
-9.8
 20
-142.260312
 30
0.0
 11
-9.76509
 21
-144.260312
 31
0.0
  0
LINE
  8
0
  6
CONTINUOUS
 62
     3
  5
228
 10
-3.6
 20
-144.260312
 30
0.0
 11
-3.542398
 21
-147.560312
 31
0.0
  0
LINE
  8
0
  6
CONTINUOUS
 62
     3
  5
229
 10
-7.694062
 20
-146.960312
 30
0.0
 11
-7.741191
 21
-144.260312
 31
0.0
  0
LINE
  8
0
  6
CONTINUOUS
 62
     3
  5
22A
 10
-5.78832
 20
-146.960312
 30
0.0
 11
-5.741191
 21
-144.260312
 31
0.0
  0
LINE
  8
0
  6
CONTINUOUS
 62
     3
  5
22B
 10
-5.78832
 20
-146.960312
 30
0.0
 11
-7.694062
 21
-146.960312
 31
0.0
  0
ENDBLK
  8
0
  5
22C
  0
BLOCK
  8
0
  5
22D
  2
MS_9
 70
     0
 10
0.0
 20
0.0
 30
0.0
  3
MS_9
  0
LINE
  8
0
  6
CONTINUOUS
 62
     3
  5
22E
 10
29.5
 20
0.0
 30
0.0
 11
-29.5
 21
0.0
 31
0.0
  0
LINE
  8
0
  6
CONTINUOUS
 62
     3
  5
22F
 10
29.5
 20
40.0
 30
0.0
 11
30.0
 21
39.5
 31
0.0
  0
LINE
  8
0
  6
CONTINUOUS
 62
     3
  5
230
 10
-29.5
 20
40.0
 30
0.0
 11
-30.0
 21
39.5
 31
0.0
  0
LINE
  8
0
  6
CONTINUOUS
 62
     3
  5
231
 10
-30.0
 20
39.5
 30
0.0
 11
-30.0
 21
37.65
 31
0.0
  0
ARC
  8
0
  6
CONTINUOUS
 62
     3
  5
232
 10
-29.5
 20
12.99039
 30
0.0
 40
0.5
 50
145.370441
 51
180.0
  0
ARC
  8
0
  6
CONTINUOUS
 62
     3
  5
233
 10
-29.5
 20
19.80961
 30
0.0
 40
0.5
 50
180.0
 51
214.629559
  0
ARC
  8
0
  6
CONTINUOUS
 62
     3
  5
234
 10
-29.5
 20
19.99039
 30
0.0
 40
0.5
 50
145.370441
 51
180.0
  0
ARC
  8
0
  6
CONTINUOUS
 62
     3
  5
235
 10
-29.5
 20
26.80961
 30
0.0
 40
0.5
 50
180.0
 51
214.629559
  0
LINE
  8
0
  6
CONTINUOUS
 62
     3
  5
236
 10
-30.0
 20
7.448054
 30
0.0
 11
-30.0
 21
7.351946
 31
0.0
  0
LINE
  8
0
  6
CONTINUOUS
 62
     3
  5
237
 10
-30.0
 20
32.351946
 30
0.0
 11
-30.0
 21
32.448054
 31
0.0
  0
LINE
  8
0
  6
CONTINUOUS
 62
     3
  5
238
 10
-30.0
 20
26.948054
 30
0.0
 11
-30.0
 21
26.80961
 31
0.0
  0
LINE
  8
0
  6
CONTINUOUS
 62
     3
  5
239
 10
-30.0
 20
19.99039
 30
0.0
 11
-30.0
 21
19.80961
 31
0.0
  0
LINE
  8
0
  6
CONTINUOUS
 62
     3
  5
23A
 10
-30.0
 20
12.99039
 30
0.0
 11
-30.0
 21
12.851946
 31
0.0
  0
LINE
  8
0
  6
CONTINUOUS
 62
     3
  5
23B
 10
-30.0
 20
2.15
 30
0.0
 11
-30.0
 21
0.5
 31
0.0
  0
ARC
  8
0
  6
CONTINUOUS
 62
     3
  5
23C
 10
-29.5
 20
32.448054
 30
0.0
 40
0.5
 50
137.508066
 51
180.0
  0
ARC
  8
0
  6
CONTINUOUS
 62
     3
  5
23D
 10
-29.5
 20
32.351946
 30
0.0
 40
0.5
 50
180.0
 51
222.491934
  0
ARC
  8
0
  6
CONTINUOUS
 62
     3
  5
23E
 10
-29.5
 20
26.948054
 30
0.0
 40
0.5
 50
137.508066
 51
180.0
  0
ARC
  8
0
  6
CONTINUOUS
 62
     3
  5
23F
 10
-29.5
 20
12.851946
 30
0.0
 40
0.5
 50
180.0
 51
222.491934
  0
ARC
  8
0
  6
CONTINUOUS
 62
     3
  5
240
 10
-29.5
 20
7.448054
 30
0.0
 40
0.5
 50
137.508066
 51
180.0
  0
ARC
  8
0
  6
CONTINUOUS
 62
     3
  5
241
 10
-29.5
 20
7.351946
 30
0.0
 40
0.5
 50
180.0
 51
222.491934
  0
ARC
  8
0
  6
CONTINUOUS
 62
     3
  5
242
 10
-32.44949
 20
35.15
 30
0.0
 40
3.5
 50
317.508066
 51
45.584691
  0
ARC
  8
0
  6
CONTINUOUS
 62
     3
  5
243
 10
-34.43706
 20
16.4
 30
0.0
 40
5.5
 50
325.370441
 51
34.629559
  0
ARC
  8
0
  6
CONTINUOUS
 62
     3
  5
244
 10
-34.43706
 20
23.4
 30
0.0
 40
5.5
 50
325.370441
 51
34.629559
  0
ARC
  8
0
  6
CONTINUOUS
 62
     3
  5
245
 10
-32.44949
 20
29.65
 30
0.0
 40
3.5
 50
317.508066
 51
42.491934
  0
ARC
  8
0
  6
CONTINUOUS
 62
     3
  5
246
 10
-32.44949
 20
10.15
 30
0.0
 40
3.5
 50
317.508066
 51
42.491934
  0
ARC
  8
0
  6
CONTINUOUS
 62
     3
  5
247
 10
-32.44949
 20
4.65
 30
0.0
 40
3.5
 50
314.415309
 51
42.491934
  0
ARC
  8
0
  6
CONTINUOUS
 62
     3
  5
248
 10
29.5
 20
7.351946
 30
0.0
 40
0.5
 50
317.508066
 51
0.0
  0
ARC
  8
0
  6
CONTINUOUS
 62
     3
  5
249
 10
29.5
 20
7.448054
 30
0.0
 40
0.5
 50
0.0
 51
42.491934
  0
ARC
  8
0
  6
CONTINUOUS
 62
     3
  5
24A
 10
29.5
 20
12.851946
 30
0.0
 40
0.5
 50
317.508066
 51
0.0
  0
ARC
  8
0
  6
CONTINUOUS
 62
     3
  5
24B
 10
29.5
 20
12.99039
 30
0.0
 40
0.5
 50
0.0
 51
34.629559
  0
ARC
  8
0
  6
CONTINUOUS
 62
     3
  5
24C
 10
29.5
 20
19.80961
 30
0.0
 40
0.5
 50
325.370441
 51
0.0
  0
ARC
  8
0
  6
CONTINUOUS
 62
     3
  5
24D
 10
29.5
 20
19.99039
 30
0.0
 40
0.5
 50
0.0
 51
34.629559
  0
ARC
  8
0
  6
CONTINUOUS
 62
     3
  5
24E
 10
29.5
 20
26.80961
 30
0.0
 40
0.5
 50
325.370441
 51
0.0
  0
ARC
  8
0
  6
CONTINUOUS
 62
     3
  5
24F
 10
29.5
 20
26.948054
 30
0.0
 40
0.5
 50
0.0
 51
42.491934
  0
ARC
  8
0
  6
CONTINUOUS
 62
     3
  5
250
 10
29.5
 20
32.351946
 30
0.0
 40
0.5
 50
317.508066
 51
0.0
  0
ARC
  8
0
  6
CONTINUOUS
 62
     3
  5
251
 10
29.5
 20
32.448054
 30
0.0
 40
0.5
 50
0.0
 51
42.491934
  0
LINE
  8
0
  6
CONTINUOUS
 62
     3
  5
252
 10
30.0
 20
12.99039
 30
0.0
 11
30.0
 21
12.851946
 31
0.0
  0
LINE
  8
0
  6
CONTINUOUS
 62
     3
  5
253
 10
30.0
 20
19.99039
 30
0.0
 11
30.0
 21
19.80961
 31
0.0
  0
LINE
  8
0
  6
CONTINUOUS
 62
     3
  5
254
 10
30.0
 20
26.948054
 30
0.0
 11
30.0
 21
26.80961
 31
0.0
  0
LINE
  8
0
  6
CONTINUOUS
 62
     3
  5
255
 10
30.0
 20
32.351946
 30
0.0
 11
30.0
 21
32.448054
 31
0.0
  0
LINE
  8
0
  6
CONTINUOUS
 62
     3
  5
256
 10
30.0
 20
7.448054
 30
0.0
 11
30.0
 21
7.351946
 31
0.0
  0
LINE
  8
0
  6
CONTINUOUS
 62
    80
  5
257
 10
-30.0
 20
2.15
 30
0.0
 11
30.0
 21
2.15
 31
0.0
  0
LINE
  8
0
  6
CONTINUOUS
 62
     3
  5
258
 10
30.0
 20
39.5
 30
0.0
 11
30.0
 21
37.65
 31
0.0
  0
LINE
  8
0
  6
CONTINUOUS
 62
     3
  5
259
 10
30.0
 20
2.15
 30
0.0
 11
30.0
 21
0.5
 31
0.0
  0
ARC
  8
0
  6
CONTINUOUS
 62
     3
  5
25A
 10
32.44949
 20
4.65
 30
0.0
 40
3.5
 50
137.508066
 51
225.584691
  0
ARC
  8
0
  6
CONTINUOUS
 62
     3
  5
25B
 10
32.44949
 20
10.15
 30
0.0
 40
3.5
 50
137.508066
 51
222.491934
  0
ARC
  8
0
  6
CONTINUOUS
 62
     3
  5
25C
 10
32.44949
 20
29.65
 30
0.0
 40
3.5
 50
137.508066
 51
222.491934
  0
ARC
  8
0
  6
CONTINUOUS
 62
     3
  5
25D
 10
34.43706
 20
23.4
 30
0.0
 40
5.5
 50
145.370441
 51
214.629559
  0
ARC
  8
0
  6
CONTINUOUS
 62
     3
  5
25E
 10
34.43706
 20
16.4
 30
0.0
 40
5.5
 50
145.370441
 51
214.629559
  0
ARC
  8
0
  6
CONTINUOUS
 62
     3
  5
25F
 10
32.44949
 20
35.15
 30
0.0
 40
3.5
 50
134.415309
 51
222.491934
  0
LINE
  8
0
  6
CONTINUOUS
 62
     3
  5
260
 10
-29.5
 20
40.0
 30
0.0
 11
29.5
 21
40.0
 31
0.0
  0
LINE
  8
0
  6
CONTINUOUS
 62
    80
  5
261
 10
-30.0
 20
7.4
 30
0.0
 11
30.0
 21
7.4
 31
0.0
  0
LINE
  8
0
  6
CONTINUOUS
 62
    80
  5
262
 10
-30.0
 20
12.856692
 30
0.0
 11
30.0
 21
12.856692
 31
0.0
  0
LINE
  8
0
  6
CONTINUOUS
 62
    80
  5
263
 10
-30.0
 20
19.9
 30
0.0
 11
30.0
 21
19.9
 31
0.0
  0
LINE
  8
0
  6
CONTINUOUS
 62
    80
  5
264
 10
-30.0
 20
26.943308
 30
0.0
 11
30.0
 21
26.943308
 31
0.0
  0
LINE
  8
0
  6
CONTINUOUS
 62
    80
  5
265
 10
-30.0
 20
32.4
 30
0.0
 11
29.997685
 21
32.4
 31
0.0
  0
LINE
  8
0
  6
CONTINUOUS
 62
    80
  5
266
 10
-30.0
 20
37.65
 30
0.0
 11
29.997685
 21
37.65
 31
0.0
  0
LINE
  8
0
  6
CONTINUOUS
 62
    80
  5
267
 10
26.336136
 20
5.0
 30
0.0
 11
25.760119
 21
38.0
 31
0.0
  0
LINE
  8
0
  6
CONTINUOUS
 62
    80
  5
268
 10
23.172807
 20
38.0
 30
0.0
 11
23.172807
 21
5.0
 31
0.0
  0
LINE
  8
0
  6
CONTINUOUS
 62
    80
  5
269
 10
21.647396
 20
38.0
 30
0.0
 11
21.647396
 21
5.0
 31
0.0
  0
LINE
  8
0
  6
CONTINUOUS
 62
    80
  5
26A
 10
19.884811
 20
38.0
 30
0.0
 11
19.884811
 21
5.0
 31
0.0
  0
LINE
  8
0
  6
CONTINUOUS
 62
    80
  5
26B
 10
17.904364
 20
38.0
 30
0.0
 11
17.904364
 21
5.0
 31
0.0
  0
LINE
  8
0
  6
CONTINUOUS
 62
    80
  5
26C
 10
15.727753
 20
38.0
 30
0.0
 11
15.727753
 21
5.0
 31
0.0
  0
LINE
  8
0
  6
CONTINUOUS
 62
    80
  5
26D
 10
13.378826
 20
38.0
 30
0.0
 11
13.378826
 21
5.0
 31
0.0
  0
LINE
  8
0
  6
CONTINUOUS
 62
    80
  5
26E
 10
10.883318
 20
38.0
 30
0.0
 11
10.883318
 21
5.0
 31
0.0
  0
LINE
  8
0
  6
CONTINUOUS
 62
    80
  5
26F
 10
8.268569
 20
38.0
 30
0.0
 11
8.268569
 21
5.0
 31
0.0
  0
LINE
  8
0
  6
CONTINUOUS
 62
    80
  5
270
 10
5.563228
 20
38.0
 30
0.0
 11
5.563228
 21
5.0
 31
0.0
  0
LINE
  8
0
  6
CONTINUOUS
 62
    80
  5
271
 10
2.857888
 20
38.0
 30
0.0
 11
2.857888
 21
5.0
 31
0.0
  0
LINE
  8
0
  6
CONTINUOUS
 62
    80
  5
272
 10
25.44804
 20
38.0
 30
0.0
 11
25.44804
 21
5.0
 31
0.0
  0
LINE
  8
0
  6
CONTINUOUS
 62
    80
  5
273
 10
24.444332
 20
38.0
 30
0.0
 11
24.444332
 21
5.0
 31
0.0
  0
LINE
  8
0
  6
CONTINUOUS
 62
    80
  5
274
 10
-25.448041
 20
38.0
 30
0.0
 11
-25.448041
 21
5.0
 31
0.0
  0
LINE
  8
0
  6
CONTINUOUS
 62
    80
  5
275
 10
-24.444333
 20
38.0
 30
0.0
 11
-24.444333
 21
5.0
 31
0.0
  0
LINE
  8
0
  6
CONTINUOUS
 62
    80
  5
276
 10
-23.172808
 20
38.0
 30
0.0
 11
-23.172808
 21
5.0
 31
0.0
  0
LINE
  8
0
  6
CONTINUOUS
 62
    80
  5
277
 10
-21.647396
 20
38.0
 30
0.0
 11
-21.647396
 21
5.0
 31
0.0
  0
LINE
  8
0
  6
CONTINUOUS
 62
    80
  5
278
 10
-19.884812
 20
38.0
 30
0.0
 11
-19.884812
 21
5.0
 31
0.0
  0
LINE
  8
0
  6
CONTINUOUS
 62
    80
  5
279
 10
-17.904365
 20
38.0
 30
0.0
 11
-17.904365
 21
5.0
 31
0.0
  0
LINE
  8
0
  6
CONTINUOUS
 62
    80
  5
27A
 10
-15.727754
 20
38.0
 30
0.0
 11
-15.727754
 21
5.0
 31
0.0
  0
LINE
  8
0
  6
CONTINUOUS
 62
    80
  5
27B
 10
-13.378827
 20
38.0
 30
0.0
 11
-13.378827
 21
5.0
 31
0.0
  0
LINE
  8
0
  6
CONTINUOUS
 62
    80
  5
27C
 10
-10.883318
 20
38.0
 30
0.0
 11
-10.883318
 21
5.0
 31
0.0
  0
LINE
  8
0
  6
CONTINUOUS
 62
    80
  5
27D
 10
-8.26857
 20
38.0
 30
0.0
 11
-8.26857
 21
5.0
 31
0.0
  0
LINE
  8
0
  6
CONTINUOUS
 62
    80
  5
27E
 10
-5.563229
 20
38.0
 30
0.0
 11
-5.563229
 21
5.0
 31
0.0
  0
LINE
  8
0
  6
CONTINUOUS
 62
    80
  5
27F
 10
-26.336137
 20
5.0
 30
0.0
 11
-25.76012
 21
38.0
 31
0.0
  0
LINE
  8
0
  6
CONTINUOUS
 62
    80
  5
280
 10
-2.857889
 20
38.0
 30
0.0
 11
-2.857889
 21
5.0
 31
0.0
  0
LINE
  8
0
  6
CONTINUOUS
 62
    80
  5
281
 10
0.0
 20
38.0
 30
0.0
 11
0.0
 21
5.0
 31
0.0
  0
LINE
  8
0
  6
CONTINUOUS
 62
     3
  5
282
 10
-30.0
 20
0.499999
 30
0.0
 11
-29.500001
 21
0.0
 31
0.0
  0
LINE
  8
0
  6
CONTINUOUS
 62
     3
  5
283
 10
30.0
 20
0.499999
 30
0.0
 11
29.500001
 21
0.0
 31
0.0
  0
ENDBLK
  8
0
  5
284
  0
BLOCK
  8
0
  5
285
  2
MS_10
 70
     0
 10
0.0
 20
0.0
 30
0.0
  3
MS_10
  0
LINE
  8
0
  6
CENTER
 62
    50
  5
287
 10
-10.4
 20
-323.0
 30
0.0
 11
65.0
 21
-323.0
 31
0.0
  0
LINE
  8
0
  6
CENTER
 62
    50
  5
288
 10
-10.5
 20
-288.1
 30
0.0
 11
65.0
 21
-288.1
 31
0.0
  0
LINE
  8
0
  6
DASHED
 62
    80
  5
28A
 10
56.0
 20
-266.0
 30
0.0
 11
56.0
 21
-339.0
 31
0.0
  0
LINE
  8
0
  6
DASHED
 62
    80
  5
28B
 10
59.8
 20
-339.0
 30
0.0
 11
55.8
 21
-339.0
 31
0.0
  0
ARC
  8
0
  6
DASHED
 62
    80
  5
28C
 10
52.0
 20
-266.0
 30
0.0
 40
8.0
 50
0.0
 51
90.0
  0
ARC
  8
0
  6
DASHED
 62
    80
  5
28D
 10
52.0
 20
-266.0
 30
0.0
 40
4.0
 50
0.0
 51
90.0
  0
LINE
  8
0
  6
DASHED
 62
    80
  5
28E
 10
60.0
 20
-266.0
 30
0.0
 11
60.0
 21
-339.0
 31
0.0
  0
LINE
  8
0
  6
DASHED
 62
    80
  5
28F
 10
16.1
 20
-262.0
 30
0.0
 11
52.0
 21
-262.0
 31
0.0
  0
LINE
  8
0
  6
DASHED
 62
    80
  5
290
 10
16.1
 20
-258.0
 30
0.0
 11
52.0
 21
-258.0
 31
0.0
  0
LINE
  8
0
  6
CONTINUOUS
 62
     3
  5
291
 10
11.0
 20
0.0
 30
0.0
 11
11.0
 21
-240.0
 31
0.0
  0
LINE
  8
0
  6
CONTINUOUS
 62
     3
  5
292
 10
-11.0
 20
0.0
 30
0.0
 11
-11.0
 21
-240.0
 31
0.0
  0
LINE
  8
0
  6
CONTINUOUS
 62
     3
  5
293
 10
-11.0
 20
0.0
 30
0.0
 11
11.0
 21
0.0
 31
0.0
  0
POLYLINE
  8
0
  6
CONTINUOUS
 62
     3
  5
294
 66
     1
 10
0.0
 20
0.0
 30
0.0
  0
VERTEX
  8
0
  6
CONTINUOUS
 62
     3
  5
69C
 10
-18.475209
 20
-276.570938
 30
0.0
  0
VERTEX
  8
0
  6
CONTINUOUS
 62
     3
  5
69D
 10
-18.215339
 20
-276.726738
 30
0.0
  0
VERTEX
  8
0
  6
CONTINUOUS
 62
     3
  5
69E
 10
-17.949893
 20
-276.875821
 30
0.0
  0
VERTEX
  8
0
  6
CONTINUOUS
 62
     3
  5
69F
 10
-17.679245
 20
-277.017726
 30
0.0
  0
VERTEX
  8
0
  6
CONTINUOUS
 62
     3
  5
6A0
 10
-17.403764
 20
-277.151993
 30
0.0
  0
VERTEX
  8
0
  6
CONTINUOUS
 62
     3
  5
6A1
 10
-17.123823
 20
-277.278162
 30
0.0
  0
VERTEX
  8
0
  6
CONTINUOUS
 62
     3
  5
6A2
 10
-16.839794
 20
-277.395773
 30
0.0
  0
VERTEX
  8
0
  6
CONTINUOUS
 62
     3
  5
6A3
 10
-16.552048
 20
-277.504367
 30
0.0
  0
VERTEX
  8
0
  6
CONTINUOUS
 62
     3
  5
6A4
 10
-16.260957
 20
-277.603482
 30
0.0
  0
VERTEX
  8
0
  6
CONTINUOUS
 62
     3
  5
6A5
 10
-15.966893
 20
-277.692659
 30
0.0
  0
VERTEX
  8
0
  6
CONTINUOUS
 62
     3
  5
6A6
 10
-15.670227
 20
-277.771439
 30
0.0
  0
VERTEX
  8
0
  6
CONTINUOUS
 62
     3
  5
6A7
 10
-15.37133
 20
-277.83936
 30
0.0
  0
VERTEX
  8
0
  6
CONTINUOUS
 62
     3
  5
6A8
 10
-15.070576
 20
-277.895964
 30
0.0
  0
VERTEX
  8
0
  6
CONTINUOUS
 62
     3
  5
6A9
 10
-14.768334
 20
-277.94079
 30
0.0
  0
VERTEX
  8
0
  6
CONTINUOUS
 62
     3
  5
6AA
 10
-14.464978
 20
-277.973378
 30
0.0
  0
VERTEX
  8
0
  6
CONTINUOUS
 62
     3
  5
6AB
 10
-14.160878
 20
-277.993268
 30
0.0
  0
VERTEX
  8
0
  6
CONTINUOUS
 62
     3
  5
6AC
 10
-13.856406
 20
-278.0
 30
0.0
  0
VERTEX
  8
0
  6
CONTINUOUS
 62
     3
  5
6AD
 10
-13.551935
 20
-277.993268
 30
0.0
  0
VERTEX
  8
0
  6
CONTINUOUS
 62
     3
  5
6AE
 10
-13.247835
 20
-277.973378
 30
0.0
  0
VERTEX
  8
0
  6
CONTINUOUS
 62
     3
  5
6AF
 10
-12.944479
 20
-277.94079
 30
0.0
  0
VERTEX
  8
0
  6
CONTINUOUS
 62
     3
  5
6B0
 10
-12.642237
 20
-277.895964
 30
0.0
  0
VERTEX
  8
0
  6
CONTINUOUS
 62
     3
  5
6B1
 10
-12.341483
 20
-277.83936
 30
0.0
  0
VERTEX
  8
0
  6
CONTINUOUS
 62
     3
  5
6B2
 10
-12.042586
 20
-277.771439
 30
0.0
  0
VERTEX
  8
0
  6
CONTINUOUS
 62
     3
  5
6B3
 10
-11.74592
 20
-277.692659
 30
0.0
  0
VERTEX
  8
0
  6
CONTINUOUS
 62
     3
  5
6B4
 10
-11.451856
 20
-277.603482
 30
0.0
  0
VERTEX
  8
0
  6
CONTINUOUS
 62
     3
  5
6B5
 10
-11.160765
 20
-277.504367
 30
0.0
  0
VERTEX
  8
0
  6
CONTINUOUS
 62
     3
  5
6B6
 10
-10.873019
 20
-277.395773
 30
0.0
  0
VERTEX
  8
0
  6
CONTINUOUS
 62
     3
  5
6B7
 10
-10.588989
 20
-277.278162
 30
0.0
  0
VERTEX
  8
0
  6
CONTINUOUS
 62
     3
  5
6B8
 10
-10.309049
 20
-277.151993
 30
0.0
  0
VERTEX
  8
0
  6
CONTINUOUS
 62
     3
  5
6B9
 10
-10.033568
 20
-277.017726
 30
0.0
  0
VERTEX
  8
0
  6
CONTINUOUS
 62
     3
  5
6BA
 10
-9.76292
 20
-276.875821
 30
0.0
  0
VERTEX
  8
0
  6
CONTINUOUS
 62
     3
  5
6BB
 10
-9.497474
 20
-276.726738
 30
0.0
  0
VERTEX
  8
0
  6
CONTINUOUS
 62
     3
  5
6BC
 10
-9.237604
 20
-276.570938
 30
0.0
  0
SEQEND
  8
0
  6
CONTINUOUS
 62
     3
  5
6BD
  0
POLYLINE
  8
0
  6
CONTINUOUS
 62
     3
  5
295
 66
     1
 10
0.0
 20
0.0
 30
0.0
  0
VERTEX
  8
0
  6
CONTINUOUS
 62
     3
  5
6BE
 10
-9.237604
 20
-266.429062
 30
0.0
  0
VERTEX
  8
0
  6
CONTINUOUS
 62
     3
  5
6BF
 10
-8.677724
 20
-266.261243
 30
0.0
  0
VERTEX
  8
0
  6
CONTINUOUS
 62
     3
  5
6C0
 10
-8.114462
 20
-266.103239
 30
0.0
  0
VERTEX
  8
0
  6
CONTINUOUS
 62
     3
  5
6C1
 10
-7.548045
 20
-265.955191
 30
0.0
  0
VERTEX
  8
0
  6
CONTINUOUS
 62
     3
  5
6C2
 10
-6.978697
 20
-265.817239
 30
0.0
  0
VERTEX
  8
0
  6
CONTINUOUS
 62
     3
  5
6C3
 10
-6.406644
 20
-265.68952
 30
0.0
  0
VERTEX
  8
0
  6
CONTINUOUS
 62
     3
  5
6C4
 10
-5.832111
 20
-265.572176
 30
0.0
  0
VERTEX
  8
0
  6
CONTINUOUS
 62
     3
  5
6C5
 10
-5.255325
 20
-265.465346
 30
0.0
  0
VERTEX
  8
0
  6
CONTINUOUS
 62
     3
  5
6C6
 10
-4.676509
 20
-265.369169
 30
0.0
  0
VERTEX
  8
0
  6
CONTINUOUS
 62
     3
  5
6C7
 10
-4.09589
 20
-265.283784
 30
0.0
  0
VERTEX
  8
0
  6
CONTINUOUS
 62
     3
  5
6C8
 10
-3.513694
 20
-265.209331
 30
0.0
  0
VERTEX
  8
0
  6
CONTINUOUS
 62
     3
  5
6C9
 10
-2.930144
 20
-265.14595
 30
0.0
  0
VERTEX
  8
0
  6
CONTINUOUS
 62
     3
  5
6CA
 10
-2.345468
 20
-265.09378
 30
0.0
  0
VERTEX
  8
0
  6
CONTINUOUS
 62
     3
  5
6CB
 10
-1.75989
 20
-265.052961
 30
0.0
  0
VERTEX
  8
0
  6
CONTINUOUS
 62
     3
  5
6CC
 10
-1.173636
 20
-265.023631
 30
0.0
  0
VERTEX
  8
0
  6
CONTINUOUS
 62
     3
  5
6CD
 10
-0.586931
 20
-265.005931
 30
0.0
  0
VERTEX
  8
0
  6
CONTINUOUS
 62
     3
  5
6CE
 10
0.0
 20
-265.0
 30
0.0
  0
VERTEX
  8
0
  6
CONTINUOUS
 62
     3
  5
6CF
 10
0.586931
 20
-265.005931
 30
0.0
  0
VERTEX
  8
0
  6
CONTINUOUS
 62
     3
  5
6D0
 10
1.173636
 20
-265.023631
 30
0.0
  0
VERTEX
  8
0
  6
CONTINUOUS
 62
     3
  5
6D1
 10
1.75989
 20
-265.052961
 30
0.0
  0
VERTEX
  8
0
  6
CONTINUOUS
 62
     3
  5
6D2
 10
2.345468
 20
-265.09378
 30
0.0
  0
VERTEX
  8
0
  6
CONTINUOUS
 62
     3
  5
6D3
 10
2.930144
 20
-265.14595
 30
0.0
  0
VERTEX
  8
0
  6
CONTINUOUS
 62
     3
  5
6D4
 10
3.513694
 20
-265.209331
 30
0.0
  0
VERTEX
  8
0
  6
CONTINUOUS
 62
     3
  5
6D5
 10
4.09589
 20
-265.283784
 30
0.0
  0
VERTEX
  8
0
  6
CONTINUOUS
 62
     3
  5
6D6
 10
4.676509
 20
-265.369169
 30
0.0
  0
VERTEX
  8
0
  6
CONTINUOUS
 62
     3
  5
6D7
 10
5.255325
 20
-265.465346
 30
0.0
  0
VERTEX
  8
0
  6
CONTINUOUS
 62
     3
  5
6D8
 10
5.832111
 20
-265.572176
 30
0.0
  0
VERTEX
  8
0
  6
CONTINUOUS
 62
     3
  5
6D9
 10
6.406644
 20
-265.68952
 30
0.0
  0
VERTEX
  8
0
  6
CONTINUOUS
 62
     3
  5
6DA
 10
6.978697
 20
-265.817239
 30
0.0
  0
VERTEX
  8
0
  6
CONTINUOUS
 62
     3
  5
6DB
 10
7.548045
 20
-265.955191
 30
0.0
  0
VERTEX
  8
0
  6
CONTINUOUS
 62
     3
  5
6DC
 10
8.114462
 20
-266.103239
 30
0.0
  0
VERTEX
  8
0
  6
CONTINUOUS
 62
     3
  5
6DD
 10
8.677724
 20
-266.261243
 30
0.0
  0
VERTEX
  8
0
  6
CONTINUOUS
 62
     3
  5
6DE
 10
9.237604
 20
-266.429062
 30
0.0
  0
SEQEND
  8
0
  6
CONTINUOUS
 62
     3
  5
6DF
  0
POLYLINE
  8
0
  6
CONTINUOUS
 62
     3
  5
296
 66
     1
 10
0.0
 20
0.0
 30
0.0
  0
VERTEX
  8
0
  6
CONTINUOUS
 62
     3
  5
6E0
 10
-18.475209
 20
-266.429062
 30
0.0
  0
VERTEX
  8
0
  6
CONTINUOUS
 62
     3
  5
6E1
 10
-18.215339
 20
-266.273262
 30
0.0
  0
VERTEX
  8
0
  6
CONTINUOUS
 62
     3
  5
6E2
 10
-17.949893
 20
-266.124179
 30
0.0
  0
VERTEX
  8
0
  6
CONTINUOUS
 62
     3
  5
6E3
 10
-17.679245
 20
-265.982274
 30
0.0
  0
VERTEX
  8
0
  6
CONTINUOUS
 62
     3
  5
6E4
 10
-17.403764
 20
-265.848007
 30
0.0
  0
VERTEX
  8
0
  6
CONTINUOUS
 62
     3
  5
6E5
 10
-17.123823
 20
-265.721838
 30
0.0
  0
VERTEX
  8
0
  6
CONTINUOUS
 62
     3
  5
6E6
 10
-16.839794
 20
-265.604227
 30
0.0
  0
VERTEX
  8
0
  6
CONTINUOUS
 62
     3
  5
6E7
 10
-16.552048
 20
-265.495633
 30
0.0
  0
VERTEX
  8
0
  6
CONTINUOUS
 62
     3
  5
6E8
 10
-16.260957
 20
-265.396518
 30
0.0
  0
VERTEX
  8
0
  6
CONTINUOUS
 62
     3
  5
6E9
 10
-15.966893
 20
-265.307341
 30
0.0
  0
VERTEX
  8
0
  6
CONTINUOUS
 62
     3
  5
6EA
 10
-15.670227
 20
-265.228561
 30
0.0
  0
VERTEX
  8
0
  6
CONTINUOUS
 62
     3
  5
6EB
 10
-15.37133
 20
-265.16064
 30
0.0
  0
VERTEX
  8
0
  6
CONTINUOUS
 62
     3
  5
6EC
 10
-15.070576
 20
-265.104036
 30
0.0
  0
VERTEX
  8
0
  6
CONTINUOUS
 62
     3
  5
6ED
 10
-14.768334
 20
-265.05921
 30
0.0
  0
VERTEX
  8
0
  6
CONTINUOUS
 62
     3
  5
6EE
 10
-14.464978
 20
-265.026622
 30
0.0
  0
VERTEX
  8
0
  6
CONTINUOUS
 62
     3
  5
6EF
 10
-14.160878
 20
-265.006732
 30
0.0
  0
VERTEX
  8
0
  6
CONTINUOUS
 62
     3
  5
6F0
 10
-13.856406
 20
-265.0
 30
0.0
  0
VERTEX
  8
0
  6
CONTINUOUS
 62
     3
  5
6F1
 10
-13.551935
 20
-265.006732
 30
0.0
  0
VERTEX
  8
0
  6
CONTINUOUS
 62
     3
  5
6F2
 10
-13.247835
 20
-265.026622
 30
0.0
  0
VERTEX
  8
0
  6
CONTINUOUS
 62
     3
  5
6F3
 10
-12.944479
 20
-265.05921
 30
0.0
  0
VERTEX
  8
0
  6
CONTINUOUS
 62
     3
  5
6F4
 10
-12.642237
 20
-265.104036
 30
0.0
  0
VERTEX
  8
0
  6
CONTINUOUS
 62
     3
  5
6F5
 10
-12.341483
 20
-265.16064
 30
0.0
  0
VERTEX
  8
0
  6
CONTINUOUS
 62
     3
  5
6F6
 10
-12.042586
 20
-265.228561
 30
0.0
  0
VERTEX
  8
0
  6
CONTINUOUS
 62
     3
  5
6F7
 10
-11.74592
 20
-265.307341
 30
0.0
  0
VERTEX
  8
0
  6
CONTINUOUS
 62
     3
  5
6F8
 10
-11.451856
 20
-265.396518
 30
0.0
  0
VERTEX
  8
0
  6
CONTINUOUS
 62
     3
  5
6F9
 10
-11.160765
 20
-265.495633
 30
0.0
  0
VERTEX
  8
0
  6
CONTINUOUS
 62
     3
  5
6FA
 10
-10.873019
 20
-265.604227
 30
0.0
  0
VERTEX
  8
0
  6
CONTINUOUS
 62
     3
  5
6FB
 10
-10.588989
 20
-265.721838
 30
0.0
  0
VERTEX
  8
0
  6
CONTINUOUS
 62
     3
  5
6FC
 10
-10.309049
 20
-265.848007
 30
0.0
  0
VERTEX
  8
0
  6
CONTINUOUS
 62
     3
  5
6FD
 10
-10.033568
 20
-265.982274
 30
0.0
  0
VERTEX
  8
0
  6
CONTINUOUS
 62
     3
  5
6FE
 10
-9.76292
 20
-266.124179
 30
0.0
  0
VERTEX
  8
0
  6
CONTINUOUS
 62
     3
  5
6FF
 10
-9.497474
 20
-266.273262
 30
0.0
  0
VERTEX
  8
0
  6
CONTINUOUS
 62
     3
  5
700
 10
-9.237604
 20
-266.429062
 30
0.0
  0
SEQEND
  8
0
  6
CONTINUOUS
 62
     3
  5
701
  0
POLYLINE
  8
0
  6
CONTINUOUS
 62
     3
  5
297
 66
     1
 10
0.0
 20
0.0
 30
0.0
  0
VERTEX
  8
0
  6
CONTINUOUS
 62
     3
  5
702
 10
-9.237604
 20
-276.570938
 30
0.0
  0
VERTEX
  8
0
  6
CONTINUOUS
 62
     3
  5
703
 10
-8.677724
 20
-276.738757
 30
0.0
  0
VERTEX
  8
0
  6
CONTINUOUS
 62
     3
  5
704
 10
-8.114462
 20
-276.896761
 30
0.0
  0
VERTEX
  8
0
  6
CONTINUOUS
 62
     3
  5
705
 10
-7.548045
 20
-277.044809
 30
0.0
  0
VERTEX
  8
0
  6
CONTINUOUS
 62
     3
  5
706
 10
-6.978697
 20
-277.182761
 30
0.0
  0
VERTEX
  8
0
  6
CONTINUOUS
 62
     3
  5
707
 10
-6.406644
 20
-277.31048
 30
0.0
  0
VERTEX
  8
0
  6
CONTINUOUS
 62
     3
  5
708
 10
-5.832111
 20
-277.427824
 30
0.0
  0
VERTEX
  8
0
  6
CONTINUOUS
 62
     3
  5
709
 10
-5.255325
 20
-277.534654
 30
0.0
  0
VERTEX
  8
0
  6
CONTINUOUS
 62
     3
  5
70A
 10
-4.676509
 20
-277.630831
 30
0.0
  0
VERTEX
  8
0
  6
CONTINUOUS
 62
     3
  5
70B
 10
-4.09589
 20
-277.716216
 30
0.0
  0
VERTEX
  8
0
  6
CONTINUOUS
 62
     3
  5
70C
 10
-3.513694
 20
-277.790669
 30
0.0
  0
VERTEX
  8
0
  6
CONTINUOUS
 62
     3
  5
70D
 10
-2.930144
 20
-277.85405
 30
0.0
  0
VERTEX
  8
0
  6
CONTINUOUS
 62
     3
  5
70E
 10
-2.345468
 20
-277.90622
 30
0.0
  0
VERTEX
  8
0
  6
CONTINUOUS
 62
     3
  5
70F
 10
-1.75989
 20
-277.947039
 30
0.0
  0
VERTEX
  8
0
  6
CONTINUOUS
 62
     3
  5
710
 10
-1.173636
 20
-277.976369
 30
0.0
  0
VERTEX
  8
0
  6
CONTINUOUS
 62
     3
  5
711
 10
-0.586931
 20
-277.994069
 30
0.0
  0
VERTEX
  8
0
  6
CONTINUOUS
 62
     3
  5
712
 10
0.0
 20
-278.0
 30
0.0
  0
VERTEX
  8
0
  6
CONTINUOUS
 62
     3
  5
713
 10
0.586931
 20
-277.994069
 30
0.0
  0
VERTEX
  8
0
  6
CONTINUOUS
 62
     3
  5
714
 10
1.173636
 20
-277.976369
 30
0.0
  0
VERTEX
  8
0
  6
CONTINUOUS
 62
     3
  5
715
 10
1.75989
 20
-277.947039
 30
0.0
  0
VERTEX
  8
0
  6
CONTINUOUS
 62
     3
  5
716
 10
2.345468
 20
-277.90622
 30
0.0
  0
VERTEX
  8
0
  6
CONTINUOUS
 62
     3
  5
717
 10
2.930144
 20
-277.85405
 30
0.0
  0
VERTEX
  8
0
  6
CONTINUOUS
 62
     3
  5
718
 10
3.513694
 20
-277.790669
 30
0.0
  0
VERTEX
  8
0
  6
CONTINUOUS
 62
     3
  5
719
 10
4.09589
 20
-277.716216
 30
0.0
  0
VERTEX
  8
0
  6
CONTINUOUS
 62
     3
  5
71A
 10
4.676509
 20
-277.630831
 30
0.0
  0
VERTEX
  8
0
  6
CONTINUOUS
 62
     3
  5
71B
 10
5.255325
 20
-277.534654
 30
0.0
  0
VERTEX
  8
0
  6
CONTINUOUS
 62
     3
  5
71C
 10
5.832111
 20
-277.427824
 30
0.0
  0
VERTEX
  8
0
  6
CONTINUOUS
 62
     3
  5
71D
 10
6.406644
 20
-277.31048
 30
0.0
  0
VERTEX
  8
0
  6
CONTINUOUS
 62
     3
  5
71E
 10
6.978697
 20
-277.182761
 30
0.0
  0
VERTEX
  8
0
  6
CONTINUOUS
 62
     3
  5
71F
 10
7.548045
 20
-277.044809
 30
0.0
  0
VERTEX
  8
0
  6
CONTINUOUS
 62
     3
  5
720
 10
8.114462
 20
-276.896761
 30
0.0
  0
VERTEX
  8
0
  6
CONTINUOUS
 62
     3
  5
721
 10
8.677724
 20
-276.738757
 30
0.0
  0
VERTEX
  8
0
  6
CONTINUOUS
 62
     3
  5
722
 10
9.237604
 20
-276.570938
 30
0.0
  0
SEQEND
  8
0
  6
CONTINUOUS
 62
     3
  5
723
  0
POLYLINE
  8
0
  6
CONTINUOUS
 62
     3
  5
298
 66
     1
 10
0.0
 20
0.0
 30
0.0
  0
VERTEX
  8
0
  6
CONTINUOUS
 62
     3
  5
724
 10
18.475209
 20
-276.570938
 30
0.0
  0
VERTEX
  8
0
  6
CONTINUOUS
 62
     3
  5
725
 10
18.215339
 20
-276.726738
 30
0.0
  0
VERTEX
  8
0
  6
CONTINUOUS
 62
     3
  5
726
 10
17.949893
 20
-276.875821
 30
0.0
  0
VERTEX
  8
0
  6
CONTINUOUS
 62
     3
  5
727
 10
17.679245
 20
-277.017726
 30
0.0
  0
VERTEX
  8
0
  6
CONTINUOUS
 62
     3
  5
728
 10
17.403764
 20
-277.151993
 30
0.0
  0
VERTEX
  8
0
  6
CONTINUOUS
 62
     3
  5
729
 10
17.123823
 20
-277.278162
 30
0.0
  0
VERTEX
  8
0
  6
CONTINUOUS
 62
     3
  5
72A
 10
16.839794
 20
-277.395773
 30
0.0
  0
VERTEX
  8
0
  6
CONTINUOUS
 62
     3
  5
72B
 10
16.552048
 20
-277.504367
 30
0.0
  0
VERTEX
  8
0
  6
CONTINUOUS
 62
     3
  5
72C
 10
16.260957
 20
-277.603482
 30
0.0
  0
VERTEX
  8
0
  6
CONTINUOUS
 62
     3
  5
72D
 10
15.966893
 20
-277.692659
 30
0.0
  0
VERTEX
  8
0
  6
CONTINUOUS
 62
     3
  5
72E
 10
15.670227
 20
-277.771439
 30
0.0
  0
VERTEX
  8
0
  6
CONTINUOUS
 62
     3
  5
72F
 10
15.37133
 20
-277.83936
 30
0.0
  0
VERTEX
  8
0
  6
CONTINUOUS
 62
     3
  5
730
 10
15.070576
 20
-277.895964
 30
0.0
  0
VERTEX
  8
0
  6
CONTINUOUS
 62
     3
  5
731
 10
14.768334
 20
-277.94079
 30
0.0
  0
VERTEX
  8
0
  6
CONTINUOUS
 62
     3
  5
732
 10
14.464978
 20
-277.973378
 30
0.0
  0
VERTEX
  8
0
  6
CONTINUOUS
 62
     3
  5
733
 10
14.160878
 20
-277.993268
 30
0.0
  0
VERTEX
  8
0
  6
CONTINUOUS
 62
     3
  5
734
 10
13.856406
 20
-278.0
 30
0.0
  0
VERTEX
  8
0
  6
CONTINUOUS
 62
     3
  5
735
 10
13.551935
 20
-277.993268
 30
0.0
  0
VERTEX
  8
0
  6
CONTINUOUS
 62
     3
  5
736
 10
13.247835
 20
-277.973378
 30
0.0
  0
VERTEX
  8
0
  6
CONTINUOUS
 62
     3
  5
737
 10
12.944479
 20
-277.94079
 30
0.0
  0
VERTEX
  8
0
  6
CONTINUOUS
 62
     3
  5
738
 10
12.642237
 20
-277.895964
 30
0.0
  0
VERTEX
  8
0
  6
CONTINUOUS
 62
     3
  5
739
 10
12.341483
 20
-277.83936
 30
0.0
  0
VERTEX
  8
0
  6
CONTINUOUS
 62
     3
  5
73A
 10
12.042586
 20
-277.771439
 30
0.0
  0
VERTEX
  8
0
  6
CONTINUOUS
 62
     3
  5
73B
 10
11.74592
 20
-277.692659
 30
0.0
  0
VERTEX
  8
0
  6
CONTINUOUS
 62
     3
  5
73C
 10
11.451856
 20
-277.603482
 30
0.0
  0
VERTEX
  8
0
  6
CONTINUOUS
 62
     3
  5
73D
 10
11.160765
 20
-277.504367
 30
0.0
  0
VERTEX
  8
0
  6
CONTINUOUS
 62
     3
  5
73E
 10
10.873019
 20
-277.395773
 30
0.0
  0
VERTEX
  8
0
  6
CONTINUOUS
 62
     3
  5
73F
 10
10.588989
 20
-277.278162
 30
0.0
  0
VERTEX
  8
0
  6
CONTINUOUS
 62
     3
  5
740
 10
10.309049
 20
-277.151993
 30
0.0
  0
VERTEX
  8
0
  6
CONTINUOUS
 62
     3
  5
741
 10
10.033568
 20
-277.017726
 30
0.0
  0
VERTEX
  8
0
  6
CONTINUOUS
 62
     3
  5
742
 10
9.76292
 20
-276.875821
 30
0.0
  0
VERTEX
  8
0
  6
CONTINUOUS
 62
     3
  5
743
 10
9.497474
 20
-276.726738
 30
0.0
  0
VERTEX
  8
0
  6
CONTINUOUS
 62
     3
  5
744
 10
9.237604
 20
-276.570938
 30
0.0
  0
SEQEND
  8
0
  6
CONTINUOUS
 62
     3
  5
745
  0
POLYLINE
  8
0
  6
CONTINUOUS
 62
     3
  5
299
 66
     1
 10
0.0
 20
0.0
 30
0.0
  0
VERTEX
  8
0
  6
CONTINUOUS
 62
     3
  5
746
 10
18.475209
 20
-266.429062
 30
0.0
  0
VERTEX
  8
0
  6
CONTINUOUS
 62
     3
  5
747
 10
18.215339
 20
-266.273262
 30
0.0
  0
VERTEX
  8
0
  6
CONTINUOUS
 62
     3
  5
748
 10
17.949893
 20
-266.124179
 30
0.0
  0
VERTEX
  8
0
  6
CONTINUOUS
 62
     3
  5
749
 10
17.679245
 20
-265.982274
 30
0.0
  0
VERTEX
  8
0
  6
CONTINUOUS
 62
     3
  5
74A
 10
17.403764
 20
-265.848007
 30
0.0
  0
VERTEX
  8
0
  6
CONTINUOUS
 62
     3
  5
74B
 10
17.123823
 20
-265.721838
 30
0.0
  0
VERTEX
  8
0
  6
CONTINUOUS
 62
     3
  5
74C
 10
16.839794
 20
-265.604227
 30
0.0
  0
VERTEX
  8
0
  6
CONTINUOUS
 62
     3
  5
74D
 10
16.552048
 20
-265.495633
 30
0.0
  0
VERTEX
  8
0
  6
CONTINUOUS
 62
     3
  5
74E
 10
16.260957
 20
-265.396518
 30
0.0
  0
VERTEX
  8
0
  6
CONTINUOUS
 62
     3
  5
74F
 10
15.966893
 20
-265.307341
 30
0.0
  0
VERTEX
  8
0
  6
CONTINUOUS
 62
     3
  5
750
 10
15.670227
 20
-265.228561
 30
0.0
  0
VERTEX
  8
0
  6
CONTINUOUS
 62
     3
  5
751
 10
15.37133
 20
-265.16064
 30
0.0
  0
VERTEX
  8
0
  6
CONTINUOUS
 62
     3
  5
752
 10
15.070576
 20
-265.104036
 30
0.0
  0
VERTEX
  8
0
  6
CONTINUOUS
 62
     3
  5
753
 10
14.768334
 20
-265.05921
 30
0.0
  0
VERTEX
  8
0
  6
CONTINUOUS
 62
     3
  5
754
 10
14.464978
 20
-265.026622
 30
0.0
  0
VERTEX
  8
0
  6
CONTINUOUS
 62
     3
  5
755
 10
14.160878
 20
-265.006732
 30
0.0
  0
VERTEX
  8
0
  6
CONTINUOUS
 62
     3
  5
756
 10
13.856406
 20
-265.0
 30
0.0
  0
VERTEX
  8
0
  6
CONTINUOUS
 62
     3
  5
757
 10
13.551935
 20
-265.006732
 30
0.0
  0
VERTEX
  8
0
  6
CONTINUOUS
 62
     3
  5
758
 10
13.247835
 20
-265.026622
 30
0.0
  0
VERTEX
  8
0
  6
CONTINUOUS
 62
     3
  5
759
 10
12.944479
 20
-265.05921
 30
0.0
  0
VERTEX
  8
0
  6
CONTINUOUS
 62
     3
  5
75A
 10
12.642237
 20
-265.104036
 30
0.0
  0
VERTEX
  8
0
  6
CONTINUOUS
 62
     3
  5
75B
 10
12.341483
 20
-265.16064
 30
0.0
  0
VERTEX
  8
0
  6
CONTINUOUS
 62
     3
  5
75C
 10
12.042586
 20
-265.228561
 30
0.0
  0
VERTEX
  8
0
  6
CONTINUOUS
 62
     3
  5
75D
 10
11.74592
 20
-265.307341
 30
0.0
  0
VERTEX
  8
0
  6
CONTINUOUS
 62
     3
  5
75E
 10
11.451856
 20
-265.396518
 30
0.0
  0
VERTEX
  8
0
  6
CONTINUOUS
 62
     3
  5
75F
 10
11.160765
 20
-265.495633
 30
0.0
  0
VERTEX
  8
0
  6
CONTINUOUS
 62
     3
  5
760
 10
10.873019
 20
-265.604227
 30
0.0
  0
VERTEX
  8
0
  6
CONTINUOUS
 62
     3
  5
761
 10
10.588989
 20
-265.721838
 30
0.0
  0
VERTEX
  8
0
  6
CONTINUOUS
 62
     3
  5
762
 10
10.309049
 20
-265.848007
 30
0.0
  0
VERTEX
  8
0
  6
CONTINUOUS
 62
     3
  5
763
 10
10.033568
 20
-265.982274
 30
0.0
  0
VERTEX
  8
0
  6
CONTINUOUS
 62
     3
  5
764
 10
9.76292
 20
-266.124179
 30
0.0
  0
VERTEX
  8
0
  6
CONTINUOUS
 62
     3
  5
765
 10
9.497474
 20
-266.273262
 30
0.0
  0
VERTEX
  8
0
  6
CONTINUOUS
 62
     3
  5
766
 10
9.237604
 20
-266.429062
 30
0.0
  0
SEQEND
  8
0
  6
CONTINUOUS
 62
     3
  5
767
  0
POLYLINE
  8
0
  6
CONTINUOUS
 62
     3
  5
29A
 66
     1
 10
0.0
 20
0.0
 30
0.0
  0
VERTEX
  8
0
  6
CONTINUOUS
 62
     3
  5
768
 10
18.475209
 20
-241.429062
 30
0.0
  0
VERTEX
  8
0
  6
CONTINUOUS
 62
     3
  5
769
 10
18.215339
 20
-241.273262
 30
0.0
  0
VERTEX
  8
0
  6
CONTINUOUS
 62
     3
  5
76A
 10
17.949893
 20
-241.124179
 30
0.0
  0
VERTEX
  8
0
  6
CONTINUOUS
 62
     3
  5
76B
 10
17.679245
 20
-240.982274
 30
0.0
  0
VERTEX
  8
0
  6
CONTINUOUS
 62
     3
  5
76C
 10
17.403764
 20
-240.848007
 30
0.0
  0
VERTEX
  8
0
  6
CONTINUOUS
 62
     3
  5
76D
 10
17.123823
 20
-240.721838
 30
0.0
  0
VERTEX
  8
0
  6
CONTINUOUS
 62
     3
  5
76E
 10
16.839794
 20
-240.604227
 30
0.0
  0
VERTEX
  8
0
  6
CONTINUOUS
 62
     3
  5
76F
 10
16.552048
 20
-240.495633
 30
0.0
  0
VERTEX
  8
0
  6
CONTINUOUS
 62
     3
  5
770
 10
16.260957
 20
-240.396518
 30
0.0
  0
VERTEX
  8
0
  6
CONTINUOUS
 62
     3
  5
771
 10
15.966893
 20
-240.307341
 30
0.0
  0
VERTEX
  8
0
  6
CONTINUOUS
 62
     3
  5
772
 10
15.670227
 20
-240.228561
 30
0.0
  0
VERTEX
  8
0
  6
CONTINUOUS
 62
     3
  5
773
 10
15.37133
 20
-240.16064
 30
0.0
  0
VERTEX
  8
0
  6
CONTINUOUS
 62
     3
  5
774
 10
15.070576
 20
-240.104036
 30
0.0
  0
VERTEX
  8
0
  6
CONTINUOUS
 62
     3
  5
775
 10
14.768334
 20
-240.05921
 30
0.0
  0
VERTEX
  8
0
  6
CONTINUOUS
 62
     3
  5
776
 10
14.464978
 20
-240.026622
 30
0.0
  0
VERTEX
  8
0
  6
CONTINUOUS
 62
     3
  5
777
 10
14.160878
 20
-240.006732
 30
0.0
  0
VERTEX
  8
0
  6
CONTINUOUS
 62
     3
  5
778
 10
13.856406
 20
-240.0
 30
0.0
  0
VERTEX
  8
0
  6
CONTINUOUS
 62
     3
  5
779
 10
13.551935
 20
-240.006732
 30
0.0
  0
VERTEX
  8
0
  6
CONTINUOUS
 62
     3
  5
77A
 10
13.247835
 20
-240.026622
 30
0.0
  0
VERTEX
  8
0
  6
CONTINUOUS
 62
     3
  5
77B
 10
12.944479
 20
-240.05921
 30
0.0
  0
VERTEX
  8
0
  6
CONTINUOUS
 62
     3
  5
77C
 10
12.642237
 20
-240.104036
 30
0.0
  0
VERTEX
  8
0
  6
CONTINUOUS
 62
     3
  5
77D
 10
12.341483
 20
-240.16064
 30
0.0
  0
VERTEX
  8
0
  6
CONTINUOUS
 62
     3
  5
77E
 10
12.042586
 20
-240.228561
 30
0.0
  0
VERTEX
  8
0
  6
CONTINUOUS
 62
     3
  5
77F
 10
11.74592
 20
-240.307341
 30
0.0
  0
VERTEX
  8
0
  6
CONTINUOUS
 62
     3
  5
780
 10
11.451856
 20
-240.396518
 30
0.0
  0
VERTEX
  8
0
  6
CONTINUOUS
 62
     3
  5
781
 10
11.160765
 20
-240.495633
 30
0.0
  0
VERTEX
  8
0
  6
CONTINUOUS
 62
     3
  5
782
 10
10.873019
 20
-240.604227
 30
0.0
  0
VERTEX
  8
0
  6
CONTINUOUS
 62
     3
  5
783
 10
10.588989
 20
-240.721838
 30
0.0
  0
VERTEX
  8
0
  6
CONTINUOUS
 62
     3
  5
784
 10
10.309049
 20
-240.848007
 30
0.0
  0
VERTEX
  8
0
  6
CONTINUOUS
 62
     3
  5
785
 10
10.033568
 20
-240.982274
 30
0.0
  0
VERTEX
  8
0
  6
CONTINUOUS
 62
     3
  5
786
 10
9.76292
 20
-241.124179
 30
0.0
  0
VERTEX
  8
0
  6
CONTINUOUS
 62
     3
  5
787
 10
9.497474
 20
-241.273262
 30
0.0
  0
VERTEX
  8
0
  6
CONTINUOUS
 62
     3
  5
788
 10
9.237604
 20
-241.429062
 30
0.0
  0
SEQEND
  8
0
  6
CONTINUOUS
 62
     3
  5
789
  0
POLYLINE
  8
0
  6
CONTINUOUS
 62
     3
  5
29B
 66
     1
 10
0.0
 20
0.0
 30
0.0
  0
VERTEX
  8
0
  6
CONTINUOUS
 62
     3
  5
78A
 10
18.475209
 20
-251.570938
 30
0.0
  0
VERTEX
  8
0
  6
CONTINUOUS
 62
     3
  5
78B
 10
18.215339
 20
-251.726738
 30
0.0
  0
VERTEX
  8
0
  6
CONTINUOUS
 62
     3
  5
78C
 10
17.949893
 20
-251.875821
 30
0.0
  0
VERTEX
  8
0
  6
CONTINUOUS
 62
     3
  5
78D
 10
17.679245
 20
-252.017726
 30
0.0
  0
VERTEX
  8
0
  6
CONTINUOUS
 62
     3
  5
78E
 10
17.403764
 20
-252.151993
 30
0.0
  0
VERTEX
  8
0
  6
CONTINUOUS
 62
     3
  5
78F
 10
17.123823
 20
-252.278162
 30
0.0
  0
VERTEX
  8
0
  6
CONTINUOUS
 62
     3
  5
790
 10
16.839794
 20
-252.395773
 30
0.0
  0
VERTEX
  8
0
  6
CONTINUOUS
 62
     3
  5
791
 10
16.552048
 20
-252.504367
 30
0.0
  0
VERTEX
  8
0
  6
CONTINUOUS
 62
     3
  5
792
 10
16.260957
 20
-252.603482
 30
0.0
  0
VERTEX
  8
0
  6
CONTINUOUS
 62
     3
  5
793
 10
15.966893
 20
-252.692659
 30
0.0
  0
VERTEX
  8
0
  6
CONTINUOUS
 62
     3
  5
794
 10
15.670227
 20
-252.771439
 30
0.0
  0
VERTEX
  8
0
  6
CONTINUOUS
 62
     3
  5
795
 10
15.37133
 20
-252.83936
 30
0.0
  0
VERTEX
  8
0
  6
CONTINUOUS
 62
     3
  5
796
 10
15.070576
 20
-252.895964
 30
0.0
  0
VERTEX
  8
0
  6
CONTINUOUS
 62
     3
  5
797
 10
14.768334
 20
-252.94079
 30
0.0
  0
VERTEX
  8
0
  6
CONTINUOUS
 62
     3
  5
798
 10
14.464978
 20
-252.973378
 30
0.0
  0
VERTEX
  8
0
  6
CONTINUOUS
 62
     3
  5
799
 10
14.160878
 20
-252.993268
 30
0.0
  0
VERTEX
  8
0
  6
CONTINUOUS
 62
     3
  5
79A
 10
13.856406
 20
-253.0
 30
0.0
  0
VERTEX
  8
0
  6
CONTINUOUS
 62
     3
  5
79B
 10
13.551935
 20
-252.993268
 30
0.0
  0
VERTEX
  8
0
  6
CONTINUOUS
 62
     3
  5
79C
 10
13.247835
 20
-252.973378
 30
0.0
  0
VERTEX
  8
0
  6
CONTINUOUS
 62
     3
  5
79D
 10
12.944479
 20
-252.94079
 30
0.0
  0
VERTEX
  8
0
  6
CONTINUOUS
 62
     3
  5
79E
 10
12.642237
 20
-252.895964
 30
0.0
  0
VERTEX
  8
0
  6
CONTINUOUS
 62
     3
  5
79F
 10
12.341483
 20
-252.83936
 30
0.0
  0
VERTEX
  8
0
  6
CONTINUOUS
 62
     3
  5
7A0
 10
12.042586
 20
-252.771439
 30
0.0
  0
VERTEX
  8
0
  6
CONTINUOUS
 62
     3
  5
7A1
 10
11.74592
 20
-252.692659
 30
0.0
  0
VERTEX
  8
0
  6
CONTINUOUS
 62
     3
  5
7A2
 10
11.451856
 20
-252.603482
 30
0.0
  0
VERTEX
  8
0
  6
CONTINUOUS
 62
     3
  5
7A3
 10
11.160765
 20
-252.504367
 30
0.0
  0
VERTEX
  8
0
  6
CONTINUOUS
 62
     3
  5
7A4
 10
10.873019
 20
-252.395773
 30
0.0
  0
VERTEX
  8
0
  6
CONTINUOUS
 62
     3
  5
7A5
 10
10.588989
 20
-252.278162
 30
0.0
  0
VERTEX
  8
0
  6
CONTINUOUS
 62
     3
  5
7A6
 10
10.309049
 20
-252.151993
 30
0.0
  0
VERTEX
  8
0
  6
CONTINUOUS
 62
     3
  5
7A7
 10
10.033568
 20
-252.017726
 30
0.0
  0
VERTEX
  8
0
  6
CONTINUOUS
 62
     3
  5
7A8
 10
9.76292
 20
-251.875821
 30
0.0
  0
VERTEX
  8
0
  6
CONTINUOUS
 62
     3
  5
7A9
 10
9.497474
 20
-251.726738
 30
0.0
  0
VERTEX
  8
0
  6
CONTINUOUS
 62
     3
  5
7AA
 10
9.237604
 20
-251.570938
 30
0.0
  0
SEQEND
  8
0
  6
CONTINUOUS
 62
     3
  5
7AB
  0
POLYLINE
  8
0
  6
CONTINUOUS
 62
     3
  5
29C
 66
     1
 10
0.0
 20
0.0
 30
0.0
  0
VERTEX
  8
0
  6
CONTINUOUS
 62
     3
  5
7AC
 10
-18.475209
 20
-251.570938
 30
0.0
  0
VERTEX
  8
0
  6
CONTINUOUS
 62
     3
  5
7AD
 10
-18.215339
 20
-251.726738
 30
0.0
  0
VERTEX
  8
0
  6
CONTINUOUS
 62
     3
  5
7AE
 10
-17.949893
 20
-251.875821
 30
0.0
  0
VERTEX
  8
0
  6
CONTINUOUS
 62
     3
  5
7AF
 10
-17.679245
 20
-252.017726
 30
0.0
  0
VERTEX
  8
0
  6
CONTINUOUS
 62
     3
  5
7B0
 10
-17.403764
 20
-252.151993
 30
0.0
  0
VERTEX
  8
0
  6
CONTINUOUS
 62
     3
  5
7B1
 10
-17.123823
 20
-252.278162
 30
0.0
  0
VERTEX
  8
0
  6
CONTINUOUS
 62
     3
  5
7B2
 10
-16.839794
 20
-252.395773
 30
0.0
  0
VERTEX
  8
0
  6
CONTINUOUS
 62
     3
  5
7B3
 10
-16.552048
 20
-252.504367
 30
0.0
  0
VERTEX
  8
0
  6
CONTINUOUS
 62
     3
  5
7B4
 10
-16.260957
 20
-252.603482
 30
0.0
  0
VERTEX
  8
0
  6
CONTINUOUS
 62
     3
  5
7B5
 10
-15.966893
 20
-252.692659
 30
0.0
  0
VERTEX
  8
0
  6
CONTINUOUS
 62
     3
  5
7B6
 10
-15.670227
 20
-252.771439
 30
0.0
  0
VERTEX
  8
0
  6
CONTINUOUS
 62
     3
  5
7B7
 10
-15.37133
 20
-252.83936
 30
0.0
  0
VERTEX
  8
0
  6
CONTINUOUS
 62
     3
  5
7B8
 10
-15.070576
 20
-252.895964
 30
0.0
  0
VERTEX
  8
0
  6
CONTINUOUS
 62
     3
  5
7B9
 10
-14.768334
 20
-252.94079
 30
0.0
  0
VERTEX
  8
0
  6
CONTINUOUS
 62
     3
  5
7BA
 10
-14.464978
 20
-252.973378
 30
0.0
  0
VERTEX
  8
0
  6
CONTINUOUS
 62
     3
  5
7BB
 10
-14.160878
 20
-252.993268
 30
0.0
  0
VERTEX
  8
0
  6
CONTINUOUS
 62
     3
  5
7BC
 10
-13.856406
 20
-253.0
 30
0.0
  0
VERTEX
  8
0
  6
CONTINUOUS
 62
     3
  5
7BD
 10
-13.551935
 20
-252.993268
 30
0.0
  0
VERTEX
  8
0
  6
CONTINUOUS
 62
     3
  5
7BE
 10
-13.247835
 20
-252.973378
 30
0.0
  0
VERTEX
  8
0
  6
CONTINUOUS
 62
     3
  5
7BF
 10
-12.944479
 20
-252.94079
 30
0.0
  0
VERTEX
  8
0
  6
CONTINUOUS
 62
     3
  5
7C0
 10
-12.642237
 20
-252.895964
 30
0.0
  0
VERTEX
  8
0
  6
CONTINUOUS
 62
     3
  5
7C1
 10
-12.341483
 20
-252.83936
 30
0.0
  0
VERTEX
  8
0
  6
CONTINUOUS
 62
     3
  5
7C2
 10
-12.042586
 20
-252.771439
 30
0.0
  0
VERTEX
  8
0
  6
CONTINUOUS
 62
     3
  5
7C3
 10
-11.74592
 20
-252.692659
 30
0.0
  0
VERTEX
  8
0
  6
CONTINUOUS
 62
     3
  5
7C4
 10
-11.451856
 20
-252.603482
 30
0.0
  0
VERTEX
  8
0
  6
CONTINUOUS
 62
     3
  5
7C5
 10
-11.160765
 20
-252.504367
 30
0.0
  0
VERTEX
  8
0
  6
CONTINUOUS
 62
     3
  5
7C6
 10
-10.873019
 20
-252.395773
 30
0.0
  0
VERTEX
  8
0
  6
CONTINUOUS
 62
     3
  5
7C7
 10
-10.588989
 20
-252.278162
 30
0.0
  0
VERTEX
  8
0
  6
CONTINUOUS
 62
     3
  5
7C8
 10
-10.309049
 20
-252.151993
 30
0.0
  0
VERTEX
  8
0
  6
CONTINUOUS
 62
     3
  5
7C9
 10
-10.033568
 20
-252.017726
 30
0.0
  0
VERTEX
  8
0
  6
CONTINUOUS
 62
     3
  5
7CA
 10
-9.76292
 20
-251.875821
 30
0.0
  0
VERTEX
  8
0
  6
CONTINUOUS
 62
     3
  5
7CB
 10
-9.497474
 20
-251.726738
 30
0.0
  0
VERTEX
  8
0
  6
CONTINUOUS
 62
     3
  5
7CC
 10
-9.237604
 20
-251.570938
 30
0.0
  0
SEQEND
  8
0
  6
CONTINUOUS
 62
     3
  5
7CD
  0
POLYLINE
  8
0
  6
CONTINUOUS
 62
     3
  5
29D
 66
     1
 10
0.0
 20
0.0
 30
0.0
  0
VERTEX
  8
0
  6
CONTINUOUS
 62
     3
  5
7CE
 10
-9.237604
 20
-251.570938
 30
0.0
  0
VERTEX
  8
0
  6
CONTINUOUS
 62
     3
  5
7CF
 10
-8.677724
 20
-251.738757
 30
0.0
  0
VERTEX
  8
0
  6
CONTINUOUS
 62
     3
  5
7D0
 10
-8.114462
 20
-251.896761
 30
0.0
  0
VERTEX
  8
0
  6
CONTINUOUS
 62
     3
  5
7D1
 10
-7.548045
 20
-252.044809
 30
0.0
  0
VERTEX
  8
0
  6
CONTINUOUS
 62
     3
  5
7D2
 10
-6.978697
 20
-252.182761
 30
0.0
  0
VERTEX
  8
0
  6
CONTINUOUS
 62
     3
  5
7D3
 10
-6.406644
 20
-252.31048
 30
0.0
  0
VERTEX
  8
0
  6
CONTINUOUS
 62
     3
  5
7D4
 10
-5.832111
 20
-252.427824
 30
0.0
  0
VERTEX
  8
0
  6
CONTINUOUS
 62
     3
  5
7D5
 10
-5.255325
 20
-252.534654
 30
0.0
  0
VERTEX
  8
0
  6
CONTINUOUS
 62
     3
  5
7D6
 10
-4.676509
 20
-252.630831
 30
0.0
  0
VERTEX
  8
0
  6
CONTINUOUS
 62
     3
  5
7D7
 10
-4.09589
 20
-252.716216
 30
0.0
  0
VERTEX
  8
0
  6
CONTINUOUS
 62
     3
  5
7D8
 10
-3.513694
 20
-252.790669
 30
0.0
  0
VERTEX
  8
0
  6
CONTINUOUS
 62
     3
  5
7D9
 10
-2.930144
 20
-252.85405
 30
0.0
  0
VERTEX
  8
0
  6
CONTINUOUS
 62
     3
  5
7DA
 10
-2.345468
 20
-252.90622
 30
0.0
  0
VERTEX
  8
0
  6
CONTINUOUS
 62
     3
  5
7DB
 10
-1.75989
 20
-252.947039
 30
0.0
  0
VERTEX
  8
0
  6
CONTINUOUS
 62
     3
  5
7DC
 10
-1.173636
 20
-252.976369
 30
0.0
  0
VERTEX
  8
0
  6
CONTINUOUS
 62
     3
  5
7DD
 10
-0.586931
 20
-252.994069
 30
0.0
  0
VERTEX
  8
0
  6
CONTINUOUS
 62
     3
  5
7DE
 10
0.0
 20
-253.0
 30
0.0
  0
VERTEX
  8
0
  6
CONTINUOUS
 62
     3
  5
7DF
 10
0.586931
 20
-252.994069
 30
0.0
  0
VERTEX
  8
0
  6
CONTINUOUS
 62
     3
  5
7E0
 10
1.173636
 20
-252.976369
 30
0.0
  0
VERTEX
  8
0
  6
CONTINUOUS
 62
     3
  5
7E1
 10
1.75989
 20
-252.947039
 30
0.0
  0
VERTEX
  8
0
  6
CONTINUOUS
 62
     3
  5
7E2
 10
2.345468
 20
-252.90622
 30
0.0
  0
VERTEX
  8
0
  6
CONTINUOUS
 62
     3
  5
7E3
 10
2.930144
 20
-252.85405
 30
0.0
  0
VERTEX
  8
0
  6
CONTINUOUS
 62
     3
  5
7E4
 10
3.513694
 20
-252.790669
 30
0.0
  0
VERTEX
  8
0
  6
CONTINUOUS
 62
     3
  5
7E5
 10
4.09589
 20
-252.716216
 30
0.0
  0
VERTEX
  8
0
  6
CONTINUOUS
 62
     3
  5
7E6
 10
4.676509
 20
-252.630831
 30
0.0
  0
VERTEX
  8
0
  6
CONTINUOUS
 62
     3
  5
7E7
 10
5.255325
 20
-252.534654
 30
0.0
  0
VERTEX
  8
0
  6
CONTINUOUS
 62
     3
  5
7E8
 10
5.832111
 20
-252.427824
 30
0.0
  0
VERTEX
  8
0
  6
CONTINUOUS
 62
     3
  5
7E9
 10
6.406644
 20
-252.31048
 30
0.0
  0
VERTEX
  8
0
  6
CONTINUOUS
 62
     3
  5
7EA
 10
6.978697
 20
-252.182761
 30
0.0
  0
VERTEX
  8
0
  6
CONTINUOUS
 62
     3
  5
7EB
 10
7.548045
 20
-252.044809
 30
0.0
  0
VERTEX
  8
0
  6
CONTINUOUS
 62
     3
  5
7EC
 10
8.114462
 20
-251.896761
 30
0.0
  0
VERTEX
  8
0
  6
CONTINUOUS
 62
     3
  5
7ED
 10
8.677724
 20
-251.738757
 30
0.0
  0
VERTEX
  8
0
  6
CONTINUOUS
 62
     3
  5
7EE
 10
9.237604
 20
-251.570938
 30
0.0
  0
SEQEND
  8
0
  6
CONTINUOUS
 62
     3
  5
7EF
  0
POLYLINE
  8
0
  6
CONTINUOUS
 62
     3
  5
29E
 66
     1
 10
0.0
 20
0.0
 30
0.0
  0
VERTEX
  8
0
  6
CONTINUOUS
 62
     3
  5
7F0
 10
-9.237604
 20
-241.429062
 30
0.0
  0
VERTEX
  8
0
  6
CONTINUOUS
 62
     3
  5
7F1
 10
-8.677724
 20
-241.261243
 30
0.0
  0
VERTEX
  8
0
  6
CONTINUOUS
 62
     3
  5
7F2
 10
-8.114462
 20
-241.103239
 30
0.0
  0
VERTEX
  8
0
  6
CONTINUOUS
 62
     3
  5
7F3
 10
-7.548045
 20
-240.955191
 30
0.0
  0
VERTEX
  8
0
  6
CONTINUOUS
 62
     3
  5
7F4
 10
-6.978697
 20
-240.817239
 30
0.0
  0
VERTEX
  8
0
  6
CONTINUOUS
 62
     3
  5
7F5
 10
-6.406644
 20
-240.68952
 30
0.0
  0
VERTEX
  8
0
  6
CONTINUOUS
 62
     3
  5
7F6
 10
-5.832111
 20
-240.572176
 30
0.0
  0
VERTEX
  8
0
  6
CONTINUOUS
 62
     3
  5
7F7
 10
-5.255325
 20
-240.465346
 30
0.0
  0
VERTEX
  8
0
  6
CONTINUOUS
 62
     3
  5
7F8
 10
-4.676509
 20
-240.369169
 30
0.0
  0
VERTEX
  8
0
  6
CONTINUOUS
 62
     3
  5
7F9
 10
-4.09589
 20
-240.283784
 30
0.0
  0
VERTEX
  8
0
  6
CONTINUOUS
 62
     3
  5
7FA
 10
-3.513694
 20
-240.209331
 30
0.0
  0
VERTEX
  8
0
  6
CONTINUOUS
 62
     3
  5
7FB
 10
-2.930144
 20
-240.14595
 30
0.0
  0
VERTEX
  8
0
  6
CONTINUOUS
 62
     3
  5
7FC
 10
-2.345468
 20
-240.09378
 30
0.0
  0
VERTEX
  8
0
  6
CONTINUOUS
 62
     3
  5
7FD
 10
-1.75989
 20
-240.052961
 30
0.0
  0
VERTEX
  8
0
  6
CONTINUOUS
 62
     3
  5
7FE
 10
-1.173636
 20
-240.023631
 30
0.0
  0
VERTEX
  8
0
  6
CONTINUOUS
 62
     3
  5
7FF
 10
-0.586931
 20
-240.005931
 30
0.0
  0
VERTEX
  8
0
  6
CONTINUOUS
 62
     3
  5
800
 10
0.0
 20
-240.0
 30
0.0
  0
VERTEX
  8
0
  6
CONTINUOUS
 62
     3
  5
801
 10
0.586931
 20
-240.005931
 30
0.0
  0
VERTEX
  8
0
  6
CONTINUOUS
 62
     3
  5
802
 10
1.173636
 20
-240.023631
 30
0.0
  0
VERTEX
  8
0
  6
CONTINUOUS
 62
     3
  5
803
 10
1.75989
 20
-240.052961
 30
0.0
  0
VERTEX
  8
0
  6
CONTINUOUS
 62
     3
  5
804
 10
2.345468
 20
-240.09378
 30
0.0
  0
VERTEX
  8
0
  6
CONTINUOUS
 62
     3
  5
805
 10
2.930144
 20
-240.14595
 30
0.0
  0
VERTEX
  8
0
  6
CONTINUOUS
 62
     3
  5
806
 10
3.513694
 20
-240.209331
 30
0.0
  0
VERTEX
  8
0
  6
CONTINUOUS
 62
     3
  5
807
 10
4.09589
 20
-240.283784
 30
0.0
  0
VERTEX
  8
0
  6
CONTINUOUS
 62
     3
  5
808
 10
4.676509
 20
-240.369169
 30
0.0
  0
VERTEX
  8
0
  6
CONTINUOUS
 62
     3
  5
809
 10
5.255325
 20
-240.465346
 30
0.0
  0
VERTEX
  8
0
  6
CONTINUOUS
 62
     3
  5
80A
 10
5.832111
 20
-240.572176
 30
0.0
  0
VERTEX
  8
0
  6
CONTINUOUS
 62
     3
  5
80B
 10
6.406644
 20
-240.68952
 30
0.0
  0
VERTEX
  8
0
  6
CONTINUOUS
 62
     3
  5
80C
 10
6.978697
 20
-240.817239
 30
0.0
  0
VERTEX
  8
0
  6
CONTINUOUS
 62
     3
  5
80D
 10
7.548045
 20
-240.955191
 30
0.0
  0
VERTEX
  8
0
  6
CONTINUOUS
 62
     3
  5
80E
 10
8.114462
 20
-241.103239
 30
0.0
  0
VERTEX
  8
0
  6
CONTINUOUS
 62
     3
  5
80F
 10
8.677724
 20
-241.261243
 30
0.0
  0
VERTEX
  8
0
  6
CONTINUOUS
 62
     3
  5
810
 10
9.237604
 20
-241.429062
 30
0.0
  0
SEQEND
  8
0
  6
CONTINUOUS
 62
     3
  5
811
  0
POLYLINE
  8
0
  6
CONTINUOUS
 62
     3
  5
29F
 66
     1
 10
0.0
 20
0.0
 30
0.0
  0
VERTEX
  8
0
  6
CONTINUOUS
 62
     3
  5
812
 10
-18.475209
 20
-241.429062
 30
0.0
  0
VERTEX
  8
0
  6
CONTINUOUS
 62
     3
  5
813
 10
-18.215339
 20
-241.273262
 30
0.0
  0
VERTEX
  8
0
  6
CONTINUOUS
 62
     3
  5
814
 10
-17.949893
 20
-241.124179
 30
0.0
  0
VERTEX
  8
0
  6
CONTINUOUS
 62
     3
  5
815
 10
-17.679245
 20
-240.982274
 30
0.0
  0
VERTEX
  8
0
  6
CONTINUOUS
 62
     3
  5
816
 10
-17.403764
 20
-240.848007
 30
0.0
  0
VERTEX
  8
0
  6
CONTINUOUS
 62
     3
  5
817
 10
-17.123823
 20
-240.721838
 30
0.0
  0
VERTEX
  8
0
  6
CONTINUOUS
 62
     3
  5
818
 10
-16.839794
 20
-240.604227
 30
0.0
  0
VERTEX
  8
0
  6
CONTINUOUS
 62
     3
  5
819
 10
-16.552048
 20
-240.495633
 30
0.0
  0
VERTEX
  8
0
  6
CONTINUOUS
 62
     3
  5
81A
 10
-16.260957
 20
-240.396518
 30
0.0
  0
VERTEX
  8
0
  6
CONTINUOUS
 62
     3
  5
81B
 10
-15.966893
 20
-240.307341
 30
0.0
  0
VERTEX
  8
0
  6
CONTINUOUS
 62
     3
  5
81C
 10
-15.670227
 20
-240.228561
 30
0.0
  0
VERTEX
  8
0
  6
CONTINUOUS
 62
     3
  5
81D
 10
-15.37133
 20
-240.16064
 30
0.0
  0
VERTEX
  8
0
  6
CONTINUOUS
 62
     3
  5
81E
 10
-15.070576
 20
-240.104036
 30
0.0
  0
VERTEX
  8
0
  6
CONTINUOUS
 62
     3
  5
81F
 10
-14.768334
 20
-240.05921
 30
0.0
  0
VERTEX
  8
0
  6
CONTINUOUS
 62
     3
  5
820
 10
-14.464978
 20
-240.026622
 30
0.0
  0
VERTEX
  8
0
  6
CONTINUOUS
 62
     3
  5
821
 10
-14.160878
 20
-240.006732
 30
0.0
  0
VERTEX
  8
0
  6
CONTINUOUS
 62
     3
  5
822
 10
-13.856406
 20
-240.0
 30
0.0
  0
VERTEX
  8
0
  6
CONTINUOUS
 62
     3
  5
823
 10
-13.551935
 20
-240.006732
 30
0.0
  0
VERTEX
  8
0
  6
CONTINUOUS
 62
     3
  5
824
 10
-13.247835
 20
-240.026622
 30
0.0
  0
VERTEX
  8
0
  6
CONTINUOUS
 62
     3
  5
825
 10
-12.944479
 20
-240.05921
 30
0.0
  0
VERTEX
  8
0
  6
CONTINUOUS
 62
     3
  5
826
 10
-12.642237
 20
-240.104036
 30
0.0
  0
VERTEX
  8
0
  6
CONTINUOUS
 62
     3
  5
827
 10
-12.341483
 20
-240.16064
 30
0.0
  0
VERTEX
  8
0
  6
CONTINUOUS
 62
     3
  5
828
 10
-12.042586
 20
-240.228561
 30
0.0
  0
VERTEX
  8
0
  6
CONTINUOUS
 62
     3
  5
829
 10
-11.74592
 20
-240.307341
 30
0.0
  0
VERTEX
  8
0
  6
CONTINUOUS
 62
     3
  5
82A
 10
-11.451856
 20
-240.396518
 30
0.0
  0
VERTEX
  8
0
  6
CONTINUOUS
 62
     3
  5
82B
 10
-11.160765
 20
-240.495633
 30
0.0
  0
VERTEX
  8
0
  6
CONTINUOUS
 62
     3
  5
82C
 10
-10.873019
 20
-240.604227
 30
0.0
  0
VERTEX
  8
0
  6
CONTINUOUS
 62
     3
  5
82D
 10
-10.588989
 20
-240.721838
 30
0.0
  0
VERTEX
  8
0
  6
CONTINUOUS
 62
     3
  5
82E
 10
-10.309049
 20
-240.848007
 30
0.0
  0
VERTEX
  8
0
  6
CONTINUOUS
 62
     3
  5
82F
 10
-10.033568
 20
-240.982274
 30
0.0
  0
VERTEX
  8
0
  6
CONTINUOUS
 62
     3
  5
830
 10
-9.76292
 20
-241.124179
 30
0.0
  0
VERTEX
  8
0
  6
CONTINUOUS
 62
     3
  5
831
 10
-9.497474
 20
-241.273262
 30
0.0
  0
VERTEX
  8
0
  6
CONTINUOUS
 62
     3
  5
832
 10
-9.237604
 20
-241.429062
 30
0.0
  0
SEQEND
  8
0
  6
CONTINUOUS
 62
     3
  5
833
  0
ARC
  8
0
  6
CONTINUOUS
 62
     3
  5
2A0
 10
9.0
 20
-287.0
 30
0.0
 40
1.0
 50
270.0
 51
0.0
  0
ARC
  8
0
  6
CONTINUOUS
 62
     3
  5
2A1
 10
-9.0
 20
-287.0
 30
0.0
 40
1.0
 50
180.0
 51
270.0
  0
ARC
  8
0
  6
CONTINUOUS
 62
     3
  5
2A2
 10
0.0
 20
-288.1
 30
0.0
 40
5.5
 50
178.958201
 51
1.041799
  0
CIRCLE
  8
0
  6
CONTINUOUS
 62
     3
  5
2A3
 10
0.1
 20
-323.0
 30
0.0
 40
5.5
  0
ARC
  8
0
  6
CONTINUOUS
 62
     3
  5
2A4
 10
0.1
 20
-324.3
 30
0.0
 40
16.0
 50
180.0
 51
0.0
  0
LINE
  8
0
  6
CONTINUOUS
 62
     3
  5
2A5
 10
-18.5
 20
-265.0
 30
0.0
 11
18.5
 21
-265.0
 31
0.0
  0
LINE
  8
0
  6
CONTINUOUS
 62
     3
  5
2A6
 10
9.237604
 20
-266.429062
 30
0.0
 11
9.237604
 21
-276.570938
 31
0.0
  0
LINE
  8
0
  6
CONTINUOUS
 62
     3
  5
2A7
 10
18.5
 20
-262.0
 30
0.0
 11
18.5
 21
-265.0
 31
0.0
  0
LINE
  8
0
  6
CONTINUOUS
 62
     3
  5
2A8
 10
-18.5
 20
-262.0
 30
0.0
 11
18.5
 21
-262.0
 31
0.0
  0
LINE
  8
0
  6
CONTINUOUS
 62
     3
  5
2A9
 10
-18.475209
 20
-266.429062
 30
0.0
 11
-18.475209
 21
-276.570938
 31
0.0
  0
LINE
  8
0
  6
CONTINUOUS
 62
     3
  5
2AA
 10
-18.475209
 20
-276.570938
 30
0.0
 11
-16.0
 21
-278.0
 31
0.0
  0
LINE
  8
0
  6
CONTINUOUS
 62
     3
  5
2AB
 10
-16.0
 20
-278.0
 30
0.0
 11
16.0
 21
-278.0
 31
0.0
  0
LINE
  8
0
  6
CONTINUOUS
 62
     3
  5
2AC
 10
-18.5
 20
-262.0
 30
0.0
 11
-18.5
 21
-265.0
 31
0.0
  0
LINE
  8
0
  6
CONTINUOUS
 62
     3
  5
2AD
 10
-9.237604
 20
-266.429062
 30
0.0
 11
-9.237604
 21
-276.570938
 31
0.0
  0
LINE
  8
0
  6
CONTINUOUS
 62
     3
  5
2AE
 10
-18.475209
 20
-266.429062
 30
0.0
 11
-16.0
 21
-265.0
 31
0.0
  0
LINE
  8
0
  6
CONTINUOUS
 62
     3
  5
2AF
 10
18.475209
 20
-266.429062
 30
0.0
 11
16.0
 21
-265.0
 31
0.0
  0
LINE
  8
0
  6
CONTINUOUS
 62
     3
  5
2B0
 10
18.475209
 20
-276.570938
 30
0.0
 11
16.0
 21
-278.0
 31
0.0
  0
LINE
  8
0
  6
CONTINUOUS
 62
     3
  5
2B1
 10
18.475209
 20
-266.429062
 30
0.0
 11
18.475209
 21
-276.570938
 31
0.0
  0
LINE
  8
0
  6
CONTINUOUS
 62
     3
  5
2B2
 10
-18.5
 20
-258.0
 30
0.0
 11
18.5
 21
-258.0
 31
0.0
  0
LINE
  8
0
  6
CONTINUOUS
 62
     3
  5
2B3
 10
18.5
 20
-258.0
 30
0.0
 11
18.5
 21
-253.0
 31
0.0
  0
LINE
  8
0
  6
CONTINUOUS
 62
     3
  5
2B4
 10
-18.5
 20
-258.0
 30
0.0
 11
-18.5
 21
-253.0
 31
0.0
  0
LINE
  8
0
  6
CONTINUOUS
 62
     3
  5
2B5
 10
18.475209
 20
-251.570938
 30
0.0
 11
18.475209
 21
-241.429062
 31
0.0
  0
LINE
  8
0
  6
CONTINUOUS
 62
     3
  5
2B6
 10
18.475209
 20
-241.429062
 30
0.0
 11
16.0
 21
-240.0
 31
0.0
  0
LINE
  8
0
  6
CONTINUOUS
 62
     3
  5
2B7
 10
18.475209
 20
-251.570938
 30
0.0
 11
16.0
 21
-253.0
 31
0.0
  0
LINE
  8
0
  6
CONTINUOUS
 62
     3
  5
2B8
 10
-18.475209
 20
-251.570938
 30
0.0
 11
-16.0
 21
-253.0
 31
0.0
  0
LINE
  8
0
  6
CONTINUOUS
 62
     3
  5
2B9
 10
9.237604
 20
-251.570938
 30
0.0
 11
9.237604
 21
-241.429062
 31
0.0
  0
LINE
  8
0
  6
CONTINUOUS
 62
     3
  5
2BA
 10
-18.475209
 20
-241.429062
 30
0.0
 11
-16.0
 21
-240.0
 31
0.0
  0
LINE
  8
0
  6
CONTINUOUS
 62
     3
  5
2BB
 10
-18.475209
 20
-251.570938
 30
0.0
 11
-18.475209
 21
-241.429062
 31
0.0
  0
LINE
  8
0
  6
CONTINUOUS
 62
     3
  5
2BC
 10
-9.237604
 20
-251.570938
 30
0.0
 11
-9.237604
 21
-241.429062
 31
0.0
  0
LINE
  8
0
  6
CONTINUOUS
 62
     3
  5
2BD
 10
-10.0
 20
-284.0
 30
0.0
 11
-10.0
 21
-287.0
 31
0.0
  0
LINE
  8
0
  6
CONTINUOUS
 62
     3
  5
2BE
 10
10.0
 20
-284.0
 30
0.0
 11
10.0
 21
-287.0
 31
0.0
  0
LINE
  8
0
  6
CONTINUOUS
 62
     3
  5
2BF
 10
-9.0
 20
-288.0
 30
0.0
 11
9.0
 21
-288.0
 31
0.0
  0
LINE
  8
0
  6
CONTINUOUS
 62
     3
  5
2C0
 10
-9.5
 20
-284.0
 30
0.0
 11
-9.5
 21
-278.0
 31
0.0
  0
LINE
  8
0
  6
CONTINUOUS
 62
     3
  5
2C1
 10
9.5
 20
-284.0
 30
0.0
 11
9.5
 21
-278.0
 31
0.0
  0
LINE
  8
0
  6
CONTINUOUS
 62
     3
  5
2C2
 10
-11.0
 20
-282.5
 30
0.0
 11
11.0
 21
-282.5
 31
0.0
  0
LINE
  8
0
  6
CONTINUOUS
 62
     3
  5
2C3
 10
-9.5
 20
-284.0
 30
0.0
 11
-11.0
 21
-282.5
 31
0.0
  0
LINE
  8
0
  6
CONTINUOUS
 62
     3
  5
2C4
 10
9.5
 20
-284.0
 30
0.0
 11
11.0
 21
-282.5
 31
0.0
  0
LINE
  8
0
  6
CONTINUOUS
 62
     3
  5
2C5
 10
-11.0
 20
-282.5
 30
0.0
 11
-11.0
 21
-278.0
 31
0.0
  0
LINE
  8
0
  6
CONTINUOUS
 62
     3
  5
2C6
 10
11.0
 20
-282.5
 30
0.0
 11
11.0
 21
-278.0
 31
0.0
  0
LINE
  8
0
  6
CONTINUOUS
 62
     3
  5
2C7
 10
-10.0
 20
-284.0
 30
0.0
 11
10.0
 21
-284.0
 31
0.0
  0
LINE
  8
0
  6
CONTINUOUS
 62
     3
  5
2C8
 10
-15.9
 20
-278.0
 30
0.0
 11
-15.9
 21
-324.3
 31
0.0
  0
LINE
  8
0
  6
CONTINUOUS
 62
     3
  5
2C9
 10
16.1
 20
-278.0
 30
0.0
 11
16.1
 21
-324.3
 31
0.0
  0
LINE
  8
0
  6
CONTINUOUS
 62
     3
  5
2CA
 10
-16.0
 20
-240.0
 30
0.0
 11
16.0
 21
-240.0
 31
0.0
  0
LINE
  8
0
  6
CONTINUOUS
 62
     3
  5
2CB
 10
16.1
 20
-258.0
 30
0.0
 11
16.1
 21
-262.0
 31
0.0
  0
LINE
  8
0
  6
CONTINUOUS
 62
     3
  5
2CC
 10
-15.9
 20
-258.0
 30
0.0
 11
-15.9
 21
-262.0
 31
0.0
  0
LINE
  8
0
  6
CONTINUOUS
 62
     3
  5
2CD
 10
-18.5
 20
-256.0
 30
0.0
 11
18.5
 21
-256.0
 31
0.0
  0
LINE
  8
0
  6
CONTINUOUS
 62
     3
  5
2CE
 10
-18.5
 20
-253.0
 30
0.0
 11
18.5
 21
-253.0
 31
0.0
  0
ENDBLK
  8
0
  5
2CF
  0
BLOCK
  8
0
  5
2D0
  2
MS_11
 70
     0
 10
0.0
 20
0.0
 30
0.0
  3
MS_11
  0
ARC
  8
0
  6
CONTINUOUS
 62
     3
  5
2D1
 10
-23.883081
 20
3.645922
 30
0.0
 40
6.0
 50
105.046254
 51
178.999997
  0
ARC
  8
0
  6
CONTINUOUS
 62
     3
  5
2D2
 10
23.883082
 20
3.645922
 30
0.0
 40
6.0
 50
1.0
 51
74.953745
  0
ARC
  8
0
  6
CONTINUOUS
 62
     3
  5
2D3
 10
0.0
 20
-85.200001
 30
0.0
 40
98.0
 50
74.953747
 51
105.046254
  0
LINE
  8
0
  6
CONTINUOUS
 62
     3
  5
2D4
 10
-29.991272
 20
0.499924
 30
0.0
 11
-29.882166
 21
3.750636
 31
0.0
  0
LINE
  8
0
  6
CONTINUOUS
 62
     3
  5
2D5
 10
-29.991274
 20
0.499924
 30
0.0
 11
-29.508503
 21
0.0
 31
0.0
  0
LINE
  8
0
  6
CONTINUOUS
 62
     3
  5
2D6
 10
29.991273
 20
0.499924
 30
0.0
 11
29.882167
 21
3.750636
 31
0.0
  0
LINE
  8
0
  6
CONTINUOUS
 62
     3
  5
2D7
 10
29.991275
 20
0.499924
 30
0.0
 11
29.508504
 21
0.0
 31
0.0
  0
LINE
  8
0
  6
CONTINUOUS
 62
     3
  5
2D8
 10
-29.508503
 20
0.0
 30
0.0
 11
29.508503
 21
0.0
 31
0.0
  0
ENDBLK
  8
0
  5
2D9
  0
BLOCK
  8
0
  5
2DA
  2
MS_12
 70
     0
 10
0.0
 20
0.0
 30
0.0
  3
MS_12
  0
POLYLINE
  8
0
  6
CONTINUOUS
 62
    80
  5
2DB
 66
     1
 10
0.0
 20
0.0
 30
0.0
 70
     1
  0
VERTEX
  8
0
  6
CONTINUOUS
 62
    80
  5
834
 10
9.625
 20
-10.875
 30
0.0
  0
VERTEX
  8
0
  6
CONTINUOUS
 62
    80
  5
835
 10
9.624806
 20
-10.85198
 30
0.0
  0
VERTEX
  8
0
  6
CONTINUOUS
 62
    80
  5
836
 10
9.624226
 20
-10.828948
 30
0.0
  0
VERTEX
  8
0
  6
CONTINUOUS
 62
    80
  5
837
 10
9.623262
 20
-10.805911
 30
0.0
  0
VERTEX
  8
0
  6
CONTINUOUS
 62
    80
  5
838
 10
9.621918
 20
-10.782879
 30
0.0
  0
VERTEX
  8
0
  6
CONTINUOUS
 62
    80
  5
839
 10
9.620197
 20
-10.759859
 30
0.0
  0
VERTEX
  8
0
  6
CONTINUOUS
 62
    80
  5
83A
 10
9.618101
 20
-10.736861
 30
0.0
  0
VERTEX
  8
0
  6
CONTINUOUS
 62
    80
  5
83B
 10
9.615633
 20
-10.713893
 30
0.0
  0
VERTEX
  8
0
  6
CONTINUOUS
 62
    80
  5
83C
 10
9.612797
 20
-10.690963
 30
0.0
  0
VERTEX
  8
0
  6
CONTINUOUS
 62
    80
  5
83D
 10
9.609596
 20
-10.668081
 30
0.0
  0
VERTEX
  8
0
  6
CONTINUOUS
 62
    80
  5
83E
 10
9.606032
 20
-10.645255
 30
0.0
  0
VERTEX
  8
0
  6
CONTINUOUS
 62
    80
  5
83F
 10
9.602108
 20
-10.622493
 30
0.0
  0
VERTEX
  8
0
  6
CONTINUOUS
 62
    80
  5
840
 10
9.597827
 20
-10.599804
 30
0.0
  0
VERTEX
  8
0
  6
CONTINUOUS
 62
    80
  5
841
 10
9.593193
 20
-10.577197
 30
0.0
  0
VERTEX
  8
0
  6
CONTINUOUS
 62
    80
  5
842
 10
9.588208
 20
-10.55468
 30
0.0
  0
VERTEX
  8
0
  6
CONTINUOUS
 62
    80
  5
843
 10
9.582875
 20
-10.532262
 30
0.0
  0
VERTEX
  8
0
  6
CONTINUOUS
 62
    80
  5
844
 10
9.577197
 20
-10.509951
 30
0.0
  0
VERTEX
  8
0
  6
CONTINUOUS
 62
    80
  5
845
 10
9.57058
 20
-10.485613
 30
0.0
  0
VERTEX
  8
0
  6
CONTINUOUS
 62
    80
  5
846
 10
9.563553
 20
-10.461373
 30
0.0
  0
VERTEX
  8
0
  6
CONTINUOUS
 62
    80
  5
847
 10
9.556124
 20
-10.437236
 30
0.0
  0
VERTEX
  8
0
  6
CONTINUOUS
 62
    80
  5
848
 10
9.548301
 20
-10.413209
 30
0.0
  0
VERTEX
  8
0
  6
CONTINUOUS
 62
    80
  5
849
 10
9.54009
 20
-10.389298
 30
0.0
  0
VERTEX
  8
0
  6
CONTINUOUS
 62
    80
  5
84A
 10
9.531501
 20
-10.36551
 30
0.0
  0
VERTEX
  8
0
  6
CONTINUOUS
 62
    80
  5
84B
 10
9.52254
 20
-10.341852
 30
0.0
  0
VERTEX
  8
0
  6
CONTINUOUS
 62
    80
  5
84C
 10
9.513215
 20
-10.318328
 30
0.0
  0
VERTEX
  8
0
  6
CONTINUOUS
 62
    80
  5
84D
 10
9.503535
 20
-10.294946
 30
0.0
  0
VERTEX
  8
0
  6
CONTINUOUS
 62
    80
  5
84E
 10
9.493506
 20
-10.271713
 30
0.0
  0
VERTEX
  8
0
  6
CONTINUOUS
 62
    80
  5
84F
 10
9.483137
 20
-10.248634
 30
0.0
  0
VERTEX
  8
0
  6
CONTINUOUS
 62
    80
  5
850
 10
9.472434
 20
-10.225715
 30
0.0
  0
VERTEX
  8
0
  6
CONTINUOUS
 62
    80
  5
851
 10
9.461407
 20
-10.202964
 30
0.0
  0
VERTEX
  8
0
  6
CONTINUOUS
 62
    80
  5
852
 10
9.450062
 20
-10.180386
 30
0.0
  0
VERTEX
  8
0
  6
CONTINUOUS
 62
    80
  5
853
 10
9.438407
 20
-10.157989
 30
0.0
  0
VERTEX
  8
0
  6
CONTINUOUS
 62
    80
  5
854
 10
9.42645
 20
-10.135777
 30
0.0
  0
VERTEX
  8
0
  6
CONTINUOUS
 62
    80
  5
855
 10
9.412345
 20
-10.110482
 30
0.0
  0
VERTEX
  8
0
  6
CONTINUOUS
 62
    80
  5
856
 10
9.397842
 20
-10.085395
 30
0.0
  0
VERTEX
  8
0
  6
CONTINUOUS
 62
    80
  5
857
 10
9.382951
 20
-10.060519
 30
0.0
  0
VERTEX
  8
0
  6
CONTINUOUS
 62
    80
  5
858
 10
9.367681
 20
-10.035858
 30
0.0
  0
VERTEX
  8
0
  6
CONTINUOUS
 62
    80
  5
859
 10
9.352042
 20
-10.011414
 30
0.0
  0
VERTEX
  8
0
  6
CONTINUOUS
 62
    80
  5
85A
 10
9.336044
 20
-9.987192
 30
0.0
  0
VERTEX
  8
0
  6
CONTINUOUS
 62
    80
  5
85B
 10
9.319698
 20
-9.963194
 30
0.0
  0
VERTEX
  8
0
  6
CONTINUOUS
 62
    80
  5
85C
 10
9.303013
 20
-9.939424
 30
0.0
  0
VERTEX
  8
0
  6
CONTINUOUS
 62
    80
  5
85D
 10
9.285999
 20
-9.915884
 30
0.0
  0
VERTEX
  8
0
  6
CONTINUOUS
 62
    80
  5
85E
 10
9.268666
 20
-9.892579
 30
0.0
  0
VERTEX
  8
0
  6
CONTINUOUS
 62
    80
  5
85F
 10
9.251024
 20
-9.869511
 30
0.0
  0
VERTEX
  8
0
  6
CONTINUOUS
 62
    80
  5
860
 10
9.233083
 20
-9.846684
 30
0.0
  0
VERTEX
  8
0
  6
CONTINUOUS
 62
    80
  5
861
 10
9.214853
 20
-9.8241
 30
0.0
  0
VERTEX
  8
0
  6
CONTINUOUS
 62
    80
  5
862
 10
9.196343
 20
-9.801764
 30
0.0
  0
VERTEX
  8
0
  6
CONTINUOUS
 62
    80
  5
863
 10
9.177565
 20
-9.779678
 30
0.0
  0
VERTEX
  8
0
  6
CONTINUOUS
 62
    80
  5
864
 10
9.158527
 20
-9.757846
 30
0.0
  0
VERTEX
  8
0
  6
CONTINUOUS
 62
    80
  5
865
 10
9.13629
 20
-9.733014
 30
0.0
  0
VERTEX
  8
0
  6
CONTINUOUS
 62
    80
  5
866
 10
9.113701
 20
-9.708482
 30
0.0
  0
VERTEX
  8
0
  6
CONTINUOUS
 62
    80
  5
867
 10
9.09077
 20
-9.68425
 30
0.0
  0
VERTEX
  8
0
  6
CONTINUOUS
 62
    80
  5
868
 10
9.067506
 20
-9.66032
 30
0.0
  0
VERTEX
  8
0
  6
CONTINUOUS
 62
    80
  5
869
 10
9.043921
 20
-9.636691
 30
0.0
  0
VERTEX
  8
0
  6
CONTINUOUS
 62
    80
  5
86A
 10
9.020023
 20
-9.613365
 30
0.0
  0
VERTEX
  8
0
  6
CONTINUOUS
 62
    80
  5
86B
 10
8.995823
 20
-9.590342
 30
0.0
  0
VERTEX
  8
0
  6
CONTINUOUS
 62
    80
  5
86C
 10
8.97133
 20
-9.567622
 30
0.0
  0
VERTEX
  8
0
  6
CONTINUOUS
 62
    80
  5
86D
 10
8.946555
 20
-9.545208
 30
0.0
  0
VERTEX
  8
0
  6
CONTINUOUS
 62
    80
  5
86E
 10
8.921508
 20
-9.523098
 30
0.0
  0
VERTEX
  8
0
  6
CONTINUOUS
 62
    80
  5
86F
 10
8.896199
 20
-9.501294
 30
0.0
  0
VERTEX
  8
0
  6
CONTINUOUS
 62
    80
  5
870
 10
8.870637
 20
-9.479797
 30
0.0
  0
VERTEX
  8
0
  6
CONTINUOUS
 62
    80
  5
871
 10
8.844833
 20
-9.458606
 30
0.0
  0
VERTEX
  8
0
  6
CONTINUOUS
 62
    80
  5
872
 10
8.818796
 20
-9.437724
 30
0.0
  0
VERTEX
  8
0
  6
CONTINUOUS
 62
    80
  5
873
 10
8.792537
 20
-9.417149
 30
0.0
  0
VERTEX
  8
0
  6
CONTINUOUS
 62
    80
  5
874
 10
8.766066
 20
-9.396884
 30
0.0
  0
VERTEX
  8
0
  6
CONTINUOUS
 62
    80
  5
875
 10
8.73598
 20
-9.374408
 30
0.0
  0
VERTEX
  8
0
  6
CONTINUOUS
 62
    80
  5
876
 10
8.705609
 20
-9.352295
 30
0.0
  0
VERTEX
  8
0
  6
CONTINUOUS
 62
    80
  5
877
 10
8.674962
 20
-9.330544
 30
0.0
  0
VERTEX
  8
0
  6
CONTINUOUS
 62
    80
  5
878
 10
8.644048
 20
-9.309155
 30
0.0
  0
VERTEX
  8
0
  6
CONTINUOUS
 62
    80
  5
879
 10
8.612876
 20
-9.288125
 30
0.0
  0
VERTEX
  8
0
  6
CONTINUOUS
 62
    80
  5
87A
 10
8.581454
 20
-9.267456
 30
0.0
  0
VERTEX
  8
0
  6
CONTINUOUS
 62
    80
  5
87B
 10
8.549791
 20
-9.247145
 30
0.0
  0
VERTEX
  8
0
  6
CONTINUOUS
 62
    80
  5
87C
 10
8.517896
 20
-9.227192
 30
0.0
  0
VERTEX
  8
0
  6
CONTINUOUS
 62
    80
  5
87D
 10
8.485779
 20
-9.207596
 30
0.0
  0
VERTEX
  8
0
  6
CONTINUOUS
 62
    80
  5
87E
 10
8.453448
 20
-9.188357
 30
0.0
  0
VERTEX
  8
0
  6
CONTINUOUS
 62
    80
  5
87F
 10
8.420911
 20
-9.169473
 30
0.0
  0
VERTEX
  8
0
  6
CONTINUOUS
 62
    80
  5
880
 10
8.388178
 20
-9.150944
 30
0.0
  0
VERTEX
  8
0
  6
CONTINUOUS
 62
    80
  5
881
 10
8.355258
 20
-9.132769
 30
0.0
  0
VERTEX
  8
0
  6
CONTINUOUS
 62
    80
  5
882
 10
8.322159
 20
-9.114947
 30
0.0
  0
VERTEX
  8
0
  6
CONTINUOUS
 62
    80
  5
883
 10
8.28889
 20
-9.097477
 30
0.0
  0
VERTEX
  8
0
  6
CONTINUOUS
 62
    80
  5
884
 10
8.25546
 20
-9.080359
 30
0.0
  0
VERTEX
  8
0
  6
CONTINUOUS
 62
    80
  5
885
 10
8.218692
 20
-9.062022
 30
0.0
  0
VERTEX
  8
0
  6
CONTINUOUS
 62
    80
  5
886
 10
8.181713
 20
-9.044085
 30
0.0
  0
VERTEX
  8
0
  6
CONTINUOUS
 62
    80
  5
887
 10
8.144531
 20
-9.026545
 30
0.0
  0
VERTEX
  8
0
  6
CONTINUOUS
 62
    80
  5
888
 10
8.107151
 20
-9.009403
 30
0.0
  0
VERTEX
  8
0
  6
CONTINUOUS
 62
    80
  5
889
 10
8.069583
 20
-8.992657
 30
0.0
  0
VERTEX
  8
0
  6
CONTINUOUS
 62
    80
  5
88A
 10
8.031834
 20
-8.976304
 30
0.0
  0
VERTEX
  8
0
  6
CONTINUOUS
 62
    80
  5
88B
 10
7.993911
 20
-8.960345
 30
0.0
  0
VERTEX
  8
0
  6
CONTINUOUS
 62
    80
  5
88C
 10
7.955822
 20
-8.944778
 30
0.0
  0
VERTEX
  8
0
  6
CONTINUOUS
 62
    80
  5
88D
 10
7.917574
 20
-8.929601
 30
0.0
  0
VERTEX
  8
0
  6
CONTINUOUS
 62
    80
  5
88E
 10
7.879174
 20
-8.914814
 30
0.0
  0
VERTEX
  8
0
  6
CONTINUOUS
 62
    80
  5
88F
 10
7.840631
 20
-8.900415
 30
0.0
  0
VERTEX
  8
0
  6
CONTINUOUS
 62
    80
  5
890
 10
7.801952
 20
-8.886402
 30
0.0
  0
VERTEX
  8
0
  6
CONTINUOUS
 62
    80
  5
891
 10
7.763145
 20
-8.872775
 30
0.0
  0
VERTEX
  8
0
  6
CONTINUOUS
 62
    80
  5
892
 10
7.724216
 20
-8.859533
 30
0.0
  0
VERTEX
  8
0
  6
CONTINUOUS
 62
    80
  5
893
 10
7.685174
 20
-8.846673
 30
0.0
  0
VERTEX
  8
0
  6
CONTINUOUS
 62
    80
  5
894
 10
7.646025
 20
-8.834196
 30
0.0
  0
VERTEX
  8
0
  6
CONTINUOUS
 62
    80
  5
895
 10
7.604359
 20
-8.821366
 30
0.0
  0
VERTEX
  8
0
  6
CONTINUOUS
 62
    80
  5
896
 10
7.562553
 20
-8.808953
 30
0.0
  0
VERTEX
  8
0
  6
CONTINUOUS
 62
    80
  5
897
 10
7.520614
 20
-8.796955
 30
0.0
  0
VERTEX
  8
0
  6
CONTINUOUS
 62
    80
  5
898
 10
7.478548
 20
-8.785372
 30
0.0
  0
VERTEX
  8
0
  6
CONTINUOUS
 62
    80
  5
899
 10
7.436362
 20
-8.774201
 30
0.0
  0
VERTEX
  8
0
  6
CONTINUOUS
 62
    80
  5
89A
 10
7.394062
 20
-8.763444
 30
0.0
  0
VERTEX
  8
0
  6
CONTINUOUS
 62
    80
  5
89B
 10
7.351655
 20
-8.753097
 30
0.0
  0
VERTEX
  8
0
  6
CONTINUOUS
 62
    80
  5
89C
 10
7.309147
 20
-8.743161
 30
0.0
  0
VERTEX
  8
0
  6
CONTINUOUS
 62
    80
  5
89D
 10
7.266544
 20
-8.733635
 30
0.0
  0
VERTEX
  8
0
  6
CONTINUOUS
 62
    80
  5
89E
 10
7.223854
 20
-8.724516
 30
0.0
  0
VERTEX
  8
0
  6
CONTINUOUS
 62
    80
  5
89F
 10
7.181082
 20
-8.715806
 30
0.0
  0
VERTEX
  8
0
  6
CONTINUOUS
 62
    80
  5
8A0
 10
7.138236
 20
-8.707501
 30
0.0
  0
VERTEX
  8
0
  6
CONTINUOUS
 62
    80
  5
8A1
 10
7.09532
 20
-8.699602
 30
0.0
  0
VERTEX
  8
0
  6
CONTINUOUS
 62
    80
  5
8A2
 10
7.052343
 20
-8.692107
 30
0.0
  0
VERTEX
  8
0
  6
CONTINUOUS
 62
    80
  5
8A3
 10
7.00931
 20
-8.685015
 30
0.0
  0
VERTEX
  8
0
  6
CONTINUOUS
 62
    80
  5
8A4
 10
6.966229
 20
-8.678326
 30
0.0
  0
VERTEX
  8
0
  6
CONTINUOUS
 62
    80
  5
8A5
 10
6.921802
 20
-8.671855
 30
0.0
  0
VERTEX
  8
0
  6
CONTINUOUS
 62
    80
  5
8A6
 10
6.877303
 20
-8.665803
 30
0.0
  0
VERTEX
  8
0
  6
CONTINUOUS
 62
    80
  5
8A7
 10
6.832737
 20
-8.660172
 30
0.0
  0
VERTEX
  8
0
  6
CONTINUOUS
 62
    80
  5
8A8
 10
6.788111
 20
-8.65496
 30
0.0
  0
VERTEX
  8
0
  6
CONTINUOUS
 62
    80
  5
8A9
 10
6.743429
 20
-8.650167
 30
0.0
  0
VERTEX
  8
0
  6
CONTINUOUS
 62
    80
  5
8AA
 10
6.698699
 20
-8.645793
 30
0.0
  0
VERTEX
  8
0
  6
CONTINUOUS
 62
    80
  5
8AB
 10
6.653925
 20
-8.641837
 30
0.0
  0
VERTEX
  8
0
  6
CONTINUOUS
 62
    80
  5
8AC
 10
6.609114
 20
-8.6383
 30
0.0
  0
VERTEX
  8
0
  6
CONTINUOUS
 62
    80
  5
8AD
 10
6.564272
 20
-8.63518
 30
0.0
  0
VERTEX
  8
0
  6
CONTINUOUS
 62
    80
  5
8AE
 10
6.519405
 20
-8.632477
 30
0.0
  0
VERTEX
  8
0
  6
CONTINUOUS
 62
    80
  5
8AF
 10
6.474518
 20
-8.630191
 30
0.0
  0
VERTEX
  8
0
  6
CONTINUOUS
 62
    80
  5
8B0
 10
6.429618
 20
-8.628321
 30
0.0
  0
VERTEX
  8
0
  6
CONTINUOUS
 62
    80
  5
8B1
 10
6.38471
 20
-8.626867
 30
0.0
  0
VERTEX
  8
0
  6
CONTINUOUS
 62
    80
  5
8B2
 10
6.339801
 20
-8.62583
 30
0.0
  0
VERTEX
  8
0
  6
CONTINUOUS
 62
    80
  5
8B3
 10
6.294895
 20
-8.625207
 30
0.0
  0
VERTEX
  8
0
  6
CONTINUOUS
 62
    80
  5
8B4
 10
6.25
 20
-8.625
 30
0.0
  0
VERTEX
  8
0
  6
CONTINUOUS
 62
    80
  5
8B5
 10
6.205105
 20
-8.625207
 30
0.0
  0
VERTEX
  8
0
  6
CONTINUOUS
 62
    80
  5
8B6
 10
6.160199
 20
-8.62583
 30
0.0
  0
VERTEX
  8
0
  6
CONTINUOUS
 62
    80
  5
8B7
 10
6.11529
 20
-8.626867
 30
0.0
  0
VERTEX
  8
0
  6
CONTINUOUS
 62
    80
  5
8B8
 10
6.070382
 20
-8.628321
 30
0.0
  0
VERTEX
  8
0
  6
CONTINUOUS
 62
    80
  5
8B9
 10
6.025482
 20
-8.630191
 30
0.0
  0
VERTEX
  8
0
  6
CONTINUOUS
 62
    80
  5
8BA
 10
5.980595
 20
-8.632477
 30
0.0
  0
VERTEX
  8
0
  6
CONTINUOUS
 62
    80
  5
8BB
 10
5.935728
 20
-8.63518
 30
0.0
  0
VERTEX
  8
0
  6
CONTINUOUS
 62
    80
  5
8BC
 10
5.890886
 20
-8.6383
 30
0.0
  0
VERTEX
  8
0
  6
CONTINUOUS
 62
    80
  5
8BD
 10
5.846075
 20
-8.641837
 30
0.0
  0
VERTEX
  8
0
  6
CONTINUOUS
 62
    80
  5
8BE
 10
5.801301
 20
-8.645793
 30
0.0
  0
VERTEX
  8
0
  6
CONTINUOUS
 62
    80
  5
8BF
 10
5.756571
 20
-8.650167
 30
0.0
  0
VERTEX
  8
0
  6
CONTINUOUS
 62
    80
  5
8C0
 10
5.711889
 20
-8.65496
 30
0.0
  0
VERTEX
  8
0
  6
CONTINUOUS
 62
    80
  5
8C1
 10
5.667263
 20
-8.660172
 30
0.0
  0
VERTEX
  8
0
  6
CONTINUOUS
 62
    80
  5
8C2
 10
5.622697
 20
-8.665803
 30
0.0
  0
VERTEX
  8
0
  6
CONTINUOUS
 62
    80
  5
8C3
 10
5.578198
 20
-8.671855
 30
0.0
  0
VERTEX
  8
0
  6
CONTINUOUS
 62
    80
  5
8C4
 10
5.533771
 20
-8.678326
 30
0.0
  0
VERTEX
  8
0
  6
CONTINUOUS
 62
    80
  5
8C5
 10
5.49069
 20
-8.685015
 30
0.0
  0
VERTEX
  8
0
  6
CONTINUOUS
 62
    80
  5
8C6
 10
5.447657
 20
-8.692107
 30
0.0
  0
VERTEX
  8
0
  6
CONTINUOUS
 62
    80
  5
8C7
 10
5.40468
 20
-8.699602
 30
0.0
  0
VERTEX
  8
0
  6
CONTINUOUS
 62
    80
  5
8C8
 10
5.361764
 20
-8.707501
 30
0.0
  0
VERTEX
  8
0
  6
CONTINUOUS
 62
    80
  5
8C9
 10
5.318918
 20
-8.715806
 30
0.0
  0
VERTEX
  8
0
  6
CONTINUOUS
 62
    80
  5
8CA
 10
5.276146
 20
-8.724516
 30
0.0
  0
VERTEX
  8
0
  6
CONTINUOUS
 62
    80
  5
8CB
 10
5.233456
 20
-8.733635
 30
0.0
  0
VERTEX
  8
0
  6
CONTINUOUS
 62
    80
  5
8CC
 10
5.190853
 20
-8.743161
 30
0.0
  0
VERTEX
  8
0
  6
CONTINUOUS
 62
    80
  5
8CD
 10
5.148345
 20
-8.753097
 30
0.0
  0
VERTEX
  8
0
  6
CONTINUOUS
 62
    80
  5
8CE
 10
5.105938
 20
-8.763444
 30
0.0
  0
VERTEX
  8
0
  6
CONTINUOUS
 62
    80
  5
8CF
 10
5.063638
 20
-8.774201
 30
0.0
  0
VERTEX
  8
0
  6
CONTINUOUS
 62
    80
  5
8D0
 10
5.021452
 20
-8.785372
 30
0.0
  0
VERTEX
  8
0
  6
CONTINUOUS
 62
    80
  5
8D1
 10
4.979386
 20
-8.796955
 30
0.0
  0
VERTEX
  8
0
  6
CONTINUOUS
 62
    80
  5
8D2
 10
4.937447
 20
-8.808953
 30
0.0
  0
VERTEX
  8
0
  6
CONTINUOUS
 62
    80
  5
8D3
 10
4.895641
 20
-8.821366
 30
0.0
  0
VERTEX
  8
0
  6
CONTINUOUS
 62
    80
  5
8D4
 10
4.853975
 20
-8.834196
 30
0.0
  0
VERTEX
  8
0
  6
CONTINUOUS
 62
    80
  5
8D5
 10
4.814826
 20
-8.846673
 30
0.0
  0
VERTEX
  8
0
  6
CONTINUOUS
 62
    80
  5
8D6
 10
4.775784
 20
-8.859533
 30
0.0
  0
VERTEX
  8
0
  6
CONTINUOUS
 62
    80
  5
8D7
 10
4.736855
 20
-8.872775
 30
0.0
  0
VERTEX
  8
0
  6
CONTINUOUS
 62
    80
  5
8D8
 10
4.698048
 20
-8.886402
 30
0.0
  0
VERTEX
  8
0
  6
CONTINUOUS
 62
    80
  5
8D9
 10
4.659369
 20
-8.900415
 30
0.0
  0
VERTEX
  8
0
  6
CONTINUOUS
 62
    80
  5
8DA
 10
4.620826
 20
-8.914814
 30
0.0
  0
VERTEX
  8
0
  6
CONTINUOUS
 62
    80
  5
8DB
 10
4.582426
 20
-8.929601
 30
0.0
  0
VERTEX
  8
0
  6
CONTINUOUS
 62
    80
  5
8DC
 10
4.544178
 20
-8.944778
 30
0.0
  0
VERTEX
  8
0
  6
CONTINUOUS
 62
    80
  5
8DD
 10
4.506089
 20
-8.960345
 30
0.0
  0
VERTEX
  8
0
  6
CONTINUOUS
 62
    80
  5
8DE
 10
4.468166
 20
-8.976304
 30
0.0
  0
VERTEX
  8
0
  6
CONTINUOUS
 62
    80
  5
8DF
 10
4.430417
 20
-8.992657
 30
0.0
  0
VERTEX
  8
0
  6
CONTINUOUS
 62
    80
  5
8E0
 10
4.392849
 20
-9.009403
 30
0.0
  0
VERTEX
  8
0
  6
CONTINUOUS
 62
    80
  5
8E1
 10
4.355469
 20
-9.026545
 30
0.0
  0
VERTEX
  8
0
  6
CONTINUOUS
 62
    80
  5
8E2
 10
4.318287
 20
-9.044085
 30
0.0
  0
VERTEX
  8
0
  6
CONTINUOUS
 62
    80
  5
8E3
 10
4.281308
 20
-9.062022
 30
0.0
  0
VERTEX
  8
0
  6
CONTINUOUS
 62
    80
  5
8E4
 10
4.24454
 20
-9.080359
 30
0.0
  0
VERTEX
  8
0
  6
CONTINUOUS
 62
    80
  5
8E5
 10
4.21111
 20
-9.097477
 30
0.0
  0
VERTEX
  8
0
  6
CONTINUOUS
 62
    80
  5
8E6
 10
4.177841
 20
-9.114947
 30
0.0
  0
VERTEX
  8
0
  6
CONTINUOUS
 62
    80
  5
8E7
 10
4.144742
 20
-9.132769
 30
0.0
  0
VERTEX
  8
0
  6
CONTINUOUS
 62
    80
  5
8E8
 10
4.111822
 20
-9.150944
 30
0.0
  0
VERTEX
  8
0
  6
CONTINUOUS
 62
    80
  5
8E9
 10
4.079089
 20
-9.169473
 30
0.0
  0
VERTEX
  8
0
  6
CONTINUOUS
 62
    80
  5
8EA
 10
4.046552
 20
-9.188357
 30
0.0
  0
VERTEX
  8
0
  6
CONTINUOUS
 62
    80
  5
8EB
 10
4.014221
 20
-9.207596
 30
0.0
  0
VERTEX
  8
0
  6
CONTINUOUS
 62
    80
  5
8EC
 10
3.982104
 20
-9.227192
 30
0.0
  0
VERTEX
  8
0
  6
CONTINUOUS
 62
    80
  5
8ED
 10
3.950209
 20
-9.247145
 30
0.0
  0
VERTEX
  8
0
  6
CONTINUOUS
 62
    80
  5
8EE
 10
3.918546
 20
-9.267456
 30
0.0
  0
VERTEX
  8
0
  6
CONTINUOUS
 62
    80
  5
8EF
 10
3.887124
 20
-9.288125
 30
0.0
  0
VERTEX
  8
0
  6
CONTINUOUS
 62
    80
  5
8F0
 10
3.855952
 20
-9.309155
 30
0.0
  0
VERTEX
  8
0
  6
CONTINUOUS
 62
    80
  5
8F1
 10
3.825038
 20
-9.330544
 30
0.0
  0
VERTEX
  8
0
  6
CONTINUOUS
 62
    80
  5
8F2
 10
3.794391
 20
-9.352295
 30
0.0
  0
VERTEX
  8
0
  6
CONTINUOUS
 62
    80
  5
8F3
 10
3.76402
 20
-9.374408
 30
0.0
  0
VERTEX
  8
0
  6
CONTINUOUS
 62
    80
  5
8F4
 10
3.733934
 20
-9.396884
 30
0.0
  0
VERTEX
  8
0
  6
CONTINUOUS
 62
    80
  5
8F5
 10
3.707463
 20
-9.417149
 30
0.0
  0
VERTEX
  8
0
  6
CONTINUOUS
 62
    80
  5
8F6
 10
3.681204
 20
-9.437724
 30
0.0
  0
VERTEX
  8
0
  6
CONTINUOUS
 62
    80
  5
8F7
 10
3.655167
 20
-9.458606
 30
0.0
  0
VERTEX
  8
0
  6
CONTINUOUS
 62
    80
  5
8F8
 10
3.629363
 20
-9.479797
 30
0.0
  0
VERTEX
  8
0
  6
CONTINUOUS
 62
    80
  5
8F9
 10
3.603801
 20
-9.501294
 30
0.0
  0
VERTEX
  8
0
  6
CONTINUOUS
 62
    80
  5
8FA
 10
3.578492
 20
-9.523098
 30
0.0
  0
VERTEX
  8
0
  6
CONTINUOUS
 62
    80
  5
8FB
 10
3.553445
 20
-9.545208
 30
0.0
  0
VERTEX
  8
0
  6
CONTINUOUS
 62
    80
  5
8FC
 10
3.52867
 20
-9.567622
 30
0.0
  0
VERTEX
  8
0
  6
CONTINUOUS
 62
    80
  5
8FD
 10
3.504177
 20
-9.590342
 30
0.0
  0
VERTEX
  8
0
  6
CONTINUOUS
 62
    80
  5
8FE
 10
3.479977
 20
-9.613365
 30
0.0
  0
VERTEX
  8
0
  6
CONTINUOUS
 62
    80
  5
8FF
 10
3.456079
 20
-9.636691
 30
0.0
  0
VERTEX
  8
0
  6
CONTINUOUS
 62
    80
  5
900
 10
3.432494
 20
-9.66032
 30
0.0
  0
VERTEX
  8
0
  6
CONTINUOUS
 62
    80
  5
901
 10
3.40923
 20
-9.68425
 30
0.0
  0
VERTEX
  8
0
  6
CONTINUOUS
 62
    80
  5
902
 10
3.386299
 20
-9.708482
 30
0.0
  0
VERTEX
  8
0
  6
CONTINUOUS
 62
    80
  5
903
 10
3.36371
 20
-9.733014
 30
0.0
  0
VERTEX
  8
0
  6
CONTINUOUS
 62
    80
  5
904
 10
3.341473
 20
-9.757846
 30
0.0
  0
VERTEX
  8
0
  6
CONTINUOUS
 62
    80
  5
905
 10
3.322435
 20
-9.779678
 30
0.0
  0
VERTEX
  8
0
  6
CONTINUOUS
 62
    80
  5
906
 10
3.303657
 20
-9.801764
 30
0.0
  0
VERTEX
  8
0
  6
CONTINUOUS
 62
    80
  5
907
 10
3.285147
 20
-9.8241
 30
0.0
  0
VERTEX
  8
0
  6
CONTINUOUS
 62
    80
  5
908
 10
3.266917
 20
-9.846684
 30
0.0
  0
VERTEX
  8
0
  6
CONTINUOUS
 62
    80
  5
909
 10
3.248976
 20
-9.869511
 30
0.0
  0
VERTEX
  8
0
  6
CONTINUOUS
 62
    80
  5
90A
 10
3.231334
 20
-9.892579
 30
0.0
  0
VERTEX
  8
0
  6
CONTINUOUS
 62
    80
  5
90B
 10
3.214001
 20
-9.915884
 30
0.0
  0
VERTEX
  8
0
  6
CONTINUOUS
 62
    80
  5
90C
 10
3.196987
 20
-9.939424
 30
0.0
  0
VERTEX
  8
0
  6
CONTINUOUS
 62
    80
  5
90D
 10
3.180302
 20
-9.963194
 30
0.0
  0
VERTEX
  8
0
  6
CONTINUOUS
 62
    80
  5
90E
 10
3.163956
 20
-9.987192
 30
0.0
  0
VERTEX
  8
0
  6
CONTINUOUS
 62
    80
  5
90F
 10
3.147958
 20
-10.011414
 30
0.0
  0
VERTEX
  8
0
  6
CONTINUOUS
 62
    80
  5
910
 10
3.132319
 20
-10.035858
 30
0.0
  0
VERTEX
  8
0
  6
CONTINUOUS
 62
    80
  5
911
 10
3.117049
 20
-10.060519
 30
0.0
  0
VERTEX
  8
0
  6
CONTINUOUS
 62
    80
  5
912
 10
3.102158
 20
-10.085395
 30
0.0
  0
VERTEX
  8
0
  6
CONTINUOUS
 62
    80
  5
913
 10
3.087655
 20
-10.110482
 30
0.0
  0
VERTEX
  8
0
  6
CONTINUOUS
 62
    80
  5
914
 10
3.07355
 20
-10.135777
 30
0.0
  0
VERTEX
  8
0
  6
CONTINUOUS
 62
    80
  5
915
 10
3.061593
 20
-10.157989
 30
0.0
  0
VERTEX
  8
0
  6
CONTINUOUS
 62
    80
  5
916
 10
3.049938
 20
-10.180386
 30
0.0
  0
VERTEX
  8
0
  6
CONTINUOUS
 62
    80
  5
917
 10
3.038593
 20
-10.202964
 30
0.0
  0
VERTEX
  8
0
  6
CONTINUOUS
 62
    80
  5
918
 10
3.027566
 20
-10.225715
 30
0.0
  0
VERTEX
  8
0
  6
CONTINUOUS
 62
    80
  5
919
 10
3.016863
 20
-10.248634
 30
0.0
  0
VERTEX
  8
0
  6
CONTINUOUS
 62
    80
  5
91A
 10
3.006494
 20
-10.271713
 30
0.0
  0
VERTEX
  8
0
  6
CONTINUOUS
 62
    80
  5
91B
 10
2.996465
 20
-10.294946
 30
0.0
  0
VERTEX
  8
0
  6
CONTINUOUS
 62
    80
  5
91C
 10
2.986785
 20
-10.318328
 30
0.0
  0
VERTEX
  8
0
  6
CONTINUOUS
 62
    80
  5
91D
 10
2.97746
 20
-10.341852
 30
0.0
  0
VERTEX
  8
0
  6
CONTINUOUS
 62
    80
  5
91E
 10
2.968499
 20
-10.36551
 30
0.0
  0
VERTEX
  8
0
  6
CONTINUOUS
 62
    80
  5
91F
 10
2.95991
 20
-10.389298
 30
0.0
  0
VERTEX
  8
0
  6
CONTINUOUS
 62
    80
  5
920
 10
2.951699
 20
-10.413209
 30
0.0
  0
VERTEX
  8
0
  6
CONTINUOUS
 62
    80
  5
921
 10
2.943876
 20
-10.437236
 30
0.0
  0
VERTEX
  8
0
  6
CONTINUOUS
 62
    80
  5
922
 10
2.936447
 20
-10.461373
 30
0.0
  0
VERTEX
  8
0
  6
CONTINUOUS
 62
    80
  5
923
 10
2.92942
 20
-10.485613
 30
0.0
  0
VERTEX
  8
0
  6
CONTINUOUS
 62
    80
  5
924
 10
2.922803
 20
-10.509951
 30
0.0
  0
VERTEX
  8
0
  6
CONTINUOUS
 62
    80
  5
925
 10
2.917125
 20
-10.532262
 30
0.0
  0
VERTEX
  8
0
  6
CONTINUOUS
 62
    80
  5
926
 10
2.911792
 20
-10.55468
 30
0.0
  0
VERTEX
  8
0
  6
CONTINUOUS
 62
    80
  5
927
 10
2.906807
 20
-10.577197
 30
0.0
  0
VERTEX
  8
0
  6
CONTINUOUS
 62
    80
  5
928
 10
2.902173
 20
-10.599804
 30
0.0
  0
VERTEX
  8
0
  6
CONTINUOUS
 62
    80
  5
929
 10
2.897892
 20
-10.622493
 30
0.0
  0
VERTEX
  8
0
  6
CONTINUOUS
 62
    80
  5
92A
 10
2.893968
 20
-10.645255
 30
0.0
  0
VERTEX
  8
0
  6
CONTINUOUS
 62
    80
  5
92B
 10
2.890404
 20
-10.668081
 30
0.0
  0
VERTEX
  8
0
  6
CONTINUOUS
 62
    80
  5
92C
 10
2.887203
 20
-10.690963
 30
0.0
  0
VERTEX
  8
0
  6
CONTINUOUS
 62
    80
  5
92D
 10
2.884367
 20
-10.713893
 30
0.0
  0
VERTEX
  8
0
  6
CONTINUOUS
 62
    80
  5
92E
 10
2.881899
 20
-10.736861
 30
0.0
  0
VERTEX
  8
0
  6
CONTINUOUS
 62
    80
  5
92F
 10
2.879803
 20
-10.759859
 30
0.0
  0
VERTEX
  8
0
  6
CONTINUOUS
 62
    80
  5
930
 10
2.878082
 20
-10.782879
 30
0.0
  0
VERTEX
  8
0
  6
CONTINUOUS
 62
    80
  5
931
 10
2.876738
 20
-10.805911
 30
0.0
  0
VERTEX
  8
0
  6
CONTINUOUS
 62
    80
  5
932
 10
2.875774
 20
-10.828948
 30
0.0
  0
VERTEX
  8
0
  6
CONTINUOUS
 62
    80
  5
933
 10
2.875194
 20
-10.85198
 30
0.0
  0
VERTEX
  8
0
  6
CONTINUOUS
 62
    80
  5
934
 10
2.875
 20
-10.875
 30
0.0
  0
VERTEX
  8
0
  6
CONTINUOUS
 62
    80
  5
935
 10
2.875194
 20
-10.89802
 30
0.0
  0
VERTEX
  8
0
  6
CONTINUOUS
 62
    80
  5
936
 10
2.875774
 20
-10.921052
 30
0.0
  0
VERTEX
  8
0
  6
CONTINUOUS
 62
    80
  5
937
 10
2.876738
 20
-10.944089
 30
0.0
  0
VERTEX
  8
0
  6
CONTINUOUS
 62
    80
  5
938
 10
2.878082
 20
-10.967121
 30
0.0
  0
VERTEX
  8
0
  6
CONTINUOUS
 62
    80
  5
939
 10
2.879803
 20
-10.990141
 30
0.0
  0
VERTEX
  8
0
  6
CONTINUOUS
 62
    80
  5
93A
 10
2.881899
 20
-11.013139
 30
0.0
  0
VERTEX
  8
0
  6
CONTINUOUS
 62
    80
  5
93B
 10
2.884367
 20
-11.036107
 30
0.0
  0
VERTEX
  8
0
  6
CONTINUOUS
 62
    80
  5
93C
 10
2.887203
 20
-11.059037
 30
0.0
  0
VERTEX
  8
0
  6
CONTINUOUS
 62
    80
  5
93D
 10
2.890404
 20
-11.081919
 30
0.0
  0
VERTEX
  8
0
  6
CONTINUOUS
 62
    80
  5
93E
 10
2.893968
 20
-11.104745
 30
0.0
  0
VERTEX
  8
0
  6
CONTINUOUS
 62
    80
  5
93F
 10
2.897892
 20
-11.127507
 30
0.0
  0
VERTEX
  8
0
  6
CONTINUOUS
 62
    80
  5
940
 10
2.902173
 20
-11.150196
 30
0.0
  0
VERTEX
  8
0
  6
CONTINUOUS
 62
    80
  5
941
 10
2.906807
 20
-11.172803
 30
0.0
  0
VERTEX
  8
0
  6
CONTINUOUS
 62
    80
  5
942
 10
2.911792
 20
-11.19532
 30
0.0
  0
VERTEX
  8
0
  6
CONTINUOUS
 62
    80
  5
943
 10
2.917125
 20
-11.217738
 30
0.0
  0
VERTEX
  8
0
  6
CONTINUOUS
 62
    80
  5
944
 10
2.922803
 20
-11.240049
 30
0.0
  0
VERTEX
  8
0
  6
CONTINUOUS
 62
    80
  5
945
 10
2.92942
 20
-11.264387
 30
0.0
  0
VERTEX
  8
0
  6
CONTINUOUS
 62
    80
  5
946
 10
2.936447
 20
-11.288627
 30
0.0
  0
VERTEX
  8
0
  6
CONTINUOUS
 62
    80
  5
947
 10
2.943876
 20
-11.312764
 30
0.0
  0
VERTEX
  8
0
  6
CONTINUOUS
 62
    80
  5
948
 10
2.951699
 20
-11.336791
 30
0.0
  0
VERTEX
  8
0
  6
CONTINUOUS
 62
    80
  5
949
 10
2.95991
 20
-11.360702
 30
0.0
  0
VERTEX
  8
0
  6
CONTINUOUS
 62
    80
  5
94A
 10
2.968499
 20
-11.38449
 30
0.0
  0
VERTEX
  8
0
  6
CONTINUOUS
 62
    80
  5
94B
 10
2.97746
 20
-11.408148
 30
0.0
  0
VERTEX
  8
0
  6
CONTINUOUS
 62
    80
  5
94C
 10
2.986785
 20
-11.431672
 30
0.0
  0
VERTEX
  8
0
  6
CONTINUOUS
 62
    80
  5
94D
 10
2.996465
 20
-11.455054
 30
0.0
  0
VERTEX
  8
0
  6
CONTINUOUS
 62
    80
  5
94E
 10
3.006494
 20
-11.478287
 30
0.0
  0
VERTEX
  8
0
  6
CONTINUOUS
 62
    80
  5
94F
 10
3.016863
 20
-11.501366
 30
0.0
  0
VERTEX
  8
0
  6
CONTINUOUS
 62
    80
  5
950
 10
3.027566
 20
-11.524285
 30
0.0
  0
VERTEX
  8
0
  6
CONTINUOUS
 62
    80
  5
951
 10
3.038593
 20
-11.547036
 30
0.0
  0
VERTEX
  8
0
  6
CONTINUOUS
 62
    80
  5
952
 10
3.049938
 20
-11.569614
 30
0.0
  0
VERTEX
  8
0
  6
CONTINUOUS
 62
    80
  5
953
 10
3.061593
 20
-11.592011
 30
0.0
  0
VERTEX
  8
0
  6
CONTINUOUS
 62
    80
  5
954
 10
3.07355
 20
-11.614223
 30
0.0
  0
VERTEX
  8
0
  6
CONTINUOUS
 62
    80
  5
955
 10
3.087655
 20
-11.639518
 30
0.0
  0
VERTEX
  8
0
  6
CONTINUOUS
 62
    80
  5
956
 10
3.102158
 20
-11.664605
 30
0.0
  0
VERTEX
  8
0
  6
CONTINUOUS
 62
    80
  5
957
 10
3.117049
 20
-11.689481
 30
0.0
  0
VERTEX
  8
0
  6
CONTINUOUS
 62
    80
  5
958
 10
3.132319
 20
-11.714142
 30
0.0
  0
VERTEX
  8
0
  6
CONTINUOUS
 62
    80
  5
959
 10
3.147958
 20
-11.738586
 30
0.0
  0
VERTEX
  8
0
  6
CONTINUOUS
 62
    80
  5
95A
 10
3.163956
 20
-11.762808
 30
0.0
  0
VERTEX
  8
0
  6
CONTINUOUS
 62
    80
  5
95B
 10
3.180302
 20
-11.786806
 30
0.0
  0
VERTEX
  8
0
  6
CONTINUOUS
 62
    80
  5
95C
 10
3.196987
 20
-11.810576
 30
0.0
  0
VERTEX
  8
0
  6
CONTINUOUS
 62
    80
  5
95D
 10
3.214001
 20
-11.834116
 30
0.0
  0
VERTEX
  8
0
  6
CONTINUOUS
 62
    80
  5
95E
 10
3.231334
 20
-11.857421
 30
0.0
  0
VERTEX
  8
0
  6
CONTINUOUS
 62
    80
  5
95F
 10
3.248976
 20
-11.880489
 30
0.0
  0
VERTEX
  8
0
  6
CONTINUOUS
 62
    80
  5
960
 10
3.266917
 20
-11.903316
 30
0.0
  0
VERTEX
  8
0
  6
CONTINUOUS
 62
    80
  5
961
 10
3.285147
 20
-11.9259
 30
0.0
  0
VERTEX
  8
0
  6
CONTINUOUS
 62
    80
  5
962
 10
3.303657
 20
-11.948236
 30
0.0
  0
VERTEX
  8
0
  6
CONTINUOUS
 62
    80
  5
963
 10
3.322435
 20
-11.970322
 30
0.0
  0
VERTEX
  8
0
  6
CONTINUOUS
 62
    80
  5
964
 10
3.341473
 20
-11.992154
 30
0.0
  0
VERTEX
  8
0
  6
CONTINUOUS
 62
    80
  5
965
 10
3.36371
 20
-12.016986
 30
0.0
  0
VERTEX
  8
0
  6
CONTINUOUS
 62
    80
  5
966
 10
3.386299
 20
-12.041518
 30
0.0
  0
VERTEX
  8
0
  6
CONTINUOUS
 62
    80
  5
967
 10
3.40923
 20
-12.06575
 30
0.0
  0
VERTEX
  8
0
  6
CONTINUOUS
 62
    80
  5
968
 10
3.432494
 20
-12.08968
 30
0.0
  0
VERTEX
  8
0
  6
CONTINUOUS
 62
    80
  5
969
 10
3.456079
 20
-12.113309
 30
0.0
  0
VERTEX
  8
0
  6
CONTINUOUS
 62
    80
  5
96A
 10
3.479977
 20
-12.136635
 30
0.0
  0
VERTEX
  8
0
  6
CONTINUOUS
 62
    80
  5
96B
 10
3.504177
 20
-12.159658
 30
0.0
  0
VERTEX
  8
0
  6
CONTINUOUS
 62
    80
  5
96C
 10
3.52867
 20
-12.182378
 30
0.0
  0
VERTEX
  8
0
  6
CONTINUOUS
 62
    80
  5
96D
 10
3.553445
 20
-12.204792
 30
0.0
  0
VERTEX
  8
0
  6
CONTINUOUS
 62
    80
  5
96E
 10
3.578492
 20
-12.226902
 30
0.0
  0
VERTEX
  8
0
  6
CONTINUOUS
 62
    80
  5
96F
 10
3.603801
 20
-12.248706
 30
0.0
  0
VERTEX
  8
0
  6
CONTINUOUS
 62
    80
  5
970
 10
3.629363
 20
-12.270203
 30
0.0
  0
VERTEX
  8
0
  6
CONTINUOUS
 62
    80
  5
971
 10
3.655167
 20
-12.291394
 30
0.0
  0
VERTEX
  8
0
  6
CONTINUOUS
 62
    80
  5
972
 10
3.681204
 20
-12.312276
 30
0.0
  0
VERTEX
  8
0
  6
CONTINUOUS
 62
    80
  5
973
 10
3.707463
 20
-12.332851
 30
0.0
  0
VERTEX
  8
0
  6
CONTINUOUS
 62
    80
  5
974
 10
3.733934
 20
-12.353116
 30
0.0
  0
VERTEX
  8
0
  6
CONTINUOUS
 62
    80
  5
975
 10
3.76402
 20
-12.375592
 30
0.0
  0
VERTEX
  8
0
  6
CONTINUOUS
 62
    80
  5
976
 10
3.794391
 20
-12.397705
 30
0.0
  0
VERTEX
  8
0
  6
CONTINUOUS
 62
    80
  5
977
 10
3.825038
 20
-12.419456
 30
0.0
  0
VERTEX
  8
0
  6
CONTINUOUS
 62
    80
  5
978
 10
3.855952
 20
-12.440845
 30
0.0
  0
VERTEX
  8
0
  6
CONTINUOUS
 62
    80
  5
979
 10
3.887124
 20
-12.461875
 30
0.0
  0
VERTEX
  8
0
  6
CONTINUOUS
 62
    80
  5
97A
 10
3.918546
 20
-12.482544
 30
0.0
  0
VERTEX
  8
0
  6
CONTINUOUS
 62
    80
  5
97B
 10
3.950209
 20
-12.502855
 30
0.0
  0
VERTEX
  8
0
  6
CONTINUOUS
 62
    80
  5
97C
 10
3.982104
 20
-12.522808
 30
0.0
  0
VERTEX
  8
0
  6
CONTINUOUS
 62
    80
  5
97D
 10
4.014221
 20
-12.542404
 30
0.0
  0
VERTEX
  8
0
  6
CONTINUOUS
 62
    80
  5
97E
 10
4.046552
 20
-12.561643
 30
0.0
  0
VERTEX
  8
0
  6
CONTINUOUS
 62
    80
  5
97F
 10
4.079089
 20
-12.580527
 30
0.0
  0
VERTEX
  8
0
  6
CONTINUOUS
 62
    80
  5
980
 10
4.111822
 20
-12.599056
 30
0.0
  0
VERTEX
  8
0
  6
CONTINUOUS
 62
    80
  5
981
 10
4.144742
 20
-12.617231
 30
0.0
  0
VERTEX
  8
0
  6
CONTINUOUS
 62
    80
  5
982
 10
4.177841
 20
-12.635053
 30
0.0
  0
VERTEX
  8
0
  6
CONTINUOUS
 62
    80
  5
983
 10
4.21111
 20
-12.652523
 30
0.0
  0
VERTEX
  8
0
  6
CONTINUOUS
 62
    80
  5
984
 10
4.24454
 20
-12.669641
 30
0.0
  0
VERTEX
  8
0
  6
CONTINUOUS
 62
    80
  5
985
 10
4.281308
 20
-12.687978
 30
0.0
  0
VERTEX
  8
0
  6
CONTINUOUS
 62
    80
  5
986
 10
4.318287
 20
-12.705915
 30
0.0
  0
VERTEX
  8
0
  6
CONTINUOUS
 62
    80
  5
987
 10
4.355469
 20
-12.723455
 30
0.0
  0
VERTEX
  8
0
  6
CONTINUOUS
 62
    80
  5
988
 10
4.392849
 20
-12.740597
 30
0.0
  0
VERTEX
  8
0
  6
CONTINUOUS
 62
    80
  5
989
 10
4.430417
 20
-12.757343
 30
0.0
  0
VERTEX
  8
0
  6
CONTINUOUS
 62
    80
  5
98A
 10
4.468166
 20
-12.773696
 30
0.0
  0
VERTEX
  8
0
  6
CONTINUOUS
 62
    80
  5
98B
 10
4.506089
 20
-12.789655
 30
0.0
  0
VERTEX
  8
0
  6
CONTINUOUS
 62
    80
  5
98C
 10
4.544178
 20
-12.805222
 30
0.0
  0
VERTEX
  8
0
  6
CONTINUOUS
 62
    80
  5
98D
 10
4.582426
 20
-12.820399
 30
0.0
  0
VERTEX
  8
0
  6
CONTINUOUS
 62
    80
  5
98E
 10
4.620826
 20
-12.835186
 30
0.0
  0
VERTEX
  8
0
  6
CONTINUOUS
 62
    80
  5
98F
 10
4.659369
 20
-12.849585
 30
0.0
  0
VERTEX
  8
0
  6
CONTINUOUS
 62
    80
  5
990
 10
4.698048
 20
-12.863598
 30
0.0
  0
VERTEX
  8
0
  6
CONTINUOUS
 62
    80
  5
991
 10
4.736855
 20
-12.877225
 30
0.0
  0
VERTEX
  8
0
  6
CONTINUOUS
 62
    80
  5
992
 10
4.775784
 20
-12.890467
 30
0.0
  0
VERTEX
  8
0
  6
CONTINUOUS
 62
    80
  5
993
 10
4.814826
 20
-12.903327
 30
0.0
  0
VERTEX
  8
0
  6
CONTINUOUS
 62
    80
  5
994
 10
4.853975
 20
-12.915804
 30
0.0
  0
VERTEX
  8
0
  6
CONTINUOUS
 62
    80
  5
995
 10
4.895641
 20
-12.928634
 30
0.0
  0
VERTEX
  8
0
  6
CONTINUOUS
 62
    80
  5
996
 10
4.937447
 20
-12.941047
 30
0.0
  0
VERTEX
  8
0
  6
CONTINUOUS
 62
    80
  5
997
 10
4.979386
 20
-12.953045
 30
0.0
  0
VERTEX
  8
0
  6
CONTINUOUS
 62
    80
  5
998
 10
5.021452
 20
-12.964628
 30
0.0
  0
VERTEX
  8
0
  6
CONTINUOUS
 62
    80
  5
999
 10
5.063638
 20
-12.975799
 30
0.0
  0
VERTEX
  8
0
  6
CONTINUOUS
 62
    80
  5
99A
 10
5.105938
 20
-12.986556
 30
0.0
  0
VERTEX
  8
0
  6
CONTINUOUS
 62
    80
  5
99B
 10
5.148345
 20
-12.996903
 30
0.0
  0
VERTEX
  8
0
  6
CONTINUOUS
 62
    80
  5
99C
 10
5.190853
 20
-13.006839
 30
0.0
  0
VERTEX
  8
0
  6
CONTINUOUS
 62
    80
  5
99D
 10
5.233456
 20
-13.016365
 30
0.0
  0
VERTEX
  8
0
  6
CONTINUOUS
 62
    80
  5
99E
 10
5.276146
 20
-13.025484
 30
0.0
  0
VERTEX
  8
0
  6
CONTINUOUS
 62
    80
  5
99F
 10
5.318918
 20
-13.034194
 30
0.0
  0
VERTEX
  8
0
  6
CONTINUOUS
 62
    80
  5
9A0
 10
5.361764
 20
-13.042499
 30
0.0
  0
VERTEX
  8
0
  6
CONTINUOUS
 62
    80
  5
9A1
 10
5.40468
 20
-13.050398
 30
0.0
  0
VERTEX
  8
0
  6
CONTINUOUS
 62
    80
  5
9A2
 10
5.447657
 20
-13.057893
 30
0.0
  0
VERTEX
  8
0
  6
CONTINUOUS
 62
    80
  5
9A3
 10
5.49069
 20
-13.064985
 30
0.0
  0
VERTEX
  8
0
  6
CONTINUOUS
 62
    80
  5
9A4
 10
5.533771
 20
-13.071674
 30
0.0
  0
VERTEX
  8
0
  6
CONTINUOUS
 62
    80
  5
9A5
 10
5.578198
 20
-13.078145
 30
0.0
  0
VERTEX
  8
0
  6
CONTINUOUS
 62
    80
  5
9A6
 10
5.622697
 20
-13.084197
 30
0.0
  0
VERTEX
  8
0
  6
CONTINUOUS
 62
    80
  5
9A7
 10
5.667263
 20
-13.089828
 30
0.0
  0
VERTEX
  8
0
  6
CONTINUOUS
 62
    80
  5
9A8
 10
5.711889
 20
-13.09504
 30
0.0
  0
VERTEX
  8
0
  6
CONTINUOUS
 62
    80
  5
9A9
 10
5.756571
 20
-13.099833
 30
0.0
  0
VERTEX
  8
0
  6
CONTINUOUS
 62
    80
  5
9AA
 10
5.801301
 20
-13.104207
 30
0.0
  0
VERTEX
  8
0
  6
CONTINUOUS
 62
    80
  5
9AB
 10
5.846075
 20
-13.108163
 30
0.0
  0
VERTEX
  8
0
  6
CONTINUOUS
 62
    80
  5
9AC
 10
5.890886
 20
-13.1117
 30
0.0
  0
VERTEX
  8
0
  6
CONTINUOUS
 62
    80
  5
9AD
 10
5.935728
 20
-13.11482
 30
0.0
  0
VERTEX
  8
0
  6
CONTINUOUS
 62
    80
  5
9AE
 10
5.980595
 20
-13.117523
 30
0.0
  0
VERTEX
  8
0
  6
CONTINUOUS
 62
    80
  5
9AF
 10
6.025482
 20
-13.119809
 30
0.0
  0
VERTEX
  8
0
  6
CONTINUOUS
 62
    80
  5
9B0
 10
6.070382
 20
-13.121679
 30
0.0
  0
VERTEX
  8
0
  6
CONTINUOUS
 62
    80
  5
9B1
 10
6.11529
 20
-13.123133
 30
0.0
  0
VERTEX
  8
0
  6
CONTINUOUS
 62
    80
  5
9B2
 10
6.160199
 20
-13.12417
 30
0.0
  0
VERTEX
  8
0
  6
CONTINUOUS
 62
    80
  5
9B3
 10
6.205105
 20
-13.124793
 30
0.0
  0
VERTEX
  8
0
  6
CONTINUOUS
 62
    80
  5
9B4
 10
6.25
 20
-13.125
 30
0.0
  0
VERTEX
  8
0
  6
CONTINUOUS
 62
    80
  5
9B5
 10
6.294895
 20
-13.124793
 30
0.0
  0
VERTEX
  8
0
  6
CONTINUOUS
 62
    80
  5
9B6
 10
6.339801
 20
-13.12417
 30
0.0
  0
VERTEX
  8
0
  6
CONTINUOUS
 62
    80
  5
9B7
 10
6.38471
 20
-13.123133
 30
0.0
  0
VERTEX
  8
0
  6
CONTINUOUS
 62
    80
  5
9B8
 10
6.429618
 20
-13.121679
 30
0.0
  0
VERTEX
  8
0
  6
CONTINUOUS
 62
    80
  5
9B9
 10
6.474518
 20
-13.119809
 30
0.0
  0
VERTEX
  8
0
  6
CONTINUOUS
 62
    80
  5
9BA
 10
6.519405
 20
-13.117523
 30
0.0
  0
VERTEX
  8
0
  6
CONTINUOUS
 62
    80
  5
9BB
 10
6.564272
 20
-13.11482
 30
0.0
  0
VERTEX
  8
0
  6
CONTINUOUS
 62
    80
  5
9BC
 10
6.609114
 20
-13.1117
 30
0.0
  0
VERTEX
  8
0
  6
CONTINUOUS
 62
    80
  5
9BD
 10
6.653925
 20
-13.108163
 30
0.0
  0
VERTEX
  8
0
  6
CONTINUOUS
 62
    80
  5
9BE
 10
6.698699
 20
-13.104207
 30
0.0
  0
VERTEX
  8
0
  6
CONTINUOUS
 62
    80
  5
9BF
 10
6.743429
 20
-13.099833
 30
0.0
  0
VERTEX
  8
0
  6
CONTINUOUS
 62
    80
  5
9C0
 10
6.788111
 20
-13.09504
 30
0.0
  0
VERTEX
  8
0
  6
CONTINUOUS
 62
    80
  5
9C1
 10
6.832737
 20
-13.089828
 30
0.0
  0
VERTEX
  8
0
  6
CONTINUOUS
 62
    80
  5
9C2
 10
6.877303
 20
-13.084197
 30
0.0
  0
VERTEX
  8
0
  6
CONTINUOUS
 62
    80
  5
9C3
 10
6.921802
 20
-13.078145
 30
0.0
  0
VERTEX
  8
0
  6
CONTINUOUS
 62
    80
  5
9C4
 10
6.966229
 20
-13.071674
 30
0.0
  0
VERTEX
  8
0
  6
CONTINUOUS
 62
    80
  5
9C5
 10
7.00931
 20
-13.064985
 30
0.0
  0
VERTEX
  8
0
  6
CONTINUOUS
 62
    80
  5
9C6
 10
7.052343
 20
-13.057893
 30
0.0
  0
VERTEX
  8
0
  6
CONTINUOUS
 62
    80
  5
9C7
 10
7.09532
 20
-13.050398
 30
0.0
  0
VERTEX
  8
0
  6
CONTINUOUS
 62
    80
  5
9C8
 10
7.138236
 20
-13.042499
 30
0.0
  0
VERTEX
  8
0
  6
CONTINUOUS
 62
    80
  5
9C9
 10
7.181082
 20
-13.034194
 30
0.0
  0
VERTEX
  8
0
  6
CONTINUOUS
 62
    80
  5
9CA
 10
7.223854
 20
-13.025484
 30
0.0
  0
VERTEX
  8
0
  6
CONTINUOUS
 62
    80
  5
9CB
 10
7.266544
 20
-13.016365
 30
0.0
  0
VERTEX
  8
0
  6
CONTINUOUS
 62
    80
  5
9CC
 10
7.309147
 20
-13.006839
 30
0.0
  0
VERTEX
  8
0
  6
CONTINUOUS
 62
    80
  5
9CD
 10
7.351655
 20
-12.996903
 30
0.0
  0
VERTEX
  8
0
  6
CONTINUOUS
 62
    80
  5
9CE
 10
7.394062
 20
-12.986556
 30
0.0
  0
VERTEX
  8
0
  6
CONTINUOUS
 62
    80
  5
9CF
 10
7.436362
 20
-12.975799
 30
0.0
  0
VERTEX
  8
0
  6
CONTINUOUS
 62
    80
  5
9D0
 10
7.478548
 20
-12.964628
 30
0.0
  0
VERTEX
  8
0
  6
CONTINUOUS
 62
    80
  5
9D1
 10
7.520614
 20
-12.953045
 30
0.0
  0
VERTEX
  8
0
  6
CONTINUOUS
 62
    80
  5
9D2
 10
7.562553
 20
-12.941047
 30
0.0
  0
VERTEX
  8
0
  6
CONTINUOUS
 62
    80
  5
9D3
 10
7.604359
 20
-12.928634
 30
0.0
  0
VERTEX
  8
0
  6
CONTINUOUS
 62
    80
  5
9D4
 10
7.646025
 20
-12.915804
 30
0.0
  0
VERTEX
  8
0
  6
CONTINUOUS
 62
    80
  5
9D5
 10
7.685174
 20
-12.903327
 30
0.0
  0
VERTEX
  8
0
  6
CONTINUOUS
 62
    80
  5
9D6
 10
7.724216
 20
-12.890467
 30
0.0
  0
VERTEX
  8
0
  6
CONTINUOUS
 62
    80
  5
9D7
 10
7.763145
 20
-12.877225
 30
0.0
  0
VERTEX
  8
0
  6
CONTINUOUS
 62
    80
  5
9D8
 10
7.801952
 20
-12.863598
 30
0.0
  0
VERTEX
  8
0
  6
CONTINUOUS
 62
    80
  5
9D9
 10
7.840631
 20
-12.849585
 30
0.0
  0
VERTEX
  8
0
  6
CONTINUOUS
 62
    80
  5
9DA
 10
7.879174
 20
-12.835186
 30
0.0
  0
VERTEX
  8
0
  6
CONTINUOUS
 62
    80
  5
9DB
 10
7.917574
 20
-12.820399
 30
0.0
  0
VERTEX
  8
0
  6
CONTINUOUS
 62
    80
  5
9DC
 10
7.955822
 20
-12.805222
 30
0.0
  0
VERTEX
  8
0
  6
CONTINUOUS
 62
    80
  5
9DD
 10
7.993911
 20
-12.789655
 30
0.0
  0
VERTEX
  8
0
  6
CONTINUOUS
 62
    80
  5
9DE
 10
8.031834
 20
-12.773696
 30
0.0
  0
VERTEX
  8
0
  6
CONTINUOUS
 62
    80
  5
9DF
 10
8.069583
 20
-12.757343
 30
0.0
  0
VERTEX
  8
0
  6
CONTINUOUS
 62
    80
  5
9E0
 10
8.107151
 20
-12.740597
 30
0.0
  0
VERTEX
  8
0
  6
CONTINUOUS
 62
    80
  5
9E1
 10
8.144531
 20
-12.723455
 30
0.0
  0
VERTEX
  8
0
  6
CONTINUOUS
 62
    80
  5
9E2
 10
8.181713
 20
-12.705915
 30
0.0
  0
VERTEX
  8
0
  6
CONTINUOUS
 62
    80
  5
9E3
 10
8.218692
 20
-12.687978
 30
0.0
  0
VERTEX
  8
0
  6
CONTINUOUS
 62
    80
  5
9E4
 10
8.25546
 20
-12.669641
 30
0.0
  0
VERTEX
  8
0
  6
CONTINUOUS
 62
    80
  5
9E5
 10
8.28889
 20
-12.652523
 30
0.0
  0
VERTEX
  8
0
  6
CONTINUOUS
 62
    80
  5
9E6
 10
8.322159
 20
-12.635053
 30
0.0
  0
VERTEX
  8
0
  6
CONTINUOUS
 62
    80
  5
9E7
 10
8.355258
 20
-12.617231
 30
0.0
  0
VERTEX
  8
0
  6
CONTINUOUS
 62
    80
  5
9E8
 10
8.388178
 20
-12.599056
 30
0.0
  0
VERTEX
  8
0
  6
CONTINUOUS
 62
    80
  5
9E9
 10
8.420911
 20
-12.580527
 30
0.0
  0
VERTEX
  8
0
  6
CONTINUOUS
 62
    80
  5
9EA
 10
8.453448
 20
-12.561643
 30
0.0
  0
VERTEX
  8
0
  6
CONTINUOUS
 62
    80
  5
9EB
 10
8.485779
 20
-12.542404
 30
0.0
  0
VERTEX
  8
0
  6
CONTINUOUS
 62
    80
  5
9EC
 10
8.517896
 20
-12.522808
 30
0.0
  0
VERTEX
  8
0
  6
CONTINUOUS
 62
    80
  5
9ED
 10
8.549791
 20
-12.502855
 30
0.0
  0
VERTEX
  8
0
  6
CONTINUOUS
 62
    80
  5
9EE
 10
8.581454
 20
-12.482544
 30
0.0
  0
VERTEX
  8
0
  6
CONTINUOUS
 62
    80
  5
9EF
 10
8.612876
 20
-12.461875
 30
0.0
  0
VERTEX
  8
0
  6
CONTINUOUS
 62
    80
  5
9F0
 10
8.644048
 20
-12.440845
 30
0.0
  0
VERTEX
  8
0
  6
CONTINUOUS
 62
    80
  5
9F1
 10
8.674962
 20
-12.419456
 30
0.0
  0
VERTEX
  8
0
  6
CONTINUOUS
 62
    80
  5
9F2
 10
8.705609
 20
-12.397705
 30
0.0
  0
VERTEX
  8
0
  6
CONTINUOUS
 62
    80
  5
9F3
 10
8.73598
 20
-12.375592
 30
0.0
  0
VERTEX
  8
0
  6
CONTINUOUS
 62
    80
  5
9F4
 10
8.766066
 20
-12.353116
 30
0.0
  0
VERTEX
  8
0
  6
CONTINUOUS
 62
    80
  5
9F5
 10
8.792537
 20
-12.332851
 30
0.0
  0
VERTEX
  8
0
  6
CONTINUOUS
 62
    80
  5
9F6
 10
8.818796
 20
-12.312276
 30
0.0
  0
VERTEX
  8
0
  6
CONTINUOUS
 62
    80
  5
9F7
 10
8.844833
 20
-12.291394
 30
0.0
  0
VERTEX
  8
0
  6
CONTINUOUS
 62
    80
  5
9F8
 10
8.870637
 20
-12.270203
 30
0.0
  0
VERTEX
  8
0
  6
CONTINUOUS
 62
    80
  5
9F9
 10
8.896199
 20
-12.248706
 30
0.0
  0
VERTEX
  8
0
  6
CONTINUOUS
 62
    80
  5
9FA
 10
8.921508
 20
-12.226902
 30
0.0
  0
VERTEX
  8
0
  6
CONTINUOUS
 62
    80
  5
9FB
 10
8.946555
 20
-12.204792
 30
0.0
  0
VERTEX
  8
0
  6
CONTINUOUS
 62
    80
  5
9FC
 10
8.97133
 20
-12.182378
 30
0.0
  0
VERTEX
  8
0
  6
CONTINUOUS
 62
    80
  5
9FD
 10
8.995823
 20
-12.159658
 30
0.0
  0
VERTEX
  8
0
  6
CONTINUOUS
 62
    80
  5
9FE
 10
9.020023
 20
-12.136635
 30
0.0
  0
VERTEX
  8
0
  6
CONTINUOUS
 62
    80
  5
9FF
 10
9.043921
 20
-12.113309
 30
0.0
  0
VERTEX
  8
0
  6
CONTINUOUS
 62
    80
  5
A00
 10
9.067506
 20
-12.08968
 30
0.0
  0
VERTEX
  8
0
  6
CONTINUOUS
 62
    80
  5
A01
 10
9.09077
 20
-12.06575
 30
0.0
  0
VERTEX
  8
0
  6
CONTINUOUS
 62
    80
  5
A02
 10
9.113701
 20
-12.041518
 30
0.0
  0
VERTEX
  8
0
  6
CONTINUOUS
 62
    80
  5
A03
 10
9.13629
 20
-12.016986
 30
0.0
  0
VERTEX
  8
0
  6
CONTINUOUS
 62
    80
  5
A04
 10
9.158527
 20
-11.992154
 30
0.0
  0
VERTEX
  8
0
  6
CONTINUOUS
 62
    80
  5
A05
 10
9.177565
 20
-11.970322
 30
0.0
  0
VERTEX
  8
0
  6
CONTINUOUS
 62
    80
  5
A06
 10
9.196343
 20
-11.948236
 30
0.0
  0
VERTEX
  8
0
  6
CONTINUOUS
 62
    80
  5
A07
 10
9.214853
 20
-11.9259
 30
0.0
  0
VERTEX
  8
0
  6
CONTINUOUS
 62
    80
  5
A08
 10
9.233083
 20
-11.903316
 30
0.0
  0
VERTEX
  8
0
  6
CONTINUOUS
 62
    80
  5
A09
 10
9.251024
 20
-11.880489
 30
0.0
  0
VERTEX
  8
0
  6
CONTINUOUS
 62
    80
  5
A0A
 10
9.268666
 20
-11.857421
 30
0.0
  0
VERTEX
  8
0
  6
CONTINUOUS
 62
    80
  5
A0B
 10
9.285999
 20
-11.834116
 30
0.0
  0
VERTEX
  8
0
  6
CONTINUOUS
 62
    80
  5
A0C
 10
9.303013
 20
-11.810576
 30
0.0
  0
VERTEX
  8
0
  6
CONTINUOUS
 62
    80
  5
A0D
 10
9.319698
 20
-11.786806
 30
0.0
  0
VERTEX
  8
0
  6
CONTINUOUS
 62
    80
  5
A0E
 10
9.336044
 20
-11.762808
 30
0.0
  0
VERTEX
  8
0
  6
CONTINUOUS
 62
    80
  5
A0F
 10
9.352042
 20
-11.738586
 30
0.0
  0
VERTEX
  8
0
  6
CONTINUOUS
 62
    80
  5
A10
 10
9.367681
 20
-11.714142
 30
0.0
  0
VERTEX
  8
0
  6
CONTINUOUS
 62
    80
  5
A11
 10
9.382951
 20
-11.689481
 30
0.0
  0
VERTEX
  8
0
  6
CONTINUOUS
 62
    80
  5
A12
 10
9.397842
 20
-11.664605
 30
0.0
  0
VERTEX
  8
0
  6
CONTINUOUS
 62
    80
  5
A13
 10
9.412345
 20
-11.639518
 30
0.0
  0
VERTEX
  8
0
  6
CONTINUOUS
 62
    80
  5
A14
 10
9.42645
 20
-11.614223
 30
0.0
  0
VERTEX
  8
0
  6
CONTINUOUS
 62
    80
  5
A15
 10
9.438407
 20
-11.592011
 30
0.0
  0
VERTEX
  8
0
  6
CONTINUOUS
 62
    80
  5
A16
 10
9.450062
 20
-11.569614
 30
0.0
  0
VERTEX
  8
0
  6
CONTINUOUS
 62
    80
  5
A17
 10
9.461407
 20
-11.547036
 30
0.0
  0
VERTEX
  8
0
  6
CONTINUOUS
 62
    80
  5
A18
 10
9.472434
 20
-11.524285
 30
0.0
  0
VERTEX
  8
0
  6
CONTINUOUS
 62
    80
  5
A19
 10
9.483137
 20
-11.501366
 30
0.0
  0
VERTEX
  8
0
  6
CONTINUOUS
 62
    80
  5
A1A
 10
9.493506
 20
-11.478287
 30
0.0
  0
VERTEX
  8
0
  6
CONTINUOUS
 62
    80
  5
A1B
 10
9.503535
 20
-11.455054
 30
0.0
  0
VERTEX
  8
0
  6
CONTINUOUS
 62
    80
  5
A1C
 10
9.513215
 20
-11.431672
 30
0.0
  0
VERTEX
  8
0
  6
CONTINUOUS
 62
    80
  5
A1D
 10
9.52254
 20
-11.408148
 30
0.0
  0
VERTEX
  8
0
  6
CONTINUOUS
 62
    80
  5
A1E
 10
9.531501
 20
-11.38449
 30
0.0
  0
VERTEX
  8
0
  6
CONTINUOUS
 62
    80
  5
A1F
 10
9.54009
 20
-11.360702
 30
0.0
  0
VERTEX
  8
0
  6
CONTINUOUS
 62
    80
  5
A20
 10
9.548301
 20
-11.336791
 30
0.0
  0
VERTEX
  8
0
  6
CONTINUOUS
 62
    80
  5
A21
 10
9.556124
 20
-11.312764
 30
0.0
  0
VERTEX
  8
0
  6
CONTINUOUS
 62
    80
  5
A22
 10
9.563553
 20
-11.288627
 30
0.0
  0
VERTEX
  8
0
  6
CONTINUOUS
 62
    80
  5
A23
 10
9.57058
 20
-11.264387
 30
0.0
  0
VERTEX
  8
0
  6
CONTINUOUS
 62
    80
  5
A24
 10
9.577197
 20
-11.240049
 30
0.0
  0
VERTEX
  8
0
  6
CONTINUOUS
 62
    80
  5
A25
 10
9.582875
 20
-11.217738
 30
0.0
  0
VERTEX
  8
0
  6
CONTINUOUS
 62
    80
  5
A26
 10
9.588208
 20
-11.19532
 30
0.0
  0
VERTEX
  8
0
  6
CONTINUOUS
 62
    80
  5
A27
 10
9.593193
 20
-11.172803
 30
0.0
  0
VERTEX
  8
0
  6
CONTINUOUS
 62
    80
  5
A28
 10
9.597827
 20
-11.150196
 30
0.0
  0
VERTEX
  8
0
  6
CONTINUOUS
 62
    80
  5
A29
 10
9.602108
 20
-11.127507
 30
0.0
  0
VERTEX
  8
0
  6
CONTINUOUS
 62
    80
  5
A2A
 10
9.606032
 20
-11.104745
 30
0.0
  0
VERTEX
  8
0
  6
CONTINUOUS
 62
    80
  5
A2B
 10
9.609596
 20
-11.081919
 30
0.0
  0
VERTEX
  8
0
  6
CONTINUOUS
 62
    80
  5
A2C
 10
9.612797
 20
-11.059037
 30
0.0
  0
VERTEX
  8
0
  6
CONTINUOUS
 62
    80
  5
A2D
 10
9.615633
 20
-11.036107
 30
0.0
  0
VERTEX
  8
0
  6
CONTINUOUS
 62
    80
  5
A2E
 10
9.618101
 20
-11.013139
 30
0.0
  0
VERTEX
  8
0
  6
CONTINUOUS
 62
    80
  5
A2F
 10
9.620197
 20
-10.990141
 30
0.0
  0
VERTEX
  8
0
  6
CONTINUOUS
 62
    80
  5
A30
 10
9.621918
 20
-10.967121
 30
0.0
  0
VERTEX
  8
0
  6
CONTINUOUS
 62
    80
  5
A31
 10
9.623262
 20
-10.944089
 30
0.0
  0
VERTEX
  8
0
  6
CONTINUOUS
 62
    80
  5
A32
 10
9.624226
 20
-10.921052
 30
0.0
  0
VERTEX
  8
0
  6
CONTINUOUS
 62
    80
  5
A33
 10
9.624806
 20
-10.89802
 30
0.0
  0
VERTEX
  8
0
  6
CONTINUOUS
 62
    80
  5
A34
 10
9.625
 20
-10.875
 30
0.0
  0
SEQEND
  8
0
  6
CONTINUOUS
 62
    80
  5
A35
  0
POLYLINE
  8
0
  6
CONTINUOUS
 62
    80
  5
2DC
 66
     1
 10
0.0
 20
0.0
 30
0.0
 70
     1
  0
VERTEX
  8
0
  6
CONTINUOUS
 62
    80
  5
A36
 10
10.875
 20
-10.875
 30
0.0
  0
VERTEX
  8
0
  6
CONTINUOUS
 62
    80
  5
A37
 10
10.8574
 20
-10.569955
 30
0.0
  0
VERTEX
  8
0
  6
CONTINUOUS
 62
    80
  5
A38
 10
10.804736
 20
-10.267231
 30
0.0
  0
VERTEX
  8
0
  6
CONTINUOUS
 62
    80
  5
A39
 10
10.717407
 20
-9.969133
 30
0.0
  0
VERTEX
  8
0
  6
CONTINUOUS
 62
    80
  5
A3A
 10
10.596078
 20
-9.677929
 30
0.0
  0
VERTEX
  8
0
  6
CONTINUOUS
 62
    80
  5
A3B
 10
10.441674
 20
-9.395836
 30
0.0
  0
VERTEX
  8
0
  6
CONTINUOUS
 62
    80
  5
A3C
 10
10.255367
 20
-9.125
 30
0.0
  0
VERTEX
  8
0
  6
CONTINUOUS
 62
    80
  5
A3D
 10
10.038578
 20
-8.867482
 30
0.0
  0
VERTEX
  8
0
  6
CONTINUOUS
 62
    80
  5
A3E
 10
9.792956
 20
-8.625243
 30
0.0
  0
VERTEX
  8
0
  6
CONTINUOUS
 62
    80
  5
A3F
 10
9.520369
 20
-8.400126
 30
0.0
  0
VERTEX
  8
0
  6
CONTINUOUS
 62
    80
  5
A40
 10
9.222893
 20
-8.193844
 30
0.0
  0
VERTEX
  8
0
  6
CONTINUOUS
 62
    80
  5
A41
 10
8.902791
 20
-8.007968
 30
0.0
  0
VERTEX
  8
0
  6
CONTINUOUS
 62
    80
  5
A42
 10
8.5625
 20
-7.843911
 30
0.0
  0
VERTEX
  8
0
  6
CONTINUOUS
 62
    80
  5
A43
 10
8.204609
 20
-7.702923
 30
0.0
  0
VERTEX
  8
0
  6
CONTINUOUS
 62
    80
  5
A44
 10
7.831843
 20
-7.586076
 30
0.0
  0
VERTEX
  8
0
  6
CONTINUOUS
 62
    80
  5
A45
 10
7.447038
 20
-7.49426
 30
0.0
  0
VERTEX
  8
0
  6
CONTINUOUS
 62
    80
  5
A46
 10
7.053123
 20
-7.428173
 30
0.0
  0
VERTEX
  8
0
  6
CONTINUOUS
 62
    80
  5
A47
 10
6.653095
 20
-7.388319
 30
0.0
  0
VERTEX
  8
0
  6
CONTINUOUS
 62
    80
  5
A48
 10
6.25
 20
-7.375
 30
0.0
  0
VERTEX
  8
0
  6
CONTINUOUS
 62
    80
  5
A49
 10
5.846905
 20
-7.388319
 30
0.0
  0
VERTEX
  8
0
  6
CONTINUOUS
 62
    80
  5
A4A
 10
5.446877
 20
-7.428173
 30
0.0
  0
VERTEX
  8
0
  6
CONTINUOUS
 62
    80
  5
A4B
 10
5.052962
 20
-7.49426
 30
0.0
  0
VERTEX
  8
0
  6
CONTINUOUS
 62
    80
  5
A4C
 10
4.668157
 20
-7.586076
 30
0.0
  0
VERTEX
  8
0
  6
CONTINUOUS
 62
    80
  5
A4D
 10
4.295391
 20
-7.702923
 30
0.0
  0
VERTEX
  8
0
  6
CONTINUOUS
 62
    80
  5
A4E
 10
3.9375
 20
-7.843911
 30
0.0
  0
VERTEX
  8
0
  6
CONTINUOUS
 62
    80
  5
A4F
 10
3.597209
 20
-8.007968
 30
0.0
  0
VERTEX
  8
0
  6
CONTINUOUS
 62
    80
  5
A50
 10
3.277107
 20
-8.193844
 30
0.0
  0
VERTEX
  8
0
  6
CONTINUOUS
 62
    80
  5
A51
 10
2.979631
 20
-8.400126
 30
0.0
  0
VERTEX
  8
0
  6
CONTINUOUS
 62
    80
  5
A52
 10
2.707044
 20
-8.625243
 30
0.0
  0
VERTEX
  8
0
  6
CONTINUOUS
 62
    80
  5
A53
 10
2.461422
 20
-8.867482
 30
0.0
  0
VERTEX
  8
0
  6
CONTINUOUS
 62
    80
  5
A54
 10
2.244633
 20
-9.125
 30
0.0
  0
VERTEX
  8
0
  6
CONTINUOUS
 62
    80
  5
A55
 10
2.058326
 20
-9.395836
 30
0.0
  0
VERTEX
  8
0
  6
CONTINUOUS
 62
    80
  5
A56
 10
1.903922
 20
-9.677929
 30
0.0
  0
VERTEX
  8
0
  6
CONTINUOUS
 62
    80
  5
A57
 10
1.782593
 20
-9.969133
 30
0.0
  0
VERTEX
  8
0
  6
CONTINUOUS
 62
    80
  5
A58
 10
1.695264
 20
-10.267231
 30
0.0
  0
VERTEX
  8
0
  6
CONTINUOUS
 62
    80
  5
A59
 10
1.6426
 20
-10.569955
 30
0.0
  0
VERTEX
  8
0
  6
CONTINUOUS
 62
    80
  5
A5A
 10
1.625
 20
-10.875
 30
0.0
  0
VERTEX
  8
0
  6
CONTINUOUS
 62
    80
  5
A5B
 10
1.6426
 20
-11.180045
 30
0.0
  0
VERTEX
  8
0
  6
CONTINUOUS
 62
    80
  5
A5C
 10
1.695264
 20
-11.482769
 30
0.0
  0
VERTEX
  8
0
  6
CONTINUOUS
 62
    80
  5
A5D
 10
1.782593
 20
-11.780867
 30
0.0
  0
VERTEX
  8
0
  6
CONTINUOUS
 62
    80
  5
A5E
 10
1.903922
 20
-12.072071
 30
0.0
  0
VERTEX
  8
0
  6
CONTINUOUS
 62
    80
  5
A5F
 10
2.058326
 20
-12.354164
 30
0.0
  0
VERTEX
  8
0
  6
CONTINUOUS
 62
    80
  5
A60
 10
2.244633
 20
-12.625
 30
0.0
  0
VERTEX
  8
0
  6
CONTINUOUS
 62
    80
  5
A61
 10
2.461422
 20
-12.882518
 30
0.0
  0
VERTEX
  8
0
  6
CONTINUOUS
 62
    80
  5
A62
 10
2.707044
 20
-13.124757
 30
0.0
  0
VERTEX
  8
0
  6
CONTINUOUS
 62
    80
  5
A63
 10
2.979631
 20
-13.349874
 30
0.0
  0
VERTEX
  8
0
  6
CONTINUOUS
 62
    80
  5
A64
 10
3.277107
 20
-13.556156
 30
0.0
  0
VERTEX
  8
0
  6
CONTINUOUS
 62
    80
  5
A65
 10
3.597209
 20
-13.742032
 30
0.0
  0
VERTEX
  8
0
  6
CONTINUOUS
 62
    80
  5
A66
 10
3.9375
 20
-13.906089
 30
0.0
  0
VERTEX
  8
0
  6
CONTINUOUS
 62
    80
  5
A67
 10
4.295391
 20
-14.047077
 30
0.0
  0
VERTEX
  8
0
  6
CONTINUOUS
 62
    80
  5
A68
 10
4.668157
 20
-14.163924
 30
0.0
  0
VERTEX
  8
0
  6
CONTINUOUS
 62
    80
  5
A69
 10
5.052962
 20
-14.25574
 30
0.0
  0
VERTEX
  8
0
  6
CONTINUOUS
 62
    80
  5
A6A
 10
5.446877
 20
-14.321827
 30
0.0
  0
VERTEX
  8
0
  6
CONTINUOUS
 62
    80
  5
A6B
 10
5.846905
 20
-14.361681
 30
0.0
  0
VERTEX
  8
0
  6
CONTINUOUS
 62
    80
  5
A6C
 10
6.25
 20
-14.375
 30
0.0
  0
VERTEX
  8
0
  6
CONTINUOUS
 62
    80
  5
A6D
 10
6.653095
 20
-14.361681
 30
0.0
  0
VERTEX
  8
0
  6
CONTINUOUS
 62
    80
  5
A6E
 10
7.053123
 20
-14.321827
 30
0.0
  0
VERTEX
  8
0
  6
CONTINUOUS
 62
    80
  5
A6F
 10
7.447038
 20
-14.25574
 30
0.0
  0
VERTEX
  8
0
  6
CONTINUOUS
 62
    80
  5
A70
 10
7.831843
 20
-14.163924
 30
0.0
  0
VERTEX
  8
0
  6
CONTINUOUS
 62
    80
  5
A71
 10
8.204609
 20
-14.047077
 30
0.0
  0
VERTEX
  8
0
  6
CONTINUOUS
 62
    80
  5
A72
 10
8.5625
 20
-13.906089
 30
0.0
  0
VERTEX
  8
0
  6
CONTINUOUS
 62
    80
  5
A73
 10
8.902791
 20
-13.742032
 30
0.0
  0
VERTEX
  8
0
  6
CONTINUOUS
 62
    80
  5
A74
 10
9.222893
 20
-13.556156
 30
0.0
  0
VERTEX
  8
0
  6
CONTINUOUS
 62
    80
  5
A75
 10
9.520369
 20
-13.349874
 30
0.0
  0
VERTEX
  8
0
  6
CONTINUOUS
 62
    80
  5
A76
 10
9.792956
 20
-13.124757
 30
0.0
  0
VERTEX
  8
0
  6
CONTINUOUS
 62
    80
  5
A77
 10
10.038578
 20
-12.882518
 30
0.0
  0
VERTEX
  8
0
  6
CONTINUOUS
 62
    80
  5
A78
 10
10.255367
 20
-12.625
 30
0.0
  0
VERTEX
  8
0
  6
CONTINUOUS
 62
    80
  5
A79
 10
10.441674
 20
-12.354164
 30
0.0
  0
VERTEX
  8
0
  6
CONTINUOUS
 62
    80
  5
A7A
 10
10.596078
 20
-12.072071
 30
0.0
  0
VERTEX
  8
0
  6
CONTINUOUS
 62
    80
  5
A7B
 10
10.717407
 20
-11.780867
 30
0.0
  0
VERTEX
  8
0
  6
CONTINUOUS
 62
    80
  5
A7C
 10
10.804736
 20
-11.482769
 30
0.0
  0
VERTEX
  8
0
  6
CONTINUOUS
 62
    80
  5
A7D
 10
10.8574
 20
-11.180045
 30
0.0
  0
VERTEX
  8
0
  6
CONTINUOUS
 62
    80
  5
A7E
 10
10.875
 20
-10.875
 30
0.0
  0
SEQEND
  8
0
  6
CONTINUOUS
 62
    80
  5
A7F
  0
ARC
  8
0
  6
CONTINUOUS
 62
    80
  5
2DD
 10
-0.875
 20
-9.875
 30
0.0
 40
2.125
 50
286.927344
 51
90.000003
  0
ARC
  8
0
  6
CONTINUOUS
 62
    80
  5
2DE
 10
-0.875
 20
-9.875
 30
0.0
 40
0.625
 50
269.999997
 51
90.000003
  0
ARC
  8
0
  6
CONTINUOUS
 62
    80
  5
2DF
 10
-7.375
 20
-9.875
 30
0.0
 40
2.125
 50
286.927344
 51
90.000003
  0
ARC
  8
0
  6
CONTINUOUS
 62
    80
  5
2E0
 10
-7.375
 20
-9.875
 30
0.0
 40
0.625
 50
269.999997
 51
90.000003
  0
ARC
  8
0
  6
CONTINUOUS
 62
    80
  5
2E1
 10
0.0
 20
0.0
 30
0.0
 40
2.9
 50
350.071809
 51
9.928191
  0
ARC
  8
0
  6
CONTINUOUS
 62
    80
  5
2E2
 10
0.0
 20
0.0
 30
0.0
 40
2.9
 50
260.071809
 51
279.928191
  0
ARC
  8
0
  6
CONTINUOUS
 62
    80
  5
2E3
 10
0.0
 20
0.0
 30
0.0
 40
2.9
 50
170.071809
 51
189.928191
  0
ARC
  8
0
  6
CONTINUOUS
 62
    80
  5
2E4
 10
0.0
 20
0.0
 30
0.0
 40
2.9
 50
80.071809
 51
99.928191
  0
CIRCLE
  8
0
  6
CONTINUOUS
 62
     3
  5
2E5
 10
0.0
 20
0.0
 30
0.0
 40
3.9
  0
CIRCLE
  8
0
  6
CONTINUOUS
 62
     3
  5
2E6
 10
0.0
 20
0.0
 30
0.0
 40
4.3
  0
LINE
  8
0
  6
CONTINUOUS
 62
    80
  5
2E7
 10
-4.75
 20
-10.5
 30
0.0
 11
-4.75
 21
-14.0
 31
0.0
  0
LINE
  8
0
  6
CONTINUOUS
 62
    80
  5
2E8
 10
-11.25
 20
-10.5
 30
0.0
 11
-11.25
 21
-14.0
 31
0.0
  0
LINE
  8
0
  6
CONTINUOUS
 62
    80
  5
2E9
 10
-11.25
 20
-7.75
 30
0.0
 11
-7.375
 21
-7.75
 31
0.0
  0
LINE
  8
0
  6
CONTINUOUS
 62
    80
  5
2EA
 10
19.723907
 20
-7.75
 30
0.0
 11
21.375
 21
-7.75
 31
0.0
  0
LINE
  8
0
  6
CONTINUOUS
 62
    80
  5
2EB
 10
15.375
 20
-7.75
 30
0.0
 11
16.375
 21
-7.75
 31
0.0
  0
LINE
  8
0
  6
CONTINUOUS
 62
    80
  5
2EC
 10
10.375
 20
-7.75
 30
0.0
 11
12.026091
 21
-7.75
 31
0.0
  0
LINE
  8
0
  6
CONTINUOUS
 62
    80
  5
2ED
 10
13.25
 20
-14.0
 30
0.0
 11
14.151093
 21
-14.0
 31
0.0
  0
LINE
  8
0
  6
CONTINUOUS
 62
    80
  5
2EE
 10
17.598907
 20
-14.0
 30
0.0
 11
18.5
 21
-14.0
 31
0.0
  0
LINE
  8
0
  6
CONTINUOUS
 62
    80
  5
2EF
 10
-0.598351
 20
-14.0
 30
0.0
 11
1.25
 21
-14.0
 31
0.0
  0
LINE
  8
0
  6
CONTINUOUS
 62
    80
  5
2F0
 10
-13.454727
 20
-14.0
 30
0.0
 11
-11.75
 21
-14.0
 31
0.0
  0
LINE
  8
0
  6
CONTINUOUS
 62
    80
  5
2F1
 10
-7.098351
 20
-14.0
 30
0.0
 11
-5.238487
 21
-14.0
 31
0.0
  0
LINE
  8
0
  6
CONTINUOUS
 62
    80
  5
2F2
 10
-11.25
 20
-14.0
 30
0.0
 11
-9.75
 21
-14.0
 31
0.0
  0
LINE
  8
0
  6
CONTINUOUS
 62
    80
  5
2F3
 10
-4.75
 20
-14.0
 30
0.0
 11
-3.25
 21
-14.0
 31
0.0
  0
LINE
  8
0
  6
CONTINUOUS
 62
    80
  5
2F4
 10
-4.75
 20
-7.75
 30
0.0
 11
-0.875
 21
-7.75
 31
0.0
  0
LINE
  8
0
  6
CONTINUOUS
 62
    80
  5
2F5
 10
-2.03835
 20
-12.000001
 30
0.0
 11
-0.59835
 21
-14.000001
 31
0.0
  0
LINE
  8
0
  6
CONTINUOUS
 62
    80
  5
2F6
 10
-7.098351
 20
-14.000001
 30
0.0
 11
-8.538351
 21
-12.000001
 31
0.0
  0
LINE
  8
0
  6
CONTINUOUS
 62
    80
  5
2F7
 10
-0.256288
 20
-11.907935
 30
0.0
 11
1.249999
 21
-14.000001
 31
0.0
  0
LINE
  8
0
  6
CONTINUOUS
 62
    80
  5
2F8
 10
-5.249999
 20
-14.000001
 30
0.0
 11
-6.756287
 21
-11.907935
 31
0.0
  0
LINE
  8
0
  6
CONTINUOUS
 62
    80
  5
2F9
 10
-3.25
 20
-12.0
 30
0.0
 11
-2.038351
 21
-12.0
 31
0.0
  0
LINE
  8
0
  6
CONTINUOUS
 62
    80
  5
2FA
 10
-9.75
 20
-12.0
 30
0.0
 11
-8.538349
 21
-12.0
 31
0.0
  0
LINE
  8
0
  6
CONTINUOUS
 62
    80
  5
2FB
 10
-4.75
 20
-10.5
 30
0.0
 11
-0.875
 21
-10.5
 31
0.0
  0
LINE
  8
0
  6
CONTINUOUS
 62
    80
  5
2FC
 10
-11.25
 20
-10.5
 30
0.0
 11
-7.375
 21
-10.5
 31
0.0
  0
LINE
  8
0
  6
CONTINUOUS
 62
    80
  5
2FD
 10
-4.75
 20
-9.25
 30
0.0
 11
-0.875
 21
-9.25
 31
0.0
  0
LINE
  8
0
  6
CONTINUOUS
 62
    80
  5
2FE
 10
-11.25
 20
-9.25
 30
0.0
 11
-7.375
 21
-9.25
 31
0.0
  0
LINE
  8
0
  6
CONTINUOUS
 62
    80
  5
2FF
 10
-3.25
 20
-12.0
 30
0.0
 11
-3.25
 21
-14.0
 31
0.0
  0
LINE
  8
0
  6
CONTINUOUS
 62
    80
  5
300
 10
-9.75
 20
-12.0
 30
0.0
 11
-9.75
 21
-14.0
 31
0.0
  0
LINE
  8
0
  6
CONTINUOUS
 62
    80
  5
301
 10
16.375001
 20
-7.75
 30
0.0
 11
18.049456
 21
-11.390119
 31
0.0
  0
LINE
  8
0
  6
CONTINUOUS
 62
    80
  5
302
 10
15.875001
 20
-10.252371
 30
0.0
 11
17.59891
 21
-13.999999
 31
0.0
  0
LINE
  8
0
  6
CONTINUOUS
 62
    80
  5
303
 10
15.875
 20
-10.252371
 30
0.0
 11
14.151091
 21
-13.999999
 31
0.0
  0
LINE
  8
0
  6
CONTINUOUS
 62
    80
  5
304
 10
15.375001
 20
-7.75
 30
0.0
 11
13.700545
 21
-11.39012
 31
0.0
  0
LINE
  8
0
  6
CONTINUOUS
 62
    80
  5
305
 10
18.049457
 20
-11.39012
 30
0.0
 11
19.723912
 21
-7.750002
 31
0.0
  0
LINE
  8
0
  6
CONTINUOUS
 62
    80
  5
306
 10
12.026091
 20
-7.749999
 30
0.0
 11
13.700546
 21
-11.390118
 31
0.0
  0
LINE
  8
0
  6
CONTINUOUS
 62
    80
  5
307
 10
-15.624999
 20
-9.980979
 30
0.0
 11
-13.454728
 21
-14.0
 31
0.0
  0
LINE
  8
0
  6
CONTINUOUS
 62
    80
  5
308
 10
-15.625001
 20
-9.980979
 30
0.0
 11
-17.795272
 21
-14.0
 31
0.0
  0
LINE
  8
0
  6
CONTINUOUS
 62
    80
  5
309
 10
18.500003
 20
-14.000001
 30
0.0
 11
21.375002
 21
-7.750001
 31
0.0
  0
LINE
  8
0
  6
CONTINUOUS
 62
    80
  5
30A
 10
10.375001
 20
-7.75
 30
0.0
 11
13.250001
 21
-14.0
 31
0.0
  0
LINE
  8
0
  6
CONTINUOUS
 62
    80
  5
30B
 10
-15.124999
 20
-7.749999
 30
0.0
 11
-11.749999
 21
-13.999999
 31
0.0
  0
LINE
  8
0
  6
CONTINUOUS
 62
    80
  5
30C
 10
-16.125001
 20
-7.749999
 30
0.0
 11
-19.500001
 21
-14.0
 31
0.0
  0
LINE
  8
0
  6
CONTINUOUS
 62
    80
  5
30D
 10
-16.125
 20
-7.75
 30
0.0
 11
-15.125
 21
-7.75
 31
0.0
  0
LINE
  8
0
  6
CONTINUOUS
 62
    80
  5
30E
 10
-4.75
 20
-7.75
 30
0.0
 11
-4.75
 21
-9.25
 31
0.0
  0
LINE
  8
0
  6
CONTINUOUS
 62
    80
  5
30F
 10
-11.25
 20
-7.75
 30
0.0
 11
-11.25
 21
-9.25
 31
0.0
  0
LINE
  8
0
  6
CONTINUOUS
 62
    80
  5
310
 10
-19.5
 20
-14.0
 30
0.0
 11
-17.795273
 21
-14.0
 31
0.0
  0
LINE
  8
0
  6
CONTINUOUS
 62
    80
  5
311
 10
0.5
 20
0.5
 30
0.0
 11
2.856572
 21
0.5
 31
0.0
  0
LINE
  8
0
  6
CONTINUOUS
 62
    80
  5
312
 10
0.5
 20
-0.5
 30
0.0
 11
0.5
 21
-2.856572
 31
0.0
  0
LINE
  8
0
  6
CONTINUOUS
 62
    80
  5
313
 10
0.5
 20
-0.5
 30
0.0
 11
2.856572
 21
-0.5
 31
0.0
  0
LINE
  8
0
  6
CONTINUOUS
 62
    80
  5
314
 10
-0.5
 20
-0.5
 30
0.0
 11
-0.5
 21
-2.856572
 31
0.0
  0
LINE
  8
0
  6
CONTINUOUS
 62
    80
  5
315
 10
-2.856572
 20
-0.5
 30
0.0
 11
-0.5
 21
-0.5
 31
0.0
  0
LINE
  8
0
  6
CONTINUOUS
 62
    80
  5
316
 10
-2.856572
 20
0.5
 30
0.0
 11
-0.5
 21
0.5
 31
0.0
  0
LINE
  8
0
  6
CONTINUOUS
 62
    80
  5
317
 10
0.5
 20
2.856572
 30
0.0
 11
0.5
 21
0.5
 31
0.0
  0
LINE
  8
0
  6
CONTINUOUS
 62
    80
  5
318
 10
-0.5
 20
2.856572
 30
0.0
 11
-0.5
 21
0.5
 31
0.0
  0
CIRCLE
  8
0
  6
CONTINUOUS
 62
     3
  5
319
 10
0.0
 20
0.0
 30
0.0
 40
30.0
  0
ENDBLK
  8
0
  5
31A
  0
BLOCK
  8
0
  5
31B
  2
MS_13
 70
     0
 10
0.0
 20
0.0
 30
0.0
  3
MS_13
  0
LINE
  8
0
  6
CENTER
 62
    50
  5
31C
 10
51.0
 20
-323.0
 30
0.0
 11
65.0
 21
-323.0
 31
0.0
  0
LINE
  8
0
  6
CENTER
 62
    50
  5
31D
 10
51.0
 20
-288.1
 30
0.0
 11
65.0
 21
-288.1
 31
0.0
  0
LINE
  8
0
  6
CONTINUOUS
 62
     3
  5
31E
 10
-11.0
 20
0.0
 30
0.0
 11
-11.0
 21
-240.0
 31
0.0
  0
LINE
  8
0
  6
CONTINUOUS
 62
     3
  5
31F
 10
11.0
 20
0.0
 30
0.0
 11
11.0
 21
-240.0
 31
0.0
  0
LINE
  8
0
  6
CONTINUOUS
 62
     3
  5
320
 10
11.0
 20
0.0
 30
0.0
 11
-11.0
 21
0.0
 31
0.0
  0
LINE
  8
0
  6
CONTINUOUS
 62
     3
  5
321
 10
56.0
 20
-266.0
 30
0.0
 11
56.0
 21
-339.0
 31
0.0
  0
LINE
  8
0
  6
CONTINUOUS
 62
     3
  5
322
 10
59.8
 20
-339.0
 30
0.0
 11
55.8
 21
-339.0
 31
0.0
  0
ARC
  8
0
  6
CONTINUOUS
 62
     3
  5
323
 10
52.0
 20
-266.0
 30
0.0
 40
8.0
 50
0.0
 51
90.0
  0
ARC
  8
0
  6
CONTINUOUS
 62
     3
  5
324
 10
52.0
 20
-266.0
 30
0.0
 40
4.0
 50
0.0
 51
90.0
  0
LINE
  8
0
  6
CONTINUOUS
 62
     3
  5
325
 10
60.0
 20
-266.0
 30
0.0
 11
60.0
 21
-339.0
 31
0.0
  0
LINE
  8
0
  6
CONTINUOUS
 62
     3
  5
326
 10
-18.5
 20
-258.0
 30
0.0
 11
52.0
 21
-258.0
 31
0.0
  0
POLYLINE
  8
0
  6
CONTINUOUS
 62
     3
  5
327
 66
     1
 10
0.0
 20
0.0
 30
0.0
  0
VERTEX
  8
0
  6
CONTINUOUS
 62
     3
  5
A80
 10
18.475209
 20
-276.570938
 30
0.0
  0
VERTEX
  8
0
  6
CONTINUOUS
 62
     3
  5
A81
 10
18.215339
 20
-276.726738
 30
0.0
  0
VERTEX
  8
0
  6
CONTINUOUS
 62
     3
  5
A82
 10
17.949893
 20
-276.875821
 30
0.0
  0
VERTEX
  8
0
  6
CONTINUOUS
 62
     3
  5
A83
 10
17.679245
 20
-277.017726
 30
0.0
  0
VERTEX
  8
0
  6
CONTINUOUS
 62
     3
  5
A84
 10
17.403764
 20
-277.151993
 30
0.0
  0
VERTEX
  8
0
  6
CONTINUOUS
 62
     3
  5
A85
 10
17.123823
 20
-277.278162
 30
0.0
  0
VERTEX
  8
0
  6
CONTINUOUS
 62
     3
  5
A86
 10
16.839794
 20
-277.395773
 30
0.0
  0
VERTEX
  8
0
  6
CONTINUOUS
 62
     3
  5
A87
 10
16.552048
 20
-277.504367
 30
0.0
  0
VERTEX
  8
0
  6
CONTINUOUS
 62
     3
  5
A88
 10
16.260957
 20
-277.603482
 30
0.0
  0
VERTEX
  8
0
  6
CONTINUOUS
 62
     3
  5
A89
 10
15.966893
 20
-277.692659
 30
0.0
  0
VERTEX
  8
0
  6
CONTINUOUS
 62
     3
  5
A8A
 10
15.670227
 20
-277.771439
 30
0.0
  0
VERTEX
  8
0
  6
CONTINUOUS
 62
     3
  5
A8B
 10
15.37133
 20
-277.83936
 30
0.0
  0
VERTEX
  8
0
  6
CONTINUOUS
 62
     3
  5
A8C
 10
15.070576
 20
-277.895964
 30
0.0
  0
VERTEX
  8
0
  6
CONTINUOUS
 62
     3
  5
A8D
 10
14.768334
 20
-277.94079
 30
0.0
  0
VERTEX
  8
0
  6
CONTINUOUS
 62
     3
  5
A8E
 10
14.464978
 20
-277.973378
 30
0.0
  0
VERTEX
  8
0
  6
CONTINUOUS
 62
     3
  5
A8F
 10
14.160878
 20
-277.993268
 30
0.0
  0
VERTEX
  8
0
  6
CONTINUOUS
 62
     3
  5
A90
 10
13.856406
 20
-278.0
 30
0.0
  0
VERTEX
  8
0
  6
CONTINUOUS
 62
     3
  5
A91
 10
13.551935
 20
-277.993268
 30
0.0
  0
VERTEX
  8
0
  6
CONTINUOUS
 62
     3
  5
A92
 10
13.247835
 20
-277.973378
 30
0.0
  0
VERTEX
  8
0
  6
CONTINUOUS
 62
     3
  5
A93
 10
12.944479
 20
-277.94079
 30
0.0
  0
VERTEX
  8
0
  6
CONTINUOUS
 62
     3
  5
A94
 10
12.642237
 20
-277.895964
 30
0.0
  0
VERTEX
  8
0
  6
CONTINUOUS
 62
     3
  5
A95
 10
12.341483
 20
-277.83936
 30
0.0
  0
VERTEX
  8
0
  6
CONTINUOUS
 62
     3
  5
A96
 10
12.042586
 20
-277.771439
 30
0.0
  0
VERTEX
  8
0
  6
CONTINUOUS
 62
     3
  5
A97
 10
11.74592
 20
-277.692659
 30
0.0
  0
VERTEX
  8
0
  6
CONTINUOUS
 62
     3
  5
A98
 10
11.451856
 20
-277.603482
 30
0.0
  0
VERTEX
  8
0
  6
CONTINUOUS
 62
     3
  5
A99
 10
11.160765
 20
-277.504367
 30
0.0
  0
VERTEX
  8
0
  6
CONTINUOUS
 62
     3
  5
A9A
 10
10.873019
 20
-277.395773
 30
0.0
  0
VERTEX
  8
0
  6
CONTINUOUS
 62
     3
  5
A9B
 10
10.588989
 20
-277.278162
 30
0.0
  0
VERTEX
  8
0
  6
CONTINUOUS
 62
     3
  5
A9C
 10
10.309049
 20
-277.151993
 30
0.0
  0
VERTEX
  8
0
  6
CONTINUOUS
 62
     3
  5
A9D
 10
10.033568
 20
-277.017726
 30
0.0
  0
VERTEX
  8
0
  6
CONTINUOUS
 62
     3
  5
A9E
 10
9.76292
 20
-276.875821
 30
0.0
  0
VERTEX
  8
0
  6
CONTINUOUS
 62
     3
  5
A9F
 10
9.497474
 20
-276.726738
 30
0.0
  0
VERTEX
  8
0
  6
CONTINUOUS
 62
     3
  5
AA0
 10
9.237604
 20
-276.570938
 30
0.0
  0
SEQEND
  8
0
  6
CONTINUOUS
 62
     3
  5
AA1
  0
POLYLINE
  8
0
  6
CONTINUOUS
 62
     3
  5
328
 66
     1
 10
0.0
 20
0.0
 30
0.0
  0
VERTEX
  8
0
  6
CONTINUOUS
 62
     3
  5
AA2
 10
9.237604
 20
-266.429062
 30
0.0
  0
VERTEX
  8
0
  6
CONTINUOUS
 62
     3
  5
AA3
 10
8.677724
 20
-266.261243
 30
0.0
  0
VERTEX
  8
0
  6
CONTINUOUS
 62
     3
  5
AA4
 10
8.114462
 20
-266.103239
 30
0.0
  0
VERTEX
  8
0
  6
CONTINUOUS
 62
     3
  5
AA5
 10
7.548045
 20
-265.955191
 30
0.0
  0
VERTEX
  8
0
  6
CONTINUOUS
 62
     3
  5
AA6
 10
6.978697
 20
-265.817239
 30
0.0
  0
VERTEX
  8
0
  6
CONTINUOUS
 62
     3
  5
AA7
 10
6.406644
 20
-265.68952
 30
0.0
  0
VERTEX
  8
0
  6
CONTINUOUS
 62
     3
  5
AA8
 10
5.832111
 20
-265.572176
 30
0.0
  0
VERTEX
  8
0
  6
CONTINUOUS
 62
     3
  5
AA9
 10
5.255325
 20
-265.465346
 30
0.0
  0
VERTEX
  8
0
  6
CONTINUOUS
 62
     3
  5
AAA
 10
4.676509
 20
-265.369169
 30
0.0
  0
VERTEX
  8
0
  6
CONTINUOUS
 62
     3
  5
AAB
 10
4.09589
 20
-265.283784
 30
0.0
  0
VERTEX
  8
0
  6
CONTINUOUS
 62
     3
  5
AAC
 10
3.513694
 20
-265.209331
 30
0.0
  0
VERTEX
  8
0
  6
CONTINUOUS
 62
     3
  5
AAD
 10
2.930144
 20
-265.14595
 30
0.0
  0
VERTEX
  8
0
  6
CONTINUOUS
 62
     3
  5
AAE
 10
2.345468
 20
-265.09378
 30
0.0
  0
VERTEX
  8
0
  6
CONTINUOUS
 62
     3
  5
AAF
 10
1.75989
 20
-265.052961
 30
0.0
  0
VERTEX
  8
0
  6
CONTINUOUS
 62
     3
  5
AB0
 10
1.173636
 20
-265.023631
 30
0.0
  0
VERTEX
  8
0
  6
CONTINUOUS
 62
     3
  5
AB1
 10
0.586931
 20
-265.005931
 30
0.0
  0
VERTEX
  8
0
  6
CONTINUOUS
 62
     3
  5
AB2
 10
0.0
 20
-265.0
 30
0.0
  0
VERTEX
  8
0
  6
CONTINUOUS
 62
     3
  5
AB3
 10
-0.586931
 20
-265.005931
 30
0.0
  0
VERTEX
  8
0
  6
CONTINUOUS
 62
     3
  5
AB4
 10
-1.173636
 20
-265.023631
 30
0.0
  0
VERTEX
  8
0
  6
CONTINUOUS
 62
     3
  5
AB5
 10
-1.75989
 20
-265.052961
 30
0.0
  0
VERTEX
  8
0
  6
CONTINUOUS
 62
     3
  5
AB6
 10
-2.345468
 20
-265.09378
 30
0.0
  0
VERTEX
  8
0
  6
CONTINUOUS
 62
     3
  5
AB7
 10
-2.930144
 20
-265.14595
 30
0.0
  0
VERTEX
  8
0
  6
CONTINUOUS
 62
     3
  5
AB8
 10
-3.513694
 20
-265.209331
 30
0.0
  0
VERTEX
  8
0
  6
CONTINUOUS
 62
     3
  5
AB9
 10
-4.09589
 20
-265.283784
 30
0.0
  0
VERTEX
  8
0
  6
CONTINUOUS
 62
     3
  5
ABA
 10
-4.676509
 20
-265.369169
 30
0.0
  0
VERTEX
  8
0
  6
CONTINUOUS
 62
     3
  5
ABB
 10
-5.255325
 20
-265.465346
 30
0.0
  0
VERTEX
  8
0
  6
CONTINUOUS
 62
     3
  5
ABC
 10
-5.832111
 20
-265.572176
 30
0.0
  0
VERTEX
  8
0
  6
CONTINUOUS
 62
     3
  5
ABD
 10
-6.406644
 20
-265.68952
 30
0.0
  0
VERTEX
  8
0
  6
CONTINUOUS
 62
     3
  5
ABE
 10
-6.978697
 20
-265.817239
 30
0.0
  0
VERTEX
  8
0
  6
CONTINUOUS
 62
     3
  5
ABF
 10
-7.548045
 20
-265.955191
 30
0.0
  0
VERTEX
  8
0
  6
CONTINUOUS
 62
     3
  5
AC0
 10
-8.114462
 20
-266.103239
 30
0.0
  0
VERTEX
  8
0
  6
CONTINUOUS
 62
     3
  5
AC1
 10
-8.677724
 20
-266.261243
 30
0.0
  0
VERTEX
  8
0
  6
CONTINUOUS
 62
     3
  5
AC2
 10
-9.237604
 20
-266.429062
 30
0.0
  0
SEQEND
  8
0
  6
CONTINUOUS
 62
     3
  5
AC3
  0
POLYLINE
  8
0
  6
CONTINUOUS
 62
     3
  5
329
 66
     1
 10
0.0
 20
0.0
 30
0.0
  0
VERTEX
  8
0
  6
CONTINUOUS
 62
     3
  5
AC4
 10
18.475209
 20
-266.429062
 30
0.0
  0
VERTEX
  8
0
  6
CONTINUOUS
 62
     3
  5
AC5
 10
18.215339
 20
-266.273262
 30
0.0
  0
VERTEX
  8
0
  6
CONTINUOUS
 62
     3
  5
AC6
 10
17.949893
 20
-266.124179
 30
0.0
  0
VERTEX
  8
0
  6
CONTINUOUS
 62
     3
  5
AC7
 10
17.679245
 20
-265.982274
 30
0.0
  0
VERTEX
  8
0
  6
CONTINUOUS
 62
     3
  5
AC8
 10
17.403764
 20
-265.848007
 30
0.0
  0
VERTEX
  8
0
  6
CONTINUOUS
 62
     3
  5
AC9
 10
17.123823
 20
-265.721838
 30
0.0
  0
VERTEX
  8
0
  6
CONTINUOUS
 62
     3
  5
ACA
 10
16.839794
 20
-265.604227
 30
0.0
  0
VERTEX
  8
0
  6
CONTINUOUS
 62
     3
  5
ACB
 10
16.552048
 20
-265.495633
 30
0.0
  0
VERTEX
  8
0
  6
CONTINUOUS
 62
     3
  5
ACC
 10
16.260957
 20
-265.396518
 30
0.0
  0
VERTEX
  8
0
  6
CONTINUOUS
 62
     3
  5
ACD
 10
15.966893
 20
-265.307341
 30
0.0
  0
VERTEX
  8
0
  6
CONTINUOUS
 62
     3
  5
ACE
 10
15.670227
 20
-265.228561
 30
0.0
  0
VERTEX
  8
0
  6
CONTINUOUS
 62
     3
  5
ACF
 10
15.37133
 20
-265.16064
 30
0.0
  0
VERTEX
  8
0
  6
CONTINUOUS
 62
     3
  5
AD0
 10
15.070576
 20
-265.104036
 30
0.0
  0
VERTEX
  8
0
  6
CONTINUOUS
 62
     3
  5
AD1
 10
14.768334
 20
-265.05921
 30
0.0
  0
VERTEX
  8
0
  6
CONTINUOUS
 62
     3
  5
AD2
 10
14.464978
 20
-265.026622
 30
0.0
  0
VERTEX
  8
0
  6
CONTINUOUS
 62
     3
  5
AD3
 10
14.160878
 20
-265.006732
 30
0.0
  0
VERTEX
  8
0
  6
CONTINUOUS
 62
     3
  5
AD4
 10
13.856406
 20
-265.0
 30
0.0
  0
VERTEX
  8
0
  6
CONTINUOUS
 62
     3
  5
AD5
 10
13.551935
 20
-265.006732
 30
0.0
  0
VERTEX
  8
0
  6
CONTINUOUS
 62
     3
  5
AD6
 10
13.247835
 20
-265.026622
 30
0.0
  0
VERTEX
  8
0
  6
CONTINUOUS
 62
     3
  5
AD7
 10
12.944479
 20
-265.05921
 30
0.0
  0
VERTEX
  8
0
  6
CONTINUOUS
 62
     3
  5
AD8
 10
12.642237
 20
-265.104036
 30
0.0
  0
VERTEX
  8
0
  6
CONTINUOUS
 62
     3
  5
AD9
 10
12.341483
 20
-265.16064
 30
0.0
  0
VERTEX
  8
0
  6
CONTINUOUS
 62
     3
  5
ADA
 10
12.042586
 20
-265.228561
 30
0.0
  0
VERTEX
  8
0
  6
CONTINUOUS
 62
     3
  5
ADB
 10
11.74592
 20
-265.307341
 30
0.0
  0
VERTEX
  8
0
  6
CONTINUOUS
 62
     3
  5
ADC
 10
11.451856
 20
-265.396518
 30
0.0
  0
VERTEX
  8
0
  6
CONTINUOUS
 62
     3
  5
ADD
 10
11.160765
 20
-265.495633
 30
0.0
  0
VERTEX
  8
0
  6
CONTINUOUS
 62
     3
  5
ADE
 10
10.873019
 20
-265.604227
 30
0.0
  0
VERTEX
  8
0
  6
CONTINUOUS
 62
     3
  5
ADF
 10
10.588989
 20
-265.721838
 30
0.0
  0
VERTEX
  8
0
  6
CONTINUOUS
 62
     3
  5
AE0
 10
10.309049
 20
-265.848007
 30
0.0
  0
VERTEX
  8
0
  6
CONTINUOUS
 62
     3
  5
AE1
 10
10.033568
 20
-265.982274
 30
0.0
  0
VERTEX
  8
0
  6
CONTINUOUS
 62
     3
  5
AE2
 10
9.76292
 20
-266.124179
 30
0.0
  0
VERTEX
  8
0
  6
CONTINUOUS
 62
     3
  5
AE3
 10
9.497474
 20
-266.273262
 30
0.0
  0
VERTEX
  8
0
  6
CONTINUOUS
 62
     3
  5
AE4
 10
9.237604
 20
-266.429062
 30
0.0
  0
SEQEND
  8
0
  6
CONTINUOUS
 62
     3
  5
AE5
  0
POLYLINE
  8
0
  6
CONTINUOUS
 62
     3
  5
32A
 66
     1
 10
0.0
 20
0.0
 30
0.0
  0
VERTEX
  8
0
  6
CONTINUOUS
 62
     3
  5
AE6
 10
9.237604
 20
-276.570938
 30
0.0
  0
VERTEX
  8
0
  6
CONTINUOUS
 62
     3
  5
AE7
 10
8.677724
 20
-276.738757
 30
0.0
  0
VERTEX
  8
0
  6
CONTINUOUS
 62
     3
  5
AE8
 10
8.114462
 20
-276.896761
 30
0.0
  0
VERTEX
  8
0
  6
CONTINUOUS
 62
     3
  5
AE9
 10
7.548045
 20
-277.044809
 30
0.0
  0
VERTEX
  8
0
  6
CONTINUOUS
 62
     3
  5
AEA
 10
6.978697
 20
-277.182761
 30
0.0
  0
VERTEX
  8
0
  6
CONTINUOUS
 62
     3
  5
AEB
 10
6.406644
 20
-277.31048
 30
0.0
  0
VERTEX
  8
0
  6
CONTINUOUS
 62
     3
  5
AEC
 10
5.832111
 20
-277.427824
 30
0.0
  0
VERTEX
  8
0
  6
CONTINUOUS
 62
     3
  5
AED
 10
5.255325
 20
-277.534654
 30
0.0
  0
VERTEX
  8
0
  6
CONTINUOUS
 62
     3
  5
AEE
 10
4.676509
 20
-277.630831
 30
0.0
  0
VERTEX
  8
0
  6
CONTINUOUS
 62
     3
  5
AEF
 10
4.09589
 20
-277.716216
 30
0.0
  0
VERTEX
  8
0
  6
CONTINUOUS
 62
     3
  5
AF0
 10
3.513694
 20
-277.790669
 30
0.0
  0
VERTEX
  8
0
  6
CONTINUOUS
 62
     3
  5
AF1
 10
2.930144
 20
-277.85405
 30
0.0
  0
VERTEX
  8
0
  6
CONTINUOUS
 62
     3
  5
AF2
 10
2.345468
 20
-277.90622
 30
0.0
  0
VERTEX
  8
0
  6
CONTINUOUS
 62
     3
  5
AF3
 10
1.75989
 20
-277.947039
 30
0.0
  0
VERTEX
  8
0
  6
CONTINUOUS
 62
     3
  5
AF4
 10
1.173636
 20
-277.976369
 30
0.0
  0
VERTEX
  8
0
  6
CONTINUOUS
 62
     3
  5
AF5
 10
0.586931
 20
-277.994069
 30
0.0
  0
VERTEX
  8
0
  6
CONTINUOUS
 62
     3
  5
AF6
 10
0.0
 20
-278.0
 30
0.0
  0
VERTEX
  8
0
  6
CONTINUOUS
 62
     3
  5
AF7
 10
-0.586931
 20
-277.994069
 30
0.0
  0
VERTEX
  8
0
  6
CONTINUOUS
 62
     3
  5
AF8
 10
-1.173636
 20
-277.976369
 30
0.0
  0
VERTEX
  8
0
  6
CONTINUOUS
 62
     3
  5
AF9
 10
-1.75989
 20
-277.947039
 30
0.0
  0
VERTEX
  8
0
  6
CONTINUOUS
 62
     3
  5
AFA
 10
-2.345468
 20
-277.90622
 30
0.0
  0
VERTEX
  8
0
  6
CONTINUOUS
 62
     3
  5
AFB
 10
-2.930144
 20
-277.85405
 30
0.0
  0
VERTEX
  8
0
  6
CONTINUOUS
 62
     3
  5
AFC
 10
-3.513694
 20
-277.790669
 30
0.0
  0
VERTEX
  8
0
  6
CONTINUOUS
 62
     3
  5
AFD
 10
-4.09589
 20
-277.716216
 30
0.0
  0
VERTEX
  8
0
  6
CONTINUOUS
 62
     3
  5
AFE
 10
-4.676509
 20
-277.630831
 30
0.0
  0
VERTEX
  8
0
  6
CONTINUOUS
 62
     3
  5
AFF
 10
-5.255325
 20
-277.534654
 30
0.0
  0
VERTEX
  8
0
  6
CONTINUOUS
 62
     3
  5
B00
 10
-5.832111
 20
-277.427824
 30
0.0
  0
VERTEX
  8
0
  6
CONTINUOUS
 62
     3
  5
B01
 10
-6.406644
 20
-277.31048
 30
0.0
  0
VERTEX
  8
0
  6
CONTINUOUS
 62
     3
  5
B02
 10
-6.978697
 20
-277.182761
 30
0.0
  0
VERTEX
  8
0
  6
CONTINUOUS
 62
     3
  5
B03
 10
-7.548045
 20
-277.044809
 30
0.0
  0
VERTEX
  8
0
  6
CONTINUOUS
 62
     3
  5
B04
 10
-8.114462
 20
-276.896761
 30
0.0
  0
VERTEX
  8
0
  6
CONTINUOUS
 62
     3
  5
B05
 10
-8.677724
 20
-276.738757
 30
0.0
  0
VERTEX
  8
0
  6
CONTINUOUS
 62
     3
  5
B06
 10
-9.237604
 20
-276.570938
 30
0.0
  0
SEQEND
  8
0
  6
CONTINUOUS
 62
     3
  5
B07
  0
POLYLINE
  8
0
  6
CONTINUOUS
 62
     3
  5
32B
 66
     1
 10
0.0
 20
0.0
 30
0.0
  0
VERTEX
  8
0
  6
CONTINUOUS
 62
     3
  5
B08
 10
-18.475209
 20
-276.570938
 30
0.0
  0
VERTEX
  8
0
  6
CONTINUOUS
 62
     3
  5
B09
 10
-18.215339
 20
-276.726738
 30
0.0
  0
VERTEX
  8
0
  6
CONTINUOUS
 62
     3
  5
B0A
 10
-17.949893
 20
-276.875821
 30
0.0
  0
VERTEX
  8
0
  6
CONTINUOUS
 62
     3
  5
B0B
 10
-17.679245
 20
-277.017726
 30
0.0
  0
VERTEX
  8
0
  6
CONTINUOUS
 62
     3
  5
B0C
 10
-17.403764
 20
-277.151993
 30
0.0
  0
VERTEX
  8
0
  6
CONTINUOUS
 62
     3
  5
B0D
 10
-17.123823
 20
-277.278162
 30
0.0
  0
VERTEX
  8
0
  6
CONTINUOUS
 62
     3
  5
B0E
 10
-16.839794
 20
-277.395773
 30
0.0
  0
VERTEX
  8
0
  6
CONTINUOUS
 62
     3
  5
B0F
 10
-16.552048
 20
-277.504367
 30
0.0
  0
VERTEX
  8
0
  6
CONTINUOUS
 62
     3
  5
B10
 10
-16.260957
 20
-277.603482
 30
0.0
  0
VERTEX
  8
0
  6
CONTINUOUS
 62
     3
  5
B11
 10
-15.966893
 20
-277.692659
 30
0.0
  0
VERTEX
  8
0
  6
CONTINUOUS
 62
     3
  5
B12
 10
-15.670227
 20
-277.771439
 30
0.0
  0
VERTEX
  8
0
  6
CONTINUOUS
 62
     3
  5
B13
 10
-15.37133
 20
-277.83936
 30
0.0
  0
VERTEX
  8
0
  6
CONTINUOUS
 62
     3
  5
B14
 10
-15.070576
 20
-277.895964
 30
0.0
  0
VERTEX
  8
0
  6
CONTINUOUS
 62
     3
  5
B15
 10
-14.768334
 20
-277.94079
 30
0.0
  0
VERTEX
  8
0
  6
CONTINUOUS
 62
     3
  5
B16
 10
-14.464978
 20
-277.973378
 30
0.0
  0
VERTEX
  8
0
  6
CONTINUOUS
 62
     3
  5
B17
 10
-14.160878
 20
-277.993268
 30
0.0
  0
VERTEX
  8
0
  6
CONTINUOUS
 62
     3
  5
B18
 10
-13.856406
 20
-278.0
 30
0.0
  0
VERTEX
  8
0
  6
CONTINUOUS
 62
     3
  5
B19
 10
-13.551935
 20
-277.993268
 30
0.0
  0
VERTEX
  8
0
  6
CONTINUOUS
 62
     3
  5
B1A
 10
-13.247835
 20
-277.973378
 30
0.0
  0
VERTEX
  8
0
  6
CONTINUOUS
 62
     3
  5
B1B
 10
-12.944479
 20
-277.94079
 30
0.0
  0
VERTEX
  8
0
  6
CONTINUOUS
 62
     3
  5
B1C
 10
-12.642237
 20
-277.895964
 30
0.0
  0
VERTEX
  8
0
  6
CONTINUOUS
 62
     3
  5
B1D
 10
-12.341483
 20
-277.83936
 30
0.0
  0
VERTEX
  8
0
  6
CONTINUOUS
 62
     3
  5
B1E
 10
-12.042586
 20
-277.771439
 30
0.0
  0
VERTEX
  8
0
  6
CONTINUOUS
 62
     3
  5
B1F
 10
-11.74592
 20
-277.692659
 30
0.0
  0
VERTEX
  8
0
  6
CONTINUOUS
 62
     3
  5
B20
 10
-11.451856
 20
-277.603482
 30
0.0
  0
VERTEX
  8
0
  6
CONTINUOUS
 62
     3
  5
B21
 10
-11.160765
 20
-277.504367
 30
0.0
  0
VERTEX
  8
0
  6
CONTINUOUS
 62
     3
  5
B22
 10
-10.873019
 20
-277.395773
 30
0.0
  0
VERTEX
  8
0
  6
CONTINUOUS
 62
     3
  5
B23
 10
-10.588989
 20
-277.278162
 30
0.0
  0
VERTEX
  8
0
  6
CONTINUOUS
 62
     3
  5
B24
 10
-10.309049
 20
-277.151993
 30
0.0
  0
VERTEX
  8
0
  6
CONTINUOUS
 62
     3
  5
B25
 10
-10.033568
 20
-277.017726
 30
0.0
  0
VERTEX
  8
0
  6
CONTINUOUS
 62
     3
  5
B26
 10
-9.76292
 20
-276.875821
 30
0.0
  0
VERTEX
  8
0
  6
CONTINUOUS
 62
     3
  5
B27
 10
-9.497474
 20
-276.726738
 30
0.0
  0
VERTEX
  8
0
  6
CONTINUOUS
 62
     3
  5
B28
 10
-9.237604
 20
-276.570938
 30
0.0
  0
SEQEND
  8
0
  6
CONTINUOUS
 62
     3
  5
B29
  0
POLYLINE
  8
0
  6
CONTINUOUS
 62
     3
  5
32C
 66
     1
 10
0.0
 20
0.0
 30
0.0
  0
VERTEX
  8
0
  6
CONTINUOUS
 62
     3
  5
B2A
 10
-18.475209
 20
-266.429062
 30
0.0
  0
VERTEX
  8
0
  6
CONTINUOUS
 62
     3
  5
B2B
 10
-18.215339
 20
-266.273262
 30
0.0
  0
VERTEX
  8
0
  6
CONTINUOUS
 62
     3
  5
B2C
 10
-17.949893
 20
-266.124179
 30
0.0
  0
VERTEX
  8
0
  6
CONTINUOUS
 62
     3
  5
B2D
 10
-17.679245
 20
-265.982274
 30
0.0
  0
VERTEX
  8
0
  6
CONTINUOUS
 62
     3
  5
B2E
 10
-17.403764
 20
-265.848007
 30
0.0
  0
VERTEX
  8
0
  6
CONTINUOUS
 62
     3
  5
B2F
 10
-17.123823
 20
-265.721838
 30
0.0
  0
VERTEX
  8
0
  6
CONTINUOUS
 62
     3
  5
B30
 10
-16.839794
 20
-265.604227
 30
0.0
  0
VERTEX
  8
0
  6
CONTINUOUS
 62
     3
  5
B31
 10
-16.552048
 20
-265.495633
 30
0.0
  0
VERTEX
  8
0
  6
CONTINUOUS
 62
     3
  5
B32
 10
-16.260957
 20
-265.396518
 30
0.0
  0
VERTEX
  8
0
  6
CONTINUOUS
 62
     3
  5
B33
 10
-15.966893
 20
-265.307341
 30
0.0
  0
VERTEX
  8
0
  6
CONTINUOUS
 62
     3
  5
B34
 10
-15.670227
 20
-265.228561
 30
0.0
  0
VERTEX
  8
0
  6
CONTINUOUS
 62
     3
  5
B35
 10
-15.37133
 20
-265.16064
 30
0.0
  0
VERTEX
  8
0
  6
CONTINUOUS
 62
     3
  5
B36
 10
-15.070576
 20
-265.104036
 30
0.0
  0
VERTEX
  8
0
  6
CONTINUOUS
 62
     3
  5
B37
 10
-14.768334
 20
-265.05921
 30
0.0
  0
VERTEX
  8
0
  6
CONTINUOUS
 62
     3
  5
B38
 10
-14.464978
 20
-265.026622
 30
0.0
  0
VERTEX
  8
0
  6
CONTINUOUS
 62
     3
  5
B39
 10
-14.160878
 20
-265.006732
 30
0.0
  0
VERTEX
  8
0
  6
CONTINUOUS
 62
     3
  5
B3A
 10
-13.856406
 20
-265.0
 30
0.0
  0
VERTEX
  8
0
  6
CONTINUOUS
 62
     3
  5
B3B
 10
-13.551935
 20
-265.006732
 30
0.0
  0
VERTEX
  8
0
  6
CONTINUOUS
 62
     3
  5
B3C
 10
-13.247835
 20
-265.026622
 30
0.0
  0
VERTEX
  8
0
  6
CONTINUOUS
 62
     3
  5
B3D
 10
-12.944479
 20
-265.05921
 30
0.0
  0
VERTEX
  8
0
  6
CONTINUOUS
 62
     3
  5
B3E
 10
-12.642237
 20
-265.104036
 30
0.0
  0
VERTEX
  8
0
  6
CONTINUOUS
 62
     3
  5
B3F
 10
-12.341483
 20
-265.16064
 30
0.0
  0
VERTEX
  8
0
  6
CONTINUOUS
 62
     3
  5
B40
 10
-12.042586
 20
-265.228561
 30
0.0
  0
VERTEX
  8
0
  6
CONTINUOUS
 62
     3
  5
B41
 10
-11.74592
 20
-265.307341
 30
0.0
  0
VERTEX
  8
0
  6
CONTINUOUS
 62
     3
  5
B42
 10
-11.451856
 20
-265.396518
 30
0.0
  0
VERTEX
  8
0
  6
CONTINUOUS
 62
     3
  5
B43
 10
-11.160765
 20
-265.495633
 30
0.0
  0
VERTEX
  8
0
  6
CONTINUOUS
 62
     3
  5
B44
 10
-10.873019
 20
-265.604227
 30
0.0
  0
VERTEX
  8
0
  6
CONTINUOUS
 62
     3
  5
B45
 10
-10.588989
 20
-265.721838
 30
0.0
  0
VERTEX
  8
0
  6
CONTINUOUS
 62
     3
  5
B46
 10
-10.309049
 20
-265.848007
 30
0.0
  0
VERTEX
  8
0
  6
CONTINUOUS
 62
     3
  5
B47
 10
-10.033568
 20
-265.982274
 30
0.0
  0
VERTEX
  8
0
  6
CONTINUOUS
 62
     3
  5
B48
 10
-9.76292
 20
-266.124179
 30
0.0
  0
VERTEX
  8
0
  6
CONTINUOUS
 62
     3
  5
B49
 10
-9.497474
 20
-266.273262
 30
0.0
  0
VERTEX
  8
0
  6
CONTINUOUS
 62
     3
  5
B4A
 10
-9.237604
 20
-266.429062
 30
0.0
  0
SEQEND
  8
0
  6
CONTINUOUS
 62
     3
  5
B4B
  0
POLYLINE
  8
0
  6
CONTINUOUS
 62
     3
  5
32D
 66
     1
 10
0.0
 20
0.0
 30
0.0
  0
VERTEX
  8
0
  6
CONTINUOUS
 62
     3
  5
B4C
 10
-18.475209
 20
-241.429062
 30
0.0
  0
VERTEX
  8
0
  6
CONTINUOUS
 62
     3
  5
B4D
 10
-18.215339
 20
-241.273262
 30
0.0
  0
VERTEX
  8
0
  6
CONTINUOUS
 62
     3
  5
B4E
 10
-17.949893
 20
-241.124179
 30
0.0
  0
VERTEX
  8
0
  6
CONTINUOUS
 62
     3
  5
B4F
 10
-17.679245
 20
-240.982274
 30
0.0
  0
VERTEX
  8
0
  6
CONTINUOUS
 62
     3
  5
B50
 10
-17.403764
 20
-240.848007
 30
0.0
  0
VERTEX
  8
0
  6
CONTINUOUS
 62
     3
  5
B51
 10
-17.123823
 20
-240.721838
 30
0.0
  0
VERTEX
  8
0
  6
CONTINUOUS
 62
     3
  5
B52
 10
-16.839794
 20
-240.604227
 30
0.0
  0
VERTEX
  8
0
  6
CONTINUOUS
 62
     3
  5
B53
 10
-16.552048
 20
-240.495633
 30
0.0
  0
VERTEX
  8
0
  6
CONTINUOUS
 62
     3
  5
B54
 10
-16.260957
 20
-240.396518
 30
0.0
  0
VERTEX
  8
0
  6
CONTINUOUS
 62
     3
  5
B55
 10
-15.966893
 20
-240.307341
 30
0.0
  0
VERTEX
  8
0
  6
CONTINUOUS
 62
     3
  5
B56
 10
-15.670227
 20
-240.228561
 30
0.0
  0
VERTEX
  8
0
  6
CONTINUOUS
 62
     3
  5
B57
 10
-15.37133
 20
-240.16064
 30
0.0
  0
VERTEX
  8
0
  6
CONTINUOUS
 62
     3
  5
B58
 10
-15.070576
 20
-240.104036
 30
0.0
  0
VERTEX
  8
0
  6
CONTINUOUS
 62
     3
  5
B59
 10
-14.768334
 20
-240.05921
 30
0.0
  0
VERTEX
  8
0
  6
CONTINUOUS
 62
     3
  5
B5A
 10
-14.464978
 20
-240.026622
 30
0.0
  0
VERTEX
  8
0
  6
CONTINUOUS
 62
     3
  5
B5B
 10
-14.160878
 20
-240.006732
 30
0.0
  0
VERTEX
  8
0
  6
CONTINUOUS
 62
     3
  5
B5C
 10
-13.856406
 20
-240.0
 30
0.0
  0
VERTEX
  8
0
  6
CONTINUOUS
 62
     3
  5
B5D
 10
-13.551935
 20
-240.006732
 30
0.0
  0
VERTEX
  8
0
  6
CONTINUOUS
 62
     3
  5
B5E
 10
-13.247835
 20
-240.026622
 30
0.0
  0
VERTEX
  8
0
  6
CONTINUOUS
 62
     3
  5
B5F
 10
-12.944479
 20
-240.05921
 30
0.0
  0
VERTEX
  8
0
  6
CONTINUOUS
 62
     3
  5
B60
 10
-12.642237
 20
-240.104036
 30
0.0
  0
VERTEX
  8
0
  6
CONTINUOUS
 62
     3
  5
B61
 10
-12.341483
 20
-240.16064
 30
0.0
  0
VERTEX
  8
0
  6
CONTINUOUS
 62
     3
  5
B62
 10
-12.042586
 20
-240.228561
 30
0.0
  0
VERTEX
  8
0
  6
CONTINUOUS
 62
     3
  5
B63
 10
-11.74592
 20
-240.307341
 30
0.0
  0
VERTEX
  8
0
  6
CONTINUOUS
 62
     3
  5
B64
 10
-11.451856
 20
-240.396518
 30
0.0
  0
VERTEX
  8
0
  6
CONTINUOUS
 62
     3
  5
B65
 10
-11.160765
 20
-240.495633
 30
0.0
  0
VERTEX
  8
0
  6
CONTINUOUS
 62
     3
  5
B66
 10
-10.873019
 20
-240.604227
 30
0.0
  0
VERTEX
  8
0
  6
CONTINUOUS
 62
     3
  5
B67
 10
-10.588989
 20
-240.721838
 30
0.0
  0
VERTEX
  8
0
  6
CONTINUOUS
 62
     3
  5
B68
 10
-10.309049
 20
-240.848007
 30
0.0
  0
VERTEX
  8
0
  6
CONTINUOUS
 62
     3
  5
B69
 10
-10.033568
 20
-240.982274
 30
0.0
  0
VERTEX
  8
0
  6
CONTINUOUS
 62
     3
  5
B6A
 10
-9.76292
 20
-241.124179
 30
0.0
  0
VERTEX
  8
0
  6
CONTINUOUS
 62
     3
  5
B6B
 10
-9.497474
 20
-241.273262
 30
0.0
  0
VERTEX
  8
0
  6
CONTINUOUS
 62
     3
  5
B6C
 10
-9.237604
 20
-241.429062
 30
0.0
  0
SEQEND
  8
0
  6
CONTINUOUS
 62
     3
  5
B6D
  0
POLYLINE
  8
0
  6
CONTINUOUS
 62
     3
  5
32E
 66
     1
 10
0.0
 20
0.0
 30
0.0
  0
VERTEX
  8
0
  6
CONTINUOUS
 62
     3
  5
B6E
 10
-18.475209
 20
-251.570938
 30
0.0
  0
VERTEX
  8
0
  6
CONTINUOUS
 62
     3
  5
B6F
 10
-18.215339
 20
-251.726738
 30
0.0
  0
VERTEX
  8
0
  6
CONTINUOUS
 62
     3
  5
B70
 10
-17.949893
 20
-251.875821
 30
0.0
  0
VERTEX
  8
0
  6
CONTINUOUS
 62
     3
  5
B71
 10
-17.679245
 20
-252.017726
 30
0.0
  0
VERTEX
  8
0
  6
CONTINUOUS
 62
     3
  5
B72
 10
-17.403764
 20
-252.151993
 30
0.0
  0
VERTEX
  8
0
  6
CONTINUOUS
 62
     3
  5
B73
 10
-17.123823
 20
-252.278162
 30
0.0
  0
VERTEX
  8
0
  6
CONTINUOUS
 62
     3
  5
B74
 10
-16.839794
 20
-252.395773
 30
0.0
  0
VERTEX
  8
0
  6
CONTINUOUS
 62
     3
  5
B75
 10
-16.552048
 20
-252.504367
 30
0.0
  0
VERTEX
  8
0
  6
CONTINUOUS
 62
     3
  5
B76
 10
-16.260957
 20
-252.603482
 30
0.0
  0
VERTEX
  8
0
  6
CONTINUOUS
 62
     3
  5
B77
 10
-15.966893
 20
-252.692659
 30
0.0
  0
VERTEX
  8
0
  6
CONTINUOUS
 62
     3
  5
B78
 10
-15.670227
 20
-252.771439
 30
0.0
  0
VERTEX
  8
0
  6
CONTINUOUS
 62
     3
  5
B79
 10
-15.37133
 20
-252.83936
 30
0.0
  0
VERTEX
  8
0
  6
CONTINUOUS
 62
     3
  5
B7A
 10
-15.070576
 20
-252.895964
 30
0.0
  0
VERTEX
  8
0
  6
CONTINUOUS
 62
     3
  5
B7B
 10
-14.768334
 20
-252.94079
 30
0.0
  0
VERTEX
  8
0
  6
CONTINUOUS
 62
     3
  5
B7C
 10
-14.464978
 20
-252.973378
 30
0.0
  0
VERTEX
  8
0
  6
CONTINUOUS
 62
     3
  5
B7D
 10
-14.160878
 20
-252.993268
 30
0.0
  0
VERTEX
  8
0
  6
CONTINUOUS
 62
     3
  5
B7E
 10
-13.856406
 20
-253.0
 30
0.0
  0
VERTEX
  8
0
  6
CONTINUOUS
 62
     3
  5
B7F
 10
-13.551935
 20
-252.993268
 30
0.0
  0
VERTEX
  8
0
  6
CONTINUOUS
 62
     3
  5
B80
 10
-13.247835
 20
-252.973378
 30
0.0
  0
VERTEX
  8
0
  6
CONTINUOUS
 62
     3
  5
B81
 10
-12.944479
 20
-252.94079
 30
0.0
  0
VERTEX
  8
0
  6
CONTINUOUS
 62
     3
  5
B82
 10
-12.642237
 20
-252.895964
 30
0.0
  0
VERTEX
  8
0
  6
CONTINUOUS
 62
     3
  5
B83
 10
-12.341483
 20
-252.83936
 30
0.0
  0
VERTEX
  8
0
  6
CONTINUOUS
 62
     3
  5
B84
 10
-12.042586
 20
-252.771439
 30
0.0
  0
VERTEX
  8
0
  6
CONTINUOUS
 62
     3
  5
B85
 10
-11.74592
 20
-252.692659
 30
0.0
  0
VERTEX
  8
0
  6
CONTINUOUS
 62
     3
  5
B86
 10
-11.451856
 20
-252.603482
 30
0.0
  0
VERTEX
  8
0
  6
CONTINUOUS
 62
     3
  5
B87
 10
-11.160765
 20
-252.504367
 30
0.0
  0
VERTEX
  8
0
  6
CONTINUOUS
 62
     3
  5
B88
 10
-10.873019
 20
-252.395773
 30
0.0
  0
VERTEX
  8
0
  6
CONTINUOUS
 62
     3
  5
B89
 10
-10.588989
 20
-252.278162
 30
0.0
  0
VERTEX
  8
0
  6
CONTINUOUS
 62
     3
  5
B8A
 10
-10.309049
 20
-252.151993
 30
0.0
  0
VERTEX
  8
0
  6
CONTINUOUS
 62
     3
  5
B8B
 10
-10.033568
 20
-252.017726
 30
0.0
  0
VERTEX
  8
0
  6
CONTINUOUS
 62
     3
  5
B8C
 10
-9.76292
 20
-251.875821
 30
0.0
  0
VERTEX
  8
0
  6
CONTINUOUS
 62
     3
  5
B8D
 10
-9.497474
 20
-251.726738
 30
0.0
  0
VERTEX
  8
0
  6
CONTINUOUS
 62
     3
  5
B8E
 10
-9.237604
 20
-251.570938
 30
0.0
  0
SEQEND
  8
0
  6
CONTINUOUS
 62
     3
  5
B8F
  0
POLYLINE
  8
0
  6
CONTINUOUS
 62
     3
  5
32F
 66
     1
 10
0.0
 20
0.0
 30
0.0
  0
VERTEX
  8
0
  6
CONTINUOUS
 62
     3
  5
B90
 10
18.475209
 20
-251.570938
 30
0.0
  0
VERTEX
  8
0
  6
CONTINUOUS
 62
     3
  5
B91
 10
18.215339
 20
-251.726738
 30
0.0
  0
VERTEX
  8
0
  6
CONTINUOUS
 62
     3
  5
B92
 10
17.949893
 20
-251.875821
 30
0.0
  0
VERTEX
  8
0
  6
CONTINUOUS
 62
     3
  5
B93
 10
17.679245
 20
-252.017726
 30
0.0
  0
VERTEX
  8
0
  6
CONTINUOUS
 62
     3
  5
B94
 10
17.403764
 20
-252.151993
 30
0.0
  0
VERTEX
  8
0
  6
CONTINUOUS
 62
     3
  5
B95
 10
17.123823
 20
-252.278162
 30
0.0
  0
VERTEX
  8
0
  6
CONTINUOUS
 62
     3
  5
B96
 10
16.839794
 20
-252.395773
 30
0.0
  0
VERTEX
  8
0
  6
CONTINUOUS
 62
     3
  5
B97
 10
16.552048
 20
-252.504367
 30
0.0
  0
VERTEX
  8
0
  6
CONTINUOUS
 62
     3
  5
B98
 10
16.260957
 20
-252.603482
 30
0.0
  0
VERTEX
  8
0
  6
CONTINUOUS
 62
     3
  5
B99
 10
15.966893
 20
-252.692659
 30
0.0
  0
VERTEX
  8
0
  6
CONTINUOUS
 62
     3
  5
B9A
 10
15.670227
 20
-252.771439
 30
0.0
  0
VERTEX
  8
0
  6
CONTINUOUS
 62
     3
  5
B9B
 10
15.37133
 20
-252.83936
 30
0.0
  0
VERTEX
  8
0
  6
CONTINUOUS
 62
     3
  5
B9C
 10
15.070576
 20
-252.895964
 30
0.0
  0
VERTEX
  8
0
  6
CONTINUOUS
 62
     3
  5
B9D
 10
14.768334
 20
-252.94079
 30
0.0
  0
VERTEX
  8
0
  6
CONTINUOUS
 62
     3
  5
B9E
 10
14.464978
 20
-252.973378
 30
0.0
  0
VERTEX
  8
0
  6
CONTINUOUS
 62
     3
  5
B9F
 10
14.160878
 20
-252.993268
 30
0.0
  0
VERTEX
  8
0
  6
CONTINUOUS
 62
     3
  5
BA0
 10
13.856406
 20
-253.0
 30
0.0
  0
VERTEX
  8
0
  6
CONTINUOUS
 62
     3
  5
BA1
 10
13.551935
 20
-252.993268
 30
0.0
  0
VERTEX
  8
0
  6
CONTINUOUS
 62
     3
  5
BA2
 10
13.247835
 20
-252.973378
 30
0.0
  0
VERTEX
  8
0
  6
CONTINUOUS
 62
     3
  5
BA3
 10
12.944479
 20
-252.94079
 30
0.0
  0
VERTEX
  8
0
  6
CONTINUOUS
 62
     3
  5
BA4
 10
12.642237
 20
-252.895964
 30
0.0
  0
VERTEX
  8
0
  6
CONTINUOUS
 62
     3
  5
BA5
 10
12.341483
 20
-252.83936
 30
0.0
  0
VERTEX
  8
0
  6
CONTINUOUS
 62
     3
  5
BA6
 10
12.042586
 20
-252.771439
 30
0.0
  0
VERTEX
  8
0
  6
CONTINUOUS
 62
     3
  5
BA7
 10
11.74592
 20
-252.692659
 30
0.0
  0
VERTEX
  8
0
  6
CONTINUOUS
 62
     3
  5
BA8
 10
11.451856
 20
-252.603482
 30
0.0
  0
VERTEX
  8
0
  6
CONTINUOUS
 62
     3
  5
BA9
 10
11.160765
 20
-252.504367
 30
0.0
  0
VERTEX
  8
0
  6
CONTINUOUS
 62
     3
  5
BAA
 10
10.873019
 20
-252.395773
 30
0.0
  0
VERTEX
  8
0
  6
CONTINUOUS
 62
     3
  5
BAB
 10
10.588989
 20
-252.278162
 30
0.0
  0
VERTEX
  8
0
  6
CONTINUOUS
 62
     3
  5
BAC
 10
10.309049
 20
-252.151993
 30
0.0
  0
VERTEX
  8
0
  6
CONTINUOUS
 62
     3
  5
BAD
 10
10.033568
 20
-252.017726
 30
0.0
  0
VERTEX
  8
0
  6
CONTINUOUS
 62
     3
  5
BAE
 10
9.76292
 20
-251.875821
 30
0.0
  0
VERTEX
  8
0
  6
CONTINUOUS
 62
     3
  5
BAF
 10
9.497474
 20
-251.726738
 30
0.0
  0
VERTEX
  8
0
  6
CONTINUOUS
 62
     3
  5
BB0
 10
9.237604
 20
-251.570938
 30
0.0
  0
SEQEND
  8
0
  6
CONTINUOUS
 62
     3
  5
BB1
  0
POLYLINE
  8
0
  6
CONTINUOUS
 62
     3
  5
330
 66
     1
 10
0.0
 20
0.0
 30
0.0
  0
VERTEX
  8
0
  6
CONTINUOUS
 62
     3
  5
BB2
 10
9.237604
 20
-251.570938
 30
0.0
  0
VERTEX
  8
0
  6
CONTINUOUS
 62
     3
  5
BB3
 10
8.677724
 20
-251.738757
 30
0.0
  0
VERTEX
  8
0
  6
CONTINUOUS
 62
     3
  5
BB4
 10
8.114462
 20
-251.896761
 30
0.0
  0
VERTEX
  8
0
  6
CONTINUOUS
 62
     3
  5
BB5
 10
7.548045
 20
-252.044809
 30
0.0
  0
VERTEX
  8
0
  6
CONTINUOUS
 62
     3
  5
BB6
 10
6.978697
 20
-252.182761
 30
0.0
  0
VERTEX
  8
0
  6
CONTINUOUS
 62
     3
  5
BB7
 10
6.406644
 20
-252.31048
 30
0.0
  0
VERTEX
  8
0
  6
CONTINUOUS
 62
     3
  5
BB8
 10
5.832111
 20
-252.427824
 30
0.0
  0
VERTEX
  8
0
  6
CONTINUOUS
 62
     3
  5
BB9
 10
5.255325
 20
-252.534654
 30
0.0
  0
VERTEX
  8
0
  6
CONTINUOUS
 62
     3
  5
BBA
 10
4.676509
 20
-252.630831
 30
0.0
  0
VERTEX
  8
0
  6
CONTINUOUS
 62
     3
  5
BBB
 10
4.09589
 20
-252.716216
 30
0.0
  0
VERTEX
  8
0
  6
CONTINUOUS
 62
     3
  5
BBC
 10
3.513694
 20
-252.790669
 30
0.0
  0
VERTEX
  8
0
  6
CONTINUOUS
 62
     3
  5
BBD
 10
2.930144
 20
-252.85405
 30
0.0
  0
VERTEX
  8
0
  6
CONTINUOUS
 62
     3
  5
BBE
 10
2.345468
 20
-252.90622
 30
0.0
  0
VERTEX
  8
0
  6
CONTINUOUS
 62
     3
  5
BBF
 10
1.75989
 20
-252.947039
 30
0.0
  0
VERTEX
  8
0
  6
CONTINUOUS
 62
     3
  5
BC0
 10
1.173636
 20
-252.976369
 30
0.0
  0
VERTEX
  8
0
  6
CONTINUOUS
 62
     3
  5
BC1
 10
0.586931
 20
-252.994069
 30
0.0
  0
VERTEX
  8
0
  6
CONTINUOUS
 62
     3
  5
BC2
 10
0.0
 20
-253.0
 30
0.0
  0
VERTEX
  8
0
  6
CONTINUOUS
 62
     3
  5
BC3
 10
-0.586931
 20
-252.994069
 30
0.0
  0
VERTEX
  8
0
  6
CONTINUOUS
 62
     3
  5
BC4
 10
-1.173636
 20
-252.976369
 30
0.0
  0
VERTEX
  8
0
  6
CONTINUOUS
 62
     3
  5
BC5
 10
-1.75989
 20
-252.947039
 30
0.0
  0
VERTEX
  8
0
  6
CONTINUOUS
 62
     3
  5
BC6
 10
-2.345468
 20
-252.90622
 30
0.0
  0
VERTEX
  8
0
  6
CONTINUOUS
 62
     3
  5
BC7
 10
-2.930144
 20
-252.85405
 30
0.0
  0
VERTEX
  8
0
  6
CONTINUOUS
 62
     3
  5
BC8
 10
-3.513694
 20
-252.790669
 30
0.0
  0
VERTEX
  8
0
  6
CONTINUOUS
 62
     3
  5
BC9
 10
-4.09589
 20
-252.716216
 30
0.0
  0
VERTEX
  8
0
  6
CONTINUOUS
 62
     3
  5
BCA
 10
-4.676509
 20
-252.630831
 30
0.0
  0
VERTEX
  8
0
  6
CONTINUOUS
 62
     3
  5
BCB
 10
-5.255325
 20
-252.534654
 30
0.0
  0
VERTEX
  8
0
  6
CONTINUOUS
 62
     3
  5
BCC
 10
-5.832111
 20
-252.427824
 30
0.0
  0
VERTEX
  8
0
  6
CONTINUOUS
 62
     3
  5
BCD
 10
-6.406644
 20
-252.31048
 30
0.0
  0
VERTEX
  8
0
  6
CONTINUOUS
 62
     3
  5
BCE
 10
-6.978697
 20
-252.182761
 30
0.0
  0
VERTEX
  8
0
  6
CONTINUOUS
 62
     3
  5
BCF
 10
-7.548045
 20
-252.044809
 30
0.0
  0
VERTEX
  8
0
  6
CONTINUOUS
 62
     3
  5
BD0
 10
-8.114462
 20
-251.896761
 30
0.0
  0
VERTEX
  8
0
  6
CONTINUOUS
 62
     3
  5
BD1
 10
-8.677724
 20
-251.738757
 30
0.0
  0
VERTEX
  8
0
  6
CONTINUOUS
 62
     3
  5
BD2
 10
-9.237604
 20
-251.570938
 30
0.0
  0
SEQEND
  8
0
  6
CONTINUOUS
 62
     3
  5
BD3
  0
POLYLINE
  8
0
  6
CONTINUOUS
 62
     3
  5
331
 66
     1
 10
0.0
 20
0.0
 30
0.0
  0
VERTEX
  8
0
  6
CONTINUOUS
 62
     3
  5
BD4
 10
9.237604
 20
-241.429062
 30
0.0
  0
VERTEX
  8
0
  6
CONTINUOUS
 62
     3
  5
BD5
 10
8.677724
 20
-241.261243
 30
0.0
  0
VERTEX
  8
0
  6
CONTINUOUS
 62
     3
  5
BD6
 10
8.114462
 20
-241.103239
 30
0.0
  0
VERTEX
  8
0
  6
CONTINUOUS
 62
     3
  5
BD7
 10
7.548045
 20
-240.955191
 30
0.0
  0
VERTEX
  8
0
  6
CONTINUOUS
 62
     3
  5
BD8
 10
6.978697
 20
-240.817239
 30
0.0
  0
VERTEX
  8
0
  6
CONTINUOUS
 62
     3
  5
BD9
 10
6.406644
 20
-240.68952
 30
0.0
  0
VERTEX
  8
0
  6
CONTINUOUS
 62
     3
  5
BDA
 10
5.832111
 20
-240.572176
 30
0.0
  0
VERTEX
  8
0
  6
CONTINUOUS
 62
     3
  5
BDB
 10
5.255325
 20
-240.465346
 30
0.0
  0
VERTEX
  8
0
  6
CONTINUOUS
 62
     3
  5
BDC
 10
4.676509
 20
-240.369169
 30
0.0
  0
VERTEX
  8
0
  6
CONTINUOUS
 62
     3
  5
BDD
 10
4.09589
 20
-240.283784
 30
0.0
  0
VERTEX
  8
0
  6
CONTINUOUS
 62
     3
  5
BDE
 10
3.513694
 20
-240.209331
 30
0.0
  0
VERTEX
  8
0
  6
CONTINUOUS
 62
     3
  5
BDF
 10
2.930144
 20
-240.14595
 30
0.0
  0
VERTEX
  8
0
  6
CONTINUOUS
 62
     3
  5
BE0
 10
2.345468
 20
-240.09378
 30
0.0
  0
VERTEX
  8
0
  6
CONTINUOUS
 62
     3
  5
BE1
 10
1.75989
 20
-240.052961
 30
0.0
  0
VERTEX
  8
0
  6
CONTINUOUS
 62
     3
  5
BE2
 10
1.173636
 20
-240.023631
 30
0.0
  0
VERTEX
  8
0
  6
CONTINUOUS
 62
     3
  5
BE3
 10
0.586931
 20
-240.005931
 30
0.0
  0
VERTEX
  8
0
  6
CONTINUOUS
 62
     3
  5
BE4
 10
0.0
 20
-240.0
 30
0.0
  0
VERTEX
  8
0
  6
CONTINUOUS
 62
     3
  5
BE5
 10
-0.586931
 20
-240.005931
 30
0.0
  0
VERTEX
  8
0
  6
CONTINUOUS
 62
     3
  5
BE6
 10
-1.173636
 20
-240.023631
 30
0.0
  0
VERTEX
  8
0
  6
CONTINUOUS
 62
     3
  5
BE7
 10
-1.75989
 20
-240.052961
 30
0.0
  0
VERTEX
  8
0
  6
CONTINUOUS
 62
     3
  5
BE8
 10
-2.345468
 20
-240.09378
 30
0.0
  0
VERTEX
  8
0
  6
CONTINUOUS
 62
     3
  5
BE9
 10
-2.930144
 20
-240.14595
 30
0.0
  0
VERTEX
  8
0
  6
CONTINUOUS
 62
     3
  5
BEA
 10
-3.513694
 20
-240.209331
 30
0.0
  0
VERTEX
  8
0
  6
CONTINUOUS
 62
     3
  5
BEB
 10
-4.09589
 20
-240.283784
 30
0.0
  0
VERTEX
  8
0
  6
CONTINUOUS
 62
     3
  5
BEC
 10
-4.676509
 20
-240.369169
 30
0.0
  0
VERTEX
  8
0
  6
CONTINUOUS
 62
     3
  5
BED
 10
-5.255325
 20
-240.465346
 30
0.0
  0
VERTEX
  8
0
  6
CONTINUOUS
 62
     3
  5
BEE
 10
-5.832111
 20
-240.572176
 30
0.0
  0
VERTEX
  8
0
  6
CONTINUOUS
 62
     3
  5
BEF
 10
-6.406644
 20
-240.68952
 30
0.0
  0
VERTEX
  8
0
  6
CONTINUOUS
 62
     3
  5
BF0
 10
-6.978697
 20
-240.817239
 30
0.0
  0
VERTEX
  8
0
  6
CONTINUOUS
 62
     3
  5
BF1
 10
-7.548045
 20
-240.955191
 30
0.0
  0
VERTEX
  8
0
  6
CONTINUOUS
 62
     3
  5
BF2
 10
-8.114462
 20
-241.103239
 30
0.0
  0
VERTEX
  8
0
  6
CONTINUOUS
 62
     3
  5
BF3
 10
-8.677724
 20
-241.261243
 30
0.0
  0
VERTEX
  8
0
  6
CONTINUOUS
 62
     3
  5
BF4
 10
-9.237604
 20
-241.429062
 30
0.0
  0
SEQEND
  8
0
  6
CONTINUOUS
 62
     3
  5
BF5
  0
POLYLINE
  8
0
  6
CONTINUOUS
 62
     3
  5
332
 66
     1
 10
0.0
 20
0.0
 30
0.0
  0
VERTEX
  8
0
  6
CONTINUOUS
 62
     3
  5
BF6
 10
18.475209
 20
-241.429062
 30
0.0
  0
VERTEX
  8
0
  6
CONTINUOUS
 62
     3
  5
BF7
 10
18.215339
 20
-241.273262
 30
0.0
  0
VERTEX
  8
0
  6
CONTINUOUS
 62
     3
  5
BF8
 10
17.949893
 20
-241.124179
 30
0.0
  0
VERTEX
  8
0
  6
CONTINUOUS
 62
     3
  5
BF9
 10
17.679245
 20
-240.982274
 30
0.0
  0
VERTEX
  8
0
  6
CONTINUOUS
 62
     3
  5
BFA
 10
17.403764
 20
-240.848007
 30
0.0
  0
VERTEX
  8
0
  6
CONTINUOUS
 62
     3
  5
BFB
 10
17.123823
 20
-240.721838
 30
0.0
  0
VERTEX
  8
0
  6
CONTINUOUS
 62
     3
  5
BFC
 10
16.839794
 20
-240.604227
 30
0.0
  0
VERTEX
  8
0
  6
CONTINUOUS
 62
     3
  5
BFD
 10
16.552048
 20
-240.495633
 30
0.0
  0
VERTEX
  8
0
  6
CONTINUOUS
 62
     3
  5
BFE
 10
16.260957
 20
-240.396518
 30
0.0
  0
VERTEX
  8
0
  6
CONTINUOUS
 62
     3
  5
BFF
 10
15.966893
 20
-240.307341
 30
0.0
  0
VERTEX
  8
0
  6
CONTINUOUS
 62
     3
  5
C00
 10
15.670227
 20
-240.228561
 30
0.0
  0
VERTEX
  8
0
  6
CONTINUOUS
 62
     3
  5
C01
 10
15.37133
 20
-240.16064
 30
0.0
  0
VERTEX
  8
0
  6
CONTINUOUS
 62
     3
  5
C02
 10
15.070576
 20
-240.104036
 30
0.0
  0
VERTEX
  8
0
  6
CONTINUOUS
 62
     3
  5
C03
 10
14.768334
 20
-240.05921
 30
0.0
  0
VERTEX
  8
0
  6
CONTINUOUS
 62
     3
  5
C04
 10
14.464978
 20
-240.026622
 30
0.0
  0
VERTEX
  8
0
  6
CONTINUOUS
 62
     3
  5
C05
 10
14.160878
 20
-240.006732
 30
0.0
  0
VERTEX
  8
0
  6
CONTINUOUS
 62
     3
  5
C06
 10
13.856406
 20
-240.0
 30
0.0
  0
VERTEX
  8
0
  6
CONTINUOUS
 62
     3
  5
C07
 10
13.551935
 20
-240.006732
 30
0.0
  0
VERTEX
  8
0
  6
CONTINUOUS
 62
     3
  5
C08
 10
13.247835
 20
-240.026622
 30
0.0
  0
VERTEX
  8
0
  6
CONTINUOUS
 62
     3
  5
C09
 10
12.944479
 20
-240.05921
 30
0.0
  0
VERTEX
  8
0
  6
CONTINUOUS
 62
     3
  5
C0A
 10
12.642237
 20
-240.104036
 30
0.0
  0
VERTEX
  8
0
  6
CONTINUOUS
 62
     3
  5
C0B
 10
12.341483
 20
-240.16064
 30
0.0
  0
VERTEX
  8
0
  6
CONTINUOUS
 62
     3
  5
C0C
 10
12.042586
 20
-240.228561
 30
0.0
  0
VERTEX
  8
0
  6
CONTINUOUS
 62
     3
  5
C0D
 10
11.74592
 20
-240.307341
 30
0.0
  0
VERTEX
  8
0
  6
CONTINUOUS
 62
     3
  5
C0E
 10
11.451856
 20
-240.396518
 30
0.0
  0
VERTEX
  8
0
  6
CONTINUOUS
 62
     3
  5
C0F
 10
11.160765
 20
-240.495633
 30
0.0
  0
VERTEX
  8
0
  6
CONTINUOUS
 62
     3
  5
C10
 10
10.873019
 20
-240.604227
 30
0.0
  0
VERTEX
  8
0
  6
CONTINUOUS
 62
     3
  5
C11
 10
10.588989
 20
-240.721838
 30
0.0
  0
VERTEX
  8
0
  6
CONTINUOUS
 62
     3
  5
C12
 10
10.309049
 20
-240.848007
 30
0.0
  0
VERTEX
  8
0
  6
CONTINUOUS
 62
     3
  5
C13
 10
10.033568
 20
-240.982274
 30
0.0
  0
VERTEX
  8
0
  6
CONTINUOUS
 62
     3
  5
C14
 10
9.76292
 20
-241.124179
 30
0.0
  0
VERTEX
  8
0
  6
CONTINUOUS
 62
     3
  5
C15
 10
9.497474
 20
-241.273262
 30
0.0
  0
VERTEX
  8
0
  6
CONTINUOUS
 62
     3
  5
C16
 10
9.237604
 20
-241.429062
 30
0.0
  0
SEQEND
  8
0
  6
CONTINUOUS
 62
     3
  5
C17
  0
ARC
  8
0
  6
CONTINUOUS
 62
     3
  5
333
 10
-9.0
 20
-287.0
 30
0.0
 40
1.0
 50
180.0
 51
270.0
  0
ARC
  8
0
  6
CONTINUOUS
 62
     3
  5
334
 10
9.0
 20
-287.0
 30
0.0
 40
1.0
 50
270.0
 51
0.0
  0
LINE
  8
0
  6
CONTINUOUS
 62
     3
  5
335
 10
18.5
 20
-265.0
 30
0.0
 11
-18.5
 21
-265.0
 31
0.0
  0
LINE
  8
0
  6
CONTINUOUS
 62
     3
  5
336
 10
-9.237604
 20
-266.429062
 30
0.0
 11
-9.237604
 21
-276.570938
 31
0.0
  0
LINE
  8
0
  6
CONTINUOUS
 62
     3
  5
337
 10
-18.5
 20
-262.0
 30
0.0
 11
-18.5
 21
-265.0
 31
0.0
  0
LINE
  8
0
  6
CONTINUOUS
 62
     3
  5
338
 10
-18.5
 20
-262.0
 30
0.0
 11
52.0
 21
-262.0
 31
0.0
  0
LINE
  8
0
  6
CONTINUOUS
 62
     3
  5
339
 10
18.475209
 20
-266.429062
 30
0.0
 11
18.475209
 21
-276.570938
 31
0.0
  0
LINE
  8
0
  6
CONTINUOUS
 62
     3
  5
33A
 10
18.475209
 20
-276.570938
 30
0.0
 11
16.0
 21
-278.0
 31
0.0
  0
LINE
  8
0
  6
CONTINUOUS
 62
     3
  5
33B
 10
16.0
 20
-278.0
 30
0.0
 11
-16.0
 21
-278.0
 31
0.0
  0
LINE
  8
0
  6
CONTINUOUS
 62
     3
  5
33C
 10
18.5
 20
-262.0
 30
0.0
 11
18.5
 21
-265.0
 31
0.0
  0
LINE
  8
0
  6
CONTINUOUS
 62
     3
  5
33D
 10
9.237604
 20
-266.429062
 30
0.0
 11
9.237604
 21
-276.570938
 31
0.0
  0
LINE
  8
0
  6
CONTINUOUS
 62
     3
  5
33E
 10
18.475209
 20
-266.429062
 30
0.0
 11
16.0
 21
-265.0
 31
0.0
  0
LINE
  8
0
  6
CONTINUOUS
 62
     3
  5
33F
 10
-18.475209
 20
-266.429062
 30
0.0
 11
-16.0
 21
-265.0
 31
0.0
  0
LINE
  8
0
  6
CONTINUOUS
 62
     3
  5
340
 10
-18.475209
 20
-276.570938
 30
0.0
 11
-16.0
 21
-278.0
 31
0.0
  0
LINE
  8
0
  6
CONTINUOUS
 62
     3
  5
341
 10
-18.475209
 20
-266.429062
 30
0.0
 11
-18.475209
 21
-276.570938
 31
0.0
  0
LINE
  8
0
  6
CONTINUOUS
 62
     3
  5
342
 10
-18.5
 20
-258.0
 30
0.0
 11
-18.5
 21
-253.0
 31
0.0
  0
LINE
  8
0
  6
CONTINUOUS
 62
     3
  5
343
 10
18.5
 20
-258.0
 30
0.0
 11
18.5
 21
-253.0
 31
0.0
  0
LINE
  8
0
  6
CONTINUOUS
 62
     3
  5
344
 10
-18.475209
 20
-251.570938
 30
0.0
 11
-18.475209
 21
-241.429062
 31
0.0
  0
LINE
  8
0
  6
CONTINUOUS
 62
     3
  5
345
 10
-18.475209
 20
-241.429062
 30
0.0
 11
-16.0
 21
-240.0
 31
0.0
  0
LINE
  8
0
  6
CONTINUOUS
 62
     3
  5
346
 10
-18.475209
 20
-251.570938
 30
0.0
 11
-16.0
 21
-253.0
 31
0.0
  0
LINE
  8
0
  6
CONTINUOUS
 62
     3
  5
347
 10
18.475209
 20
-251.570938
 30
0.0
 11
16.0
 21
-253.0
 31
0.0
  0
LINE
  8
0
  6
CONTINUOUS
 62
     3
  5
348
 10
-9.237604
 20
-251.570938
 30
0.0
 11
-9.237604
 21
-241.429062
 31
0.0
  0
LINE
  8
0
  6
CONTINUOUS
 62
     3
  5
349
 10
18.475209
 20
-241.429062
 30
0.0
 11
16.0
 21
-240.0
 31
0.0
  0
LINE
  8
0
  6
CONTINUOUS
 62
     3
  5
34A
 10
18.475209
 20
-251.570938
 30
0.0
 11
18.475209
 21
-241.429062
 31
0.0
  0
LINE
  8
0
  6
CONTINUOUS
 62
     3
  5
34B
 10
9.237604
 20
-251.570938
 30
0.0
 11
9.237604
 21
-241.429062
 31
0.0
  0
LINE
  8
0
  6
CONTINUOUS
 62
     3
  5
34C
 10
10.0
 20
-284.0
 30
0.0
 11
10.0
 21
-287.0
 31
0.0
  0
LINE
  8
0
  6
CONTINUOUS
 62
     3
  5
34D
 10
-10.0
 20
-284.0
 30
0.0
 11
-10.0
 21
-287.0
 31
0.0
  0
LINE
  8
0
  6
CONTINUOUS
 62
     3
  5
34E
 10
9.0
 20
-288.0
 30
0.0
 11
-9.0
 21
-288.0
 31
0.0
  0
LINE
  8
0
  6
CONTINUOUS
 62
     3
  5
34F
 10
9.5
 20
-284.0
 30
0.0
 11
9.5
 21
-278.0
 31
0.0
  0
LINE
  8
0
  6
CONTINUOUS
 62
     3
  5
350
 10
-9.5
 20
-284.0
 30
0.0
 11
-9.5
 21
-278.0
 31
0.0
  0
LINE
  8
0
  6
CONTINUOUS
 62
     3
  5
351
 10
11.0
 20
-282.5
 30
0.0
 11
-11.0
 21
-282.5
 31
0.0
  0
LINE
  8
0
  6
CONTINUOUS
 62
     3
  5
352
 10
9.5
 20
-284.0
 30
0.0
 11
11.0
 21
-282.5
 31
0.0
  0
LINE
  8
0
  6
CONTINUOUS
 62
     3
  5
353
 10
-9.5
 20
-284.0
 30
0.0
 11
-11.0
 21
-282.5
 31
0.0
  0
LINE
  8
0
  6
CONTINUOUS
 62
     3
  5
354
 10
11.0
 20
-282.5
 30
0.0
 11
11.0
 21
-278.0
 31
0.0
  0
LINE
  8
0
  6
CONTINUOUS
 62
     3
  5
355
 10
-11.0
 20
-282.5
 30
0.0
 11
-11.0
 21
-278.0
 31
0.0
  0
LINE
  8
0
  6
CONTINUOUS
 62
     3
  5
356
 10
10.0
 20
-284.0
 30
0.0
 11
-10.0
 21
-284.0
 31
0.0
  0
LINE
  8
0
  6
CONTINUOUS
 62
     3
  5
357
 10
16.0
 20
-240.0
 30
0.0
 11
-16.0
 21
-240.0
 31
0.0
  0
LINE
  8
0
  6
CONTINUOUS
 62
     3
  5
358
 10
-16.1
 20
-258.0
 30
0.0
 11
-16.1
 21
-262.0
 31
0.0
  0
LINE
  8
0
  6
CONTINUOUS
 62
     3
  5
359
 10
18.5
 20
-256.0
 30
0.0
 11
-18.5
 21
-256.0
 31
0.0
  0
LINE
  8
0
  6
CONTINUOUS
 62
     3
  5
35A
 10
18.5
 20
-253.0
 30
0.0
 11
-18.5
 21
-253.0
 31
0.0
  0
ENDBLK
  8
0
  5
35B
  0
BLOCK
  8
0
  5
35C
  2
MS_14
 70
     0
 10
0.0
 20
0.0
 30
0.0
  3
MS_14
  0
LINE
  8
0
  6
CONTINUOUS
 62
     3
  5
35D
 10
29.5
 20
0.0
 30
0.0
 11
-29.5
 21
0.0
 31
0.0
  0
LINE
  8
0
  6
CONTINUOUS
 62
     3
  5
35E
 10
28.627105
 20
-16.5
 30
0.0
 11
-28.618528
 21
-16.5
 31
0.0
  0
LINE
  8
0
  6
CONTINUOUS
 62
     3
  5
35F
 10
-15.5
 20
-36.5
 30
0.0
 11
15.5
 21
-36.5
 31
0.0
  0
LINE
  8
0
  6
CONTINUOUS
 62
     3
  5
360
 10
-29.875622
 20
-7.617065
 30
0.0
 11
-30.0
 21
-0.491422
 31
0.0
  0
ARC
  8
0
  6
CONTINUOUS
 62
     3
  5
361
 10
-26.658771
 20
-26.5
 30
0.0
 40
10.0
 50
1.0
 51
90.0
  0
ARC
  8
0
  6
CONTINUOUS
 62
     3
  5
362
 10
20.062354
 20
-5.12738
 30
0.0
 40
50.0
 50
182.85415
 51
193.147131
  0
ARC
  8
0
  6
CONTINUOUS
 62
     3
  5
363
 10
-15.5
 20
-35.5
 30
0.0
 40
1.0
 50
180.0
 51
270.0
  0
LINE
  8
0
  6
CONTINUOUS
 62
     3
  5
364
 10
-16.499848
 20
-35.517452
 30
0.0
 11
-16.660294
 21
-26.325476
 31
0.0
  0
ARC
  8
0
  6
CONTINUOUS
 62
     3
  5
365
 10
-20.062355
 20
-5.12738
 30
0.0
 40
50.0
 50
346.852869
 51
357.14585
  0
ARC
  8
0
  6
CONTINUOUS
 62
     3
  5
366
 10
26.658771
 20
-26.5
 30
0.0
 40
10.0
 50
90.0
 51
179.0
  0
ARC
  8
0
  6
CONTINUOUS
 62
     3
  5
367
 10
15.5
 20
-35.5
 30
0.0
 40
1.0
 50
270.0
 51
0.0
  0
LINE
  8
0
  6
CONTINUOUS
 62
     3
  5
368
 10
16.499847
 20
-35.517452
 30
0.0
 11
16.660294
 21
-26.325476
 31
0.0
  0
LINE
  8
0
  6
CONTINUOUS
 62
     3
  5
369
 10
-29.508579
 20
0.0
 30
0.0
 11
-30.000001
 21
-0.491422
 31
0.0
  0
LINE
  8
0
  6
CONTINUOUS
 62
     3
  5
36A
 10
29.508578
 20
0.0
 30
0.0
 11
30.0
 21
-0.491422
 31
0.0
  0
LINE
  8
0
  6
CONTINUOUS
 62
     3
  5
36B
 10
29.875621
 20
-7.617065
 30
0.0
 11
30.0
 21
-0.491422
 31
0.0
  0
ENDBLK
  8
0
  5
36C
  0
BLOCK
  8
0
  5
36D
  2
MS_15
 70
     0
 10
0.0
 20
0.0
 30
0.0
  3
MS_15
  0
LINE
  8
0
  6
CONTINUOUS
 62
     3
  5
36E
 10
-30.0
 20
-0.5
 30
0.0
 11
-30.0
 21
-39.5
 31
0.0
  0
LINE
  8
0
  6
CONTINUOUS
 62
     3
  5
36F
 10
30.0
 20
-0.5
 30
0.0
 11
30.0
 21
-39.5
 31
0.0
  0
LINE
  8
0
  6
CONTINUOUS
 62
     3
  5
370
 10
9.800001
 20
-43.19981
 30
0.0
 11
9.76509
 21
-45.19981
 31
0.0
  0
LINE
  8
0
  6
CONTINUOUS
 62
     3
  5
371
 10
-3.542398
 20
-48.49981
 30
0.0
 11
3.542399
 21
-48.49981
 31
0.0
  0
LINE
  8
0
  6
CONTINUOUS
 62
     3
  5
372
 10
-0.160692
 20
-43.19981
 30
0.0
 11
-0.147463
 21
-45.19981
 31
0.0
  0
LINE
  8
0
  6
CONTINUOUS
 62
     3
  5
373
 10
0.160693
 20
-43.19981
 30
0.0
 11
0.147464
 21
-45.19981
 31
0.0
  0
LINE
  8
0
  6
CONTINUOUS
 62
     3
  5
374
 10
-9.799999
 20
-43.19981
 30
0.0
 11
9.800001
 21
-43.19981
 31
0.0
  0
LINE
  8
0
  6
CONTINUOUS
 62
     3
  5
375
 10
7.694063
 20
-47.89981
 30
0.0
 11
7.741192
 21
-45.19981
 31
0.0
  0
LINE
  8
0
  6
CONTINUOUS
 62
     3
  5
376
 10
5.78832
 20
-47.89981
 30
0.0
 11
5.741192
 21
-45.19981
 31
0.0
  0
LINE
  8
0
  6
CONTINUOUS
 62
     3
  5
377
 10
5.78832
 20
-47.89981
 30
0.0
 11
7.694063
 21
-47.89981
 31
0.0
  0
LINE
  8
0
  6
CONTINUOUS
 62
     3
  5
378
 10
9.323545
 20
-43.19981
 30
0.0
 11
9.286635
 21
-45.19981
 31
0.0
  0
LINE
  8
0
  6
CONTINUOUS
 62
     3
  5
379
 10
8.657738
 20
-43.19981
 30
0.0
 11
8.621276
 21
-45.19981
 31
0.0
  0
LINE
  8
0
  6
CONTINUOUS
 62
     3
  5
37A
 10
2.04765
 20
-43.19981
 30
0.0
 11
2.028637
 21
-45.19981
 31
0.0
  0
LINE
  8
0
  6
CONTINUOUS
 62
     3
  5
37B
 10
3.680732
 20
-43.19981
 30
0.0
 11
3.656513
 21
-45.19981
 31
0.0
  0
LINE
  8
0
  6
CONTINUOUS
 62
     3
  5
37C
 10
5.201977
 20
-43.19981
 30
0.0
 11
5.173288
 21
-45.19981
 31
0.0
  0
LINE
  8
0
  6
CONTINUOUS
 62
     3
  5
37D
 10
6.565163
 20
-43.19981
 30
0.0
 11
6.532875
 21
-45.19981
 31
0.0
  0
LINE
  8
0
  6
CONTINUOUS
 62
     3
  5
37E
 10
7.728869
 20
-43.19981
 30
0.0
 11
7.693964
 21
-45.19981
 31
0.0
  0
LINE
  8
0
  6
CONTINUOUS
 62
     3
  5
37F
 10
3.600001
 20
-45.19981
 30
0.0
 11
3.542399
 21
-48.49981
 31
0.0
  0
LINE
  8
0
  6
CONTINUOUS
 62
     3
  5
380
 10
-7.694062
 20
-47.89981
 30
0.0
 11
-7.741191
 21
-45.19981
 31
0.0
  0
LINE
  8
0
  6
CONTINUOUS
 62
     3
  5
381
 10
-5.788319
 20
-47.89981
 30
0.0
 11
-5.741191
 21
-45.19981
 31
0.0
  0
LINE
  8
0
  6
CONTINUOUS
 62
     3
  5
382
 10
-5.788319
 20
-47.89981
 30
0.0
 11
-7.694062
 21
-47.89981
 31
0.0
  0
LINE
  8
0
  6
CONTINUOUS
 62
     3
  5
383
 10
-5.201976
 20
-43.19981
 30
0.0
 11
-5.173287
 21
-45.19981
 31
0.0
  0
LINE
  8
0
  6
CONTINUOUS
 62
     3
  5
384
 10
-6.565162
 20
-43.19981
 30
0.0
 11
-6.532874
 21
-45.19981
 31
0.0
  0
LINE
  8
0
  6
CONTINUOUS
 62
     3
  5
385
 10
-7.728868
 20
-43.19981
 30
0.0
 11
-7.693963
 21
-45.19981
 31
0.0
  0
LINE
  8
0
  6
CONTINUOUS
 62
     3
  5
386
 10
-8.657736
 20
-43.19981
 30
0.0
 11
-8.621275
 21
-45.19981
 31
0.0
  0
LINE
  8
0
  6
CONTINUOUS
 62
     3
  5
387
 10
-9.323544
 20
-43.19981
 30
0.0
 11
-9.286634
 21
-45.19981
 31
0.0
  0
LINE
  8
0
  6
CONTINUOUS
 62
     3
  5
388
 10
-9.799999
 20
-43.19981
 30
0.0
 11
-9.765089
 21
-45.19981
 31
0.0
  0
LINE
  8
0
  6
CONTINUOUS
 62
     3
  5
389
 10
-2.047649
 20
-43.19981
 30
0.0
 11
-2.028636
 21
-45.19981
 31
0.0
  0
LINE
  8
0
  6
CONTINUOUS
 62
     3
  5
38A
 10
-3.680731
 20
-43.19981
 30
0.0
 11
-3.656512
 21
-45.19981
 31
0.0
  0
LINE
  8
0
  6
CONTINUOUS
 62
     3
  5
38B
 10
-3.599999
 20
-45.19981
 30
0.0
 11
-3.542398
 21
-48.49981
 31
0.0
  0
LINE
  8
0
  6
CONTINUOUS
 62
     3
  5
38C
 10
-9.765089
 20
-45.19981
 30
0.0
 11
9.76509
 21
-45.19981
 31
0.0
  0
LINE
  8
0
  6
CONTINUOUS
 62
     3
  5
38D
 10
29.875622
 20
-62.417065
 30
0.0
 11
30.0
 21
-55.291422
 31
0.0
  0
LINE
  8
0
  6
CONTINUOUS
 62
     3
  5
38E
 10
29.508579
 20
-54.8
 30
0.0
 11
30.000001
 21
-55.291422
 31
0.0
  0
LINE
  8
0
  6
CONTINUOUS
 62
     3
  5
38F
 10
-29.508578
 20
-54.8
 30
0.0
 11
-30.0
 21
-55.291422
 31
0.0
  0
LINE
  8
0
  6
CONTINUOUS
 62
     3
  5
390
 10
16.499848
 20
-90.317452
 30
0.0
 11
16.660294
 21
-81.125476
 31
0.0
  0
ARC
  8
0
  6
CONTINUOUS
 62
     3
  5
391
 10
15.500001
 20
-90.3
 30
0.0
 40
1.0
 50
270.0
 51
0.0
  0
ARC
  8
0
  6
CONTINUOUS
 62
     3
  5
392
 10
26.658771
 20
-81.3
 30
0.0
 40
10.0
 50
90.0
 51
179.0
  0
ARC
  8
0
  6
CONTINUOUS
 62
     3
  5
393
 10
-20.062354
 20
-59.92738
 30
0.0
 40
50.0
 50
346.852869
 51
357.14585
  0
LINE
  8
0
  6
CONTINUOUS
 62
     3
  5
394
 10
-16.499847
 20
-90.317452
 30
0.0
 11
-16.660294
 21
-81.125476
 31
0.0
  0
ARC
  8
0
  6
CONTINUOUS
 62
     3
  5
395
 10
-15.499999
 20
-90.3
 30
0.0
 40
1.0
 50
180.0
 51
270.0
  0
ARC
  8
0
  6
CONTINUOUS
 62
     3
  5
396
 10
20.062355
 20
-59.92738
 30
0.0
 40
50.0
 50
182.85415
 51
193.147131
  0
ARC
  8
0
  6
CONTINUOUS
 62
     3
  5
397
 10
-26.658771
 20
-81.3
 30
0.0
 40
10.0
 50
1.0
 51
90.0
  0
LINE
  8
0
  6
CONTINUOUS
 62
     3
  5
398
 10
-29.875621
 20
-62.417065
 30
0.0
 11
-30.0
 21
-55.291422
 31
0.0
  0
LINE
  8
0
  6
CONTINUOUS
 62
     3
  5
399
 10
-15.499999
 20
-91.3
 30
0.0
 11
15.500001
 21
-91.3
 31
0.0
  0
LINE
  8
0
  6
CONTINUOUS
 62
     3
  5
39A
 10
28.627106
 20
-71.3
 30
0.0
 11
-28.618527
 21
-71.3
 31
0.0
  0
ARC
  8
0
  6
CONTINUOUS
 62
     3
  5
39B
 10
-28.999999
 20
-41.99981
 30
0.0
 40
1.0
 50
180.0
 51
269.5
  0
ARC
  8
0
  6
CONTINUOUS
 62
     3
  5
39C
 10
-28.999999
 20
-50.013617
 30
0.0
 40
1.0
 50
90.5
 51
180.0
  0
ARC
  8
0
  6
CONTINUOUS
 62
     3
  5
39D
 10
29.000001
 20
-41.99981
 30
0.0
 40
1.0
 50
270.5
 51
0.0
  0
ARC
  8
0
  6
CONTINUOUS
 62
     3
  5
39E
 10
29.000001
 20
-50.013617
 30
0.0
 40
1.0
 50
0.0
 51
89.5
  0
LINE
  8
0
  6
CONTINUOUS
 62
     3
  5
39F
 10
30.0
 20
-39.500001
 30
0.0
 11
29.500001
 21
-40.0
 31
0.0
  0
LINE
  8
0
  6
CONTINUOUS
 62
     3
  5
3A0
 10
29.5
 20
-40.0
 30
0.0
 11
-29.5
 21
-40.0
 31
0.0
  0
LINE
  8
0
  6
CONTINUOUS
 62
     3
  5
3A1
 10
-30.0
 20
-39.500001
 30
0.0
 11
-29.5
 21
-40.0
 31
0.0
  0
LINE
  8
0
  6
CONTINUOUS
 62
     3
  5
3A2
 10
10.912389
 20
-49.013655
 30
0.0
 11
10.912389
 21
-42.99981
 31
0.0
  0
LINE
  8
0
  6
CONTINUOUS
 62
     3
  5
3A3
 10
-10.912388
 20
-49.013655
 30
0.0
 11
-10.912388
 21
-42.99981
 31
0.0
  0
LINE
  8
0
  6
CONTINUOUS
 62
     3
  5
3A4
 10
30.000001
 20
-54.3
 30
0.0
 11
29.5
 21
-54.8
 31
0.0
  0
LINE
  8
0
  6
CONTINUOUS
 62
     3
  5
3A5
 10
-29.499999
 20
-54.8
 30
0.0
 11
-30.0
 21
-54.299999
 31
0.0
  0
LINE
  8
0
  6
CONTINUOUS
 62
     3
  5
3A6
 10
-29.999999
 20
-41.99981
 30
0.0
 11
-29.999999
 21
-40.5
 31
0.0
  0
LINE
  8
0
  6
CONTINUOUS
 62
     3
  5
3A7
 10
-28.7
 20
-49.013655
 30
0.0
 11
-28.7
 21
-42.99981
 31
0.0
  0
LINE
  8
0
  6
CONTINUOUS
 62
     3
  5
3A8
 10
-29.999999
 20
-54.3
 30
0.0
 11
-29.999999
 21
-50.013617
 31
0.0
  0
LINE
  8
0
  6
CONTINUOUS
 62
     3
  5
3A9
 10
-28.7
 20
-49.013655
 30
0.0
 11
-28.999999
 21
-49.013655
 31
0.0
  0
LINE
  8
0
  6
CONTINUOUS
 62
     3
  5
3AA
 10
30.000001
 20
-41.99981
 30
0.0
 11
30.000001
 21
-40.5
 31
0.0
  0
LINE
  8
0
  6
CONTINUOUS
 62
     3
  5
3AB
 10
-28.7
 20
-49.013655
 30
0.0
 11
29.000001
 21
-49.013655
 31
0.0
  0
LINE
  8
0
  6
CONTINUOUS
 62
     3
  5
3AC
 10
-28.7
 20
-42.99981
 30
0.0
 11
-28.999999
 21
-42.99981
 31
0.0
  0
LINE
  8
0
  6
CONTINUOUS
 62
     3
  5
3AD
 10
30.000001
 20
-54.3
 30
0.0
 11
30.000001
 21
-50.013617
 31
0.0
  0
LINE
  8
0
  6
CONTINUOUS
 62
     3
  5
3AE
 10
-28.7
 20
-42.99981
 30
0.0
 11
29.000001
 21
-42.99981
 31
0.0
  0
LINE
  8
0
  6
CONTINUOUS
 62
     3
  5
3AF
 10
29.500001
 20
-40.0
 30
0.0
 11
30.000001
 21
-40.5
 31
0.0
  0
LINE
  8
0
  6
CONTINUOUS
 62
     3
  5
3B0
 10
28.700001
 20
-49.013655
 30
0.0
 11
28.700001
 21
-42.99981
 31
0.0
  0
LINE
  8
0
  6
CONTINUOUS
 62
     3
  5
3B1
 10
-29.499999
 20
-40.0
 30
0.0
 11
-29.999999
 21
-40.5
 31
0.0
  0
LINE
  8
0
  6
CONTINUOUS
 62
     3
  5
3B2
 10
29.5
 20
-54.8
 30
0.0
 11
-29.499999
 21
-54.8
 31
0.0
  0
LINE
  8
0
  6
CONTINUOUS
 62
     3
  5
3B3
 10
29.5
 20
0.0
 30
0.0
 11
30.0
 21
-0.5
 31
0.0
  0
LINE
  8
0
  6
CONTINUOUS
 62
     3
  5
3B4
 10
-29.5
 20
0.0
 30
0.0
 11
-30.0
 21
-0.5
 31
0.0
  0
LINE
  8
0
  6
CONTINUOUS
 62
     3
  5
3B5
 10
29.5
 20
0.0
 30
0.0
 11
-29.5
 21
0.0
 31
0.0
  0
ENDBLK
  8
0
  5
3B6
  0
BLOCK
  8
0
  5
3B7
  2
MS_16
 70
     0
 10
0.0
 20
0.0
 30
0.0
  3
MS_16
  0
LINE
  8
0
  6
CONTINUOUS
 62
     3
  5
3B8
 10
-10.912389
 20
-156.013845
 30
0.0
 11
-10.912389
 21
-150.0
 31
0.0
  0
LINE
  8
0
  6
CONTINUOUS
 62
     3
  5
3B9
 10
10.912389
 20
-156.013845
 30
0.0
 11
10.912389
 21
-150.0
 31
0.0
  0
LINE
  8
0
  6
CONTINUOUS
 62
     3
  5
3BA
 10
-29.5
 20
0.0
 30
0.0
 11
29.5
 21
0.0
 31
0.0
  0
LINE
  8
0
  6
CONTINUOUS
 62
     3
  5
3BB
 10
-9.76509
 20
-152.2
 30
0.0
 11
9.76509
 21
-152.2
 31
0.0
  0
LINE
  8
0
  6
CONTINUOUS
 62
     3
  5
3BC
 10
-3.6
 20
-152.2
 30
0.0
 11
-3.542398
 21
-155.5
 31
0.0
  0
LINE
  8
0
  6
CONTINUOUS
 62
     3
  5
3BD
 10
-3.680732
 20
-150.2
 30
0.0
 11
-3.656513
 21
-152.2
 31
0.0
  0
LINE
  8
0
  6
CONTINUOUS
 62
     3
  5
3BE
 10
-2.04765
 20
-150.2
 30
0.0
 11
-2.028636
 21
-152.2
 31
0.0
  0
LINE
  8
0
  6
CONTINUOUS
 62
     3
  5
3BF
 10
-9.8
 20
-150.2
 30
0.0
 11
-9.76509
 21
-152.2
 31
0.0
  0
LINE
  8
0
  6
CONTINUOUS
 62
     3
  5
3C0
 10
-9.323545
 20
-150.2
 30
0.0
 11
-9.286634
 21
-152.2
 31
0.0
  0
LINE
  8
0
  6
CONTINUOUS
 62
     3
  5
3C1
 10
-8.657737
 20
-150.2
 30
0.0
 11
-8.621275
 21
-152.2
 31
0.0
  0
LINE
  8
0
  6
CONTINUOUS
 62
     3
  5
3C2
 10
-7.728868
 20
-150.2
 30
0.0
 11
-7.693964
 21
-152.2
 31
0.0
  0
LINE
  8
0
  6
CONTINUOUS
 62
     3
  5
3C3
 10
-6.565162
 20
-150.2
 30
0.0
 11
-6.532875
 21
-152.2
 31
0.0
  0
LINE
  8
0
  6
CONTINUOUS
 62
     3
  5
3C4
 10
-5.201977
 20
-150.2
 30
0.0
 11
-5.173287
 21
-152.2
 31
0.0
  0
LINE
  8
0
  6
CONTINUOUS
 62
     3
  5
3C5
 10
-5.78832
 20
-154.9
 30
0.0
 11
-7.694062
 21
-154.9
 31
0.0
  0
LINE
  8
0
  6
CONTINUOUS
 62
     3
  5
3C6
 10
-5.78832
 20
-154.9
 30
0.0
 11
-5.741191
 21
-152.2
 31
0.0
  0
LINE
  8
0
  6
CONTINUOUS
 62
     3
  5
3C7
 10
-7.694062
 20
-154.9
 30
0.0
 11
-7.741191
 21
-152.2
 31
0.0
  0
LINE
  8
0
  6
CONTINUOUS
 62
     3
  5
3C8
 10
3.6
 20
-152.2
 30
0.0
 11
3.542398
 21
-155.5
 31
0.0
  0
LINE
  8
0
  6
CONTINUOUS
 62
     3
  5
3C9
 10
7.728868
 20
-150.2
 30
0.0
 11
7.693964
 21
-152.2
 31
0.0
  0
LINE
  8
0
  6
CONTINUOUS
 62
     3
  5
3CA
 10
6.565162
 20
-150.2
 30
0.0
 11
6.532875
 21
-152.2
 31
0.0
  0
LINE
  8
0
  6
CONTINUOUS
 62
     3
  5
3CB
 10
5.201977
 20
-150.2
 30
0.0
 11
5.173288
 21
-152.2
 31
0.0
  0
LINE
  8
0
  6
CONTINUOUS
 62
     3
  5
3CC
 10
3.680732
 20
-150.2
 30
0.0
 11
3.656513
 21
-152.2
 31
0.0
  0
LINE
  8
0
  6
CONTINUOUS
 62
     3
  5
3CD
 10
2.04765
 20
-150.2
 30
0.0
 11
2.028637
 21
-152.2
 31
0.0
  0
LINE
  8
0
  6
CONTINUOUS
 62
     3
  5
3CE
 10
8.657737
 20
-150.2
 30
0.0
 11
8.621275
 21
-152.2
 31
0.0
  0
LINE
  8
0
  6
CONTINUOUS
 62
     3
  5
3CF
 10
9.323545
 20
-150.2
 30
0.0
 11
9.286634
 21
-152.2
 31
0.0
  0
LINE
  8
0
  6
CONTINUOUS
 62
     3
  5
3D0
 10
5.78832
 20
-154.9
 30
0.0
 11
7.694062
 21
-154.9
 31
0.0
  0
LINE
  8
0
  6
CONTINUOUS
 62
     3
  5
3D1
 10
5.78832
 20
-154.9
 30
0.0
 11
5.741191
 21
-152.2
 31
0.0
  0
LINE
  8
0
  6
CONTINUOUS
 62
     3
  5
3D2
 10
7.694062
 20
-154.9
 30
0.0
 11
7.741191
 21
-152.2
 31
0.0
  0
LINE
  8
0
  6
CONTINUOUS
 62
     3
  5
3D3
 10
-9.8
 20
-150.2
 30
0.0
 11
9.8
 21
-150.2
 31
0.0
  0
LINE
  8
0
  6
CONTINUOUS
 62
     3
  5
3D4
 10
0.160693
 20
-150.2
 30
0.0
 11
0.147463
 21
-152.2
 31
0.0
  0
LINE
  8
0
  6
CONTINUOUS
 62
     3
  5
3D5
 10
-0.160693
 20
-150.2
 30
0.0
 11
-0.147463
 21
-152.2
 31
0.0
  0
LINE
  8
0
  6
CONTINUOUS
 62
     3
  5
3D6
 10
-3.542398
 20
-155.5
 30
0.0
 11
3.542398
 21
-155.5
 31
0.0
  0
LINE
  8
0
  6
CONTINUOUS
 62
     3
  5
3D7
 10
9.8
 20
-150.2
 30
0.0
 11
9.76509
 21
-152.2
 31
0.0
  0
LINE
  8
0
  6
CONTINUOUS
 62
     3
  5
3D8
 10
-30.0
 20
-0.5
 30
0.0
 11
-30.0
 21
-140.5
 31
0.0
  0
LINE
  8
0
  6
CONTINUOUS
 62
     3
  5
3D9
 10
-29.5
 20
0.0
 30
0.0
 11
-30.0
 21
-0.5
 31
0.0
  0
LINE
  8
0
  6
CONTINUOUS
 62
     3
  5
3DA
 10
30.0
 20
-0.5
 30
0.0
 11
30.0
 21
-140.5
 31
0.0
  0
LINE
  8
0
  6
CONTINUOUS
 62
     3
  5
3DB
 10
29.5
 20
0.0
 30
0.0
 11
30.0
 21
-0.5
 31
0.0
  0
LINE
  8
0
  6
CONTINUOUS
 62
     3
  5
3DC
 10
29.499999
 20
-141.0
 30
0.0
 11
-29.5
 21
-141.0
 31
0.0
  0
LINE
  8
0
  6
CONTINUOUS
 62
     3
  5
3DD
 10
-29.999999
 20
-140.5
 30
0.0
 11
-29.5
 21
-141.0
 31
0.0
  0
LINE
  8
0
  6
CONTINUOUS
 62
     3
  5
3DE
 10
29.999999
 20
-140.5
 30
0.0
 11
29.5
 21
-141.0
 31
0.0
  0
ARC
  8
0
  6
CONTINUOUS
 62
     3
  5
3DF
 10
-15.517303
 20
-207.0
 30
0.0
 40
1.0
 50
181.0
 51
270.0
  0
LINE
  8
0
  6
CONTINUOUS
 62
     3
  5
3E0
 10
-16.51715
 20
-207.017452
 30
0.0
 11
-16.677597
 21
-197.825476
 31
0.0
  0
LINE
  8
0
  6
CONTINUOUS
 62
     3
  5
3E1
 10
29.508577
 20
-171.5
 30
0.0
 11
-29.508578
 21
-171.5
 31
0.0
  0
LINE
  8
0
  6
CONTINUOUS
 62
     3
  5
3E2
 10
-29.875621
 20
-179.117065
 30
0.0
 11
-30.0
 21
-171.991422
 31
0.0
  0
LINE
  8
0
  6
CONTINUOUS
 62
     3
  5
3E3
 10
-29.508578
 20
-171.5
 30
0.0
 11
-30.0
 21
-171.991422
 31
0.0
  0
ARC
  8
0
  6
CONTINUOUS
 62
     3
  5
3E4
 10
20.062355
 20
-176.627379
 30
0.0
 40
50.0
 50
182.85415
 51
193.147131
  0
ARC
  8
0
  6
CONTINUOUS
 62
     3
  5
3E5
 10
-26.676074
 20
-198.0
 30
0.0
 40
10.0
 50
1.0
 51
90.0
  0
ARC
  8
0
  6
CONTINUOUS
 62
     3
  5
3E6
 10
15.517303
 20
-207.0
 30
0.0
 40
1.0
 50
270.0
 51
0.0
  0
LINE
  8
0
  6
CONTINUOUS
 62
     3
  5
3E7
 10
-15.517303
 20
-208.0
 30
0.0
 11
15.517303
 21
-208.0
 31
0.0
  0
LINE
  8
0
  6
CONTINUOUS
 62
     3
  5
3E8
 10
16.51715
 20
-207.017452
 30
0.0
 11
16.677597
 21
-197.825476
 31
0.0
  0
ARC
  8
0
  6
CONTINUOUS
 62
     3
  5
3E9
 10
26.676074
 20
-198.0
 30
0.0
 40
10.0
 50
90.0
 51
179.0
  0
LINE
  8
0
  6
CONTINUOUS
 62
     3
  5
3EA
 10
-28.627105
 20
-188.0
 30
0.0
 11
28.627105
 21
-188.0
 31
0.0
  0
ARC
  8
0
  6
CONTINUOUS
 62
     3
  5
3EB
 10
-20.062355
 20
-176.627379
 30
0.0
 40
50.0
 50
346.852869
 51
357.14585
  0
LINE
  8
0
  6
CONTINUOUS
 62
     3
  5
3EC
 10
29.875621
 20
-179.117065
 30
0.0
 11
30.0
 21
-171.991422
 31
0.0
  0
LINE
  8
0
  6
CONTINUOUS
 62
     3
  5
3ED
 10
29.508578
 20
-171.5
 30
0.0
 11
30.0
 21
-171.991422
 31
0.0
  0
LINE
  8
0
  6
CONTINUOUS
 62
     3
  5
3EE
 10
33.499999
 20
-166.499999
 30
0.0
 11
30.5
 21
-171.0
 31
0.0
  0
LINE
  8
0
  6
CONTINUOUS
 62
     3
  5
3EF
 10
33.499999
 20
-166.499999
 30
0.0
 11
33.0
 21
-166.0
 31
0.0
  0
LINE
  8
0
  6
CONTINUOUS
 62
     3
  5
3F0
 10
33.499999
 20
-165.500001
 30
0.0
 11
33.0
 21
-166.0
 31
0.0
  0
LINE
  8
0
  6
CONTINUOUS
 62
     3
  5
3F1
 10
-33.499999
 20
-166.499999
 30
0.0
 11
-30.5
 21
-171.0
 31
0.0
  0
LINE
  8
0
  6
CONTINUOUS
 62
     3
  5
3F2
 10
-33.499999
 20
-166.499999
 30
0.0
 11
-33.0
 21
-166.0
 31
0.0
  0
LINE
  8
0
  6
CONTINUOUS
 62
     3
  5
3F3
 10
-33.499999
 20
-165.500001
 30
0.0
 11
-33.0
 21
-166.0
 31
0.0
  0
LINE
  8
0
  6
CONTINUOUS
 62
     3
  5
3F4
 10
-32.0
 20
-156.0
 30
0.0
 11
32.0
 21
-156.0
 31
0.0
  0
LINE
  8
0
  6
CONTINUOUS
 62
     3
  5
3F5
 10
-32.0
 20
-150.0
 30
0.0
 11
32.0
 21
-150.0
 31
0.0
  0
LINE
  8
0
  6
CONTINUOUS
 62
     3
  5
3F6
 10
-33.5
 20
-146.0
 30
0.0
 11
33.5
 21
-146.0
 31
0.0
  0
LINE
  8
0
  6
CONTINUOUS
 62
     3
  5
3F7
 10
-33.5
 20
-165.500001
 30
0.0
 11
-33.5
 21
-157.5
 31
0.0
  0
LINE
  8
0
  6
CONTINUOUS
 62
     3
  5
3F8
 10
-32.0
 20
-156.0
 30
0.0
 11
-32.0
 21
-150.0
 31
0.0
  0
ARC
  8
0
  6
CONTINUOUS
 62
     3
  5
3F9
 10
-32.0
 20
-148.5
 30
0.0
 40
1.5
 50
180.0
 51
270.0
  0
LINE
  8
0
  6
CONTINUOUS
 62
     3
  5
3FA
 10
-29.5
 20
-141.0
 30
0.0
 11
-30.0
 21
-141.5
 31
0.0
  0
ARC
  8
0
  6
CONTINUOUS
 62
     3
  5
3FB
 10
-34.599878
 20
-141.533428
 30
0.0
 40
4.6
 50
283.833666
 51
0.416367
  0
LINE
  8
0
  6
CONTINUOUS
 62
     3
  5
3FC
 10
-30.5
 20
-171.0
 30
0.0
 11
-30.0
 21
-171.0
 31
0.0
  0
LINE
  8
0
  6
CONTINUOUS
 62
     3
  5
3FD
 10
-29.5
 20
-171.5
 30
0.0
 11
-30.0
 21
-171.0
 31
0.0
  0
LINE
  8
0
  6
CONTINUOUS
 62
     3
  5
3FE
 10
-33.0
 20
-166.0
 30
0.0
 11
33.0
 21
-166.0
 31
0.0
  0
ARC
  8
0
  6
CONTINUOUS
 62
     3
  5
3FF
 10
-32.0
 20
-157.5
 30
0.0
 40
1.5
 50
90.0
 51
180.0
  0
LINE
  8
0
  6
CONTINUOUS
 62
     3
  5
400
 10
-33.5
 20
-148.5
 30
0.0
 11
-33.5
 21
-146.0
 31
0.0
  0
LINE
  8
0
  6
CONTINUOUS
 62
     3
  5
401
 10
33.5
 20
-148.5
 30
0.0
 11
33.5
 21
-146.0
 31
0.0
  0
ARC
  8
0
  6
CONTINUOUS
 62
     3
  5
402
 10
32.0
 20
-157.5
 30
0.0
 40
1.5
 50
0.0
 51
90.0
  0
LINE
  8
0
  6
CONTINUOUS
 62
     3
  5
403
 10
29.5
 20
-171.5
 30
0.0
 11
30.0
 21
-171.0
 31
0.0
  0
ARC
  8
0
  6
CONTINUOUS
 62
     3
  5
404
 10
34.599879
 20
-141.533428
 30
0.0
 40
4.6
 50
179.583633
 51
256.166334
  0
LINE
  8
0
  6
CONTINUOUS
 62
     3
  5
405
 10
29.5
 20
-141.0
 30
0.0
 11
30.0
 21
-141.5
 31
0.0
  0
ARC
  8
0
  6
CONTINUOUS
 62
     3
  5
406
 10
32.0
 20
-148.5
 30
0.0
 40
1.5
 50
270.0
 51
0.0
  0
LINE
  8
0
  6
CONTINUOUS
 62
     3
  5
407
 10
32.0
 20
-156.0
 30
0.0
 11
32.0
 21
-150.0
 31
0.0
  0
LINE
  8
0
  6
CONTINUOUS
 62
     3
  5
408
 10
33.5
 20
-165.5
 30
0.0
 11
33.5
 21
-157.5
 31
0.0
  0
LINE
  8
0
  6
CONTINUOUS
 62
     3
  5
409
 10
30.0
 20
-171.0
 30
0.0
 11
30.5
 21
-171.0
 31
0.0
  0
ENDBLK
  8
0
  5
40A
  0
ENDSEC
  0
SECTION
  2
ENTITIES
  0
INSERT
  8
LY_1
  6
BYBLOCK
  5
40B
  2
MS_15
 10
300.00008
 20
671.000013
 30
0.0
  0
INSERT
  8
LY_1
  6
BYBLOCK
  5
40C
  2
MS_15
 10
500.00008
 20
671.000013
 30
0.0
  0
INSERT
  8
LY_1
  6
BYBLOCK
  5
40D
  2
MS_12
 10
300.00008
 20
835.800012
 30
0.0
  0
LINE
  8
LY_1
  6
CONTINUOUS
 62
     3
  5
40E
 10
284.00008
 20
865.232138
 30
0.0
 11
284.00008
 21
895.799932
 31
0.0
  0
LINE
  8
LY_1
  6
CONTINUOUS
 62
     3
  5
40F
 10
316.00008
 20
865.232138
 30
0.0
 11
316.00008
 21
895.799932
 31
0.0
  0
LINE
  8
LY_1
  6
CONTINUOUS
 62
     3
  5
410
 10
316.00008
 20
895.799932
 30
0.0
 11
284.00008
 21
895.799932
 31
0.0
  0
CIRCLE
  8
LY_1
  6
CONTINUOUS
 62
     3
  5
411
 10
300.00008
 20
835.800012
 30
0.0
 40
33.500001
  0
INSERT
  8
LY_1
  6
BYBLOCK
  5
412
  2
MS_12
 10
-299.99992
 20
835.800012
 30
0.0
  0
LINE
  8
LY_1
  6
CONTINUOUS
 62
     3
  5
413
 10
-315.99992
 20
861.177167
 30
0.0
 11
-315.99992
 21
895.799932
 31
0.0
  0
LINE
  8
LY_1
  6
CONTINUOUS
 62
     3
  5
414
 10
-283.99992
 20
861.177167
 30
0.0
 11
-283.99992
 21
895.799932
 31
0.0
  0
LINE
  8
LY_1
  6
CONTINUOUS
 62
     3
  5
415
 10
-283.99992
 20
895.799932
 30
0.0
 11
-315.99992
 21
895.799932
 31
0.0
  0
INSERT
  8
LY_1
  6
BYBLOCK
  5
416
  2
MS_12
 10
500.00008
 20
835.800012
 30
0.0
  0
LINE
  8
LY_1
  6
CONTINUOUS
 62
     3
  5
417
 10
484.00008
 20
865.232138
 30
0.0
 11
484.00008
 21
895.799932
 31
0.0
  0
LINE
  8
LY_1
  6
CONTINUOUS
 62
     3
  5
418
 10
516.00008
 20
865.232138
 30
0.0
 11
516.00008
 21
895.799932
 31
0.0
  0
LINE
  8
LY_1
  6
CONTINUOUS
 62
     3
  5
419
 10
516.00008
 20
895.799932
 30
0.0
 11
484.00008
 21
895.799932
 31
0.0
  0
CIRCLE
  8
LY_1
  6
CONTINUOUS
 62
     3
  5
41A
 10
500.00008
 20
835.800012
 30
0.0
 40
33.500001
  0
INSERT
  8
LY_1
  6
BYBLOCK
  5
41B
  2
MS_12
 10
-99.99992
 20
835.800012
 30
0.0
  0
LINE
  8
LY_1
  6
CONTINUOUS
 62
     3
  5
41C
 10
-115.99992
 20
861.177167
 30
0.0
 11
-115.99992
 21
895.799932
 31
0.0
  0
LINE
  8
LY_1
  6
CONTINUOUS
 62
     3
  5
41D
 10
-83.99992
 20
861.177167
 30
0.0
 11
-83.99992
 21
895.799932
 31
0.0
  0
LINE
  8
LY_1
  6
CONTINUOUS
 62
     3
  5
41E
 10
-83.99992
 20
895.799932
 30
0.0
 11
-115.99992
 21
895.799932
 31
0.0
  0
INSERT
  8
LY_1
  6
BYBLOCK
  5
41F
  2
MS_10
 10
300.000081
 20
579.700013
 30
0.0
  0
INSERT
  8
LY_1
  6
BYBLOCK
  5
420
  2
MS_10
 10
500.000081
 20
579.700013
 30
0.0
  0
INSERT
  8
LY_1
  6
BYBLOCK
  5
421
  2
MS_9
 10
500.00008
 20
671.000013
 30
0.0
  0
INSERT
  8
LY_1
  6
BYBLOCK
  5
422
  2
MS_9
 10
500.00008
 20
711.000013
 30
0.0
  0
INSERT
  8
LY_1
  6
BYBLOCK
  5
423
  2
MS_11
 10
500.00008
 20
751.000013
 30
0.0
  0
INSERT
  8
LY_1
  6
BYBLOCK
  5
424
  2
MS_11
 10
300.00008
 20
711.000013
 30
0.0
  0
INSERT
  8
LY_1
  6
BYBLOCK
  5
425
  2
MS_9
 10
300.00008
 20
671.000013
 30
0.0
  0
INSERT
  8
LY_1
  6
BYBLOCK
  5
426
  2
MS_11
 10
-299.99992
 20
656.200013
 30
0.0
  0
INSERT
  8
LY_1
  6
BYBLOCK
  5
427
  2
MS_10
 10
-100.0
 20
579.700013
 30
0.0
  0
INSERT
  8
LY_1
  6
BYBLOCK
  5
428
  2
MS_14
 10
-99.99992
 20
616.200013
 30
0.0
  0
INSERT
  8
LY_1
  6
BYBLOCK
  5
429
  2
MS_9
 10
-99.99992
 20
616.200013
 30
0.0
  0
INSERT
  8
LY_1
  6
BYBLOCK
  5
42A
  2
MS_9
 10
-99.99992
 20
656.200013
 30
0.0
  0
INSERT
  8
LY_1
  6
BYBLOCK
  5
42B
  2
MS_11
 10
-99.99992
 20
696.200013
 30
0.0
  0
INSERT
  8
LY_1
  6
BYBLOCK
  5
42C
  2
MS_9
 10
-299.99992
 20
616.200013
 30
0.0
  0
INSERT
  8
LY_1
  6
BYBLOCK
  5
42D
  2
MS_14
 10
-299.99992
 20
616.200013
 30
0.0
  0
INSERT
  8
LY_1
  6
BYBLOCK
  5
42E
  2
MS_10
 10
-300.0
 20
579.700013
 30
0.0
  0
TEXT
  8
LY_1
  6
CONTINUOUS
 62
   255
  5
42F
 10
348.43758
 20
1020.800012
 30
0.0
 40
30.0
  1
RETB
 41
0.9375
  7
MX_NOTE_STANDARD
 11
348.43758
 21
1035.800012
 31
0.0
 73
     2
  0
TEXT
  8
LY_1
  6
CONTINUOUS
 62
   255
  5
430
 10
-237.49992
 20
1020.800012
 30
0.0
 40
30.0
  1
RET
 41
0.9375
  7
MX_NOTE_STANDARD
 11
-237.49992
 21
1035.800012
 31
0.0
 73
     2
  0
ENDSEC
  0
EOF
