  0
SECTION
  2
HEADER
  9
$ACADVER
  1
AC1009
  9
$DWGCODEPAGE
  3
dos932
  9
$INSBASE
 10
0.0
 20
0.0
 30
0.0
  9
$EXTMIN
 10
266.50007900000003
 20
122.70001300000001
 30
0.0
  9
$EXTMAX
 10
1165.0000010000001
 20
2388.3000120000002
 30
0.0
  9
$LIMMIN
 10
266.50007900000003
 20
122.70001300000001
  9
$LIMMAX
 10
1165.0000010000001
 20
2388.3000120000002
  9
$ORTHOMODE
 70
               0
  9
$REGENMODE
 70
               1
  9
$FILLMODE
 70
               1
  9
$QTEXTMODE
 70
               0
  9
$MIRRTEXT
 70
               1
  9
$DRAGMODE
 70
               2
  9
$LTSCALE
 40
1.0
  9
$OSMODE
 70
               0
  9
$ATTMODE
 70
               1
  9
$TEXTSIZE
 40
4.1655998229980469
  9
$TRACEWID
 40
0.05
  9
$TEXTSTYLE
  7
MX_NOTE_STANDARD
  9
$CLAYER
  8
0
  9
$CELTYPE
  6
CONTINUOUS
  9
$CECOLOR
 62
             256
  9
$DIMSCALE
 40
1.0
  9
$DIMASZ
 40
2.5
  9
$DIMEXO
 40
0.5
  9
$DIMDLI
 40
3.75
  9
$DIMRND
 40
0.0
  9
$DIMDLE
 40
0.0
  9
$DIMEXE
 40
1.0
  9
$DIMTP
 40
0.0
  9
$DIMTM
 40
0.0
  9
$DIMTXT
 40
2.5
  9
$DIMCEN
 40
2.5
  9
$DIMTSZ
 40
0.0
  9
$DIMTOL
 70
               0
  9
$DIMLIM
 70
               0
  9
$DIMTIH
 70
               0
  9
$DIMTOH
 70
               0
  9
$DIMSE1
 70
               0
  9
$DIMSE2
 70
               0
  9
$DIMTAD
 70
               1
  9
$DIMZIN
 70
               8
  9
$DIMBLK
  1

  9
$DIMASO
 70
               1
  9
$DIMSHO
 70
               1
  9
$DIMPOST
  1

  9
$DIMAPOST
  1

  9
$DIMALT
 70
               0
  9
$DIMALTD
 70
               4
  9
$DIMALTF
 40
0.03937007874016
  9
$DIMLFAC
 40
1.0
  9
$DIMTOFL
 70
               1
  9
$DIMTVP
 40
0.0
  9
$DIMTIX
 70
               0
  9
$DIMSOXD
 70
               0
  9
$DIMSAH
 70
               1
  9
$DIMBLK1
  1
_OPEN30
  9
$DIMBLK2
  1
_OPEN30
  9
$DIMSTYLE
  2
MXDIMSTYLE
  9
$DIMCLRD
 70
               0
  9
$DIMCLRE
 70
               0
  9
$DIMCLRT
 70
               0
  9
$DIMTFAC
 40
1.0
  9
$DIMGAP
 40
1.0
  9
$LUNITS
 70
               2
  9
$LUPREC
 70
               4
  9
$AXISMODE
 70
               0
  9
$AXISUNIT
 10
0.0
 20
0.0
  9
$SKETCHINC
 40
0.1
  9
$FILLETRAD
 40
0.0
  9
$AUNITS
 70
               0
  9
$AUPREC
 70
               0
  9
$MENU
  1
acad
  9
$ELEVATION
 40
0.0
  9
$PELEVATION
 40
0.0
  9
$THICKNESS
 40
0.0
  9
$LIMCHECK
 70
               0
  9
$BLIPMODE
 70
               1
  9
$CHAMFERA
 40
0.0
  9
$CHAMFERB
 40
0.0
  9
$SKPOLY
 70
               0
  9
$TDCREATE
 40
2455744.546724537
  9
$TDUPDATE
 40
2455744.546724537
  9
$TDINDWG
 40
0.0000000000
  9
$TDUSRTIMER
 40
0.0000000000
  9
$USRTIMER
 70
               1
  9
$ANGBASE
 50
0.0
  9
$ANGDIR
 70
               0
  9
$PDMODE
 70
               0
  9
$PDSIZE
 40
0.0
  9
$PLINEWID
 40
0.0
  9
$COORDS
 70
               1
  9
$SPLFRAME
 70
               0
  9
$SPLINETYPE
 70
               6
  9
$SPLINESEGS
 70
               8
  9
$ATTDIA
 70
               0
  9
$ATTREQ
 70
               1
  9
$HANDLING
 70
               1
  9
$HANDSEED
  5
9C7
  9
$SURFTAB1
 70
               6
  9
$SURFTAB2
 70
               6
  9
$SURFTYPE
 70
               6
  9
$SURFU
 70
               6
  9
$SURFV
 70
               6
  9
$UCSNAME
  2

  9
$UCSORG
 10
0.0
 20
0.0
 30
0.0
  9
$UCSXDIR
 10
1.0
 20
0.0
 30
0.0
  9
$UCSYDIR
 10
0.0
 20
1.0
 30
0.0
  9
$PUCSNAME
  2

  9
$PUCSORG
 10
0.0
 20
0.0
 30
0.0
  9
$PUCSXDIR
 10
1.0
 20
0.0
 30
0.0
  9
$PUCSYDIR
 10
0.0
 20
1.0
 30
0.0
  9
$USERI1
 70
               0
  9
$USERI2
 70
               0
  9
$USERI3
 70
               0
  9
$USERI4
 70
               0
  9
$USERI5
 70
               0
  9
$USERR1
 40
0.0
  9
$USERR2
 40
0.0
  9
$USERR3
 40
0.0
  9
$USERR4
 40
0.0
  9
$USERR5
 40
0.0
  9
$WORLDVIEW
 70
               1
  9
$SHADEDGE
 70
               3
  9
$SHADEDIF
 70
              70
  9
$TILEMODE
 70
               1
  9
$MAXACTVP
 70
              16
  9
$PINSBASE
 10
0.0
 20
0.0
 30
0.0
  9
$PLIMCHECK
 70
               0
  9
$PEXTMIN
 10
1.0000000000000000E+20
 20
1.0000000000000000E+20
 30
1.0000000000000000E+20
  9
$PEXTMAX
 10
-1.0000000000000000E+20
 20
-1.0000000000000000E+20
 30
-1.0000000000000000E+20
  9
$PLIMMIN
 10
0.0
 20
0.0
  9
$PLIMMAX
 10
12.0
 20
9.0
  9
$UNITMODE
 70
               0
  9
$VISRETAIN
 70
               0
  9
$PLINEGEN
 70
               1
  9
$PSLTSCALE
 70
               0
  9
$TREEDEPTH
 70
            3020
  0
ENDSEC
  0
SECTION
  2
TABLES
  0
TABLE
  2
VPORT
 70
               1
  0
VPORT
  2
*ACTIVE
 70
               0
 10
0.0
 20
0.0
 11
1.0
 21
1.0
 12
715.75004000000013
 22
1255.5000125000001
 13
0.0
 23
0.0
 14
1.0
 24
1.0
 15
0.0
 25
0.0
 16
0.0
 26
0.0
 36
1.0
 17
0.0
 27
0.0
 37
0.0
 40
2288.2559989900001
 41
1.7320508075688772
 42
50.0
 43
0.0
 44
0.0
 50
0.0
 51
0.0
 71
               0
 72
             100
 73
               1
 74
               1
 75
               0
 76
               0
 77
               0
 78
               0
  0
ENDTAB
  0
TABLE
  2
LTYPE
 70
               3
  0
LTYPE
  2
CONTINUOUS
 70
              64
  3
Solid line
 72
              65
 73
               0
 40
0.0
  0
LTYPE
  2
CENTER
 70
              64
  3
Center ____ _ ____ _ ____ _ ____ _ ____ _ ____
 72
              65
 73
               4
 40
50.800000000000004
 49
31.75
 49
-6.3499999999999996
 49
6.3499999999999996
 49
-6.3499999999999996
  0
LTYPE
  2
DASHED
 70
              64
  3
Dashed __ __ __ __ __ __ __ __ __ __ __ __ __ _
 72
              65
 73
               2
 40
19.049999999999997
 49
12.699999999999999
 49
-6.3499999999999996
  0
ENDTAB
  0
TABLE
  2
LAYER
 70
               3
  0
LAYER
  2
0
 70
               0
 62
               7
  6
CONTINUOUS
  0
LAYER
  2
DEFPOINTS
 70
               0
 62
               7
  6
CONTINUOUS
  0
LAYER
  2
LY_3
 70
               0
 62
               7
  6
CONTINUOUS
  0
ENDTAB
  0
TABLE
  2
STYLE
 70
               1
  0
STYLE
  2
MX_NOTE_STANDARD
 70
               0
 40
0.0
 41
1.0
 50
0.0
 71
               0
 42
4.1655998229980469
  3
txt.shx
  4
extfont.shx
  0
ENDTAB
  0
TABLE
  2
VIEW
 70
               0
  0
ENDTAB
  0
TABLE
  2
UCS
 70
               0
  0
ENDTAB
  0
TABLE
  2
APPID
 70
               1
  0
APPID
  2
ACAD
 70
               0
  0
ENDTAB
  0
TABLE
  2
DIMSTYLE
 70
               1
  0
DIMSTYLE
  2
MXDIMSTYLE
 70
               0
  3

  4

  5

  6
_OPEN30
  7
_OPEN30
 40
1.0
 41
2.5
 42
0.5
 43
3.75
 44
1.0
 45
0.0
 46
0.0
 47
0.0
 48
0.0
 71
               0
 72
               0
 73
               0
 74
               0
 75
               0
 76
               0
 77
               1
 78
               8
140
2.5
141
2.5
142
0.0
143
0.03937007874016
144
1.0
145
0.0
146
1.0
147
1.0
170
               0
171
               4
172
               1
173
               1
174
               0
175
               0
176
               0
177
               0
178
               0
  0
ENDTAB
  0
ENDSEC
  0
SECTION
  2
BLOCKS
  0
BLOCK
  8
0
  5
35
  2
MS_1
 70
               0
 10
0.0
 20
0.0
 30
0.0
  3
MS_1
  0
LINE
  8
0
  6
CONTINUOUS
 62
               3
  5
36
 10
19.508725999999999
 20
34.965719
 30
0.0
 11
17.544764000000001
 21
35.0
 31
0.0
  0
LINE
  8
0
  6
CONTINUOUS
 62
               3
  5
37
 10
-19.508725999999999
 20
34.965719
 30
0.0
 11
-17.544764000000001
 21
35.0
 31
0.0
  0
LINE
  8
0
  6
CONTINUOUS
 62
               3
  5
38
 10
-19.508725999999999
 20
-0.034281
 30
0.0
 11
-17.544764000000001
 21
0.0
 31
0.0
  0
LINE
  8
0
  6
CONTINUOUS
 62
               3
  5
39
 10
19.508725999999999
 20
-0.034281
 30
0.0
 11
17.544764000000001
 21
0.0
 31
0.0
  0
LINE
  8
0
  6
CONTINUOUS
 62
               3
  5
3A
 10
17.550000000000001
 20
0.0
 30
0.0
 11
-17.550000000000001
 21
0.0
 31
0.0
  0
LINE
  8
0
  6
CONTINUOUS
 62
               3
  5
3B
 10
17.550000000000001
 20
35.0
 30
0.0
 11
-17.550000000000001
 21
35.0
 31
0.0
  0
LINE
  8
0
  6
CONTINUOUS
 62
              80
  5
3C
 10
-17.243369999999999
 20
5.9571440000000004
 30
0.0
 11
-17.243369999999999
 21
32.957144
 31
0.0
  0
LINE
  8
0
  6
CONTINUOUS
 62
              80
  5
3D
 10
18.399477000000001
 20
5.9571440000000004
 30
0.0
 11
18.399477000000001
 21
32.957144
 31
0.0
  0
LINE
  8
0
  6
CONTINUOUS
 62
              80
  5
3E
 10
16.251733999999999
 20
5.9571440000000004
 30
0.0
 11
16.251733999999999
 21
32.957144
 31
0.0
  0
LINE
  8
0
  6
CONTINUOUS
 62
              80
  5
3F
 10
13.519245
 20
5.9571440000000004
 30
0.0
 11
13.519245
 21
32.957144
 31
0.0
  0
LINE
  8
0
  6
CONTINUOUS
 62
              80
  5
40
 10
9.9372910000000001
 20
5.9571440000000004
 30
0.0
 11
9.9372910000000001
 21
32.957144
 31
0.0
  0
LINE
  8
0
  6
CONTINUOUS
 62
              80
  5
41
 10
5.7309409999999996
 20
5.9571440000000004
 30
0.0
 11
5.7309409999999996
 21
32.957144
 31
0.0
  0
LINE
  8
0
  6
CONTINUOUS
 62
              80
  5
42
 10
1.1644950000000001
 20
5.9571440000000004
 30
0.0
 11
1.1644950000000001
 21
32.957144
 31
0.0
  0
LINE
  8
0
  6
CONTINUOUS
 62
              80
  5
43
 10
-3.4751210000000001
 20
5.9571440000000004
 30
0.0
 11
-3.4751210000000001
 21
32.957144
 31
0.0
  0
LINE
  8
0
  6
CONTINUOUS
 62
              80
  5
44
 10
-7.896382
 20
5.9571440000000004
 30
0.0
 11
-7.896382
 21
32.957144
 31
0.0
  0
LINE
  8
0
  6
CONTINUOUS
 62
              80
  5
45
 10
-15.003799000000001
 20
5.9571440000000004
 30
0.0
 11
-15.003799000000001
 21
32.957144
 31
0.0
  0
LINE
  8
0
  6
CONTINUOUS
 62
              80
  5
46
 10
11.821484
 20
5.9571440000000004
 30
0.0
 11
11.821484
 21
32.957144
 31
0.0
  0
LINE
  8
0
  6
CONTINUOUS
 62
              80
  5
47
 10
7.896382
 20
5.9571440000000004
 30
0.0
 11
7.896382
 21
32.957144
 31
0.0
  0
LINE
  8
0
  6
CONTINUOUS
 62
              80
  5
48
 10
3.4751210000000001
 20
5.9571440000000004
 30
0.0
 11
3.4751210000000001
 21
32.957144
 31
0.0
  0
LINE
  8
0
  6
CONTINUOUS
 62
              80
  5
49
 10
-1.1644950000000001
 20
5.9571440000000004
 30
0.0
 11
-1.1644950000000001
 21
32.957144
 31
0.0
  0
LINE
  8
0
  6
CONTINUOUS
 62
              80
  5
4A
 10
-9.9372910000000001
 20
5.9571440000000004
 30
0.0
 11
-9.9372910000000001
 21
32.957144
 31
0.0
  0
LINE
  8
0
  6
CONTINUOUS
 62
              80
  5
4B
 10
-5.7309409999999996
 20
5.9571440000000004
 30
0.0
 11
-5.7309409999999996
 21
32.957144
 31
0.0
  0
LINE
  8
0
  6
CONTINUOUS
 62
              80
  5
4C
 10
-18.545715000000001
 20
5.9571440000000004
 30
0.0
 11
-18.545715000000001
 21
32.957144
 31
0.0
  0
LINE
  8
0
  6
CONTINUOUS
 62
              80
  5
4D
 10
-18.399477000000001
 20
5.9571440000000004
 30
0.0
 11
-18.399477000000001
 21
32.957144
 31
0.0
  0
LINE
  8
0
  6
CONTINUOUS
 62
              80
  5
4E
 10
-17.963068
 20
5.9571440000000004
 30
0.0
 11
-17.963068
 21
32.957144
 31
0.0
  0
LINE
  8
0
  6
CONTINUOUS
 62
              80
  5
4F
 10
-16.251733999999999
 20
5.9571440000000004
 30
0.0
 11
-16.251733999999999
 21
32.957144
 31
0.0
  0
LINE
  8
0
  6
CONTINUOUS
 62
              80
  5
50
 10
-13.519245
 20
5.9571440000000004
 30
0.0
 11
-13.519245
 21
32.957144
 31
0.0
  0
LINE
  8
0
  6
CONTINUOUS
 62
              80
  5
51
 10
-11.821484
 20
5.9571440000000004
 30
0.0
 11
-11.821484
 21
32.957144
 31
0.0
  0
LINE
  8
0
  6
CONTINUOUS
 62
              80
  5
52
 10
18.545715000000001
 20
5.9571440000000004
 30
0.0
 11
18.545715000000001
 21
32.957144
 31
0.0
  0
LINE
  8
0
  6
CONTINUOUS
 62
              80
  5
53
 10
17.963068
 20
5.9571440000000004
 30
0.0
 11
17.963068
 21
32.957144
 31
0.0
  0
LINE
  8
0
  6
CONTINUOUS
 62
              80
  5
54
 10
17.243369999999999
 20
5.9571440000000004
 30
0.0
 11
17.243369999999999
 21
32.957144
 31
0.0
  0
LINE
  8
0
  6
CONTINUOUS
 62
              80
  5
55
 10
15.003799000000001
 20
5.9571440000000004
 30
0.0
 11
15.003799000000001
 21
32.957144
 31
0.0
  0
LINE
  8
0
  6
CONTINUOUS
 62
              80
  5
56
 10
-20.0
 20
3.5
 30
0.0
 11
20.0
 21
3.5
 31
0.0
  0
LINE
  8
0
  6
CONTINUOUS
 62
              80
  5
57
 10
-20.0
 20
32.5
 30
0.0
 11
20.0
 21
32.5
 31
0.0
  0
LINE
  8
0
  6
CONTINUOUS
 62
              80
  5
58
 10
-19.971064999999999
 20
12.5
 30
0.0
 11
19.971064999999999
 21
12.5
 31
0.0
  0
LINE
  8
0
  6
CONTINUOUS
 62
              80
  5
59
 10
-19.954939
 20
17.5
 30
0.0
 11
19.954939
 21
17.5
 31
0.0
  0
LINE
  8
0
  6
CONTINUOUS
 62
              80
  5
5A
 10
-19.888054
 20
22.0
 30
0.0
 11
19.888054
 21
22.0
 31
0.0
  0
LINE
  8
0
  6
CONTINUOUS
 62
              80
  5
5B
 10
-19.863786999999999
 20
26.0
 30
0.0
 11
19.863786999999999
 21
26.0
 31
0.0
  0
LINE
  8
0
  6
CONTINUOUS
 62
              80
  5
5C
 10
-19.784943999999999
 20
30.0
 30
0.0
 11
19.784943999999999
 21
30.0
 31
0.0
  0
LINE
  8
0
  6
CONTINUOUS
 62
              80
  5
5D
 10
-19.954177999999999
 20
9.5
 30
0.0
 11
19.954177999999999
 21
9.5
 31
0.0
  0
LINE
  8
0
  6
CONTINUOUS
 62
              80
  5
5E
 10
-19.954177999999999
 20
6.5
 30
0.0
 11
19.954177999999999
 21
6.5
 31
0.0
  0
ARC
  8
0
  6
CONTINUOUS
 62
               3
  5
5F
 10
-20.630476000000002
 20
31.25
 30
0.0
 40
1.3999999999999999
 50
314.63998800000002
 51
63.234498999999985
  0
ARC
  8
0
  6
CONTINUOUS
 62
               3
  5
60
 10
-22.236068
 20
28.0
 30
0.0
 40
3.0
 50
325.15009500000002
 51
32.840970000000013
  0
ARC
  8
0
  6
CONTINUOUS
 62
               3
  5
61
 10
-22.236068
 20
24.0
 30
0.0
 40
3.0
 50
324.42377900000002
 51
34.849905000000028
  0
ARC
  8
0
  6
CONTINUOUS
 62
               3
  5
62
 10
-23.307189000000001
 20
19.75
 30
0.0
 40
4.0
 50
328.67947800000002
 51
29.468477999999987
  0
ARC
  8
0
  6
CONTINUOUS
 62
               3
  5
63
 10
-29.682458
 20
15.0
 30
0.0
 40
10.0
 50
346.48528100000004
 51
13.273449999999992
  0
ARC
  8
0
  6
CONTINUOUS
 62
               3
  5
64
 10
-23.162278000000001
 20
11.0
 30
0.0
 40
3.5
 50
337.97568699999999
 51
22.740014000000016
  0
ARC
  8
0
  6
CONTINUOUS
 62
               3
  5
65
 10
-23.162278000000001
 20
8.0
 30
0.0
 40
3.5
 50
337.97568699999999
 51
22.024312999999985
  0
ARC
  8
0
  6
CONTINUOUS
 62
               3
  5
66
 10
-23.162278000000001
 20
5.0
 30
0.0
 40
3.5
 50
334.62306599999999
 51
22.024312999999985
  0
ARC
  8
0
  6
CONTINUOUS
 62
               3
  5
67
 10
-19.295441
 20
29.898081999999999
 30
0.0
 40
0.5
 50
134.63998799999999
 51
212.84097
  0
ARC
  8
0
  6
CONTINUOUS
 62
               3
  5
68
 10
-19.363786999999999
 20
26.0
 30
0.0
 40
0.5
 50
145.15009499999999
 51
214.84990500000001
  0
ARC
  8
0
  6
CONTINUOUS
 62
               3
  5
69
 10
-19.38937
 20
21.963750999999998
 30
0.0
 40
0.5
 50
144.423779
 51
209.468478
  0
ARC
  8
0
  6
CONTINUOUS
 62
               3
  5
6A
 10
-19.454177999999999
 20
6.5
 30
0.0
 40
0.5
 50
157.97568699999999
 51
202.02431300000001
  0
ARC
  8
0
  6
CONTINUOUS
 62
               3
  5
6B
 10
-19.454177999999999
 20
9.5
 30
0.0
 40
0.5
 50
157.97568699999999
 51
202.02431300000001
  0
ARC
  8
0
  6
CONTINUOUS
 62
               3
  5
6C
 10
-19.462962000000001
 20
17.410786999999999
 30
0.0
 40
0.5
 50
148.67947799999999
 51
193.27345
  0
ARC
  8
0
  6
CONTINUOUS
 62
               3
  5
6D
 10
-19.473203999999999
 20
12.546201
 30
0.0
 40
0.5
 50
166.48528099999999
 51
202.740014
  0
LINE
  8
0
  6
CONTINUOUS
 62
               3
  5
6E
 10
-20.0
 20
3.5
 30
0.0
 11
-20.0
 21
0.457144
 31
0.0
  0
LINE
  8
0
  6
CONTINUOUS
 62
               3
  5
6F
 10
-20.0
 20
34.465795
 30
0.0
 11
-20.0
 21
32.5
 31
0.0
  0
ARC
  8
0
  6
CONTINUOUS
 62
               3
  5
70
 10
19.473203999999999
 20
12.546201
 30
0.0
 40
0.5
 50
337.25998600000003
 51
13.514718999999982
  0
ARC
  8
0
  6
CONTINUOUS
 62
               3
  5
71
 10
19.462962000000001
 20
17.410786999999999
 30
0.0
 40
0.5
 50
346.72654999999997
 51
31.320522000000015
  0
ARC
  8
0
  6
CONTINUOUS
 62
               3
  5
72
 10
19.454177999999999
 20
9.5
 30
0.0
 40
0.5
 50
337.97568699999999
 51
22.024312999999985
  0
ARC
  8
0
  6
CONTINUOUS
 62
               3
  5
73
 10
19.454177999999999
 20
6.5
 30
0.0
 40
0.5
 50
337.97568699999999
 51
22.024312999999985
  0
ARC
  8
0
  6
CONTINUOUS
 62
               3
  5
74
 10
19.38937
 20
21.963750999999998
 30
0.0
 40
0.5
 50
330.531522
 51
35.576221000000018
  0
ARC
  8
0
  6
CONTINUOUS
 62
               3
  5
75
 10
19.363786999999999
 20
26.0
 30
0.0
 40
0.5
 50
325.15009500000002
 51
34.849905000000028
  0
ARC
  8
0
  6
CONTINUOUS
 62
               3
  5
76
 10
19.295441
 20
29.898081999999999
 30
0.0
 40
0.5
 50
327.15902999999997
 51
45.360011999999976
  0
LINE
  8
0
  6
CONTINUOUS
 62
               3
  5
77
 10
20.0
 20
3.5
 30
0.0
 11
20.0
 21
0.457144
 31
0.0
  0
ARC
  8
0
  6
CONTINUOUS
 62
               3
  5
78
 10
23.162278000000001
 20
5.0
 30
0.0
 40
3.5
 50
157.97568699999999
 51
205.37693400000001
  0
ARC
  8
0
  6
CONTINUOUS
 62
               3
  5
79
 10
23.162278000000001
 20
8.0
 30
0.0
 40
3.5
 50
157.97568699999999
 51
202.02431300000001
  0
ARC
  8
0
  6
CONTINUOUS
 62
               3
  5
7A
 10
23.162278000000001
 20
11.0
 30
0.0
 40
3.5
 50
157.259986
 51
202.02431300000001
  0
ARC
  8
0
  6
CONTINUOUS
 62
               3
  5
7B
 10
29.682458
 20
15.0
 30
0.0
 40
10.0
 50
166.72655
 51
193.51471900000001
  0
ARC
  8
0
  6
CONTINUOUS
 62
               3
  5
7C
 10
23.307189000000001
 20
19.75
 30
0.0
 40
4.0
 50
150.531522
 51
211.32052200000001
  0
ARC
  8
0
  6
CONTINUOUS
 62
               3
  5
7D
 10
22.236068
 20
24.0
 30
0.0
 40
3.0
 50
145.15009499999999
 51
215.57622100000003
  0
ARC
  8
0
  6
CONTINUOUS
 62
               3
  5
7E
 10
22.236068
 20
28.0
 30
0.0
 40
3.0
 50
147.15903
 51
214.84990500000001
  0
ARC
  8
0
  6
CONTINUOUS
 62
               3
  5
7F
 10
20.630476000000002
 20
31.25
 30
0.0
 40
1.3999999999999999
 50
116.76550100000001
 51
225.36001200000001
  0
LINE
  8
0
  6
CONTINUOUS
 62
               3
  5
80
 10
20.0
 20
34.465795
 30
0.0
 11
20.0
 21
32.5
 31
0.0
  0
ARC
  8
0
  6
CONTINUOUS
 62
               3
  5
81
 10
-19.5
 20
34.465795
 30
0.0
 40
0.5
 50
91.0
 51
180.0
  0
ARC
  8
0
  6
CONTINUOUS
 62
               3
  5
82
 10
19.5
 20
34.465795
 30
0.0
 40
0.5
 50
0.0
 51
89.0
  0
ARC
  8
0
  6
CONTINUOUS
 62
               3
  5
83
 10
-19.5
 20
0.457144
 30
0.0
 40
0.5
 50
180.0
 51
262.457877
  0
ARC
  8
0
  6
CONTINUOUS
 62
               3
  5
84
 10
19.5
 20
0.457144
 30
0.0
 40
0.5
 50
277.542123
 51
0.0
  0
ENDBLK
  8
0
  5
85
  0
BLOCK
  8
0
  5
86
  2
MS_2
 70
               0
 10
0.0
 20
0.0
 30
0.0
  3
MS_2
  0
ARC
  8
0
  6
CONTINUOUS
 62
               3
  5
87
 10
-16.922369
 20
4.430078
 30
0.0
 40
3.0
 50
107.27052500000001
 51
179.0
  0
ARC
  8
0
  6
CONTINUOUS
 62
               3
  5
88
 10
-19.491194
 20
0.457144
 30
0.0
 40
0.5
 50
179.0
 51
261.96601199999998
  0
ARC
  8
0
  6
CONTINUOUS
 62
               3
  5
89
 10
16.922369
 20
4.430078
 30
0.0
 40
3.0
 50
1.0
 51
72.729474999999994
  0
ARC
  8
0
  6
CONTINUOUS
 62
               3
  5
8A
 10
19.491194
 20
0.457144
 30
0.0
 40
0.5
 50
278.03398800000008
 51
0.9999999999999887
  0
ARC
  8
0
  6
CONTINUOUS
 62
               3
  5
8B
 10
0.0
 20
-50.0
 30
0.0
 40
60.0
 50
72.729474999999994
 51
107.27052500000001
  0
LINE
  8
0
  6
CONTINUOUS
 62
               3
  5
8C
 10
17.550000000000001
 20
0.0
 30
0.0
 11
-17.550000000000001
 21
0.0
 31
0.0
  0
LINE
  8
0
  6
CONTINUOUS
 62
               3
  5
8D
 10
19.508725999999999
 20
-0.034281
 30
0.0
 11
17.544764000000001
 21
0.0
 31
0.0
  0
LINE
  8
0
  6
CONTINUOUS
 62
               3
  5
8E
 10
-19.508725999999999
 20
-0.034281
 30
0.0
 11
-17.544764000000001
 21
0.0
 31
0.0
  0
LINE
  8
0
  6
CONTINUOUS
 62
               3
  5
8F
 10
-19.921911999999999
 20
4.4824349999999997
 30
0.0
 11
-19.991116999999999
 21
0.46587
 31
0.0
  0
LINE
  8
0
  6
CONTINUOUS
 62
               3
  5
90
 10
19.921911999999999
 20
4.4824349999999997
 30
0.0
 11
19.991116999999999
 21
0.46587
 31
0.0
  0
ENDBLK
  8
0
  5
91
  0
BLOCK
  8
0
  5
92
  2
MS_3
 70
               0
 10
0.0
 20
0.0
 30
0.0
  3
MS_3
  0
POLYLINE
  8
0
  6
CONTINUOUS
 62
               3
  5
93
 66
               1
 10
0.0
 20
0.0
 30
0.0
  0
VERTEX
  8
0
  6
CONTINUOUS
 62
               3
  5
430
 10
19.516960000000001
 20
-0.042569
 30
0.0
  0
VERTEX
  8
0
  6
CONTINUOUS
 62
               3
  5
431
 10
19.617376
 20
-0.083318
 30
0.0
  0
VERTEX
  8
0
  6
CONTINUOUS
 62
               3
  5
432
 10
19.709762999999999
 20
-0.136452
 30
0.0
  0
VERTEX
  8
0
  6
CONTINUOUS
 62
               3
  5
433
 10
19.792100000000001
 20
-0.200811
 30
0.0
  0
VERTEX
  8
0
  6
CONTINUOUS
 62
               3
  5
434
 10
19.862590000000001
 20
-0.274987
 30
0.0
  0
VERTEX
  8
0
  6
CONTINUOUS
 62
               3
  5
435
 10
19.919691
 20
-0.357359
 30
0.0
  0
VERTEX
  8
0
  6
CONTINUOUS
 62
               3
  5
436
 10
19.962154999999999
 20
-0.446127
 30
0.0
  0
VERTEX
  8
0
  6
CONTINUOUS
 62
               3
  5
437
 10
19.989053999999999
 20
-0.539351
 30
0.0
  0
VERTEX
  8
0
  6
CONTINUOUS
 62
               3
  5
438
 10
19.9998
 20
-0.634994
 30
0.0
  0
VERTEX
  8
0
  6
CONTINUOUS
 62
               3
  5
439
 10
19.994159
 20
-0.730964
 30
0.0
  0
VERTEX
  8
0
  6
CONTINUOUS
 62
               3
  5
43A
 10
19.972252999999998
 20
-0.825165
 30
0.0
  0
VERTEX
  8
0
  6
CONTINUOUS
 62
               3
  5
43B
 10
19.934560999999999
 20
-0.9155370000000001
 30
0.0
  0
VERTEX
  8
0
  6
CONTINUOUS
 62
               3
  5
43C
 10
19.881907999999999
 20
-1.000105
 30
0.0
  0
SEQEND
  8
0
  6
CONTINUOUS
 62
               3
  5
43D
  0
LINE
  8
0
  6
CONTINUOUS
 62
               3
  5
94
 10
-19.508725999999999
 20
-0.034281
 30
0.0
 11
-17.544764000000001
 21
0.0
 31
0.0
  0
POLYLINE
  8
0
  6
CONTINUOUS
 62
               3
  5
95
 66
               1
 10
0.0
 20
0.0
 30
0.0
  0
VERTEX
  8
0
  6
CONTINUOUS
 62
               3
  5
43E
 10
-19.881907999999999
 20
-1.000105
 30
0.0
  0
VERTEX
  8
0
  6
CONTINUOUS
 62
               3
  5
43F
 10
-19.934560999999999
 20
-0.9155370000000001
 30
0.0
  0
VERTEX
  8
0
  6
CONTINUOUS
 62
               3
  5
440
 10
-19.972252999999998
 20
-0.825165
 30
0.0
  0
VERTEX
  8
0
  6
CONTINUOUS
 62
               3
  5
441
 10
-19.994159
 20
-0.730964
 30
0.0
  0
VERTEX
  8
0
  6
CONTINUOUS
 62
               3
  5
442
 10
-19.9998
 20
-0.634994
 30
0.0
  0
VERTEX
  8
0
  6
CONTINUOUS
 62
               3
  5
443
 10
-19.989053999999999
 20
-0.539351
 30
0.0
  0
VERTEX
  8
0
  6
CONTINUOUS
 62
               3
  5
444
 10
-19.962154999999999
 20
-0.446127
 30
0.0
  0
VERTEX
  8
0
  6
CONTINUOUS
 62
               3
  5
445
 10
-19.919691
 20
-0.357359
 30
0.0
  0
VERTEX
  8
0
  6
CONTINUOUS
 62
               3
  5
446
 10
-19.862590000000001
 20
-0.274987
 30
0.0
  0
VERTEX
  8
0
  6
CONTINUOUS
 62
               3
  5
447
 10
-19.792100000000001
 20
-0.200811
 30
0.0
  0
VERTEX
  8
0
  6
CONTINUOUS
 62
               3
  5
448
 10
-19.709762999999999
 20
-0.136452
 30
0.0
  0
VERTEX
  8
0
  6
CONTINUOUS
 62
               3
  5
449
 10
-19.617376
 20
-0.083318
 30
0.0
  0
VERTEX
  8
0
  6
CONTINUOUS
 62
               3
  5
44A
 10
-19.516960000000001
 20
-0.042569
 30
0.0
  0
SEQEND
  8
0
  6
CONTINUOUS
 62
               3
  5
44B
  0
ARC
  8
0
  6
CONTINUOUS
 62
               3
  5
96
 10
-130.0
 20
-1.0
 30
0.0
 40
150.0
 50
352.32567599999999
 51
359.99999500000001
  0
ARC
  8
0
  6
CONTINUOUS
 62
               3
  5
97
 10
13.014923
 20
-39.5
 30
0.0
 40
1.0
 50
270.00000299999999
 51
358.99999700000001
  0
ARC
  8
0
  6
CONTINUOUS
 62
               3
  5
98
 10
-13.014953999999999
 20
-39.5
 30
0.0
 40
1.0
 50
181.0
 51
270.00000299999999
  0
ARC
  8
0
  6
CONTINUOUS
 62
               3
  5
99
 10
-17.665427999999999
 20
-20.897769
 30
0.0
 40
1.0
 50
187.67432400000001
 51
236.84182100000004
  0
ARC
  8
0
  6
CONTINUOUS
 62
               3
  5
9A
 10
17.665427999999999
 20
-20.897769
 30
0.0
 40
1.0
 50
303.15817900000002
 51
352.32567599999999
  0
ARC
  8
0
  6
CONTINUOUS
 62
               3
  5
9B
 10
23.059998
 20
-29.154682999999999
 30
0.0
 40
8.8629610000000003
 50
123.158179
 51
178.99998299999999
  0
ARC
  8
0
  6
CONTINUOUS
 62
               3
  5
9C
 10
-23.059998
 20
-29.154682999999999
 30
0.0
 40
8.8629610000000003
 50
1.0000170000000002
 51
56.84182100000001
  0
ARC
  8
0
  6
CONTINUOUS
 62
               3
  5
9D
 10
130.0
 20
-1.0
 30
0.0
 40
150.0
 50
180.0
 51
187.67432400000001
  0
LINE
  8
0
  6
CONTINUOUS
 62
               3
  5
9E
 10
-14.014804
 20
-39.517445000000002
 30
0.0
 11
-14.198387
 21
-29.0
 31
0.0
  0
LINE
  8
0
  6
CONTINUOUS
 62
               3
  5
9F
 10
13.014923
 20
-40.5
 30
0.0
 11
-13.014953999999999
 21
-40.5
 31
0.0
  0
LINE
  8
0
  6
CONTINUOUS
 62
               3
  5
A0
 10
14.014804
 20
-39.517445000000002
 30
0.0
 11
14.198387
 21
-29.0
 31
0.0
  0
LINE
  8
0
  6
CONTINUOUS
 62
               3
  5
A1
 10
-18.463747000000001
 20
-21.500004000000001
 30
0.0
 11
18.463747000000001
 21
-21.500004000000001
 31
0.0
  0
LINE
  8
0
  6
CONTINUOUS
 62
               3
  5
A2
 10
20.0
 20
-1.0
 30
0.0
 11
-20.0
 21
-1.0
 31
0.0
  0
LINE
  8
0
  6
CONTINUOUS
 62
               3
  5
A3
 10
-17.550000000000001
 20
0.0
 30
0.0
 11
17.550000000000001
 21
0.0
 31
0.0
  0
LINE
  8
0
  6
CONTINUOUS
 62
               3
  5
A4
 10
19.508725999999999
 20
-0.034281
 30
0.0
 11
17.544764000000001
 21
0.0
 31
0.0
  0
ENDBLK
  8
0
  5
A5
  0
BLOCK
  8
0
  5
A6
  2
MS_4
 70
               0
 10
0.0
 20
0.0
 30
0.0
  3
MS_4
  0
LINE
  8
0
  6
CONTINUOUS
 62
               3
  5
A7
 10
-8.6500000000000004
 20
-40.499997
 30
0.0
 11
8.6500000000000004
 21
-40.499997
 31
0.0
  0
LINE
  8
0
  6
CONTINUOUS
 62
               3
  5
A8
 10
14.000014999999999
 20
-295.5
 30
0.0
 11
14.000014999999999
 21
-293.5
 31
0.0
  0
LINE
  8
0
  6
CONTINUOUS
 62
               3
  5
A9
 10
-13.999985000000001
 20
-295.5
 30
0.0
 11
-13.999985000000001
 21
-293.5
 31
0.0
  0
LINE
  8
0
  6
CONTINUOUS
 62
               3
  5
AA
 10
-14.999985000000001
 20
-293.5
 30
0.0
 11
15.000014999999999
 21
-293.5
 31
0.0
  0
ARC
  8
0
  6
CONTINUOUS
 62
               3
  5
AB
 10
0.000015
 20
-322.5
 30
0.0
 40
4.5
 50
153.6122
 51
26.387799999999991
  0
ARC
  8
0
  6
CONTINUOUS
 62
               3
  5
AC
 10
7.0000150000000003
 20
-319.5
 30
0.0
 40
1.0
 50
270.0
 51
0.0
  0
ARC
  8
0
  6
CONTINUOUS
 62
               3
  5
AD
 10
-6.9999849999999997
 20
-319.5
 30
0.0
 40
1.0
 50
180.0
 51
270.0
  0
ARC
  8
0
  6
CONTINUOUS
 62
               3
  5
AE
 10
11.625014999999999
 20
-306.25390599999997
 30
0.0
 40
4.7539059999999997
 50
35.400855999999997
 51
144.599144
  0
ARC
  8
0
  6
CONTINUOUS
 62
               3
  5
AF
 10
0.000015
 20
-317.515625
 30
0.0
 40
16.015625
 50
61.059412000000009
 51
118.94058800000002
  0
ARC
  8
0
  6
CONTINUOUS
 62
               3
  5
B0
 10
-11.624985000000001
 20
-306.25390599999997
 30
0.0
 40
4.7539059999999997
 50
35.400855999999997
 51
144.599144
  0
ARC
  8
0
  6
CONTINUOUS
 62
               3
  5
B1
 10
-11.624985000000001
 20
-307.74609400000003
 30
0.0
 40
4.7539059999999997
 50
215.400856
 51
324.59914400000002
  0
ARC
  8
0
  6
CONTINUOUS
 62
               3
  5
B2
 10
0.000015
 20
-296.484375
 30
0.0
 40
16.015625
 50
241.05941200000004
 51
298.94058799999999
  0
ARC
  8
0
  6
CONTINUOUS
 62
               3
  5
B3
 10
11.625014999999999
 20
-307.74609400000003
 30
0.0
 40
4.7539059999999997
 50
215.400856
 51
324.59914400000002
  0
ARC
  8
0
  6
CONTINUOUS
 62
               3
  5
B4
 10
-11.624985000000001
 20
-285.74609400000003
 30
0.0
 40
4.7539059999999997
 50
215.400856
 51
324.59914400000002
  0
ARC
  8
0
  6
CONTINUOUS
 62
               3
  5
B5
 10
0.000015
 20
-274.484375
 30
0.0
 40
16.015625
 50
241.05941200000004
 51
298.94058799999999
  0
ARC
  8
0
  6
CONTINUOUS
 62
               3
  5
B6
 10
11.625014999999999
 20
-285.74609400000003
 30
0.0
 40
4.7539059999999997
 50
215.400856
 51
324.59914400000002
  0
ARC
  8
0
  6
CONTINUOUS
 62
               3
  5
B7
 10
11.625014999999999
 20
-284.25390599999997
 30
0.0
 40
4.7539059999999997
 50
35.400855999999997
 51
144.599144
  0
ARC
  8
0
  6
CONTINUOUS
 62
               3
  5
B8
 10
-11.624985000000001
 20
-284.25390599999997
 30
0.0
 40
4.7539059999999997
 50
35.400855999999997
 51
144.599144
  0
ARC
  8
0
  6
CONTINUOUS
 62
               3
  5
B9
 10
0.000015
 20
-295.515625
 30
0.0
 40
16.015625
 50
61.059412000000009
 51
118.94058800000002
  0
CIRCLE
  8
0
  6
CONTINUOUS
 62
               3
  5
BA
 10
0.000015
 20
-342.5
 30
0.0
 40
4.5
  0
ARC
  8
0
  6
CONTINUOUS
 62
               3
  5
BB
 10
0.000015
 20
-342.5
 30
0.0
 40
16.0
 50
180.0
 51
0.0
  0
LINE
  8
0
  6
CONTINUOUS
 62
               3
  5
BC
 10
-8.6500000000000004
 20
-40.499997
 30
0.0
 11
-8.6500000000000004
 21
-279.5
 31
0.0
  0
LINE
  8
0
  6
CONTINUOUS
 62
               3
  5
BD
 10
8.6500000000000004
 20
-40.499997
 30
0.0
 11
8.6500000000000004
 21
-279.5
 31
0.0
  0
LINE
  8
0
  6
CONTINUOUS
 62
               3
  5
BE
 10
-15.999985000000001
 20
-295.5
 30
0.0
 11
16.000015000000001
 21
-295.5
 31
0.0
  0
LINE
  8
0
  6
CONTINUOUS
 62
               3
  5
BF
 10
-15.999985000000001
 20
-298.5
 30
0.0
 11
16.000015000000001
 21
-298.5
 31
0.0
  0
LINE
  8
0
  6
CONTINUOUS
 62
               3
  5
C0
 10
8.0000149999999994
 20
-319.5
 30
0.0
 11
8.0000149999999994
 21
-318.5
 31
0.0
  0
LINE
  8
0
  6
CONTINUOUS
 62
               3
  5
C1
 10
8.0000149999999994
 20
-317.5
 30
0.0
 11
8.0000149999999994
 21
-316.5
 31
0.0
  0
LINE
  8
0
  6
CONTINUOUS
 62
               3
  5
C2
 10
-7.9999849999999997
 20
-317.5
 30
0.0
 11
-7.9999849999999997
 21
-316.5
 31
0.0
  0
LINE
  8
0
  6
CONTINUOUS
 62
               3
  5
C3
 10
8.0000149999999994
 20
-318.5
 30
0.0
 11
-7.9999849999999997
 21
-318.5
 31
0.0
  0
LINE
  8
0
  6
CONTINUOUS
 62
               3
  5
C4
 10
8.0000149999999994
 20
-318.5
 30
0.0
 11
9.1000150000000009
 21
-317.80000000000001
 31
0.0
  0
LINE
  8
0
  6
CONTINUOUS
 62
               3
  5
C5
 10
-7.9999849999999997
 20
-318.5
 30
0.0
 11
-9.0999850000000002
 21
-317.80000000000001
 31
0.0
  0
LINE
  8
0
  6
CONTINUOUS
 62
               3
  5
C6
 10
7.0000150000000003
 20
-320.5
 30
0.0
 11
-6.9999849999999997
 21
-320.5
 31
0.0
  0
LINE
  8
0
  6
CONTINUOUS
 62
               3
  5
C7
 10
-9.0999850000000002
 20
-317.80000000000001
 30
0.0
 11
-9.0999850000000002
 21
-317.5
 31
0.0
  0
LINE
  8
0
  6
CONTINUOUS
 62
               3
  5
C8
 10
9.1000150000000009
 20
-317.80000000000001
 30
0.0
 11
-9.0999850000000002
 21
-317.80000000000001
 31
0.0
  0
LINE
  8
0
  6
CONTINUOUS
 62
               3
  5
C9
 10
9.1000150000000009
 20
-317.80000000000001
 30
0.0
 11
9.1000150000000009
 21
-317.5
 31
0.0
  0
LINE
  8
0
  6
CONTINUOUS
 62
               3
  5
CA
 10
-7.9999849999999997
 20
-319.5
 30
0.0
 11
-7.9999849999999997
 21
-318.5
 31
0.0
  0
LINE
  8
0
  6
CONTINUOUS
 62
               3
  5
CB
 10
9.1000150000000009
 20
-317.5
 30
0.0
 11
-9.0999850000000002
 21
-317.5
 31
0.0
  0
LINE
  8
0
  6
CONTINUOUS
 62
               3
  5
CC
 10
6.6500149999999998
 20
-316.5
 30
0.0
 11
8.6500149999999998
 21
-314.5
 31
0.0
  0
LINE
  8
0
  6
CONTINUOUS
 62
               3
  5
CD
 10
-6.649985
 20
-316.5
 30
0.0
 11
-8.6499849999999991
 21
-314.5
 31
0.0
  0
LINE
  8
0
  6
CONTINUOUS
 62
               3
  5
CE
 10
6.6500149999999998
 20
-312.5
 30
0.0
 11
6.6500149999999998
 21
-316.5
 31
0.0
  0
LINE
  8
0
  6
CONTINUOUS
 62
               3
  5
CF
 10
-6.649985
 20
-312.5
 30
0.0
 11
-6.649985
 21
-316.5
 31
0.0
  0
LINE
  8
0
  6
CONTINUOUS
 62
               3
  5
D0
 10
8.6500149999999998
 20
-312.5
 30
0.0
 11
8.6500149999999998
 21
-314.5
 31
0.0
  0
LINE
  8
0
  6
CONTINUOUS
 62
               3
  5
D1
 10
-8.6499849999999991
 20
-312.5
 30
0.0
 11
-8.6499849999999991
 21
-314.5
 31
0.0
  0
LINE
  8
0
  6
CONTINUOUS
 62
               3
  5
D2
 10
-7.9999849999999997
 20
-316.5
 30
0.0
 11
8.0000149999999994
 21
-316.5
 31
0.0
  0
LINE
  8
0
  6
CONTINUOUS
 62
               3
  5
D3
 10
-8.6499849999999991
 20
-314.5
 30
0.0
 11
8.6500149999999998
 21
-314.5
 31
0.0
  0
LINE
  8
0
  6
CONTINUOUS
 62
               3
  5
D4
 10
-15.499985000000001
 20
-303.405868
 30
0.0
 11
-13.594117000000001
 21
-301.5
 31
0.0
  0
LINE
  8
0
  6
CONTINUOUS
 62
               3
  5
D5
 10
7.7500150000000003
 20
-310.5
 30
0.0
 11
7.7500150000000003
 21
-303.5
 31
0.0
  0
LINE
  8
0
  6
CONTINUOUS
 62
               3
  5
D6
 10
-13.594117000000001
 20
-312.5
 30
0.0
 11
13.594148000000001
 21
-312.5
 31
0.0
  0
LINE
  8
0
  6
CONTINUOUS
 62
               3
  5
D7
 10
15.500014999999999
 20
-303.405868
 30
0.0
 11
13.594148000000001
 21
-301.5
 31
0.0
  0
LINE
  8
0
  6
CONTINUOUS
 62
               3
  5
D8
 10
15.500014999999999
 20
-310.594132
 30
0.0
 11
13.594148000000001
 21
-312.5
 31
0.0
  0
LINE
  8
0
  6
CONTINUOUS
 62
               3
  5
D9
 10
-15.499985000000001
 20
-310.594132
 30
0.0
 11
-13.594117000000001
 21
-312.5
 31
0.0
  0
LINE
  8
0
  6
CONTINUOUS
 62
               3
  5
DA
 10
15.500014999999999
 20
-310.594132
 30
0.0
 11
15.500014999999999
 21
-303.405868
 31
0.0
  0
LINE
  8
0
  6
CONTINUOUS
 62
               3
  5
DB
 10
-15.499985000000001
 20
-310.594132
 30
0.0
 11
-15.499985000000001
 21
-303.405868
 31
0.0
  0
LINE
  8
0
  6
CONTINUOUS
 62
               3
  5
DC
 10
-7.7499849999999997
 20
-310.5
 30
0.0
 11
-7.7499849999999997
 21
-303.5
 31
0.0
  0
LINE
  8
0
  6
CONTINUOUS
 62
               3
  5
DD
 10
15.500014999999999
 20
-288.594132
 30
0.0
 11
13.594148000000001
 21
-290.5
 31
0.0
  0
LINE
  8
0
  6
CONTINUOUS
 62
               3
  5
DE
 10
-15.499985000000001
 20
-288.594132
 30
0.0
 11
-13.594117000000001
 21
-290.5
 31
0.0
  0
LINE
  8
0
  6
CONTINUOUS
 62
               3
  5
DF
 10
15.500014999999999
 20
-281.405868
 30
0.0
 11
13.594148000000001
 21
-279.5
 31
0.0
  0
LINE
  8
0
  6
CONTINUOUS
 62
               3
  5
E0
 10
-15.499985000000001
 20
-281.405868
 30
0.0
 11
-13.594117000000001
 21
-279.5
 31
0.0
  0
LINE
  8
0
  6
CONTINUOUS
 62
               3
  5
E1
 10
7.7500150000000003
 20
-281.5
 30
0.0
 11
7.7500150000000003
 21
-288.5
 31
0.0
  0
LINE
  8
0
  6
CONTINUOUS
 62
               3
  5
E2
 10
-7.7499849999999997
 20
-281.5
 30
0.0
 11
-7.7499849999999997
 21
-288.5
 31
0.0
  0
LINE
  8
0
  6
CONTINUOUS
 62
               3
  5
E3
 10
-13.594117000000001
 20
-279.5
 30
0.0
 11
13.594148000000001
 21
-279.5
 31
0.0
  0
LINE
  8
0
  6
CONTINUOUS
 62
               3
  5
E4
 10
-15.499985000000001
 20
-281.405868
 30
0.0
 11
-15.499985000000001
 21
-288.594132
 31
0.0
  0
LINE
  8
0
  6
CONTINUOUS
 62
               3
  5
E5
 10
15.500014999999999
 20
-281.405868
 30
0.0
 11
15.500014999999999
 21
-288.594132
 31
0.0
  0
LINE
  8
0
  6
CONTINUOUS
 62
               3
  5
E6
 10
15.000014999999999
 20
-298.5
 30
0.0
 11
15.000014999999999
 21
-301.5
 31
0.0
  0
LINE
  8
0
  6
CONTINUOUS
 62
               3
  5
E7
 10
-14.999985000000001
 20
-298.5
 30
0.0
 11
-14.999985000000001
 21
-301.5
 31
0.0
  0
LINE
  8
0
  6
CONTINUOUS
 62
               3
  5
E8
 10
-14.999985000000001
 20
-290.5
 30
0.0
 11
15.000014999999999
 21
-290.5
 31
0.0
  0
LINE
  8
0
  6
CONTINUOUS
 62
               3
  5
E9
 10
-14.999985000000001
 20
-301.5
 30
0.0
 11
15.000014999999999
 21
-301.5
 31
0.0
  0
LINE
  8
0
  6
CONTINUOUS
 62
               3
  5
EA
 10
15.000014999999999
 20
-290.5
 30
0.0
 11
15.000014999999999
 21
-293.5
 31
0.0
  0
LINE
  8
0
  6
CONTINUOUS
 62
               3
  5
EB
 10
-14.999985000000001
 20
-290.5
 30
0.0
 11
-14.999985000000001
 21
-293.5
 31
0.0
  0
LINE
  8
0
  6
CONTINUOUS
 62
               3
  5
EC
 10
-15.999985000000001
 20
-295.5
 30
0.0
 11
-15.999985000000001
 21
-342.5
 31
0.0
  0
LINE
  8
0
  6
CONTINUOUS
 62
               3
  5
ED
 10
16.000015000000001
 20
-295.5
 30
0.0
 11
16.000015000000001
 21
-342.5
 31
0.0
  0
ENDBLK
  8
0
  5
EE
  0
BLOCK
  8
0
  5
EF
  2
MS_5
 70
               0
 10
0.0
 20
0.0
 30
0.0
  3
MS_5
  0
LINE
  8
0
  6
CONTINUOUS
 62
               3
  5
F0
 10
-8.6500000000000004
 20
0.0
 30
0.0
 11
8.6500000000000004
 21
0.0
 31
0.0
  0
POINT
  8
0
  6
CONTINUOUS
 62
              80
  5
F1
 10
0.0
 20
0.0
 30
0.0
  0
LINE
  8
0
  6
CONTINUOUS
 62
               3
  5
F2
 10
-16.000015000000001
 20
-255.00000299999999
 30
0.0
 11
-16.000015000000001
 21
-258.00000299999999
 31
0.0
  0
LINE
  8
0
  6
CONTINUOUS
 62
               3
  5
F3
 10
35.999985000000002
 20
-265.00000299999999
 30
0.0
 11
35.999985000000002
 21
-318.00000299999999
 31
0.0
  0
LINE
  8
0
  6
CONTINUOUS
 62
               3
  5
F4
 10
35.999985000000002
 20
-318.00000299999999
 30
0.0
 11
32.999985000000002
 21
-318.00000299999999
 31
0.0
  0
LINE
  8
0
  6
CONTINUOUS
 62
               3
  5
F5
 10
32.999985000000002
 20
-265.00000299999999
 30
0.0
 11
32.999985000000002
 21
-318.00000299999999
 31
0.0
  0
LINE
  8
0
  6
CONTINUOUS
 62
               3
  5
F6
 10
14.999985000000001
 20
-250.00000299999999
 30
0.0
 11
14.999985000000001
 21
-253.00000299999999
 31
0.0
  0
LINE
  8
0
  6
CONTINUOUS
 62
               3
  5
F7
 10
-15.000014999999999
 20
-250.00000299999999
 30
0.0
 11
-15.000014999999999
 21
-253.00000299999999
 31
0.0
  0
LINE
  8
0
  6
CONTINUOUS
 62
               3
  5
F8
 10
14.999985000000001
 20
-261.00000299999999
 30
0.0
 11
-15.000014999999999
 21
-261.00000299999999
 31
0.0
  0
LINE
  8
0
  6
CONTINUOUS
 62
               3
  5
F9
 10
14.999985000000001
 20
-250.00000299999999
 30
0.0
 11
-15.000014999999999
 21
-250.00000299999999
 31
0.0
  0
LINE
  8
0
  6
CONTINUOUS
 62
               3
  5
FA
 10
14.999985000000001
 20
-258.00000299999999
 30
0.0
 11
14.999985000000001
 21
-261.00000299999999
 31
0.0
  0
LINE
  8
0
  6
CONTINUOUS
 62
               3
  5
FB
 10
-15.000014999999999
 20
-258.00000299999999
 30
0.0
 11
-15.000014999999999
 21
-261.00000299999999
 31
0.0
  0
LINE
  8
0
  6
CONTINUOUS
 62
               3
  5
FC
 10
-15.500014999999999
 20
-240.90586999999999
 30
0.0
 11
-15.500014999999999
 21
-248.09413499999999
 31
0.0
  0
LINE
  8
0
  6
CONTINUOUS
 62
               3
  5
FD
 10
15.499985000000001
 20
-240.90586999999999
 30
0.0
 11
15.499985000000001
 21
-248.09413499999999
 31
0.0
  0
LINE
  8
0
  6
CONTINUOUS
 62
               3
  5
FE
 10
13.594117000000001
 20
-239.00000299999999
 30
0.0
 11
-13.594148000000001
 21
-239.00000299999999
 31
0.0
  0
LINE
  8
0
  6
CONTINUOUS
 62
               3
  5
FF
 10
7.7499849999999997
 20
-241.00000299999999
 30
0.0
 11
7.7499849999999997
 21
-248.00000299999999
 31
0.0
  0
LINE
  8
0
  6
CONTINUOUS
 62
               3
  5
100
 10
-7.7500150000000003
 20
-241.00000299999999
 30
0.0
 11
-7.7500150000000003
 21
-248.00000299999999
 31
0.0
  0
LINE
  8
0
  6
CONTINUOUS
 62
               3
  5
101
 10
15.499985000000001
 20
-240.90586999999999
 30
0.0
 11
13.594117000000001
 21
-239.00000299999999
 31
0.0
  0
LINE
  8
0
  6
CONTINUOUS
 62
               3
  5
102
 10
-15.500014999999999
 20
-240.90586999999999
 30
0.0
 11
-13.594148000000001
 21
-239.00000299999999
 31
0.0
  0
LINE
  8
0
  6
CONTINUOUS
 62
               3
  5
103
 10
15.499985000000001
 20
-248.09413499999999
 30
0.0
 11
13.594117000000001
 21
-250.00000299999999
 31
0.0
  0
LINE
  8
0
  6
CONTINUOUS
 62
               3
  5
104
 10
-15.500014999999999
 20
-248.09413499999999
 30
0.0
 11
-13.594148000000001
 21
-250.00000299999999
 31
0.0
  0
LINE
  8
0
  6
CONTINUOUS
 62
               3
  5
105
 10
7.7499849999999997
 20
-270.00000299999999
 30
0.0
 11
7.7499849999999997
 21
-263.00000299999999
 31
0.0
  0
LINE
  8
0
  6
CONTINUOUS
 62
               3
  5
106
 10
15.499985000000001
 20
-270.09413499999999
 30
0.0
 11
15.499985000000001
 21
-262.90586999999999
 31
0.0
  0
LINE
  8
0
  6
CONTINUOUS
 62
               3
  5
107
 10
-15.500014999999999
 20
-270.09413499999999
 30
0.0
 11
-15.500014999999999
 21
-262.90586999999999
 31
0.0
  0
LINE
  8
0
  6
CONTINUOUS
 62
               3
  5
108
 10
15.499985000000001
 20
-270.09413499999999
 30
0.0
 11
13.594117000000001
 21
-272.00000299999999
 31
0.0
  0
LINE
  8
0
  6
CONTINUOUS
 62
               3
  5
109
 10
-15.500014999999999
 20
-270.09413499999999
 30
0.0
 11
-13.594148000000001
 21
-272.00000299999999
 31
0.0
  0
LINE
  8
0
  6
CONTINUOUS
 62
               3
  5
10A
 10
-15.500014999999999
 20
-262.90586999999999
 30
0.0
 11
-13.594148000000001
 21
-261.00000299999999
 31
0.0
  0
LINE
  8
0
  6
CONTINUOUS
 62
               3
  5
10B
 10
13.594117000000001
 20
-272.00000299999999
 30
0.0
 11
-13.594148000000001
 21
-272.00000299999999
 31
0.0
  0
LINE
  8
0
  6
CONTINUOUS
 62
               3
  5
10C
 10
-7.7500150000000003
 20
-270.00000299999999
 30
0.0
 11
-7.7500150000000003
 21
-263.00000299999999
 31
0.0
  0
LINE
  8
0
  6
CONTINUOUS
 62
               3
  5
10D
 10
15.499985000000001
 20
-262.90586999999999
 30
0.0
 11
13.594117000000001
 21
-261.00000299999999
 31
0.0
  0
LINE
  8
0
  6
CONTINUOUS
 62
               3
  5
10E
 10
8.6499849999999991
 20
-274.00000299999999
 30
0.0
 11
-8.6500149999999998
 21
-274.00000299999999
 31
0.0
  0
LINE
  8
0
  6
CONTINUOUS
 62
               3
  5
10F
 10
7.9999849999999997
 20
-276.00000299999999
 30
0.0
 11
-8.0000149999999994
 21
-276.00000299999999
 31
0.0
  0
LINE
  8
0
  6
CONTINUOUS
 62
               3
  5
110
 10
8.6499849999999991
 20
-272.00000299999999
 30
0.0
 11
8.6499849999999991
 21
-274.00000299999999
 31
0.0
  0
LINE
  8
0
  6
CONTINUOUS
 62
               3
  5
111
 10
-8.6500149999999998
 20
-272.00000299999999
 30
0.0
 11
-8.6500149999999998
 21
-274.00000299999999
 31
0.0
  0
LINE
  8
0
  6
CONTINUOUS
 62
               3
  5
112
 10
6.649985
 20
-272.00000299999999
 30
0.0
 11
6.649985
 21
-276.00000299999999
 31
0.0
  0
LINE
  8
0
  6
CONTINUOUS
 62
               3
  5
113
 10
-6.6500149999999998
 20
-272.00000299999999
 30
0.0
 11
-6.6500149999999998
 21
-276.00000299999999
 31
0.0
  0
LINE
  8
0
  6
CONTINUOUS
 62
               3
  5
114
 10
6.649985
 20
-276.00000299999999
 30
0.0
 11
8.6499849999999991
 21
-274.00000299999999
 31
0.0
  0
LINE
  8
0
  6
CONTINUOUS
 62
               3
  5
115
 10
-6.6500149999999998
 20
-276.00000299999999
 30
0.0
 11
-8.6500149999999998
 21
-274.00000299999999
 31
0.0
  0
LINE
  8
0
  6
CONTINUOUS
 62
               3
  5
116
 10
-9.1000150000000009
 20
-277.00000299999999
 30
0.0
 11
9.0999850000000002
 21
-277.00000299999999
 31
0.0
  0
LINE
  8
0
  6
CONTINUOUS
 62
               3
  5
117
 10
7.9999849999999997
 20
-279.00000299999999
 30
0.0
 11
7.9999849999999997
 21
-278.00000299999999
 31
0.0
  0
LINE
  8
0
  6
CONTINUOUS
 62
               3
  5
118
 10
-9.1000150000000009
 20
-277.300003
 30
0.0
 11
-9.1000150000000009
 21
-277.00000299999999
 31
0.0
  0
LINE
  8
0
  6
CONTINUOUS
 62
               3
  5
119
 10
-9.1000150000000009
 20
-277.300003
 30
0.0
 11
9.0999850000000002
 21
-277.300003
 31
0.0
  0
LINE
  8
0
  6
CONTINUOUS
 62
               3
  5
11A
 10
9.0999850000000002
 20
-277.300003
 30
0.0
 11
9.0999850000000002
 21
-277.00000299999999
 31
0.0
  0
LINE
  8
0
  6
CONTINUOUS
 62
               3
  5
11B
 10
-7.0000150000000003
 20
-280.00000299999999
 30
0.0
 11
6.9999849999999997
 21
-280.00000299999999
 31
0.0
  0
LINE
  8
0
  6
CONTINUOUS
 62
               3
  5
11C
 10
7.9999849999999997
 20
-278.00000299999999
 30
0.0
 11
9.0999850000000002
 21
-277.300003
 31
0.0
  0
LINE
  8
0
  6
CONTINUOUS
 62
               3
  5
11D
 10
-8.0000149999999994
 20
-278.00000299999999
 30
0.0
 11
-9.1000150000000009
 21
-277.300003
 31
0.0
  0
LINE
  8
0
  6
CONTINUOUS
 62
               3
  5
11E
 10
-8.0000149999999994
 20
-278.00000299999999
 30
0.0
 11
7.9999849999999997
 21
-278.00000299999999
 31
0.0
  0
LINE
  8
0
  6
CONTINUOUS
 62
               3
  5
11F
 10
7.9999849999999997
 20
-277.00000299999999
 30
0.0
 11
7.9999849999999997
 21
-276.00000299999999
 31
0.0
  0
LINE
  8
0
  6
CONTINUOUS
 62
               3
  5
120
 10
-8.0000149999999994
 20
-277.00000299999999
 30
0.0
 11
-8.0000149999999994
 21
-276.00000299999999
 31
0.0
  0
LINE
  8
0
  6
CONTINUOUS
 62
               3
  5
121
 10
-8.0000149999999994
 20
-279.00000299999999
 30
0.0
 11
-8.0000149999999994
 21
-278.00000299999999
 31
0.0
  0
LINE
  8
0
  6
CONTINUOUS
 62
               3
  5
122
 10
25.999984999999999
 20
-258.00000299999999
 30
0.0
 11
-16.000015000000001
 21
-258.00000299999999
 31
0.0
  0
LINE
  8
0
  6
CONTINUOUS
 62
               3
  5
123
 10
25.999984999999999
 20
-255.00000299999999
 30
0.0
 11
-16.000015000000001
 21
-255.00000299999999
 31
0.0
  0
ARC
  8
0
  6
CONTINUOUS
 62
               3
  5
124
 10
25.999984999999999
 20
-265.00000299999999
 30
0.0
 40
10.0
 50
0.0
 51
90.0
  0
ARC
  8
0
  6
CONTINUOUS
 62
               3
  5
125
 10
25.999984999999999
 20
-265.00000299999999
 30
0.0
 40
7.0
 50
0.0
 51
90.0
  0
ARC
  8
0
  6
CONTINUOUS
 62
               3
  5
126
 10
-0.000015
 20
-255.01562799999999
 30
0.0
 40
16.015625
 50
61.059412000000009
 51
118.94058800000002
  0
ARC
  8
0
  6
CONTINUOUS
 62
               3
  5
127
 10
11.624985000000001
 20
-243.75390899999999
 30
0.0
 40
4.7539059999999997
 50
35.400855999999997
 51
144.599144
  0
ARC
  8
0
  6
CONTINUOUS
 62
               3
  5
128
 10
-11.625014999999999
 20
-243.75390899999999
 30
0.0
 40
4.7539059999999997
 50
35.400855999999997
 51
144.599144
  0
ARC
  8
0
  6
CONTINUOUS
 62
               3
  5
129
 10
-11.625014999999999
 20
-245.24609599999999
 30
0.0
 40
4.7539059999999997
 50
215.400856
 51
324.59914400000002
  0
ARC
  8
0
  6
CONTINUOUS
 62
               3
  5
12A
 10
-0.000015
 20
-233.98437799999999
 30
0.0
 40
16.015625
 50
241.05941200000004
 51
298.94058799999999
  0
ARC
  8
0
  6
CONTINUOUS
 62
               3
  5
12B
 10
11.624985000000001
 20
-245.24609599999999
 30
0.0
 40
4.7539059999999997
 50
215.400856
 51
324.59914400000002
  0
ARC
  8
0
  6
CONTINUOUS
 62
               3
  5
12C
 10
-11.625014999999999
 20
-267.24609600000002
 30
0.0
 40
4.7539059999999997
 50
215.400856
 51
324.59914400000002
  0
ARC
  8
0
  6
CONTINUOUS
 62
               3
  5
12D
 10
-0.000015
 20
-255.98437799999999
 30
0.0
 40
16.015625
 50
241.05941200000004
 51
298.94058799999999
  0
ARC
  8
0
  6
CONTINUOUS
 62
               3
  5
12E
 10
11.624985000000001
 20
-267.24609600000002
 30
0.0
 40
4.7539059999999997
 50
215.400856
 51
324.59914400000002
  0
ARC
  8
0
  6
CONTINUOUS
 62
               3
  5
12F
 10
11.624985000000001
 20
-265.75390900000002
 30
0.0
 40
4.7539059999999997
 50
35.400855999999997
 51
144.599144
  0
ARC
  8
0
  6
CONTINUOUS
 62
               3
  5
130
 10
-0.000015
 20
-277.01562799999999
 30
0.0
 40
16.015625
 50
61.059412000000009
 51
118.94058800000002
  0
ARC
  8
0
  6
CONTINUOUS
 62
               3
  5
131
 10
-11.625014999999999
 20
-265.75390900000002
 30
0.0
 40
4.7539059999999997
 50
35.400855999999997
 51
144.599144
  0
ARC
  8
0
  6
CONTINUOUS
 62
               3
  5
132
 10
6.9999849999999997
 20
-279.00000299999999
 30
0.0
 40
1.0
 50
270.0
 51
0.0
  0
ARC
  8
0
  6
CONTINUOUS
 62
               3
  5
133
 10
-7.0000150000000003
 20
-279.00000299999999
 30
0.0
 40
1.0
 50
180.0
 51
270.0
  0
LINE
  8
0
  6
CONTINUOUS
 62
               3
  5
134
 10
14.999985000000001
 20
-253.00000299999999
 30
0.0
 11
-15.000014999999999
 21
-253.00000299999999
 31
0.0
  0
LINE
  8
0
  6
CONTINUOUS
 62
               3
  5
135
 10
13.999985000000001
 20
-255.00000199999999
 30
0.0
 11
13.999985000000001
 21
-253.00000199999999
 31
0.0
  0
LINE
  8
0
  6
CONTINUOUS
 62
               3
  5
136
 10
-14.000014999999999
 20
-255.00000199999999
 30
0.0
 11
-14.000014999999999
 21
-253.00000199999999
 31
0.0
  0
LINE
  8
0
  6
CONTINUOUS
 62
               3
  5
137
 10
8.6500000000000004
 20
0.0
 30
0.0
 11
8.6500000000000004
 21
-239.00000299999999
 31
0.0
  0
LINE
  8
0
  6
CONTINUOUS
 62
               3
  5
138
 10
-8.6500000000000004
 20
0.0
 30
0.0
 11
-8.6500000000000004
 21
-239.00000299999999
 31
0.0
  0
ENDBLK
  8
0
  5
139
  0
BLOCK
  8
0
  5
13A
  2
MS_6
 70
               0
 10
0.0
 20
0.0
 30
0.0
  3
MS_6
  0
LINE
  8
0
  6
CONTINUOUS
 62
               3
  5
13B
 10
-19.999998999999999
 20
-109.500001
 30
0.0
 11
-19.5
 21
-110.0
 31
0.0
  0
LINE
  8
0
  6
CONTINUOUS
 62
               3
  5
13C
 10
19.999998999999999
 20
-109.500001
 30
0.0
 11
19.5
 21
-110.0
 31
0.0
  0
LINE
  8
0
  6
CONTINUOUS
 62
               3
  5
13D
 10
19.5
 20
-110.0
 30
0.0
 11
-19.5
 21
-110.0
 31
0.0
  0
LINE
  8
0
  6
CONTINUOUS
 62
               3
  5
13E
 10
19.5
 20
0.0
 30
0.0
 11
20.0
 21
-0.5
 31
0.0
  0
LINE
  8
0
  6
CONTINUOUS
 62
               3
  5
13F
 10
20.0
 20
-0.5
 30
0.0
 11
20.0
 21
-109.5
 31
0.0
  0
LINE
  8
0
  6
CONTINUOUS
 62
               3
  5
140
 10
-19.5
 20
0.0
 30
0.0
 11
19.5
 21
0.0
 31
0.0
  0
LINE
  8
0
  6
CONTINUOUS
 62
               3
  5
141
 10
-19.5
 20
0.0
 30
0.0
 11
-20.0
 21
-0.5
 31
0.0
  0
LINE
  8
0
  6
CONTINUOUS
 62
               3
  5
142
 10
-20.0
 20
-0.5
 30
0.0
 11
-20.0
 21
-109.5
 31
0.0
  0
ARC
  8
0
  6
CONTINUOUS
 62
               3
  5
143
 10
23.0
 20
-110.5
 30
0.0
 40
3.0
 50
180.0
 51
260.40593200000001
  0
ARC
  8
0
  6
CONTINUOUS
 62
               3
  5
144
 10
-23.0
 20
-110.5
 30
0.0
 40
3.0
 50
279.59406799999999
 51
0.0
  0
LINE
  8
0
  6
CONTINUOUS
 62
               3
  5
145
 10
10.693185
 20
-119.0
 30
0.0
 11
10.693185
 21
-125.2
 31
0.0
  0
LINE
  8
0
  6
CONTINUOUS
 62
               3
  5
146
 10
14.014785
 20
-160.51745199999999
 30
0.0
 11
14.140544
 21
-153.312738
 31
0.0
  0
ARC
  8
0
  6
CONTINUOUS
 62
               3
  5
147
 10
13.014937
 20
-160.5
 30
0.0
 40
1.0
 50
270.0
 51
359.0
  0
ARC
  8
0
  6
CONTINUOUS
 62
               3
  5
148
 10
19.139782
 20
-153.40000000000001
 30
0.0
 40
5.0
 50
90.0
 51
179.0
  0
LINE
  8
0
  6
CONTINUOUS
 62
               3
  5
149
 10
-22.5
 20
-132.5
 30
0.0
 11
-22.0
 21
-133.0
 31
0.0
  0
LINE
  8
0
  6
CONTINUOUS
 62
               3
  5
14A
 10
-20.469398000000002
 20
-137.40000000000001
 30
0.0
 11
-22.5
 21
-134.5
 31
0.0
  0
LINE
  8
0
  6
CONTINUOUS
 62
               3
  5
14B
 10
-22.0
 20
-133.0
 30
0.0
 11
-22.5
 21
-133.5
 31
0.0
  0
LINE
  8
0
  6
CONTINUOUS
 62
               3
  5
14C
 10
-14.014785
 20
-160.51745199999999
 30
0.0
 11
-14.140544
 21
-153.312738
 31
0.0
  0
LINE
  8
0
  6
CONTINUOUS
 62
               3
  5
14D
 10
-21.0
 20
-125.2
 30
0.0
 11
-21.0
 21
-119.0
 31
0.0
  0
ARC
  8
0
  6
CONTINUOUS
 62
               3
  5
14E
 10
-13.014938000000001
 20
-160.5
 30
0.0
 40
1.0
 50
181.0
 51
270.0
  0
ARC
  8
0
  6
CONTINUOUS
 62
               3
  5
14F
 10
177.5
 20
-134.5
 30
0.0
 40
197.99063799999999
 50
180.83924999999999
 51
184.02578099999999
  0
ARC
  8
0
  6
CONTINUOUS
 62
               3
  5
150
 10
-19.139783000000001
 20
-153.40000000000001
 30
0.0
 40
5.0
 50
1.0
 51
90.0
  0
LINE
  8
0
  6
CONTINUOUS
 62
               3
  5
151
 10
-22.5
 20
-134.5
 30
0.0
 11
-22.5
 21
-133.5
 31
0.0
  0
LINE
  8
0
  6
CONTINUOUS
 62
               3
  5
152
 10
-10.693185
 20
-119.0
 30
0.0
 11
-10.693185
 21
-125.2
 31
0.0
  0
LINE
  8
0
  6
CONTINUOUS
 62
               3
  5
153
 10
13.050580999999999
 20
-161.5
 30
0.0
 11
-13.050580999999999
 21
-161.5
 31
0.0
  0
LINE
  8
0
  6
CONTINUOUS
 62
               3
  5
154
 10
-20.002108
 20
-148.40000000000001
 30
0.0
 11
20.002108
 21
-148.40000000000001
 31
0.0
  0
LINE
  8
0
  6
CONTINUOUS
 62
               3
  5
155
 10
-22.0
 20
-116.0
 30
0.0
 11
-22.5
 21
-116.5
 31
0.0
  0
LINE
  8
0
  6
CONTINUOUS
 62
               3
  5
156
 10
-22.0
 20
-116.0
 30
0.0
 11
-22.5
 21
-115.5
 31
0.0
  0
LINE
  8
0
  6
CONTINUOUS
 62
               3
  5
157
 10
-22.5
 20
-117.5
 30
0.0
 11
-22.5
 21
-116.5
 31
0.0
  0
LINE
  8
0
  6
CONTINUOUS
 62
               3
  5
158
 10
-22.5
 20
-113.45804
 30
0.0
 11
-22.5
 21
-115.5
 31
0.0
  0
LINE
  8
0
  6
CONTINUOUS
 62
               3
  5
159
 10
-22.5
 20
-132.5
 30
0.0
 11
-22.5
 21
-126.7
 31
0.0
  0
ARC
  8
0
  6
CONTINUOUS
 62
               3
  5
15A
 10
-21.0
 20
-126.7
 30
0.0
 40
1.5
 50
90.0
 51
180.0
  0
ARC
  8
0
  6
CONTINUOUS
 62
               3
  5
15B
 10
-21.0
 20
-117.5
 30
0.0
 40
1.5
 50
180.0
 51
270.0
  0
LINE
  8
0
  6
CONTINUOUS
 62
               3
  5
15C
 10
22.0
 20
-133.0
 30
0.0
 11
22.5
 21
-133.5
 31
0.0
  0
LINE
  8
0
  6
CONTINUOUS
 62
               3
  5
15D
 10
20.469398000000002
 20
-137.40000000000001
 30
0.0
 11
22.5
 21
-134.5
 31
0.0
  0
LINE
  8
0
  6
CONTINUOUS
 62
               3
  5
15E
 10
22.5
 20
-134.5
 30
0.0
 11
22.5
 21
-133.5
 31
0.0
  0
LINE
  8
0
  6
CONTINUOUS
 62
               3
  5
15F
 10
22.0
 20
-116.0
 30
0.0
 11
22.5
 21
-115.5
 31
0.0
  0
LINE
  8
0
  6
CONTINUOUS
 62
               3
  5
160
 10
22.5
 20
-113.45804
 30
0.0
 11
22.5
 21
-115.5
 31
0.0
  0
LINE
  8
0
  6
CONTINUOUS
 62
               3
  5
161
 10
22.5
 20
-132.5
 30
0.0
 11
22.0
 21
-133.0
 31
0.0
  0
LINE
  8
0
  6
CONTINUOUS
 62
               3
  5
162
 10
22.0
 20
-116.0
 30
0.0
 11
22.5
 21
-116.5
 31
0.0
  0
LINE
  8
0
  6
CONTINUOUS
 62
               3
  5
163
 10
22.5
 20
-132.5
 30
0.0
 11
22.5
 21
-126.7
 31
0.0
  0
LINE
  8
0
  6
CONTINUOUS
 62
               3
  5
164
 10
22.5
 20
-117.5
 30
0.0
 11
22.5
 21
-116.5
 31
0.0
  0
LINE
  8
0
  6
CONTINUOUS
 62
               3
  5
165
 10
21.0
 20
-125.2
 30
0.0
 11
21.0
 21
-119.0
 31
0.0
  0
ARC
  8
0
  6
CONTINUOUS
 62
               3
  5
166
 10
21.0
 20
-117.5
 30
0.0
 40
1.5
 50
270.0
 51
0.0
  0
ARC
  8
0
  6
CONTINUOUS
 62
               3
  5
167
 10
21.0
 20
-126.7
 30
0.0
 40
1.5
 50
0.0
 51
90.0
  0
ARC
  8
0
  6
CONTINUOUS
 62
               3
  5
168
 10
-177.5
 20
-134.5
 30
0.0
 40
197.99063799999999
 50
355.97421900000001
 51
359.16075000000001
  0
LINE
  8
0
  6
CONTINUOUS
 62
               3
  5
169
 10
-22.0
 20
-116.0
 30
0.0
 11
22.0
 21
-116.0
 31
0.0
  0
LINE
  8
0
  6
CONTINUOUS
 62
               3
  5
16A
 10
-22.0
 20
-133.0
 30
0.0
 11
22.0
 21
-133.0
 31
0.0
  0
LINE
  8
0
  6
CONTINUOUS
 62
               3
  5
16B
 10
-21.0
 20
-119.0
 30
0.0
 11
21.0
 21
-119.0
 31
0.0
  0
LINE
  8
0
  6
CONTINUOUS
 62
               3
  5
16C
 10
-21.0
 20
-125.2
 30
0.0
 11
21.0
 21
-125.2
 31
0.0
  0
LINE
  8
0
  6
CONTINUOUS
 62
               3
  5
16D
 10
-20.469398000000002
 20
-137.40000000000001
 30
0.0
 11
20.469398000000002
 21
-137.40000000000001
 31
0.0
  0
LINE
  8
0
  6
CONTINUOUS
 62
               3
  5
16E
 10
-22.5
 20
-113.45804
 30
0.0
 11
22.5
 21
-113.45804
 31
0.0
  0
LINE
  8
0
  6
CONTINUOUS
 62
               3
  5
16F
 10
19.5
 20
-110.0
 30
0.0
 11
20.0
 21
-110.5
 31
0.0
  0
LINE
  8
0
  6
CONTINUOUS
 62
               3
  5
170
 10
-19.5
 20
-110.0
 30
0.0
 11
-20.0
 21
-110.5
 31
0.0
  0
LINE
  8
0
  6
CONTINUOUS
 62
               3
  5
171
 10
-3.5423979999999999
 20
-124.5
 30
0.0
 11
3.5423979999999999
 21
-124.5
 31
0.0
  0
LINE
  8
0
  6
CONTINUOUS
 62
               3
  5
172
 10
-9.8000000000000007
 20
-119.2
 30
0.0
 11
9.8000000000000007
 21
-119.2
 31
0.0
  0
LINE
  8
0
  6
CONTINUOUS
 62
               3
  5
173
 10
-9.7650900000000007
 20
-121.2
 30
0.0
 11
9.7650900000000007
 21
-121.2
 31
0.0
  0
LINE
  8
0
  6
CONTINUOUS
 62
               3
  5
174
 10
-7.6940619999999997
 20
-123.90000000000001
 30
0.0
 11
-7.7411909999999997
 21
-121.2
 31
0.0
  0
LINE
  8
0
  6
CONTINUOUS
 62
               3
  5
175
 10
-9.8000000000000007
 20
-119.2
 30
0.0
 11
-9.7650900000000007
 21
-121.2
 31
0.0
  0
LINE
  8
0
  6
CONTINUOUS
 62
               3
  5
176
 10
-9.706061
 20
-119.2
 30
0.0
 11
-9.6698229999999992
 21
-121.2
 31
0.0
  0
LINE
  8
0
  6
CONTINUOUS
 62
               3
  5
177
 10
-9.3235449999999993
 20
-119.2
 30
0.0
 11
-9.2866339999999994
 21
-121.2
 31
0.0
  0
LINE
  8
0
  6
CONTINUOUS
 62
               3
  5
178
 10
-8.6577369999999991
 20
-119.2
 30
0.0
 11
-8.6212750000000007
 21
-121.2
 31
0.0
  0
LINE
  8
0
  6
CONTINUOUS
 62
               3
  5
179
 10
-7.7288680000000003
 20
-119.2
 30
0.0
 11
-7.6939640000000002
 21
-121.2
 31
0.0
  0
LINE
  8
0
  6
CONTINUOUS
 62
               3
  5
17A
 10
-6.5651619999999999
 20
-119.2
 30
0.0
 11
-6.5328749999999998
 21
-121.2
 31
0.0
  0
LINE
  8
0
  6
CONTINUOUS
 62
               3
  5
17B
 10
-5.7883199999999997
 20
-123.90000000000001
 30
0.0
 11
-5.7411909999999997
 21
-121.2
 31
0.0
  0
LINE
  8
0
  6
CONTINUOUS
 62
               3
  5
17C
 10
-3.6000000000000001
 20
-121.2
 30
0.0
 11
-3.5423979999999999
 21
-124.5
 31
0.0
  0
LINE
  8
0
  6
CONTINUOUS
 62
               3
  5
17D
 10
-5.2019770000000003
 20
-119.2
 30
0.0
 11
-5.1732880000000003
 21
-121.2
 31
0.0
  0
LINE
  8
0
  6
CONTINUOUS
 62
               3
  5
17E
 10
-3.6807319999999999
 20
-119.2
 30
0.0
 11
-3.6565129999999999
 21
-121.2
 31
0.0
  0
LINE
  8
0
  6
CONTINUOUS
 62
               3
  5
17F
 10
-5.7883199999999997
 20
-123.90000000000001
 30
0.0
 11
-7.6940619999999997
 21
-123.90000000000001
 31
0.0
  0
LINE
  8
0
  6
CONTINUOUS
 62
               3
  5
180
 10
-2.04765
 20
-119.2
 30
0.0
 11
-2.0286369999999998
 21
-121.2
 31
0.0
  0
LINE
  8
0
  6
CONTINUOUS
 62
               3
  5
181
 10
0.160693
 20
-119.2
 30
0.0
 11
0.147463
 21
-121.2
 31
0.0
  0
LINE
  8
0
  6
CONTINUOUS
 62
               3
  5
182
 10
-0.160693
 20
-119.2
 30
0.0
 11
-0.147463
 21
-121.2
 31
0.0
  0
LINE
  8
0
  6
CONTINUOUS
 62
               3
  5
183
 10
2.04765
 20
-119.2
 30
0.0
 11
2.0286360000000001
 21
-121.2
 31
0.0
  0
LINE
  8
0
  6
CONTINUOUS
 62
               3
  5
184
 10
3.6807319999999999
 20
-119.2
 30
0.0
 11
3.6565129999999999
 21
-121.2
 31
0.0
  0
LINE
  8
0
  6
CONTINUOUS
 62
               3
  5
185
 10
8.6577369999999991
 20
-119.2
 30
0.0
 11
8.6212750000000007
 21
-121.2
 31
0.0
  0
LINE
  8
0
  6
CONTINUOUS
 62
               3
  5
186
 10
9.3235449999999993
 20
-119.2
 30
0.0
 11
9.2866339999999994
 21
-121.2
 31
0.0
  0
LINE
  8
0
  6
CONTINUOUS
 62
               3
  5
187
 10
7.7288680000000003
 20
-119.2
 30
0.0
 11
7.6939640000000002
 21
-121.2
 31
0.0
  0
LINE
  8
0
  6
CONTINUOUS
 62
               3
  5
188
 10
6.5651619999999999
 20
-119.2
 30
0.0
 11
6.5328749999999998
 21
-121.2
 31
0.0
  0
LINE
  8
0
  6
CONTINUOUS
 62
               3
  5
189
 10
5.2019770000000003
 20
-119.2
 30
0.0
 11
5.1732870000000002
 21
-121.2
 31
0.0
  0
LINE
  8
0
  6
CONTINUOUS
 62
               3
  5
18A
 10
3.6000000000000001
 20
-121.2
 30
0.0
 11
3.5423979999999999
 21
-124.5
 31
0.0
  0
LINE
  8
0
  6
CONTINUOUS
 62
               3
  5
18B
 10
5.7883199999999997
 20
-123.90000000000001
 30
0.0
 11
5.7411909999999997
 21
-121.2
 31
0.0
  0
LINE
  8
0
  6
CONTINUOUS
 62
               3
  5
18C
 10
7.6940619999999997
 20
-123.90000000000001
 30
0.0
 11
7.7411909999999997
 21
-121.2
 31
0.0
  0
LINE
  8
0
  6
CONTINUOUS
 62
               3
  5
18D
 10
5.7883199999999997
 20
-123.90000000000001
 30
0.0
 11
7.6940619999999997
 21
-123.90000000000001
 31
0.0
  0
LINE
  8
0
  6
CONTINUOUS
 62
               3
  5
18E
 10
9.8000000000000007
 20
-119.2
 30
0.0
 11
9.7650900000000007
 21
-121.2
 31
0.0
  0
LINE
  8
0
  6
CONTINUOUS
 62
               3
  5
18F
 10
9.706061
 20
-119.2
 30
0.0
 11
9.6698229999999992
 21
-121.2
 31
0.0
  0
ENDBLK
  8
0
  5
190
  0
BLOCK
  8
0
  5
191
  2
MS_7
 70
               0
 10
0.0
 20
0.0
 30
0.0
  3
MS_7
  0
LINE
  8
0
  6
CONTINUOUS
 62
               3
  5
192
 10
17.550000000000001
 20
0.0
 30
0.0
 11
-17.550000000000001
 21
0.0
 31
0.0
  0
LINE
  8
0
  6
CONTINUOUS
 62
               3
  5
193
 10
19.508725999999999
 20
-0.034281
 30
0.0
 11
17.544764000000001
 21
0.0
 31
0.0
  0
LINE
  8
0
  6
CONTINUOUS
 62
               3
  5
194
 10
-19.508725999999999
 20
-0.034281
 30
0.0
 11
-17.544764000000001
 21
0.0
 31
0.0
  0
LINE
  8
0
  6
CONTINUOUS
 62
              80
  5
195
 10
-24.5
 20
-99.034128999999993
 30
0.0
 11
24.5
 21
-99.034128999999993
 31
0.0
  0
LINE
  8
0
  6
CONTINUOUS
 62
               3
  5
196
 10
-24.5
 20
-99.516673999999995
 30
0.0
 11
-24.5
 21
-99.034128999999993
 31
0.0
  0
LINE
  8
0
  6
CONTINUOUS
 62
               3
  5
197
 10
-25.0
 20
-99.525401000000002
 30
0.0
 11
-24.5
 21
-99.516673999999995
 31
0.0
  0
LINE
  8
0
  6
CONTINUOUS
 62
               3
  5
198
 10
25.0
 20
-99.525401000000002
 30
0.0
 11
24.5
 21
-99.516673999999995
 31
0.0
  0
LINE
  8
0
  6
CONTINUOUS
 62
               3
  5
199
 10
24.5
 20
-99.516673999999995
 30
0.0
 11
24.5
 21
-99.034128999999993
 31
0.0
  0
LINE
  8
0
  6
CONTINUOUS
 62
               3
  5
19A
 10
25.0
 20
-99.525401000000002
 30
0.0
 11
25.0
 21
-138.542856
 31
0.0
  0
LINE
  8
0
  6
CONTINUOUS
 62
               3
  5
19B
 10
24.5
 20
-138.55158399999999
 30
0.0
 11
24.5
 21
-139.03412900000001
 31
0.0
  0
LINE
  8
0
  6
CONTINUOUS
 62
               3
  5
19C
 10
25.0
 20
-138.542856
 30
0.0
 11
24.5
 21
-138.55158399999999
 31
0.0
  0
LINE
  8
0
  6
CONTINUOUS
 62
               3
  5
19D
 10
-25.0
 20
-99.525401000000002
 30
0.0
 11
-25.0
 21
-138.542856
 31
0.0
  0
LINE
  8
0
  6
CONTINUOUS
 62
               3
  5
19E
 10
-25.0
 20
-138.542856
 30
0.0
 11
-24.5
 21
-138.55158399999999
 31
0.0
  0
LINE
  8
0
  6
CONTINUOUS
 62
               3
  5
19F
 10
-24.5
 20
-138.55158399999999
 30
0.0
 11
-24.5
 21
-139.03412900000001
 31
0.0
  0
ARC
  8
0
  6
CONTINUOUS
 62
               3
  5
1A0
 10
19.5
 20
-0.534205
 30
0.0
 40
0.5
 50
0.0
 51
89.0
  0
ARC
  8
0
  6
CONTINUOUS
 62
               3
  5
1A1
 10
-19.5
 20
-0.534205
 30
0.0
 40
0.5
 50
91.0
 51
180.0
  0
LINE
  8
0
  6
CONTINUOUS
 62
               3
  5
1A2
 10
24.5
 20
-98.551584000000005
 30
0.0
 11
24.5
 21
-99.034128999999993
 31
0.0
  0
LINE
  8
0
  6
CONTINUOUS
 62
               3
  5
1A3
 10
25.0
 20
-98.542856
 30
0.0
 11
24.5
 21
-98.551584000000005
 31
0.0
  0
LINE
  8
0
  6
CONTINUOUS
 62
               3
  5
1A4
 10
25.0
 20
-51.469963
 30
0.0
 11
25.0
 21
-98.542856
 31
0.0
  0
LINE
  8
0
  6
CONTINUOUS
 62
               3
  5
1A5
 10
-25.0
 20
-98.542856
 30
0.0
 11
-24.5
 21
-98.551584000000005
 31
0.0
  0
LINE
  8
0
  6
CONTINUOUS
 62
               3
  5
1A6
 10
-25.0
 20
-51.469963
 30
0.0
 11
-25.0
 21
-98.542856
 31
0.0
  0
LINE
  8
0
  6
CONTINUOUS
 62
               3
  5
1A7
 10
-24.5
 20
-98.551584000000005
 30
0.0
 11
-24.5
 21
-99.034128999999993
 31
0.0
  0
LINE
  8
0
  6
CONTINUOUS
 62
               3
  5
1A8
 10
25.0
 20
-139.03412900000001
 30
0.0
 11
-25.0
 21
-139.03412900000001
 31
0.0
  0
LINE
  8
0
  6
CONTINUOUS
 62
               3
  5
1A9
 10
24.5
 20
-98.551584000000005
 30
0.0
 11
-24.5
 21
-98.551584000000005
 31
0.0
  0
LINE
  8
0
  6
CONTINUOUS
 62
               3
  5
1AA
 10
-23.5
 20
-148.007946
 30
0.0
 11
23.5
 21
-148.007946
 31
0.0
  0
LINE
  8
0
  6
CONTINUOUS
 62
               3
  5
1AB
 10
25.0
 20
-140.56008299999999
 30
0.0
 11
25.0
 21
-139.03412900000001
 31
0.0
  0
LINE
  8
0
  6
CONTINUOUS
 62
               3
  5
1AC
 10
-25.0
 20
-140.56008299999999
 30
0.0
 11
-25.0
 21
-139.03412900000001
 31
0.0
  0
LINE
  8
0
  6
CONTINUOUS
 62
               3
  5
1AD
 10
25.0
 20
-164.234129
 30
0.0
 11
24.5
 21
-164.24285599999999
 31
0.0
  0
LINE
  8
0
  6
CONTINUOUS
 62
               3
  5
1AE
 10
24.5
 20
-164.734129
 30
0.0
 11
24.5
 21
-164.24285599999999
 31
0.0
  0
LINE
  8
0
  6
CONTINUOUS
 62
               3
  5
1AF
 10
-25.0
 20
-164.234129
 30
0.0
 11
-25.0
 21
-149.50817499999999
 31
0.0
  0
LINE
  8
0
  6
CONTINUOUS
 62
               3
  5
1B0
 10
25.0
 20
-164.234129
 30
0.0
 11
25.0
 21
-149.50817499999999
 31
0.0
  0
LINE
  8
0
  6
CONTINUOUS
 62
               3
  5
1B1
 10
24.5
 20
-164.24285599999999
 30
0.0
 11
-24.5
 21
-164.24285599999999
 31
0.0
  0
LINE
  8
0
  6
CONTINUOUS
 62
               3
  5
1B2
 10
23.526178999999999
 20
-142.059855
 30
0.0
 11
23.5
 21
-142.06031200000001
 31
0.0
  0
LINE
  8
0
  6
CONTINUOUS
 62
               3
  5
1B3
 10
-23.5
 20
-142.06031200000001
 30
0.0
 11
23.5
 21
-142.06031200000001
 31
0.0
  0
LINE
  8
0
  6
CONTINUOUS
 62
               3
  5
1B4
 10
-23.526178999999999
 20
-142.059855
 30
0.0
 11
-23.5
 21
-142.06031200000001
 31
0.0
  0
LINE
  8
0
  6
CONTINUOUS
 62
               3
  5
1B5
 10
-24.5
 20
-164.734129
 30
0.0
 11
-24.5
 21
-164.24285599999999
 31
0.0
  0
LINE
  8
0
  6
CONTINUOUS
 62
               3
  5
1B6
 10
-25.0
 20
-164.234129
 30
0.0
 11
-24.5
 21
-164.24285599999999
 31
0.0
  0
LINE
  8
0
  6
CONTINUOUS
 62
               3
  5
1B7
 10
23.237127000000001
 20
-142.06031200000001
 30
0.0
 11
23.237127000000001
 21
-148.007946
 31
0.0
  0
LINE
  8
0
  6
CONTINUOUS
 62
               3
  5
1B8
 10
10.693185
 20
-142.06031200000001
 30
0.0
 11
10.693185
 21
-148.007946
 31
0.0
  0
LINE
  8
0
  6
CONTINUOUS
 62
               3
  5
1B9
 10
-10.693185
 20
-142.06031200000001
 30
0.0
 11
-10.693185
 21
-148.007946
 31
0.0
  0
LINE
  8
0
  6
CONTINUOUS
 62
               3
  5
1BA
 10
-23.237127000000001
 20
-142.06031200000001
 30
0.0
 11
-23.237127000000001
 21
-148.007946
 31
0.0
  0
ARC
  8
0
  6
CONTINUOUS
 62
               3
  5
1BB
 10
-15.0
 20
-51.469963
 30
0.0
 40
40.0
 50
0.0
 51
20.364135000000001
  0
ARC
  8
0
  6
CONTINUOUS
 62
               3
  5
1BC
 10
15.0
 20
-51.469963
 30
0.0
 40
40.0
 50
159.635865
 51
180.0
  0
ARC
  8
0
  6
CONTINUOUS
 62
               3
  5
1BD
 10
60.0
 20
-23.631141
 30
0.0
 40
40.0
 50
180.0
 51
200.36413500000003
  0
ARC
  8
0
  6
CONTINUOUS
 62
               3
  5
1BE
 10
-60.0
 20
-23.631141
 30
0.0
 40
40.0
 50
339.63586500000008
 51
0.0
  0
ARC
  8
0
  6
CONTINUOUS
 62
               3
  5
1BF
 10
-23.5
 20
-149.50817499999999
 30
0.0
 40
1.5
 50
90.0
 51
180.0
  0
ARC
  8
0
  6
CONTINUOUS
 62
               3
  5
1C0
 10
23.5
 20
-140.56008299999999
 30
0.0
 40
1.5
 50
271.0
 51
0.0
  0
ARC
  8
0
  6
CONTINUOUS
 62
               3
  5
1C1
 10
23.5
 20
-149.50817499999999
 30
0.0
 40
1.5
 50
0.0
 51
90.0
  0
ARC
  8
0
  6
CONTINUOUS
 62
               3
  5
1C2
 10
-23.5
 20
-140.56008299999999
 30
0.0
 40
1.5
 50
180.0
 51
269.0
  0
LINE
  8
0
  6
CONTINUOUS
 62
               3
  5
1C3
 10
-20.0
 20
-0.534205
 30
0.0
 11
-20.0
 21
-23.615749999999998
 31
0.0
  0
LINE
  8
0
  6
CONTINUOUS
 62
               3
  5
1C4
 10
20.0
 20
-0.534205
 30
0.0
 11
20.0
 21
-23.615749999999998
 31
0.0
  0
LINE
  8
0
  6
CONTINUOUS
 62
               3
  5
1C5
 10
25.0
 20
-164.734129
 30
0.0
 11
-25.0
 21
-164.734129
 31
0.0
  0
ARC
  8
0
  6
CONTINUOUS
 62
               3
  5
1C6
 10
13.014938000000001
 20
-203.24140199999999
 30
0.0
 40
1.0
 50
270.0
 51
359.0
  0
LINE
  8
0
  6
CONTINUOUS
 62
               3
  5
1C7
 10
13.014938000000001
 20
-204.24140199999999
 30
0.0
 11
-13.014938000000001
 21
-204.24140199999999
 31
0.0
  0
ARC
  8
0
  6
CONTINUOUS
 62
               3
  5
1C8
 10
22.50619
 20
-190.24140199999999
 30
0.0
 40
1.0
 50
270.0
 51
352.96755999999999
  0
ARC
  8
0
  6
CONTINUOUS
 62
               3
  5
1C9
 10
21.103431
 20
-198.24140199999999
 30
0.0
 40
7.0
 50
90.0
 51
179.0
  0
LINE
  8
0
  6
CONTINUOUS
 62
               3
  5
1CA
 10
14.104498
 20
-198.119235
 30
0.0
 11
14.014785
 21
-203.25885500000001
 31
0.0
  0
ARC
  8
0
  6
CONTINUOUS
 62
               3
  5
1CB
 10
-21.103431
 20
-198.24140199999999
 30
0.0
 40
7.0
 50
1.0
 51
90.0
  0
ARC
  8
0
  6
CONTINUOUS
 62
               3
  5
1CC
 10
-22.50619
 20
-190.24140199999999
 30
0.0
 40
1.0
 50
187.03244000000004
 51
270.0
  0
LINE
  8
0
  6
CONTINUOUS
 62
               3
  5
1CD
 10
-14.104498
 20
-198.119235
 30
0.0
 11
-14.014785
 21
-203.25885500000001
 31
0.0
  0
LINE
  8
0
  6
CONTINUOUS
 62
               3
  5
1CE
 10
22.50619
 20
-191.24140199999999
 30
0.0
 11
-22.50619
 21
-191.24140199999999
 31
0.0
  0
ARC
  8
0
  6
CONTINUOUS
 62
               3
  5
1CF
 10
-13.014938000000001
 20
-203.24140199999999
 30
0.0
 40
1.0
 50
181.0
 51
270.0
  0
ARC
  8
0
  6
CONTINUOUS
 62
               3
  5
1D0
 10
-174.99673100000001
 20
-165.877577
 30
0.0
 40
200.0
 50
352.96755999999999
 51
0.3275749999999836
  0
ARC
  8
0
  6
CONTINUOUS
 62
               3
  5
1D1
 10
174.99673100000001
 20
-165.877577
 30
0.0
 40
200.0
 50
179.672425
 51
187.03244000000004
  0
LINE
  8
0
  6
CONTINUOUS
 62
               3
  5
1D2
 10
-3.5423979999999999
 20
-147.56031200000001
 30
0.0
 11
3.5423979999999999
 21
-147.56031200000001
 31
0.0
  0
LINE
  8
0
  6
CONTINUOUS
 62
               3
  5
1D3
 10
-9.7650900000000007
 20
-144.260312
 30
0.0
 11
9.7650900000000007
 21
-144.260312
 31
0.0
  0
LINE
  8
0
  6
CONTINUOUS
 62
               3
  5
1D4
 10
-9.8000000000000007
 20
-142.260312
 30
0.0
 11
9.8000000000000007
 21
-142.260312
 31
0.0
  0
LINE
  8
0
  6
CONTINUOUS
 62
               3
  5
1D5
 10
7.6940619999999997
 20
-146.96031199999999
 30
0.0
 11
7.7411909999999997
 21
-144.260312
 31
0.0
  0
LINE
  8
0
  6
CONTINUOUS
 62
               3
  5
1D6
 10
5.7883199999999997
 20
-146.96031199999999
 30
0.0
 11
5.7411909999999997
 21
-144.260312
 31
0.0
  0
LINE
  8
0
  6
CONTINUOUS
 62
               3
  5
1D7
 10
5.2019770000000003
 20
-142.260312
 30
0.0
 11
5.1732870000000002
 21
-144.260312
 31
0.0
  0
LINE
  8
0
  6
CONTINUOUS
 62
               3
  5
1D8
 10
6.5651619999999999
 20
-142.260312
 30
0.0
 11
6.5328749999999998
 21
-144.260312
 31
0.0
  0
LINE
  8
0
  6
CONTINUOUS
 62
               3
  5
1D9
 10
7.7288680000000003
 20
-142.260312
 30
0.0
 11
7.6939640000000002
 21
-144.260312
 31
0.0
  0
LINE
  8
0
  6
CONTINUOUS
 62
               3
  5
1DA
 10
9.706061
 20
-142.260312
 30
0.0
 11
9.6698229999999992
 21
-144.260312
 31
0.0
  0
LINE
  8
0
  6
CONTINUOUS
 62
               3
  5
1DB
 10
9.3235449999999993
 20
-142.260312
 30
0.0
 11
9.2866339999999994
 21
-144.260312
 31
0.0
  0
LINE
  8
0
  6
CONTINUOUS
 62
               3
  5
1DC
 10
8.6577369999999991
 20
-142.260312
 30
0.0
 11
8.6212750000000007
 21
-144.260312
 31
0.0
  0
LINE
  8
0
  6
CONTINUOUS
 62
               3
  5
1DD
 10
9.8000000000000007
 20
-142.260312
 30
0.0
 11
9.7650900000000007
 21
-144.260312
 31
0.0
  0
LINE
  8
0
  6
CONTINUOUS
 62
               3
  5
1DE
 10
5.7883199999999997
 20
-146.96031199999999
 30
0.0
 11
7.6940619999999997
 21
-146.96031199999999
 31
0.0
  0
LINE
  8
0
  6
CONTINUOUS
 62
               3
  5
1DF
 10
3.6807319999999999
 20
-142.260312
 30
0.0
 11
3.6565129999999999
 21
-144.260312
 31
0.0
  0
LINE
  8
0
  6
CONTINUOUS
 62
               3
  5
1E0
 10
2.04765
 20
-142.260312
 30
0.0
 11
2.0286369999999998
 21
-144.260312
 31
0.0
  0
LINE
  8
0
  6
CONTINUOUS
 62
               3
  5
1E1
 10
3.6000000000000001
 20
-144.260312
 30
0.0
 11
3.5423979999999999
 21
-147.56031200000001
 31
0.0
  0
LINE
  8
0
  6
CONTINUOUS
 62
               3
  5
1E2
 10
0.160693
 20
-142.260312
 30
0.0
 11
0.147463
 21
-144.260312
 31
0.0
  0
LINE
  8
0
  6
CONTINUOUS
 62
               3
  5
1E3
 10
-0.160693
 20
-142.260312
 30
0.0
 11
-0.147463
 21
-144.260312
 31
0.0
  0
LINE
  8
0
  6
CONTINUOUS
 62
               3
  5
1E4
 10
-2.04765
 20
-142.260312
 30
0.0
 11
-2.0286369999999998
 21
-144.260312
 31
0.0
  0
LINE
  8
0
  6
CONTINUOUS
 62
               3
  5
1E5
 10
-3.6807319999999999
 20
-142.260312
 30
0.0
 11
-3.6565129999999999
 21
-144.260312
 31
0.0
  0
LINE
  8
0
  6
CONTINUOUS
 62
               3
  5
1E6
 10
-5.2019770000000003
 20
-142.260312
 30
0.0
 11
-5.1732870000000002
 21
-144.260312
 31
0.0
  0
LINE
  8
0
  6
CONTINUOUS
 62
               3
  5
1E7
 10
-6.5651619999999999
 20
-142.260312
 30
0.0
 11
-6.5328749999999998
 21
-144.260312
 31
0.0
  0
LINE
  8
0
  6
CONTINUOUS
 62
               3
  5
1E8
 10
-7.7288680000000003
 20
-142.260312
 30
0.0
 11
-7.6939640000000002
 21
-144.260312
 31
0.0
  0
LINE
  8
0
  6
CONTINUOUS
 62
               3
  5
1E9
 10
-8.6577369999999991
 20
-142.260312
 30
0.0
 11
-8.6212750000000007
 21
-144.260312
 31
0.0
  0
LINE
  8
0
  6
CONTINUOUS
 62
               3
  5
1EA
 10
-9.3235449999999993
 20
-142.260312
 30
0.0
 11
-9.2866339999999994
 21
-144.260312
 31
0.0
  0
LINE
  8
0
  6
CONTINUOUS
 62
               3
  5
1EB
 10
-9.706061
 20
-142.260312
 30
0.0
 11
-9.6698229999999992
 21
-144.260312
 31
0.0
  0
LINE
  8
0
  6
CONTINUOUS
 62
               3
  5
1EC
 10
-9.8000000000000007
 20
-142.260312
 30
0.0
 11
-9.7650900000000007
 21
-144.260312
 31
0.0
  0
LINE
  8
0
  6
CONTINUOUS
 62
               3
  5
1ED
 10
-3.6000000000000001
 20
-144.260312
 30
0.0
 11
-3.5423979999999999
 21
-147.56031200000001
 31
0.0
  0
LINE
  8
0
  6
CONTINUOUS
 62
               3
  5
1EE
 10
-7.6940619999999997
 20
-146.96031199999999
 30
0.0
 11
-7.7411909999999997
 21
-144.260312
 31
0.0
  0
LINE
  8
0
  6
CONTINUOUS
 62
               3
  5
1EF
 10
-5.7883199999999997
 20
-146.96031199999999
 30
0.0
 11
-5.7411909999999997
 21
-144.260312
 31
0.0
  0
LINE
  8
0
  6
CONTINUOUS
 62
               3
  5
1F0
 10
-5.7883199999999997
 20
-146.96031199999999
 30
0.0
 11
-7.6940619999999997
 21
-146.96031199999999
 31
0.0
  0
ENDBLK
  8
0
  5
1F1
  0
BLOCK
  8
0
  5
1F2
  2
MS_8
 70
               0
 10
0.0
 20
0.0
 30
0.0
  3
MS_8
  0
LINE
  8
0
  6
CONTINUOUS
 62
               3
  5
1F3
 10
29.5
 20
0.0
 30
0.0
 11
-29.5
 21
0.0
 31
0.0
  0
LINE
  8
0
  6
CONTINUOUS
 62
               3
  5
1F4
 10
29.5
 20
40.0
 30
0.0
 11
30.0
 21
39.5
 31
0.0
  0
LINE
  8
0
  6
CONTINUOUS
 62
               3
  5
1F5
 10
-29.5
 20
40.0
 30
0.0
 11
-30.0
 21
39.5
 31
0.0
  0
LINE
  8
0
  6
CONTINUOUS
 62
               3
  5
1F6
 10
-30.0
 20
39.5
 30
0.0
 11
-30.0
 21
37.649999999999999
 31
0.0
  0
ARC
  8
0
  6
CONTINUOUS
 62
               3
  5
1F7
 10
-29.5
 20
12.99039
 30
0.0
 40
0.5
 50
145.370441
 51
180.0
  0
ARC
  8
0
  6
CONTINUOUS
 62
               3
  5
1F8
 10
-29.5
 20
19.809609999999999
 30
0.0
 40
0.5
 50
180.0
 51
214.629559
  0
ARC
  8
0
  6
CONTINUOUS
 62
               3
  5
1F9
 10
-29.5
 20
19.990390000000001
 30
0.0
 40
0.5
 50
145.370441
 51
180.0
  0
ARC
  8
0
  6
CONTINUOUS
 62
               3
  5
1FA
 10
-29.5
 20
26.809609999999999
 30
0.0
 40
0.5
 50
180.0
 51
214.629559
  0
LINE
  8
0
  6
CONTINUOUS
 62
               3
  5
1FB
 10
-30.0
 20
7.448054
 30
0.0
 11
-30.0
 21
7.3519459999999999
 31
0.0
  0
LINE
  8
0
  6
CONTINUOUS
 62
               3
  5
1FC
 10
-30.0
 20
32.351945999999998
 30
0.0
 11
-30.0
 21
32.448053999999999
 31
0.0
  0
LINE
  8
0
  6
CONTINUOUS
 62
               3
  5
1FD
 10
-30.0
 20
26.948053999999999
 30
0.0
 11
-30.0
 21
26.809609999999999
 31
0.0
  0
LINE
  8
0
  6
CONTINUOUS
 62
               3
  5
1FE
 10
-30.0
 20
19.990390000000001
 30
0.0
 11
-30.0
 21
19.809609999999999
 31
0.0
  0
LINE
  8
0
  6
CONTINUOUS
 62
               3
  5
1FF
 10
-30.0
 20
12.99039
 30
0.0
 11
-30.0
 21
12.851946
 31
0.0
  0
LINE
  8
0
  6
CONTINUOUS
 62
               3
  5
200
 10
-30.0
 20
2.1499999999999999
 30
0.0
 11
-30.0
 21
0.5
 31
0.0
  0
ARC
  8
0
  6
CONTINUOUS
 62
               3
  5
201
 10
-29.5
 20
32.448053999999999
 30
0.0
 40
0.5
 50
137.50806600000001
 51
180.0
  0
ARC
  8
0
  6
CONTINUOUS
 62
               3
  5
202
 10
-29.5
 20
32.351945999999998
 30
0.0
 40
0.5
 50
180.0
 51
222.49193399999999
  0
ARC
  8
0
  6
CONTINUOUS
 62
               3
  5
203
 10
-29.5
 20
26.948053999999999
 30
0.0
 40
0.5
 50
137.50806600000001
 51
180.0
  0
ARC
  8
0
  6
CONTINUOUS
 62
               3
  5
204
 10
-29.5
 20
12.851946
 30
0.0
 40
0.5
 50
180.0
 51
222.49193399999999
  0
ARC
  8
0
  6
CONTINUOUS
 62
               3
  5
205
 10
-29.5
 20
7.448054
 30
0.0
 40
0.5
 50
137.50806600000001
 51
180.0
  0
ARC
  8
0
  6
CONTINUOUS
 62
               3
  5
206
 10
-29.5
 20
7.3519459999999999
 30
0.0
 40
0.5
 50
180.0
 51
222.49193399999999
  0
ARC
  8
0
  6
CONTINUOUS
 62
               3
  5
207
 10
-32.449489999999997
 20
35.149999999999999
 30
0.0
 40
3.5
 50
317.50806599999999
 51
45.584691000000014
  0
ARC
  8
0
  6
CONTINUOUS
 62
               3
  5
208
 10
-34.437060000000002
 20
16.399999999999999
 30
0.0
 40
5.5
 50
325.37044100000003
 51
34.629558999999993
  0
ARC
  8
0
  6
CONTINUOUS
 62
               3
  5
209
 10
-34.437060000000002
 20
23.399999999999999
 30
0.0
 40
5.5
 50
325.37044100000003
 51
34.629558999999993
  0
ARC
  8
0
  6
CONTINUOUS
 62
               3
  5
20A
 10
-32.449489999999997
 20
29.649999999999999
 30
0.0
 40
3.5
 50
317.50806599999999
 51
42.491934000000015
  0
ARC
  8
0
  6
CONTINUOUS
 62
               3
  5
20B
 10
-32.449489999999997
 20
10.15
 30
0.0
 40
3.5
 50
317.50806599999999
 51
42.491934000000015
  0
ARC
  8
0
  6
CONTINUOUS
 62
               3
  5
20C
 10
-32.449489999999997
 20
4.6500000000000004
 30
0.0
 40
3.5
 50
314.41530899999998
 51
42.491934000000015
  0
ARC
  8
0
  6
CONTINUOUS
 62
               3
  5
20D
 10
29.5
 20
7.3519459999999999
 30
0.0
 40
0.5
 50
317.50806599999999
 51
0.0
  0
ARC
  8
0
  6
CONTINUOUS
 62
               3
  5
20E
 10
29.5
 20
7.448054
 30
0.0
 40
0.5
 50
0.0
 51
42.491934000000008
  0
ARC
  8
0
  6
CONTINUOUS
 62
               3
  5
20F
 10
29.5
 20
12.851946
 30
0.0
 40
0.5
 50
317.50806599999999
 51
0.0
  0
ARC
  8
0
  6
CONTINUOUS
 62
               3
  5
210
 10
29.5
 20
12.99039
 30
0.0
 40
0.5
 50
0.0
 51
34.629559
  0
ARC
  8
0
  6
CONTINUOUS
 62
               3
  5
211
 10
29.5
 20
19.809609999999999
 30
0.0
 40
0.5
 50
325.37044100000003
 51
0.0
  0
ARC
  8
0
  6
CONTINUOUS
 62
               3
  5
212
 10
29.5
 20
19.990390000000001
 30
0.0
 40
0.5
 50
0.0
 51
34.629559
  0
ARC
  8
0
  6
CONTINUOUS
 62
               3
  5
213
 10
29.5
 20
26.809609999999999
 30
0.0
 40
0.5
 50
325.37044100000003
 51
0.0
  0
ARC
  8
0
  6
CONTINUOUS
 62
               3
  5
214
 10
29.5
 20
26.948053999999999
 30
0.0
 40
0.5
 50
0.0
 51
42.491934000000008
  0
ARC
  8
0
  6
CONTINUOUS
 62
               3
  5
215
 10
29.5
 20
32.351945999999998
 30
0.0
 40
0.5
 50
317.50806599999999
 51
0.0
  0
ARC
  8
0
  6
CONTINUOUS
 62
               3
  5
216
 10
29.5
 20
32.448053999999999
 30
0.0
 40
0.5
 50
0.0
 51
42.491934000000008
  0
LINE
  8
0
  6
CONTINUOUS
 62
               3
  5
217
 10
30.0
 20
12.99039
 30
0.0
 11
30.0
 21
12.851946
 31
0.0
  0
LINE
  8
0
  6
CONTINUOUS
 62
               3
  5
218
 10
30.0
 20
19.990390000000001
 30
0.0
 11
30.0
 21
19.809609999999999
 31
0.0
  0
LINE
  8
0
  6
CONTINUOUS
 62
               3
  5
219
 10
30.0
 20
26.948053999999999
 30
0.0
 11
30.0
 21
26.809609999999999
 31
0.0
  0
LINE
  8
0
  6
CONTINUOUS
 62
               3
  5
21A
 10
30.0
 20
32.351945999999998
 30
0.0
 11
30.0
 21
32.448053999999999
 31
0.0
  0
LINE
  8
0
  6
CONTINUOUS
 62
               3
  5
21B
 10
30.0
 20
7.448054
 30
0.0
 11
30.0
 21
7.3519459999999999
 31
0.0
  0
LINE
  8
0
  6
CONTINUOUS
 62
              80
  5
21C
 10
-30.0
 20
2.1499999999999999
 30
0.0
 11
30.0
 21
2.1499999999999999
 31
0.0
  0
LINE
  8
0
  6
CONTINUOUS
 62
               3
  5
21D
 10
30.0
 20
39.5
 30
0.0
 11
30.0
 21
37.649999999999999
 31
0.0
  0
LINE
  8
0
  6
CONTINUOUS
 62
               3
  5
21E
 10
30.0
 20
2.1499999999999999
 30
0.0
 11
30.0
 21
0.5
 31
0.0
  0
ARC
  8
0
  6
CONTINUOUS
 62
               3
  5
21F
 10
32.449489999999997
 20
4.6500000000000004
 30
0.0
 40
3.5
 50
137.50806600000001
 51
225.58469099999999
  0
ARC
  8
0
  6
CONTINUOUS
 62
               3
  5
220
 10
32.449489999999997
 20
10.15
 30
0.0
 40
3.5
 50
137.50806600000001
 51
222.49193399999999
  0
ARC
  8
0
  6
CONTINUOUS
 62
               3
  5
221
 10
32.449489999999997
 20
29.649999999999999
 30
0.0
 40
3.5
 50
137.50806600000001
 51
222.49193399999999
  0
ARC
  8
0
  6
CONTINUOUS
 62
               3
  5
222
 10
34.437060000000002
 20
23.399999999999999
 30
0.0
 40
5.5
 50
145.370441
 51
214.629559
  0
ARC
  8
0
  6
CONTINUOUS
 62
               3
  5
223
 10
34.437060000000002
 20
16.399999999999999
 30
0.0
 40
5.5
 50
145.370441
 51
214.629559
  0
ARC
  8
0
  6
CONTINUOUS
 62
               3
  5
224
 10
32.449489999999997
 20
35.149999999999999
 30
0.0
 40
3.5
 50
134.41530900000001
 51
222.49193399999999
  0
LINE
  8
0
  6
CONTINUOUS
 62
               3
  5
225
 10
-29.5
 20
40.0
 30
0.0
 11
29.5
 21
40.0
 31
0.0
  0
LINE
  8
0
  6
CONTINUOUS
 62
              80
  5
226
 10
-30.0
 20
7.4000000000000004
 30
0.0
 11
30.0
 21
7.4000000000000004
 31
0.0
  0
LINE
  8
0
  6
CONTINUOUS
 62
              80
  5
227
 10
-30.0
 20
12.856692000000001
 30
0.0
 11
30.0
 21
12.856692000000001
 31
0.0
  0
LINE
  8
0
  6
CONTINUOUS
 62
              80
  5
228
 10
-30.0
 20
19.899999999999999
 30
0.0
 11
30.0
 21
19.899999999999999
 31
0.0
  0
LINE
  8
0
  6
CONTINUOUS
 62
              80
  5
229
 10
-30.0
 20
26.943307999999998
 30
0.0
 11
30.0
 21
26.943307999999998
 31
0.0
  0
LINE
  8
0
  6
CONTINUOUS
 62
              80
  5
22A
 10
-30.0
 20
32.399999999999999
 30
0.0
 11
29.997685000000001
 21
32.399999999999999
 31
0.0
  0
LINE
  8
0
  6
CONTINUOUS
 62
              80
  5
22B
 10
-30.0
 20
37.649999999999999
 30
0.0
 11
29.997685000000001
 21
37.649999999999999
 31
0.0
  0
LINE
  8
0
  6
CONTINUOUS
 62
              80
  5
22C
 10
26.336136
 20
5.0
 30
0.0
 11
25.760119
 21
38.0
 31
0.0
  0
LINE
  8
0
  6
CONTINUOUS
 62
              80
  5
22D
 10
23.172806999999999
 20
38.0
 30
0.0
 11
23.172806999999999
 21
5.0
 31
0.0
  0
LINE
  8
0
  6
CONTINUOUS
 62
              80
  5
22E
 10
21.647396000000001
 20
38.0
 30
0.0
 11
21.647396000000001
 21
5.0
 31
0.0
  0
LINE
  8
0
  6
CONTINUOUS
 62
              80
  5
22F
 10
19.884810999999999
 20
38.0
 30
0.0
 11
19.884810999999999
 21
5.0
 31
0.0
  0
LINE
  8
0
  6
CONTINUOUS
 62
              80
  5
230
 10
17.904364000000001
 20
38.0
 30
0.0
 11
17.904364000000001
 21
5.0
 31
0.0
  0
LINE
  8
0
  6
CONTINUOUS
 62
              80
  5
231
 10
15.727753
 20
38.0
 30
0.0
 11
15.727753
 21
5.0
 31
0.0
  0
LINE
  8
0
  6
CONTINUOUS
 62
              80
  5
232
 10
13.378826
 20
38.0
 30
0.0
 11
13.378826
 21
5.0
 31
0.0
  0
LINE
  8
0
  6
CONTINUOUS
 62
              80
  5
233
 10
10.883317999999999
 20
38.0
 30
0.0
 11
10.883317999999999
 21
5.0
 31
0.0
  0
LINE
  8
0
  6
CONTINUOUS
 62
              80
  5
234
 10
8.2685689999999994
 20
38.0
 30
0.0
 11
8.2685689999999994
 21
5.0
 31
0.0
  0
LINE
  8
0
  6
CONTINUOUS
 62
              80
  5
235
 10
5.5632279999999996
 20
38.0
 30
0.0
 11
5.5632279999999996
 21
5.0
 31
0.0
  0
LINE
  8
0
  6
CONTINUOUS
 62
              80
  5
236
 10
2.857888
 20
38.0
 30
0.0
 11
2.857888
 21
5.0
 31
0.0
  0
LINE
  8
0
  6
CONTINUOUS
 62
              80
  5
237
 10
25.448039999999999
 20
38.0
 30
0.0
 11
25.448039999999999
 21
5.0
 31
0.0
  0
LINE
  8
0
  6
CONTINUOUS
 62
              80
  5
238
 10
24.444331999999999
 20
38.0
 30
0.0
 11
24.444331999999999
 21
5.0
 31
0.0
  0
LINE
  8
0
  6
CONTINUOUS
 62
              80
  5
239
 10
-25.448041
 20
38.0
 30
0.0
 11
-25.448041
 21
5.0
 31
0.0
  0
LINE
  8
0
  6
CONTINUOUS
 62
              80
  5
23A
 10
-24.444333
 20
38.0
 30
0.0
 11
-24.444333
 21
5.0
 31
0.0
  0
LINE
  8
0
  6
CONTINUOUS
 62
              80
  5
23B
 10
-23.172808
 20
38.0
 30
0.0
 11
-23.172808
 21
5.0
 31
0.0
  0
LINE
  8
0
  6
CONTINUOUS
 62
              80
  5
23C
 10
-21.647396000000001
 20
38.0
 30
0.0
 11
-21.647396000000001
 21
5.0
 31
0.0
  0
LINE
  8
0
  6
CONTINUOUS
 62
              80
  5
23D
 10
-19.884812
 20
38.0
 30
0.0
 11
-19.884812
 21
5.0
 31
0.0
  0
LINE
  8
0
  6
CONTINUOUS
 62
              80
  5
23E
 10
-17.904364999999999
 20
38.0
 30
0.0
 11
-17.904364999999999
 21
5.0
 31
0.0
  0
LINE
  8
0
  6
CONTINUOUS
 62
              80
  5
23F
 10
-15.727753999999999
 20
38.0
 30
0.0
 11
-15.727753999999999
 21
5.0
 31
0.0
  0
LINE
  8
0
  6
CONTINUOUS
 62
              80
  5
240
 10
-13.378826999999999
 20
38.0
 30
0.0
 11
-13.378826999999999
 21
5.0
 31
0.0
  0
LINE
  8
0
  6
CONTINUOUS
 62
              80
  5
241
 10
-10.883317999999999
 20
38.0
 30
0.0
 11
-10.883317999999999
 21
5.0
 31
0.0
  0
LINE
  8
0
  6
CONTINUOUS
 62
              80
  5
242
 10
-8.2685700000000004
 20
38.0
 30
0.0
 11
-8.2685700000000004
 21
5.0
 31
0.0
  0
LINE
  8
0
  6
CONTINUOUS
 62
              80
  5
243
 10
-5.5632289999999998
 20
38.0
 30
0.0
 11
-5.5632289999999998
 21
5.0
 31
0.0
  0
LINE
  8
0
  6
CONTINUOUS
 62
              80
  5
244
 10
-26.336137000000001
 20
5.0
 30
0.0
 11
-25.760120000000001
 21
38.0
 31
0.0
  0
LINE
  8
0
  6
CONTINUOUS
 62
              80
  5
245
 10
-2.8578890000000001
 20
38.0
 30
0.0
 11
-2.8578890000000001
 21
5.0
 31
0.0
  0
LINE
  8
0
  6
CONTINUOUS
 62
              80
  5
246
 10
0.0
 20
38.0
 30
0.0
 11
0.0
 21
5.0
 31
0.0
  0
LINE
  8
0
  6
CONTINUOUS
 62
               3
  5
247
 10
-30.0
 20
0.499999
 30
0.0
 11
-29.500001000000001
 21
0.0
 31
0.0
  0
LINE
  8
0
  6
CONTINUOUS
 62
               3
  5
248
 10
30.0
 20
0.499999
 30
0.0
 11
29.500001000000001
 21
0.0
 31
0.0
  0
ENDBLK
  8
0
  5
249
  0
BLOCK
  8
0
  5
24A
  2
MS_9
 70
               0
 10
0.0
 20
0.0
 30
0.0
  3
MS_9
  0
LINE
  8
0
  6
CENTER
 62
              50
  5
24C
 10
-10.4
 20
-323.0
 30
0.0
 11
65.0
 21
-323.0
 31
0.0
  0
LINE
  8
0
  6
CENTER
 62
              50
  5
24D
 10
-10.5
 20
-288.10000000000002
 30
0.0
 11
65.0
 21
-288.10000000000002
 31
0.0
  0
LINE
  8
0
  6
DASHED
 62
              80
  5
24F
 10
56.0
 20
-266.0
 30
0.0
 11
56.0
 21
-339.0
 31
0.0
  0
LINE
  8
0
  6
DASHED
 62
              80
  5
250
 10
59.799999999999997
 20
-339.0
 30
0.0
 11
55.799999999999997
 21
-339.0
 31
0.0
  0
ARC
  8
0
  6
DASHED
 62
              80
  5
251
 10
52.0
 20
-266.0
 30
0.0
 40
8.0
 50
0.0
 51
90.0
  0
ARC
  8
0
  6
DASHED
 62
              80
  5
252
 10
52.0
 20
-266.0
 30
0.0
 40
4.0
 50
0.0
 51
90.0
  0
LINE
  8
0
  6
DASHED
 62
              80
  5
253
 10
60.0
 20
-266.0
 30
0.0
 11
60.0
 21
-339.0
 31
0.0
  0
LINE
  8
0
  6
DASHED
 62
              80
  5
254
 10
16.100000000000001
 20
-262.0
 30
0.0
 11
52.0
 21
-262.0
 31
0.0
  0
LINE
  8
0
  6
DASHED
 62
              80
  5
255
 10
16.100000000000001
 20
-258.0
 30
0.0
 11
52.0
 21
-258.0
 31
0.0
  0
LINE
  8
0
  6
CONTINUOUS
 62
               3
  5
256
 10
11.0
 20
0.0
 30
0.0
 11
11.0
 21
-240.0
 31
0.0
  0
LINE
  8
0
  6
CONTINUOUS
 62
               3
  5
257
 10
-11.0
 20
0.0
 30
0.0
 11
-11.0
 21
-240.0
 31
0.0
  0
LINE
  8
0
  6
CONTINUOUS
 62
               3
  5
258
 10
-11.0
 20
0.0
 30
0.0
 11
11.0
 21
0.0
 31
0.0
  0
POLYLINE
  8
0
  6
CONTINUOUS
 62
               3
  5
259
 66
               1
 10
0.0
 20
0.0
 30
0.0
  0
VERTEX
  8
0
  6
CONTINUOUS
 62
               3
  5
44C
 10
-18.475209
 20
-276.57093800000001
 30
0.0
  0
VERTEX
  8
0
  6
CONTINUOUS
 62
               3
  5
44D
 10
-18.215339
 20
-276.72673800000001
 30
0.0
  0
VERTEX
  8
0
  6
CONTINUOUS
 62
               3
  5
44E
 10
-17.949892999999999
 20
-276.87582099999997
 30
0.0
  0
VERTEX
  8
0
  6
CONTINUOUS
 62
               3
  5
44F
 10
-17.679245000000002
 20
-277.01772599999998
 30
0.0
  0
VERTEX
  8
0
  6
CONTINUOUS
 62
               3
  5
450
 10
-17.403763999999999
 20
-277.151993
 30
0.0
  0
VERTEX
  8
0
  6
CONTINUOUS
 62
               3
  5
451
 10
-17.123823000000002
 20
-277.27816200000001
 30
0.0
  0
VERTEX
  8
0
  6
CONTINUOUS
 62
               3
  5
452
 10
-16.839794000000001
 20
-277.39577300000002
 30
0.0
  0
VERTEX
  8
0
  6
CONTINUOUS
 62
               3
  5
453
 10
-16.552047999999999
 20
-277.504367
 30
0.0
  0
VERTEX
  8
0
  6
CONTINUOUS
 62
               3
  5
454
 10
-16.260957000000001
 20
-277.60348199999999
 30
0.0
  0
VERTEX
  8
0
  6
CONTINUOUS
 62
               3
  5
455
 10
-15.966893000000001
 20
-277.69265899999999
 30
0.0
  0
VERTEX
  8
0
  6
CONTINUOUS
 62
               3
  5
456
 10
-15.670227000000001
 20
-277.77143899999999
 30
0.0
  0
VERTEX
  8
0
  6
CONTINUOUS
 62
               3
  5
457
 10
-15.37133
 20
-277.83936
 30
0.0
  0
VERTEX
  8
0
  6
CONTINUOUS
 62
               3
  5
458
 10
-15.070576000000001
 20
-277.89596399999999
 30
0.0
  0
VERTEX
  8
0
  6
CONTINUOUS
 62
               3
  5
459
 10
-14.768333999999999
 20
-277.94078999999999
 30
0.0
  0
VERTEX
  8
0
  6
CONTINUOUS
 62
               3
  5
45A
 10
-14.464978
 20
-277.97337800000003
 30
0.0
  0
VERTEX
  8
0
  6
CONTINUOUS
 62
               3
  5
45B
 10
-14.160878
 20
-277.993268
 30
0.0
  0
VERTEX
  8
0
  6
CONTINUOUS
 62
               3
  5
45C
 10
-13.856406
 20
-278.0
 30
0.0
  0
VERTEX
  8
0
  6
CONTINUOUS
 62
               3
  5
45D
 10
-13.551935
 20
-277.993268
 30
0.0
  0
VERTEX
  8
0
  6
CONTINUOUS
 62
               3
  5
45E
 10
-13.247835
 20
-277.97337800000003
 30
0.0
  0
VERTEX
  8
0
  6
CONTINUOUS
 62
               3
  5
45F
 10
-12.944478999999999
 20
-277.94078999999999
 30
0.0
  0
VERTEX
  8
0
  6
CONTINUOUS
 62
               3
  5
460
 10
-12.642237
 20
-277.89596399999999
 30
0.0
  0
VERTEX
  8
0
  6
CONTINUOUS
 62
               3
  5
461
 10
-12.341483
 20
-277.83936
 30
0.0
  0
VERTEX
  8
0
  6
CONTINUOUS
 62
               3
  5
462
 10
-12.042586
 20
-277.77143899999999
 30
0.0
  0
VERTEX
  8
0
  6
CONTINUOUS
 62
               3
  5
463
 10
-11.74592
 20
-277.69265899999999
 30
0.0
  0
VERTEX
  8
0
  6
CONTINUOUS
 62
               3
  5
464
 10
-11.451855999999999
 20
-277.60348199999999
 30
0.0
  0
VERTEX
  8
0
  6
CONTINUOUS
 62
               3
  5
465
 10
-11.160765
 20
-277.504367
 30
0.0
  0
VERTEX
  8
0
  6
CONTINUOUS
 62
               3
  5
466
 10
-10.873018999999999
 20
-277.39577300000002
 30
0.0
  0
VERTEX
  8
0
  6
CONTINUOUS
 62
               3
  5
467
 10
-10.588989
 20
-277.27816200000001
 30
0.0
  0
VERTEX
  8
0
  6
CONTINUOUS
 62
               3
  5
468
 10
-10.309049
 20
-277.151993
 30
0.0
  0
VERTEX
  8
0
  6
CONTINUOUS
 62
               3
  5
469
 10
-10.033568000000001
 20
-277.01772599999998
 30
0.0
  0
VERTEX
  8
0
  6
CONTINUOUS
 62
               3
  5
46A
 10
-9.7629199999999994
 20
-276.87582099999997
 30
0.0
  0
VERTEX
  8
0
  6
CONTINUOUS
 62
               3
  5
46B
 10
-9.4974740000000004
 20
-276.72673800000001
 30
0.0
  0
VERTEX
  8
0
  6
CONTINUOUS
 62
               3
  5
46C
 10
-9.2376039999999993
 20
-276.57093800000001
 30
0.0
  0
SEQEND
  8
0
  6
CONTINUOUS
 62
               3
  5
46D
  0
POLYLINE
  8
0
  6
CONTINUOUS
 62
               3
  5
25A
 66
               1
 10
0.0
 20
0.0
 30
0.0
  0
VERTEX
  8
0
  6
CONTINUOUS
 62
               3
  5
46E
 10
-9.2376039999999993
 20
-266.42906199999999
 30
0.0
  0
VERTEX
  8
0
  6
CONTINUOUS
 62
               3
  5
46F
 10
-8.6777239999999995
 20
-266.26124299999998
 30
0.0
  0
VERTEX
  8
0
  6
CONTINUOUS
 62
               3
  5
470
 10
-8.1144619999999996
 20
-266.10323899999997
 30
0.0
  0
VERTEX
  8
0
  6
CONTINUOUS
 62
               3
  5
471
 10
-7.5480450000000001
 20
-265.95519100000001
 30
0.0
  0
VERTEX
  8
0
  6
CONTINUOUS
 62
               3
  5
472
 10
-6.9786970000000004
 20
-265.81723899999997
 30
0.0
  0
VERTEX
  8
0
  6
CONTINUOUS
 62
               3
  5
473
 10
-6.406644
 20
-265.68952000000002
 30
0.0
  0
VERTEX
  8
0
  6
CONTINUOUS
 62
               3
  5
474
 10
-5.8321110000000003
 20
-265.57217600000001
 30
0.0
  0
VERTEX
  8
0
  6
CONTINUOUS
 62
               3
  5
475
 10
-5.255325
 20
-265.46534600000001
 30
0.0
  0
VERTEX
  8
0
  6
CONTINUOUS
 62
               3
  5
476
 10
-4.6765090000000002
 20
-265.369169
 30
0.0
  0
VERTEX
  8
0
  6
CONTINUOUS
 62
               3
  5
477
 10
-4.0958899999999998
 20
-265.28378400000003
 30
0.0
  0
VERTEX
  8
0
  6
CONTINUOUS
 62
               3
  5
478
 10
-3.5136940000000001
 20
-265.20933100000002
 30
0.0
  0
VERTEX
  8
0
  6
CONTINUOUS
 62
               3
  5
479
 10
-2.9301439999999999
 20
-265.14595000000003
 30
0.0
  0
VERTEX
  8
0
  6
CONTINUOUS
 62
               3
  5
47A
 10
-2.3454679999999999
 20
-265.09377999999998
 30
0.0
  0
VERTEX
  8
0
  6
CONTINUOUS
 62
               3
  5
47B
 10
-1.75989
 20
-265.05296099999998
 30
0.0
  0
VERTEX
  8
0
  6
CONTINUOUS
 62
               3
  5
47C
 10
-1.1736359999999999
 20
-265.02363100000002
 30
0.0
  0
VERTEX
  8
0
  6
CONTINUOUS
 62
               3
  5
47D
 10
-0.586931
 20
-265.00593099999998
 30
0.0
  0
VERTEX
  8
0
  6
CONTINUOUS
 62
               3
  5
47E
 10
0.0
 20
-265.0
 30
0.0
  0
VERTEX
  8
0
  6
CONTINUOUS
 62
               3
  5
47F
 10
0.586931
 20
-265.00593099999998
 30
0.0
  0
VERTEX
  8
0
  6
CONTINUOUS
 62
               3
  5
480
 10
1.1736359999999999
 20
-265.02363100000002
 30
0.0
  0
VERTEX
  8
0
  6
CONTINUOUS
 62
               3
  5
481
 10
1.75989
 20
-265.05296099999998
 30
0.0
  0
VERTEX
  8
0
  6
CONTINUOUS
 62
               3
  5
482
 10
2.3454679999999999
 20
-265.09377999999998
 30
0.0
  0
VERTEX
  8
0
  6
CONTINUOUS
 62
               3
  5
483
 10
2.9301439999999999
 20
-265.14595000000003
 30
0.0
  0
VERTEX
  8
0
  6
CONTINUOUS
 62
               3
  5
484
 10
3.5136940000000001
 20
-265.20933100000002
 30
0.0
  0
VERTEX
  8
0
  6
CONTINUOUS
 62
               3
  5
485
 10
4.0958899999999998
 20
-265.28378400000003
 30
0.0
  0
VERTEX
  8
0
  6
CONTINUOUS
 62
               3
  5
486
 10
4.6765090000000002
 20
-265.369169
 30
0.0
  0
VERTEX
  8
0
  6
CONTINUOUS
 62
               3
  5
487
 10
5.255325
 20
-265.46534600000001
 30
0.0
  0
VERTEX
  8
0
  6
CONTINUOUS
 62
               3
  5
488
 10
5.8321110000000003
 20
-265.57217600000001
 30
0.0
  0
VERTEX
  8
0
  6
CONTINUOUS
 62
               3
  5
489
 10
6.406644
 20
-265.68952000000002
 30
0.0
  0
VERTEX
  8
0
  6
CONTINUOUS
 62
               3
  5
48A
 10
6.9786970000000004
 20
-265.81723899999997
 30
0.0
  0
VERTEX
  8
0
  6
CONTINUOUS
 62
               3
  5
48B
 10
7.5480450000000001
 20
-265.95519100000001
 30
0.0
  0
VERTEX
  8
0
  6
CONTINUOUS
 62
               3
  5
48C
 10
8.1144619999999996
 20
-266.10323899999997
 30
0.0
  0
VERTEX
  8
0
  6
CONTINUOUS
 62
               3
  5
48D
 10
8.6777239999999995
 20
-266.26124299999998
 30
0.0
  0
VERTEX
  8
0
  6
CONTINUOUS
 62
               3
  5
48E
 10
9.2376039999999993
 20
-266.42906199999999
 30
0.0
  0
SEQEND
  8
0
  6
CONTINUOUS
 62
               3
  5
48F
  0
POLYLINE
  8
0
  6
CONTINUOUS
 62
               3
  5
25B
 66
               1
 10
0.0
 20
0.0
 30
0.0
  0
VERTEX
  8
0
  6
CONTINUOUS
 62
               3
  5
490
 10
-18.475209
 20
-266.42906199999999
 30
0.0
  0
VERTEX
  8
0
  6
CONTINUOUS
 62
               3
  5
491
 10
-18.215339
 20
-266.27326199999999
 30
0.0
  0
VERTEX
  8
0
  6
CONTINUOUS
 62
               3
  5
492
 10
-17.949892999999999
 20
-266.12417900000003
 30
0.0
  0
VERTEX
  8
0
  6
CONTINUOUS
 62
               3
  5
493
 10
-17.679245000000002
 20
-265.98227400000002
 30
0.0
  0
VERTEX
  8
0
  6
CONTINUOUS
 62
               3
  5
494
 10
-17.403763999999999
 20
-265.848007
 30
0.0
  0
VERTEX
  8
0
  6
CONTINUOUS
 62
               3
  5
495
 10
-17.123823000000002
 20
-265.72183799999999
 30
0.0
  0
VERTEX
  8
0
  6
CONTINUOUS
 62
               3
  5
496
 10
-16.839794000000001
 20
-265.60422699999998
 30
0.0
  0
VERTEX
  8
0
  6
CONTINUOUS
 62
               3
  5
497
 10
-16.552047999999999
 20
-265.495633
 30
0.0
  0
VERTEX
  8
0
  6
CONTINUOUS
 62
               3
  5
498
 10
-16.260957000000001
 20
-265.39651800000001
 30
0.0
  0
VERTEX
  8
0
  6
CONTINUOUS
 62
               3
  5
499
 10
-15.966893000000001
 20
-265.30734100000001
 30
0.0
  0
VERTEX
  8
0
  6
CONTINUOUS
 62
               3
  5
49A
 10
-15.670227000000001
 20
-265.22856100000001
 30
0.0
  0
VERTEX
  8
0
  6
CONTINUOUS
 62
               3
  5
49B
 10
-15.37133
 20
-265.16064
 30
0.0
  0
VERTEX
  8
0
  6
CONTINUOUS
 62
               3
  5
49C
 10
-15.070576000000001
 20
-265.10403600000001
 30
0.0
  0
VERTEX
  8
0
  6
CONTINUOUS
 62
               3
  5
49D
 10
-14.768333999999999
 20
-265.05921000000001
 30
0.0
  0
VERTEX
  8
0
  6
CONTINUOUS
 62
               3
  5
49E
 10
-14.464978
 20
-265.02662199999997
 30
0.0
  0
VERTEX
  8
0
  6
CONTINUOUS
 62
               3
  5
49F
 10
-14.160878
 20
-265.006732
 30
0.0
  0
VERTEX
  8
0
  6
CONTINUOUS
 62
               3
  5
4A0
 10
-13.856406
 20
-265.0
 30
0.0
  0
VERTEX
  8
0
  6
CONTINUOUS
 62
               3
  5
4A1
 10
-13.551935
 20
-265.006732
 30
0.0
  0
VERTEX
  8
0
  6
CONTINUOUS
 62
               3
  5
4A2
 10
-13.247835
 20
-265.02662199999997
 30
0.0
  0
VERTEX
  8
0
  6
CONTINUOUS
 62
               3
  5
4A3
 10
-12.944478999999999
 20
-265.05921000000001
 30
0.0
  0
VERTEX
  8
0
  6
CONTINUOUS
 62
               3
  5
4A4
 10
-12.642237
 20
-265.10403600000001
 30
0.0
  0
VERTEX
  8
0
  6
CONTINUOUS
 62
               3
  5
4A5
 10
-12.341483
 20
-265.16064
 30
0.0
  0
VERTEX
  8
0
  6
CONTINUOUS
 62
               3
  5
4A6
 10
-12.042586
 20
-265.22856100000001
 30
0.0
  0
VERTEX
  8
0
  6
CONTINUOUS
 62
               3
  5
4A7
 10
-11.74592
 20
-265.30734100000001
 30
0.0
  0
VERTEX
  8
0
  6
CONTINUOUS
 62
               3
  5
4A8
 10
-11.451855999999999
 20
-265.39651800000001
 30
0.0
  0
VERTEX
  8
0
  6
CONTINUOUS
 62
               3
  5
4A9
 10
-11.160765
 20
-265.495633
 30
0.0
  0
VERTEX
  8
0
  6
CONTINUOUS
 62
               3
  5
4AA
 10
-10.873018999999999
 20
-265.60422699999998
 30
0.0
  0
VERTEX
  8
0
  6
CONTINUOUS
 62
               3
  5
4AB
 10
-10.588989
 20
-265.72183799999999
 30
0.0
  0
VERTEX
  8
0
  6
CONTINUOUS
 62
               3
  5
4AC
 10
-10.309049
 20
-265.848007
 30
0.0
  0
VERTEX
  8
0
  6
CONTINUOUS
 62
               3
  5
4AD
 10
-10.033568000000001
 20
-265.98227400000002
 30
0.0
  0
VERTEX
  8
0
  6
CONTINUOUS
 62
               3
  5
4AE
 10
-9.7629199999999994
 20
-266.12417900000003
 30
0.0
  0
VERTEX
  8
0
  6
CONTINUOUS
 62
               3
  5
4AF
 10
-9.4974740000000004
 20
-266.27326199999999
 30
0.0
  0
VERTEX
  8
0
  6
CONTINUOUS
 62
               3
  5
4B0
 10
-9.2376039999999993
 20
-266.42906199999999
 30
0.0
  0
SEQEND
  8
0
  6
CONTINUOUS
 62
               3
  5
4B1
  0
POLYLINE
  8
0
  6
CONTINUOUS
 62
               3
  5
25C
 66
               1
 10
0.0
 20
0.0
 30
0.0
  0
VERTEX
  8
0
  6
CONTINUOUS
 62
               3
  5
4B2
 10
-9.2376039999999993
 20
-276.57093800000001
 30
0.0
  0
VERTEX
  8
0
  6
CONTINUOUS
 62
               3
  5
4B3
 10
-8.6777239999999995
 20
-276.73875700000002
 30
0.0
  0
VERTEX
  8
0
  6
CONTINUOUS
 62
               3
  5
4B4
 10
-8.1144619999999996
 20
-276.89676100000003
 30
0.0
  0
VERTEX
  8
0
  6
CONTINUOUS
 62
               3
  5
4B5
 10
-7.5480450000000001
 20
-277.04480899999999
 30
0.0
  0
VERTEX
  8
0
  6
CONTINUOUS
 62
               3
  5
4B6
 10
-6.9786970000000004
 20
-277.18276100000003
 30
0.0
  0
VERTEX
  8
0
  6
CONTINUOUS
 62
               3
  5
4B7
 10
-6.406644
 20
-277.31047999999998
 30
0.0
  0
VERTEX
  8
0
  6
CONTINUOUS
 62
               3
  5
4B8
 10
-5.8321110000000003
 20
-277.42782399999999
 30
0.0
  0
VERTEX
  8
0
  6
CONTINUOUS
 62
               3
  5
4B9
 10
-5.255325
 20
-277.53465399999999
 30
0.0
  0
VERTEX
  8
0
  6
CONTINUOUS
 62
               3
  5
4BA
 10
-4.6765090000000002
 20
-277.630831
 30
0.0
  0
VERTEX
  8
0
  6
CONTINUOUS
 62
               3
  5
4BB
 10
-4.0958899999999998
 20
-277.71621599999997
 30
0.0
  0
VERTEX
  8
0
  6
CONTINUOUS
 62
               3
  5
4BC
 10
-3.5136940000000001
 20
-277.79066899999998
 30
0.0
  0
VERTEX
  8
0
  6
CONTINUOUS
 62
               3
  5
4BD
 10
-2.9301439999999999
 20
-277.85404999999997
 30
0.0
  0
VERTEX
  8
0
  6
CONTINUOUS
 62
               3
  5
4BE
 10
-2.3454679999999999
 20
-277.90622000000002
 30
0.0
  0
VERTEX
  8
0
  6
CONTINUOUS
 62
               3
  5
4BF
 10
-1.75989
 20
-277.94703900000002
 30
0.0
  0
VERTEX
  8
0
  6
CONTINUOUS
 62
               3
  5
4C0
 10
-1.1736359999999999
 20
-277.97636899999998
 30
0.0
  0
VERTEX
  8
0
  6
CONTINUOUS
 62
               3
  5
4C1
 10
-0.586931
 20
-277.99406900000002
 30
0.0
  0
VERTEX
  8
0
  6
CONTINUOUS
 62
               3
  5
4C2
 10
0.0
 20
-278.0
 30
0.0
  0
VERTEX
  8
0
  6
CONTINUOUS
 62
               3
  5
4C3
 10
0.586931
 20
-277.99406900000002
 30
0.0
  0
VERTEX
  8
0
  6
CONTINUOUS
 62
               3
  5
4C4
 10
1.1736359999999999
 20
-277.97636899999998
 30
0.0
  0
VERTEX
  8
0
  6
CONTINUOUS
 62
               3
  5
4C5
 10
1.75989
 20
-277.94703900000002
 30
0.0
  0
VERTEX
  8
0
  6
CONTINUOUS
 62
               3
  5
4C6
 10
2.3454679999999999
 20
-277.90622000000002
 30
0.0
  0
VERTEX
  8
0
  6
CONTINUOUS
 62
               3
  5
4C7
 10
2.9301439999999999
 20
-277.85404999999997
 30
0.0
  0
VERTEX
  8
0
  6
CONTINUOUS
 62
               3
  5
4C8
 10
3.5136940000000001
 20
-277.79066899999998
 30
0.0
  0
VERTEX
  8
0
  6
CONTINUOUS
 62
               3
  5
4C9
 10
4.0958899999999998
 20
-277.71621599999997
 30
0.0
  0
VERTEX
  8
0
  6
CONTINUOUS
 62
               3
  5
4CA
 10
4.6765090000000002
 20
-277.630831
 30
0.0
  0
VERTEX
  8
0
  6
CONTINUOUS
 62
               3
  5
4CB
 10
5.255325
 20
-277.53465399999999
 30
0.0
  0
VERTEX
  8
0
  6
CONTINUOUS
 62
               3
  5
4CC
 10
5.8321110000000003
 20
-277.42782399999999
 30
0.0
  0
VERTEX
  8
0
  6
CONTINUOUS
 62
               3
  5
4CD
 10
6.406644
 20
-277.31047999999998
 30
0.0
  0
VERTEX
  8
0
  6
CONTINUOUS
 62
               3
  5
4CE
 10
6.9786970000000004
 20
-277.18276100000003
 30
0.0
  0
VERTEX
  8
0
  6
CONTINUOUS
 62
               3
  5
4CF
 10
7.5480450000000001
 20
-277.04480899999999
 30
0.0
  0
VERTEX
  8
0
  6
CONTINUOUS
 62
               3
  5
4D0
 10
8.1144619999999996
 20
-276.89676100000003
 30
0.0
  0
VERTEX
  8
0
  6
CONTINUOUS
 62
               3
  5
4D1
 10
8.6777239999999995
 20
-276.73875700000002
 30
0.0
  0
VERTEX
  8
0
  6
CONTINUOUS
 62
               3
  5
4D2
 10
9.2376039999999993
 20
-276.57093800000001
 30
0.0
  0
SEQEND
  8
0
  6
CONTINUOUS
 62
               3
  5
4D3
  0
POLYLINE
  8
0
  6
CONTINUOUS
 62
               3
  5
25D
 66
               1
 10
0.0
 20
0.0
 30
0.0
  0
VERTEX
  8
0
  6
CONTINUOUS
 62
               3
  5
4D4
 10
18.475209
 20
-276.57093800000001
 30
0.0
  0
VERTEX
  8
0
  6
CONTINUOUS
 62
               3
  5
4D5
 10
18.215339
 20
-276.72673800000001
 30
0.0
  0
VERTEX
  8
0
  6
CONTINUOUS
 62
               3
  5
4D6
 10
17.949892999999999
 20
-276.87582099999997
 30
0.0
  0
VERTEX
  8
0
  6
CONTINUOUS
 62
               3
  5
4D7
 10
17.679245000000002
 20
-277.01772599999998
 30
0.0
  0
VERTEX
  8
0
  6
CONTINUOUS
 62
               3
  5
4D8
 10
17.403763999999999
 20
-277.151993
 30
0.0
  0
VERTEX
  8
0
  6
CONTINUOUS
 62
               3
  5
4D9
 10
17.123823000000002
 20
-277.27816200000001
 30
0.0
  0
VERTEX
  8
0
  6
CONTINUOUS
 62
               3
  5
4DA
 10
16.839794000000001
 20
-277.39577300000002
 30
0.0
  0
VERTEX
  8
0
  6
CONTINUOUS
 62
               3
  5
4DB
 10
16.552047999999999
 20
-277.504367
 30
0.0
  0
VERTEX
  8
0
  6
CONTINUOUS
 62
               3
  5
4DC
 10
16.260957000000001
 20
-277.60348199999999
 30
0.0
  0
VERTEX
  8
0
  6
CONTINUOUS
 62
               3
  5
4DD
 10
15.966893000000001
 20
-277.69265899999999
 30
0.0
  0
VERTEX
  8
0
  6
CONTINUOUS
 62
               3
  5
4DE
 10
15.670227000000001
 20
-277.77143899999999
 30
0.0
  0
VERTEX
  8
0
  6
CONTINUOUS
 62
               3
  5
4DF
 10
15.37133
 20
-277.83936
 30
0.0
  0
VERTEX
  8
0
  6
CONTINUOUS
 62
               3
  5
4E0
 10
15.070576000000001
 20
-277.89596399999999
 30
0.0
  0
VERTEX
  8
0
  6
CONTINUOUS
 62
               3
  5
4E1
 10
14.768333999999999
 20
-277.94078999999999
 30
0.0
  0
VERTEX
  8
0
  6
CONTINUOUS
 62
               3
  5
4E2
 10
14.464978
 20
-277.97337800000003
 30
0.0
  0
VERTEX
  8
0
  6
CONTINUOUS
 62
               3
  5
4E3
 10
14.160878
 20
-277.993268
 30
0.0
  0
VERTEX
  8
0
  6
CONTINUOUS
 62
               3
  5
4E4
 10
13.856406
 20
-278.0
 30
0.0
  0
VERTEX
  8
0
  6
CONTINUOUS
 62
               3
  5
4E5
 10
13.551935
 20
-277.993268
 30
0.0
  0
VERTEX
  8
0
  6
CONTINUOUS
 62
               3
  5
4E6
 10
13.247835
 20
-277.97337800000003
 30
0.0
  0
VERTEX
  8
0
  6
CONTINUOUS
 62
               3
  5
4E7
 10
12.944478999999999
 20
-277.94078999999999
 30
0.0
  0
VERTEX
  8
0
  6
CONTINUOUS
 62
               3
  5
4E8
 10
12.642237
 20
-277.89596399999999
 30
0.0
  0
VERTEX
  8
0
  6
CONTINUOUS
 62
               3
  5
4E9
 10
12.341483
 20
-277.83936
 30
0.0
  0
VERTEX
  8
0
  6
CONTINUOUS
 62
               3
  5
4EA
 10
12.042586
 20
-277.77143899999999
 30
0.0
  0
VERTEX
  8
0
  6
CONTINUOUS
 62
               3
  5
4EB
 10
11.74592
 20
-277.69265899999999
 30
0.0
  0
VERTEX
  8
0
  6
CONTINUOUS
 62
               3
  5
4EC
 10
11.451855999999999
 20
-277.60348199999999
 30
0.0
  0
VERTEX
  8
0
  6
CONTINUOUS
 62
               3
  5
4ED
 10
11.160765
 20
-277.504367
 30
0.0
  0
VERTEX
  8
0
  6
CONTINUOUS
 62
               3
  5
4EE
 10
10.873018999999999
 20
-277.39577300000002
 30
0.0
  0
VERTEX
  8
0
  6
CONTINUOUS
 62
               3
  5
4EF
 10
10.588989
 20
-277.27816200000001
 30
0.0
  0
VERTEX
  8
0
  6
CONTINUOUS
 62
               3
  5
4F0
 10
10.309049
 20
-277.151993
 30
0.0
  0
VERTEX
  8
0
  6
CONTINUOUS
 62
               3
  5
4F1
 10
10.033568000000001
 20
-277.01772599999998
 30
0.0
  0
VERTEX
  8
0
  6
CONTINUOUS
 62
               3
  5
4F2
 10
9.7629199999999994
 20
-276.87582099999997
 30
0.0
  0
VERTEX
  8
0
  6
CONTINUOUS
 62
               3
  5
4F3
 10
9.4974740000000004
 20
-276.72673800000001
 30
0.0
  0
VERTEX
  8
0
  6
CONTINUOUS
 62
               3
  5
4F4
 10
9.2376039999999993
 20
-276.57093800000001
 30
0.0
  0
SEQEND
  8
0
  6
CONTINUOUS
 62
               3
  5
4F5
  0
POLYLINE
  8
0
  6
CONTINUOUS
 62
               3
  5
25E
 66
               1
 10
0.0
 20
0.0
 30
0.0
  0
VERTEX
  8
0
  6
CONTINUOUS
 62
               3
  5
4F6
 10
18.475209
 20
-266.42906199999999
 30
0.0
  0
VERTEX
  8
0
  6
CONTINUOUS
 62
               3
  5
4F7
 10
18.215339
 20
-266.27326199999999
 30
0.0
  0
VERTEX
  8
0
  6
CONTINUOUS
 62
               3
  5
4F8
 10
17.949892999999999
 20
-266.12417900000003
 30
0.0
  0
VERTEX
  8
0
  6
CONTINUOUS
 62
               3
  5
4F9
 10
17.679245000000002
 20
-265.98227400000002
 30
0.0
  0
VERTEX
  8
0
  6
CONTINUOUS
 62
               3
  5
4FA
 10
17.403763999999999
 20
-265.848007
 30
0.0
  0
VERTEX
  8
0
  6
CONTINUOUS
 62
               3
  5
4FB
 10
17.123823000000002
 20
-265.72183799999999
 30
0.0
  0
VERTEX
  8
0
  6
CONTINUOUS
 62
               3
  5
4FC
 10
16.839794000000001
 20
-265.60422699999998
 30
0.0
  0
VERTEX
  8
0
  6
CONTINUOUS
 62
               3
  5
4FD
 10
16.552047999999999
 20
-265.495633
 30
0.0
  0
VERTEX
  8
0
  6
CONTINUOUS
 62
               3
  5
4FE
 10
16.260957000000001
 20
-265.39651800000001
 30
0.0
  0
VERTEX
  8
0
  6
CONTINUOUS
 62
               3
  5
4FF
 10
15.966893000000001
 20
-265.30734100000001
 30
0.0
  0
VERTEX
  8
0
  6
CONTINUOUS
 62
               3
  5
500
 10
15.670227000000001
 20
-265.22856100000001
 30
0.0
  0
VERTEX
  8
0
  6
CONTINUOUS
 62
               3
  5
501
 10
15.37133
 20
-265.16064
 30
0.0
  0
VERTEX
  8
0
  6
CONTINUOUS
 62
               3
  5
502
 10
15.070576000000001
 20
-265.10403600000001
 30
0.0
  0
VERTEX
  8
0
  6
CONTINUOUS
 62
               3
  5
503
 10
14.768333999999999
 20
-265.05921000000001
 30
0.0
  0
VERTEX
  8
0
  6
CONTINUOUS
 62
               3
  5
504
 10
14.464978
 20
-265.02662199999997
 30
0.0
  0
VERTEX
  8
0
  6
CONTINUOUS
 62
               3
  5
505
 10
14.160878
 20
-265.006732
 30
0.0
  0
VERTEX
  8
0
  6
CONTINUOUS
 62
               3
  5
506
 10
13.856406
 20
-265.0
 30
0.0
  0
VERTEX
  8
0
  6
CONTINUOUS
 62
               3
  5
507
 10
13.551935
 20
-265.006732
 30
0.0
  0
VERTEX
  8
0
  6
CONTINUOUS
 62
               3
  5
508
 10
13.247835
 20
-265.02662199999997
 30
0.0
  0
VERTEX
  8
0
  6
CONTINUOUS
 62
               3
  5
509
 10
12.944478999999999
 20
-265.05921000000001
 30
0.0
  0
VERTEX
  8
0
  6
CONTINUOUS
 62
               3
  5
50A
 10
12.642237
 20
-265.10403600000001
 30
0.0
  0
VERTEX
  8
0
  6
CONTINUOUS
 62
               3
  5
50B
 10
12.341483
 20
-265.16064
 30
0.0
  0
VERTEX
  8
0
  6
CONTINUOUS
 62
               3
  5
50C
 10
12.042586
 20
-265.22856100000001
 30
0.0
  0
VERTEX
  8
0
  6
CONTINUOUS
 62
               3
  5
50D
 10
11.74592
 20
-265.30734100000001
 30
0.0
  0
VERTEX
  8
0
  6
CONTINUOUS
 62
               3
  5
50E
 10
11.451855999999999
 20
-265.39651800000001
 30
0.0
  0
VERTEX
  8
0
  6
CONTINUOUS
 62
               3
  5
50F
 10
11.160765
 20
-265.495633
 30
0.0
  0
VERTEX
  8
0
  6
CONTINUOUS
 62
               3
  5
510
 10
10.873018999999999
 20
-265.60422699999998
 30
0.0
  0
VERTEX
  8
0
  6
CONTINUOUS
 62
               3
  5
511
 10
10.588989
 20
-265.72183799999999
 30
0.0
  0
VERTEX
  8
0
  6
CONTINUOUS
 62
               3
  5
512
 10
10.309049
 20
-265.848007
 30
0.0
  0
VERTEX
  8
0
  6
CONTINUOUS
 62
               3
  5
513
 10
10.033568000000001
 20
-265.98227400000002
 30
0.0
  0
VERTEX
  8
0
  6
CONTINUOUS
 62
               3
  5
514
 10
9.7629199999999994
 20
-266.12417900000003
 30
0.0
  0
VERTEX
  8
0
  6
CONTINUOUS
 62
               3
  5
515
 10
9.4974740000000004
 20
-266.27326199999999
 30
0.0
  0
VERTEX
  8
0
  6
CONTINUOUS
 62
               3
  5
516
 10
9.2376039999999993
 20
-266.42906199999999
 30
0.0
  0
SEQEND
  8
0
  6
CONTINUOUS
 62
               3
  5
517
  0
POLYLINE
  8
0
  6
CONTINUOUS
 62
               3
  5
25F
 66
               1
 10
0.0
 20
0.0
 30
0.0
  0
VERTEX
  8
0
  6
CONTINUOUS
 62
               3
  5
518
 10
18.475209
 20
-241.42906199999999
 30
0.0
  0
VERTEX
  8
0
  6
CONTINUOUS
 62
               3
  5
519
 10
18.215339
 20
-241.27326199999999
 30
0.0
  0
VERTEX
  8
0
  6
CONTINUOUS
 62
               3
  5
51A
 10
17.949892999999999
 20
-241.124179
 30
0.0
  0
VERTEX
  8
0
  6
CONTINUOUS
 62
               3
  5
51B
 10
17.679245000000002
 20
-240.98227399999999
 30
0.0
  0
VERTEX
  8
0
  6
CONTINUOUS
 62
               3
  5
51C
 10
17.403763999999999
 20
-240.848007
 30
0.0
  0
VERTEX
  8
0
  6
CONTINUOUS
 62
               3
  5
51D
 10
17.123823000000002
 20
-240.72183799999999
 30
0.0
  0
VERTEX
  8
0
  6
CONTINUOUS
 62
               3
  5
51E
 10
16.839794000000001
 20
-240.60422700000001
 30
0.0
  0
VERTEX
  8
0
  6
CONTINUOUS
 62
               3
  5
51F
 10
16.552047999999999
 20
-240.495633
 30
0.0
  0
VERTEX
  8
0
  6
CONTINUOUS
 62
               3
  5
520
 10
16.260957000000001
 20
-240.39651799999999
 30
0.0
  0
VERTEX
  8
0
  6
CONTINUOUS
 62
               3
  5
521
 10
15.966893000000001
 20
-240.30734100000001
 30
0.0
  0
VERTEX
  8
0
  6
CONTINUOUS
 62
               3
  5
522
 10
15.670227000000001
 20
-240.22856100000001
 30
0.0
  0
VERTEX
  8
0
  6
CONTINUOUS
 62
               3
  5
523
 10
15.37133
 20
-240.16064
 30
0.0
  0
VERTEX
  8
0
  6
CONTINUOUS
 62
               3
  5
524
 10
15.070576000000001
 20
-240.10403600000001
 30
0.0
  0
VERTEX
  8
0
  6
CONTINUOUS
 62
               3
  5
525
 10
14.768333999999999
 20
-240.05921000000001
 30
0.0
  0
VERTEX
  8
0
  6
CONTINUOUS
 62
               3
  5
526
 10
14.464978
 20
-240.026622
 30
0.0
  0
VERTEX
  8
0
  6
CONTINUOUS
 62
               3
  5
527
 10
14.160878
 20
-240.006732
 30
0.0
  0
VERTEX
  8
0
  6
CONTINUOUS
 62
               3
  5
528
 10
13.856406
 20
-240.0
 30
0.0
  0
VERTEX
  8
0
  6
CONTINUOUS
 62
               3
  5
529
 10
13.551935
 20
-240.006732
 30
0.0
  0
VERTEX
  8
0
  6
CONTINUOUS
 62
               3
  5
52A
 10
13.247835
 20
-240.026622
 30
0.0
  0
VERTEX
  8
0
  6
CONTINUOUS
 62
               3
  5
52B
 10
12.944478999999999
 20
-240.05921000000001
 30
0.0
  0
VERTEX
  8
0
  6
CONTINUOUS
 62
               3
  5
52C
 10
12.642237
 20
-240.10403600000001
 30
0.0
  0
VERTEX
  8
0
  6
CONTINUOUS
 62
               3
  5
52D
 10
12.341483
 20
-240.16064
 30
0.0
  0
VERTEX
  8
0
  6
CONTINUOUS
 62
               3
  5
52E
 10
12.042586
 20
-240.22856100000001
 30
0.0
  0
VERTEX
  8
0
  6
CONTINUOUS
 62
               3
  5
52F
 10
11.74592
 20
-240.30734100000001
 30
0.0
  0
VERTEX
  8
0
  6
CONTINUOUS
 62
               3
  5
530
 10
11.451855999999999
 20
-240.39651799999999
 30
0.0
  0
VERTEX
  8
0
  6
CONTINUOUS
 62
               3
  5
531
 10
11.160765
 20
-240.495633
 30
0.0
  0
VERTEX
  8
0
  6
CONTINUOUS
 62
               3
  5
532
 10
10.873018999999999
 20
-240.60422700000001
 30
0.0
  0
VERTEX
  8
0
  6
CONTINUOUS
 62
               3
  5
533
 10
10.588989
 20
-240.72183799999999
 30
0.0
  0
VERTEX
  8
0
  6
CONTINUOUS
 62
               3
  5
534
 10
10.309049
 20
-240.848007
 30
0.0
  0
VERTEX
  8
0
  6
CONTINUOUS
 62
               3
  5
535
 10
10.033568000000001
 20
-240.98227399999999
 30
0.0
  0
VERTEX
  8
0
  6
CONTINUOUS
 62
               3
  5
536
 10
9.7629199999999994
 20
-241.124179
 30
0.0
  0
VERTEX
  8
0
  6
CONTINUOUS
 62
               3
  5
537
 10
9.4974740000000004
 20
-241.27326199999999
 30
0.0
  0
VERTEX
  8
0
  6
CONTINUOUS
 62
               3
  5
538
 10
9.2376039999999993
 20
-241.42906199999999
 30
0.0
  0
SEQEND
  8
0
  6
CONTINUOUS
 62
               3
  5
539
  0
POLYLINE
  8
0
  6
CONTINUOUS
 62
               3
  5
260
 66
               1
 10
0.0
 20
0.0
 30
0.0
  0
VERTEX
  8
0
  6
CONTINUOUS
 62
               3
  5
53A
 10
18.475209
 20
-251.57093800000001
 30
0.0
  0
VERTEX
  8
0
  6
CONTINUOUS
 62
               3
  5
53B
 10
18.215339
 20
-251.72673800000001
 30
0.0
  0
VERTEX
  8
0
  6
CONTINUOUS
 62
               3
  5
53C
 10
17.949892999999999
 20
-251.875821
 30
0.0
  0
VERTEX
  8
0
  6
CONTINUOUS
 62
               3
  5
53D
 10
17.679245000000002
 20
-252.01772600000001
 30
0.0
  0
VERTEX
  8
0
  6
CONTINUOUS
 62
               3
  5
53E
 10
17.403763999999999
 20
-252.151993
 30
0.0
  0
VERTEX
  8
0
  6
CONTINUOUS
 62
               3
  5
53F
 10
17.123823000000002
 20
-252.27816200000001
 30
0.0
  0
VERTEX
  8
0
  6
CONTINUOUS
 62
               3
  5
540
 10
16.839794000000001
 20
-252.39577299999999
 30
0.0
  0
VERTEX
  8
0
  6
CONTINUOUS
 62
               3
  5
541
 10
16.552047999999999
 20
-252.504367
 30
0.0
  0
VERTEX
  8
0
  6
CONTINUOUS
 62
               3
  5
542
 10
16.260957000000001
 20
-252.60348200000001
 30
0.0
  0
VERTEX
  8
0
  6
CONTINUOUS
 62
               3
  5
543
 10
15.966893000000001
 20
-252.69265899999999
 30
0.0
  0
VERTEX
  8
0
  6
CONTINUOUS
 62
               3
  5
544
 10
15.670227000000001
 20
-252.77143899999999
 30
0.0
  0
VERTEX
  8
0
  6
CONTINUOUS
 62
               3
  5
545
 10
15.37133
 20
-252.83936
 30
0.0
  0
VERTEX
  8
0
  6
CONTINUOUS
 62
               3
  5
546
 10
15.070576000000001
 20
-252.89596399999999
 30
0.0
  0
VERTEX
  8
0
  6
CONTINUOUS
 62
               3
  5
547
 10
14.768333999999999
 20
-252.94078999999999
 30
0.0
  0
VERTEX
  8
0
  6
CONTINUOUS
 62
               3
  5
548
 10
14.464978
 20
-252.973378
 30
0.0
  0
VERTEX
  8
0
  6
CONTINUOUS
 62
               3
  5
549
 10
14.160878
 20
-252.993268
 30
0.0
  0
VERTEX
  8
0
  6
CONTINUOUS
 62
               3
  5
54A
 10
13.856406
 20
-253.0
 30
0.0
  0
VERTEX
  8
0
  6
CONTINUOUS
 62
               3
  5
54B
 10
13.551935
 20
-252.993268
 30
0.0
  0
VERTEX
  8
0
  6
CONTINUOUS
 62
               3
  5
54C
 10
13.247835
 20
-252.973378
 30
0.0
  0
VERTEX
  8
0
  6
CONTINUOUS
 62
               3
  5
54D
 10
12.944478999999999
 20
-252.94078999999999
 30
0.0
  0
VERTEX
  8
0
  6
CONTINUOUS
 62
               3
  5
54E
 10
12.642237
 20
-252.89596399999999
 30
0.0
  0
VERTEX
  8
0
  6
CONTINUOUS
 62
               3
  5
54F
 10
12.341483
 20
-252.83936
 30
0.0
  0
VERTEX
  8
0
  6
CONTINUOUS
 62
               3
  5
550
 10
12.042586
 20
-252.77143899999999
 30
0.0
  0
VERTEX
  8
0
  6
CONTINUOUS
 62
               3
  5
551
 10
11.74592
 20
-252.69265899999999
 30
0.0
  0
VERTEX
  8
0
  6
CONTINUOUS
 62
               3
  5
552
 10
11.451855999999999
 20
-252.60348200000001
 30
0.0
  0
VERTEX
  8
0
  6
CONTINUOUS
 62
               3
  5
553
 10
11.160765
 20
-252.504367
 30
0.0
  0
VERTEX
  8
0
  6
CONTINUOUS
 62
               3
  5
554
 10
10.873018999999999
 20
-252.39577299999999
 30
0.0
  0
VERTEX
  8
0
  6
CONTINUOUS
 62
               3
  5
555
 10
10.588989
 20
-252.27816200000001
 30
0.0
  0
VERTEX
  8
0
  6
CONTINUOUS
 62
               3
  5
556
 10
10.309049
 20
-252.151993
 30
0.0
  0
VERTEX
  8
0
  6
CONTINUOUS
 62
               3
  5
557
 10
10.033568000000001
 20
-252.01772600000001
 30
0.0
  0
VERTEX
  8
0
  6
CONTINUOUS
 62
               3
  5
558
 10
9.7629199999999994
 20
-251.875821
 30
0.0
  0
VERTEX
  8
0
  6
CONTINUOUS
 62
               3
  5
559
 10
9.4974740000000004
 20
-251.72673800000001
 30
0.0
  0
VERTEX
  8
0
  6
CONTINUOUS
 62
               3
  5
55A
 10
9.2376039999999993
 20
-251.57093800000001
 30
0.0
  0
SEQEND
  8
0
  6
CONTINUOUS
 62
               3
  5
55B
  0
POLYLINE
  8
0
  6
CONTINUOUS
 62
               3
  5
261
 66
               1
 10
0.0
 20
0.0
 30
0.0
  0
VERTEX
  8
0
  6
CONTINUOUS
 62
               3
  5
55C
 10
-18.475209
 20
-251.57093800000001
 30
0.0
  0
VERTEX
  8
0
  6
CONTINUOUS
 62
               3
  5
55D
 10
-18.215339
 20
-251.72673800000001
 30
0.0
  0
VERTEX
  8
0
  6
CONTINUOUS
 62
               3
  5
55E
 10
-17.949892999999999
 20
-251.875821
 30
0.0
  0
VERTEX
  8
0
  6
CONTINUOUS
 62
               3
  5
55F
 10
-17.679245000000002
 20
-252.01772600000001
 30
0.0
  0
VERTEX
  8
0
  6
CONTINUOUS
 62
               3
  5
560
 10
-17.403763999999999
 20
-252.151993
 30
0.0
  0
VERTEX
  8
0
  6
CONTINUOUS
 62
               3
  5
561
 10
-17.123823000000002
 20
-252.27816200000001
 30
0.0
  0
VERTEX
  8
0
  6
CONTINUOUS
 62
               3
  5
562
 10
-16.839794000000001
 20
-252.39577299999999
 30
0.0
  0
VERTEX
  8
0
  6
CONTINUOUS
 62
               3
  5
563
 10
-16.552047999999999
 20
-252.504367
 30
0.0
  0
VERTEX
  8
0
  6
CONTINUOUS
 62
               3
  5
564
 10
-16.260957000000001
 20
-252.60348200000001
 30
0.0
  0
VERTEX
  8
0
  6
CONTINUOUS
 62
               3
  5
565
 10
-15.966893000000001
 20
-252.69265899999999
 30
0.0
  0
VERTEX
  8
0
  6
CONTINUOUS
 62
               3
  5
566
 10
-15.670227000000001
 20
-252.77143899999999
 30
0.0
  0
VERTEX
  8
0
  6
CONTINUOUS
 62
               3
  5
567
 10
-15.37133
 20
-252.83936
 30
0.0
  0
VERTEX
  8
0
  6
CONTINUOUS
 62
               3
  5
568
 10
-15.070576000000001
 20
-252.89596399999999
 30
0.0
  0
VERTEX
  8
0
  6
CONTINUOUS
 62
               3
  5
569
 10
-14.768333999999999
 20
-252.94078999999999
 30
0.0
  0
VERTEX
  8
0
  6
CONTINUOUS
 62
               3
  5
56A
 10
-14.464978
 20
-252.973378
 30
0.0
  0
VERTEX
  8
0
  6
CONTINUOUS
 62
               3
  5
56B
 10
-14.160878
 20
-252.993268
 30
0.0
  0
VERTEX
  8
0
  6
CONTINUOUS
 62
               3
  5
56C
 10
-13.856406
 20
-253.0
 30
0.0
  0
VERTEX
  8
0
  6
CONTINUOUS
 62
               3
  5
56D
 10
-13.551935
 20
-252.993268
 30
0.0
  0
VERTEX
  8
0
  6
CONTINUOUS
 62
               3
  5
56E
 10
-13.247835
 20
-252.973378
 30
0.0
  0
VERTEX
  8
0
  6
CONTINUOUS
 62
               3
  5
56F
 10
-12.944478999999999
 20
-252.94078999999999
 30
0.0
  0
VERTEX
  8
0
  6
CONTINUOUS
 62
               3
  5
570
 10
-12.642237
 20
-252.89596399999999
 30
0.0
  0
VERTEX
  8
0
  6
CONTINUOUS
 62
               3
  5
571
 10
-12.341483
 20
-252.83936
 30
0.0
  0
VERTEX
  8
0
  6
CONTINUOUS
 62
               3
  5
572
 10
-12.042586
 20
-252.77143899999999
 30
0.0
  0
VERTEX
  8
0
  6
CONTINUOUS
 62
               3
  5
573
 10
-11.74592
 20
-252.69265899999999
 30
0.0
  0
VERTEX
  8
0
  6
CONTINUOUS
 62
               3
  5
574
 10
-11.451855999999999
 20
-252.60348200000001
 30
0.0
  0
VERTEX
  8
0
  6
CONTINUOUS
 62
               3
  5
575
 10
-11.160765
 20
-252.504367
 30
0.0
  0
VERTEX
  8
0
  6
CONTINUOUS
 62
               3
  5
576
 10
-10.873018999999999
 20
-252.39577299999999
 30
0.0
  0
VERTEX
  8
0
  6
CONTINUOUS
 62
               3
  5
577
 10
-10.588989
 20
-252.27816200000001
 30
0.0
  0
VERTEX
  8
0
  6
CONTINUOUS
 62
               3
  5
578
 10
-10.309049
 20
-252.151993
 30
0.0
  0
VERTEX
  8
0
  6
CONTINUOUS
 62
               3
  5
579
 10
-10.033568000000001
 20
-252.01772600000001
 30
0.0
  0
VERTEX
  8
0
  6
CONTINUOUS
 62
               3
  5
57A
 10
-9.7629199999999994
 20
-251.875821
 30
0.0
  0
VERTEX
  8
0
  6
CONTINUOUS
 62
               3
  5
57B
 10
-9.4974740000000004
 20
-251.72673800000001
 30
0.0
  0
VERTEX
  8
0
  6
CONTINUOUS
 62
               3
  5
57C
 10
-9.2376039999999993
 20
-251.57093800000001
 30
0.0
  0
SEQEND
  8
0
  6
CONTINUOUS
 62
               3
  5
57D
  0
POLYLINE
  8
0
  6
CONTINUOUS
 62
               3
  5
262
 66
               1
 10
0.0
 20
0.0
 30
0.0
  0
VERTEX
  8
0
  6
CONTINUOUS
 62
               3
  5
57E
 10
-9.2376039999999993
 20
-251.57093800000001
 30
0.0
  0
VERTEX
  8
0
  6
CONTINUOUS
 62
               3
  5
57F
 10
-8.6777239999999995
 20
-251.73875699999999
 30
0.0
  0
VERTEX
  8
0
  6
CONTINUOUS
 62
               3
  5
580
 10
-8.1144619999999996
 20
-251.896761
 30
0.0
  0
VERTEX
  8
0
  6
CONTINUOUS
 62
               3
  5
581
 10
-7.5480450000000001
 20
-252.04480899999999
 30
0.0
  0
VERTEX
  8
0
  6
CONTINUOUS
 62
               3
  5
582
 10
-6.9786970000000004
 20
-252.182761
 30
0.0
  0
VERTEX
  8
0
  6
CONTINUOUS
 62
               3
  5
583
 10
-6.406644
 20
-252.31048000000001
 30
0.0
  0
VERTEX
  8
0
  6
CONTINUOUS
 62
               3
  5
584
 10
-5.8321110000000003
 20
-252.42782399999999
 30
0.0
  0
VERTEX
  8
0
  6
CONTINUOUS
 62
               3
  5
585
 10
-5.255325
 20
-252.53465399999999
 30
0.0
  0
VERTEX
  8
0
  6
CONTINUOUS
 62
               3
  5
586
 10
-4.6765090000000002
 20
-252.630831
 30
0.0
  0
VERTEX
  8
0
  6
CONTINUOUS
 62
               3
  5
587
 10
-4.0958899999999998
 20
-252.716216
 30
0.0
  0
VERTEX
  8
0
  6
CONTINUOUS
 62
               3
  5
588
 10
-3.5136940000000001
 20
-252.79066900000001
 30
0.0
  0
VERTEX
  8
0
  6
CONTINUOUS
 62
               3
  5
589
 10
-2.9301439999999999
 20
-252.85405
 30
0.0
  0
VERTEX
  8
0
  6
CONTINUOUS
 62
               3
  5
58A
 10
-2.3454679999999999
 20
-252.90621999999999
 30
0.0
  0
VERTEX
  8
0
  6
CONTINUOUS
 62
               3
  5
58B
 10
-1.75989
 20
-252.94703899999999
 30
0.0
  0
VERTEX
  8
0
  6
CONTINUOUS
 62
               3
  5
58C
 10
-1.1736359999999999
 20
-252.97636900000001
 30
0.0
  0
VERTEX
  8
0
  6
CONTINUOUS
 62
               3
  5
58D
 10
-0.586931
 20
-252.994069
 30
0.0
  0
VERTEX
  8
0
  6
CONTINUOUS
 62
               3
  5
58E
 10
0.0
 20
-253.0
 30
0.0
  0
VERTEX
  8
0
  6
CONTINUOUS
 62
               3
  5
58F
 10
0.586931
 20
-252.994069
 30
0.0
  0
VERTEX
  8
0
  6
CONTINUOUS
 62
               3
  5
590
 10
1.1736359999999999
 20
-252.97636900000001
 30
0.0
  0
VERTEX
  8
0
  6
CONTINUOUS
 62
               3
  5
591
 10
1.75989
 20
-252.94703899999999
 30
0.0
  0
VERTEX
  8
0
  6
CONTINUOUS
 62
               3
  5
592
 10
2.3454679999999999
 20
-252.90621999999999
 30
0.0
  0
VERTEX
  8
0
  6
CONTINUOUS
 62
               3
  5
593
 10
2.9301439999999999
 20
-252.85405
 30
0.0
  0
VERTEX
  8
0
  6
CONTINUOUS
 62
               3
  5
594
 10
3.5136940000000001
 20
-252.79066900000001
 30
0.0
  0
VERTEX
  8
0
  6
CONTINUOUS
 62
               3
  5
595
 10
4.0958899999999998
 20
-252.716216
 30
0.0
  0
VERTEX
  8
0
  6
CONTINUOUS
 62
               3
  5
596
 10
4.6765090000000002
 20
-252.630831
 30
0.0
  0
VERTEX
  8
0
  6
CONTINUOUS
 62
               3
  5
597
 10
5.255325
 20
-252.53465399999999
 30
0.0
  0
VERTEX
  8
0
  6
CONTINUOUS
 62
               3
  5
598
 10
5.8321110000000003
 20
-252.42782399999999
 30
0.0
  0
VERTEX
  8
0
  6
CONTINUOUS
 62
               3
  5
599
 10
6.406644
 20
-252.31048000000001
 30
0.0
  0
VERTEX
  8
0
  6
CONTINUOUS
 62
               3
  5
59A
 10
6.9786970000000004
 20
-252.182761
 30
0.0
  0
VERTEX
  8
0
  6
CONTINUOUS
 62
               3
  5
59B
 10
7.5480450000000001
 20
-252.04480899999999
 30
0.0
  0
VERTEX
  8
0
  6
CONTINUOUS
 62
               3
  5
59C
 10
8.1144619999999996
 20
-251.896761
 30
0.0
  0
VERTEX
  8
0
  6
CONTINUOUS
 62
               3
  5
59D
 10
8.6777239999999995
 20
-251.73875699999999
 30
0.0
  0
VERTEX
  8
0
  6
CONTINUOUS
 62
               3
  5
59E
 10
9.2376039999999993
 20
-251.57093800000001
 30
0.0
  0
SEQEND
  8
0
  6
CONTINUOUS
 62
               3
  5
59F
  0
POLYLINE
  8
0
  6
CONTINUOUS
 62
               3
  5
263
 66
               1
 10
0.0
 20
0.0
 30
0.0
  0
VERTEX
  8
0
  6
CONTINUOUS
 62
               3
  5
5A0
 10
-9.2376039999999993
 20
-241.42906199999999
 30
0.0
  0
VERTEX
  8
0
  6
CONTINUOUS
 62
               3
  5
5A1
 10
-8.6777239999999995
 20
-241.26124300000001
 30
0.0
  0
VERTEX
  8
0
  6
CONTINUOUS
 62
               3
  5
5A2
 10
-8.1144619999999996
 20
-241.103239
 30
0.0
  0
VERTEX
  8
0
  6
CONTINUOUS
 62
               3
  5
5A3
 10
-7.5480450000000001
 20
-240.95519100000001
 30
0.0
  0
VERTEX
  8
0
  6
CONTINUOUS
 62
               3
  5
5A4
 10
-6.9786970000000004
 20
-240.817239
 30
0.0
  0
VERTEX
  8
0
  6
CONTINUOUS
 62
               3
  5
5A5
 10
-6.406644
 20
-240.68951999999999
 30
0.0
  0
VERTEX
  8
0
  6
CONTINUOUS
 62
               3
  5
5A6
 10
-5.8321110000000003
 20
-240.57217600000001
 30
0.0
  0
VERTEX
  8
0
  6
CONTINUOUS
 62
               3
  5
5A7
 10
-5.255325
 20
-240.46534600000001
 30
0.0
  0
VERTEX
  8
0
  6
CONTINUOUS
 62
               3
  5
5A8
 10
-4.6765090000000002
 20
-240.369169
 30
0.0
  0
VERTEX
  8
0
  6
CONTINUOUS
 62
               3
  5
5A9
 10
-4.0958899999999998
 20
-240.283784
 30
0.0
  0
VERTEX
  8
0
  6
CONTINUOUS
 62
               3
  5
5AA
 10
-3.5136940000000001
 20
-240.20933099999999
 30
0.0
  0
VERTEX
  8
0
  6
CONTINUOUS
 62
               3
  5
5AB
 10
-2.9301439999999999
 20
-240.14595
 30
0.0
  0
VERTEX
  8
0
  6
CONTINUOUS
 62
               3
  5
5AC
 10
-2.3454679999999999
 20
-240.09378000000001
 30
0.0
  0
VERTEX
  8
0
  6
CONTINUOUS
 62
               3
  5
5AD
 10
-1.75989
 20
-240.05296100000001
 30
0.0
  0
VERTEX
  8
0
  6
CONTINUOUS
 62
               3
  5
5AE
 10
-1.1736359999999999
 20
-240.02363099999999
 30
0.0
  0
VERTEX
  8
0
  6
CONTINUOUS
 62
               3
  5
5AF
 10
-0.586931
 20
-240.005931
 30
0.0
  0
VERTEX
  8
0
  6
CONTINUOUS
 62
               3
  5
5B0
 10
0.0
 20
-240.0
 30
0.0
  0
VERTEX
  8
0
  6
CONTINUOUS
 62
               3
  5
5B1
 10
0.586931
 20
-240.005931
 30
0.0
  0
VERTEX
  8
0
  6
CONTINUOUS
 62
               3
  5
5B2
 10
1.1736359999999999
 20
-240.02363099999999
 30
0.0
  0
VERTEX
  8
0
  6
CONTINUOUS
 62
               3
  5
5B3
 10
1.75989
 20
-240.05296100000001
 30
0.0
  0
VERTEX
  8
0
  6
CONTINUOUS
 62
               3
  5
5B4
 10
2.3454679999999999
 20
-240.09378000000001
 30
0.0
  0
VERTEX
  8
0
  6
CONTINUOUS
 62
               3
  5
5B5
 10
2.9301439999999999
 20
-240.14595
 30
0.0
  0
VERTEX
  8
0
  6
CONTINUOUS
 62
               3
  5
5B6
 10
3.5136940000000001
 20
-240.20933099999999
 30
0.0
  0
VERTEX
  8
0
  6
CONTINUOUS
 62
               3
  5
5B7
 10
4.0958899999999998
 20
-240.283784
 30
0.0
  0
VERTEX
  8
0
  6
CONTINUOUS
 62
               3
  5
5B8
 10
4.6765090000000002
 20
-240.369169
 30
0.0
  0
VERTEX
  8
0
  6
CONTINUOUS
 62
               3
  5
5B9
 10
5.255325
 20
-240.46534600000001
 30
0.0
  0
VERTEX
  8
0
  6
CONTINUOUS
 62
               3
  5
5BA
 10
5.8321110000000003
 20
-240.57217600000001
 30
0.0
  0
VERTEX
  8
0
  6
CONTINUOUS
 62
               3
  5
5BB
 10
6.406644
 20
-240.68951999999999
 30
0.0
  0
VERTEX
  8
0
  6
CONTINUOUS
 62
               3
  5
5BC
 10
6.9786970000000004
 20
-240.817239
 30
0.0
  0
VERTEX
  8
0
  6
CONTINUOUS
 62
               3
  5
5BD
 10
7.5480450000000001
 20
-240.95519100000001
 30
0.0
  0
VERTEX
  8
0
  6
CONTINUOUS
 62
               3
  5
5BE
 10
8.1144619999999996
 20
-241.103239
 30
0.0
  0
VERTEX
  8
0
  6
CONTINUOUS
 62
               3
  5
5BF
 10
8.6777239999999995
 20
-241.26124300000001
 30
0.0
  0
VERTEX
  8
0
  6
CONTINUOUS
 62
               3
  5
5C0
 10
9.2376039999999993
 20
-241.42906199999999
 30
0.0
  0
SEQEND
  8
0
  6
CONTINUOUS
 62
               3
  5
5C1
  0
POLYLINE
  8
0
  6
CONTINUOUS
 62
               3
  5
264
 66
               1
 10
0.0
 20
0.0
 30
0.0
  0
VERTEX
  8
0
  6
CONTINUOUS
 62
               3
  5
5C2
 10
-18.475209
 20
-241.42906199999999
 30
0.0
  0
VERTEX
  8
0
  6
CONTINUOUS
 62
               3
  5
5C3
 10
-18.215339
 20
-241.27326199999999
 30
0.0
  0
VERTEX
  8
0
  6
CONTINUOUS
 62
               3
  5
5C4
 10
-17.949892999999999
 20
-241.124179
 30
0.0
  0
VERTEX
  8
0
  6
CONTINUOUS
 62
               3
  5
5C5
 10
-17.679245000000002
 20
-240.98227399999999
 30
0.0
  0
VERTEX
  8
0
  6
CONTINUOUS
 62
               3
  5
5C6
 10
-17.403763999999999
 20
-240.848007
 30
0.0
  0
VERTEX
  8
0
  6
CONTINUOUS
 62
               3
  5
5C7
 10
-17.123823000000002
 20
-240.72183799999999
 30
0.0
  0
VERTEX
  8
0
  6
CONTINUOUS
 62
               3
  5
5C8
 10
-16.839794000000001
 20
-240.60422700000001
 30
0.0
  0
VERTEX
  8
0
  6
CONTINUOUS
 62
               3
  5
5C9
 10
-16.552047999999999
 20
-240.495633
 30
0.0
  0
VERTEX
  8
0
  6
CONTINUOUS
 62
               3
  5
5CA
 10
-16.260957000000001
 20
-240.39651799999999
 30
0.0
  0
VERTEX
  8
0
  6
CONTINUOUS
 62
               3
  5
5CB
 10
-15.966893000000001
 20
-240.30734100000001
 30
0.0
  0
VERTEX
  8
0
  6
CONTINUOUS
 62
               3
  5
5CC
 10
-15.670227000000001
 20
-240.22856100000001
 30
0.0
  0
VERTEX
  8
0
  6
CONTINUOUS
 62
               3
  5
5CD
 10
-15.37133
 20
-240.16064
 30
0.0
  0
VERTEX
  8
0
  6
CONTINUOUS
 62
               3
  5
5CE
 10
-15.070576000000001
 20
-240.10403600000001
 30
0.0
  0
VERTEX
  8
0
  6
CONTINUOUS
 62
               3
  5
5CF
 10
-14.768333999999999
 20
-240.05921000000001
 30
0.0
  0
VERTEX
  8
0
  6
CONTINUOUS
 62
               3
  5
5D0
 10
-14.464978
 20
-240.026622
 30
0.0
  0
VERTEX
  8
0
  6
CONTINUOUS
 62
               3
  5
5D1
 10
-14.160878
 20
-240.006732
 30
0.0
  0
VERTEX
  8
0
  6
CONTINUOUS
 62
               3
  5
5D2
 10
-13.856406
 20
-240.0
 30
0.0
  0
VERTEX
  8
0
  6
CONTINUOUS
 62
               3
  5
5D3
 10
-13.551935
 20
-240.006732
 30
0.0
  0
VERTEX
  8
0
  6
CONTINUOUS
 62
               3
  5
5D4
 10
-13.247835
 20
-240.026622
 30
0.0
  0
VERTEX
  8
0
  6
CONTINUOUS
 62
               3
  5
5D5
 10
-12.944478999999999
 20
-240.05921000000001
 30
0.0
  0
VERTEX
  8
0
  6
CONTINUOUS
 62
               3
  5
5D6
 10
-12.642237
 20
-240.10403600000001
 30
0.0
  0
VERTEX
  8
0
  6
CONTINUOUS
 62
               3
  5
5D7
 10
-12.341483
 20
-240.16064
 30
0.0
  0
VERTEX
  8
0
  6
CONTINUOUS
 62
               3
  5
5D8
 10
-12.042586
 20
-240.22856100000001
 30
0.0
  0
VERTEX
  8
0
  6
CONTINUOUS
 62
               3
  5
5D9
 10
-11.74592
 20
-240.30734100000001
 30
0.0
  0
VERTEX
  8
0
  6
CONTINUOUS
 62
               3
  5
5DA
 10
-11.451855999999999
 20
-240.39651799999999
 30
0.0
  0
VERTEX
  8
0
  6
CONTINUOUS
 62
               3
  5
5DB
 10
-11.160765
 20
-240.495633
 30
0.0
  0
VERTEX
  8
0
  6
CONTINUOUS
 62
               3
  5
5DC
 10
-10.873018999999999
 20
-240.60422700000001
 30
0.0
  0
VERTEX
  8
0
  6
CONTINUOUS
 62
               3
  5
5DD
 10
-10.588989
 20
-240.72183799999999
 30
0.0
  0
VERTEX
  8
0
  6
CONTINUOUS
 62
               3
  5
5DE
 10
-10.309049
 20
-240.848007
 30
0.0
  0
VERTEX
  8
0
  6
CONTINUOUS
 62
               3
  5
5DF
 10
-10.033568000000001
 20
-240.98227399999999
 30
0.0
  0
VERTEX
  8
0
  6
CONTINUOUS
 62
               3
  5
5E0
 10
-9.7629199999999994
 20
-241.124179
 30
0.0
  0
VERTEX
  8
0
  6
CONTINUOUS
 62
               3
  5
5E1
 10
-9.4974740000000004
 20
-241.27326199999999
 30
0.0
  0
VERTEX
  8
0
  6
CONTINUOUS
 62
               3
  5
5E2
 10
-9.2376039999999993
 20
-241.42906199999999
 30
0.0
  0
SEQEND
  8
0
  6
CONTINUOUS
 62
               3
  5
5E3
  0
ARC
  8
0
  6
CONTINUOUS
 62
               3
  5
265
 10
9.0
 20
-287.0
 30
0.0
 40
1.0
 50
270.0
 51
0.0
  0
ARC
  8
0
  6
CONTINUOUS
 62
               3
  5
266
 10
-9.0
 20
-287.0
 30
0.0
 40
1.0
 50
180.0
 51
270.0
  0
ARC
  8
0
  6
CONTINUOUS
 62
               3
  5
267
 10
0.0
 20
-288.10000000000002
 30
0.0
 40
5.5
 50
178.958201
 51
1.0417990000000004
  0
CIRCLE
  8
0
  6
CONTINUOUS
 62
               3
  5
268
 10
0.1
 20
-323.0
 30
0.0
 40
5.5
  0
ARC
  8
0
  6
CONTINUOUS
 62
               3
  5
269
 10
0.1
 20
-324.30000000000001
 30
0.0
 40
16.0
 50
180.0
 51
0.0
  0
LINE
  8
0
  6
CONTINUOUS
 62
               3
  5
26A
 10
-18.5
 20
-265.0
 30
0.0
 11
18.5
 21
-265.0
 31
0.0
  0
LINE
  8
0
  6
CONTINUOUS
 62
               3
  5
26B
 10
9.2376039999999993
 20
-266.42906199999999
 30
0.0
 11
9.2376039999999993
 21
-276.57093800000001
 31
0.0
  0
LINE
  8
0
  6
CONTINUOUS
 62
               3
  5
26C
 10
18.5
 20
-262.0
 30
0.0
 11
18.5
 21
-265.0
 31
0.0
  0
LINE
  8
0
  6
CONTINUOUS
 62
               3
  5
26D
 10
-18.5
 20
-262.0
 30
0.0
 11
18.5
 21
-262.0
 31
0.0
  0
LINE
  8
0
  6
CONTINUOUS
 62
               3
  5
26E
 10
-18.475209
 20
-266.42906199999999
 30
0.0
 11
-18.475209
 21
-276.57093800000001
 31
0.0
  0
LINE
  8
0
  6
CONTINUOUS
 62
               3
  5
26F
 10
-18.475209
 20
-276.57093800000001
 30
0.0
 11
-16.0
 21
-278.0
 31
0.0
  0
LINE
  8
0
  6
CONTINUOUS
 62
               3
  5
270
 10
-16.0
 20
-278.0
 30
0.0
 11
16.0
 21
-278.0
 31
0.0
  0
LINE
  8
0
  6
CONTINUOUS
 62
               3
  5
271
 10
-18.5
 20
-262.0
 30
0.0
 11
-18.5
 21
-265.0
 31
0.0
  0
LINE
  8
0
  6
CONTINUOUS
 62
               3
  5
272
 10
-9.2376039999999993
 20
-266.42906199999999
 30
0.0
 11
-9.2376039999999993
 21
-276.57093800000001
 31
0.0
  0
LINE
  8
0
  6
CONTINUOUS
 62
               3
  5
273
 10
-18.475209
 20
-266.42906199999999
 30
0.0
 11
-16.0
 21
-265.0
 31
0.0
  0
LINE
  8
0
  6
CONTINUOUS
 62
               3
  5
274
 10
18.475209
 20
-266.42906199999999
 30
0.0
 11
16.0
 21
-265.0
 31
0.0
  0
LINE
  8
0
  6
CONTINUOUS
 62
               3
  5
275
 10
18.475209
 20
-276.57093800000001
 30
0.0
 11
16.0
 21
-278.0
 31
0.0
  0
LINE
  8
0
  6
CONTINUOUS
 62
               3
  5
276
 10
18.475209
 20
-266.42906199999999
 30
0.0
 11
18.475209
 21
-276.57093800000001
 31
0.0
  0
LINE
  8
0
  6
CONTINUOUS
 62
               3
  5
277
 10
-18.5
 20
-258.0
 30
0.0
 11
18.5
 21
-258.0
 31
0.0
  0
LINE
  8
0
  6
CONTINUOUS
 62
               3
  5
278
 10
18.5
 20
-258.0
 30
0.0
 11
18.5
 21
-253.0
 31
0.0
  0
LINE
  8
0
  6
CONTINUOUS
 62
               3
  5
279
 10
-18.5
 20
-258.0
 30
0.0
 11
-18.5
 21
-253.0
 31
0.0
  0
LINE
  8
0
  6
CONTINUOUS
 62
               3
  5
27A
 10
18.475209
 20
-251.57093800000001
 30
0.0
 11
18.475209
 21
-241.42906199999999
 31
0.0
  0
LINE
  8
0
  6
CONTINUOUS
 62
               3
  5
27B
 10
18.475209
 20
-241.42906199999999
 30
0.0
 11
16.0
 21
-240.0
 31
0.0
  0
LINE
  8
0
  6
CONTINUOUS
 62
               3
  5
27C
 10
18.475209
 20
-251.57093800000001
 30
0.0
 11
16.0
 21
-253.0
 31
0.0
  0
LINE
  8
0
  6
CONTINUOUS
 62
               3
  5
27D
 10
-18.475209
 20
-251.57093800000001
 30
0.0
 11
-16.0
 21
-253.0
 31
0.0
  0
LINE
  8
0
  6
CONTINUOUS
 62
               3
  5
27E
 10
9.2376039999999993
 20
-251.57093800000001
 30
0.0
 11
9.2376039999999993
 21
-241.42906199999999
 31
0.0
  0
LINE
  8
0
  6
CONTINUOUS
 62
               3
  5
27F
 10
-18.475209
 20
-241.42906199999999
 30
0.0
 11
-16.0
 21
-240.0
 31
0.0
  0
LINE
  8
0
  6
CONTINUOUS
 62
               3
  5
280
 10
-18.475209
 20
-251.57093800000001
 30
0.0
 11
-18.475209
 21
-241.42906199999999
 31
0.0
  0
LINE
  8
0
  6
CONTINUOUS
 62
               3
  5
281
 10
-9.2376039999999993
 20
-251.57093800000001
 30
0.0
 11
-9.2376039999999993
 21
-241.42906199999999
 31
0.0
  0
LINE
  8
0
  6
CONTINUOUS
 62
               3
  5
282
 10
-10.0
 20
-284.0
 30
0.0
 11
-10.0
 21
-287.0
 31
0.0
  0
LINE
  8
0
  6
CONTINUOUS
 62
               3
  5
283
 10
10.0
 20
-284.0
 30
0.0
 11
10.0
 21
-287.0
 31
0.0
  0
LINE
  8
0
  6
CONTINUOUS
 62
               3
  5
284
 10
-9.0
 20
-288.0
 30
0.0
 11
9.0
 21
-288.0
 31
0.0
  0
LINE
  8
0
  6
CONTINUOUS
 62
               3
  5
285
 10
-9.5
 20
-284.0
 30
0.0
 11
-9.5
 21
-278.0
 31
0.0
  0
LINE
  8
0
  6
CONTINUOUS
 62
               3
  5
286
 10
9.5
 20
-284.0
 30
0.0
 11
9.5
 21
-278.0
 31
0.0
  0
LINE
  8
0
  6
CONTINUOUS
 62
               3
  5
287
 10
-11.0
 20
-282.5
 30
0.0
 11
11.0
 21
-282.5
 31
0.0
  0
LINE
  8
0
  6
CONTINUOUS
 62
               3
  5
288
 10
-9.5
 20
-284.0
 30
0.0
 11
-11.0
 21
-282.5
 31
0.0
  0
LINE
  8
0
  6
CONTINUOUS
 62
               3
  5
289
 10
9.5
 20
-284.0
 30
0.0
 11
11.0
 21
-282.5
 31
0.0
  0
LINE
  8
0
  6
CONTINUOUS
 62
               3
  5
28A
 10
-11.0
 20
-282.5
 30
0.0
 11
-11.0
 21
-278.0
 31
0.0
  0
LINE
  8
0
  6
CONTINUOUS
 62
               3
  5
28B
 10
11.0
 20
-282.5
 30
0.0
 11
11.0
 21
-278.0
 31
0.0
  0
LINE
  8
0
  6
CONTINUOUS
 62
               3
  5
28C
 10
-10.0
 20
-284.0
 30
0.0
 11
10.0
 21
-284.0
 31
0.0
  0
LINE
  8
0
  6
CONTINUOUS
 62
               3
  5
28D
 10
-15.9
 20
-278.0
 30
0.0
 11
-15.9
 21
-324.30000000000001
 31
0.0
  0
LINE
  8
0
  6
CONTINUOUS
 62
               3
  5
28E
 10
16.100000000000001
 20
-278.0
 30
0.0
 11
16.100000000000001
 21
-324.30000000000001
 31
0.0
  0
LINE
  8
0
  6
CONTINUOUS
 62
               3
  5
28F
 10
-16.0
 20
-240.0
 30
0.0
 11
16.0
 21
-240.0
 31
0.0
  0
LINE
  8
0
  6
CONTINUOUS
 62
               3
  5
290
 10
16.100000000000001
 20
-258.0
 30
0.0
 11
16.100000000000001
 21
-262.0
 31
0.0
  0
LINE
  8
0
  6
CONTINUOUS
 62
               3
  5
291
 10
-15.9
 20
-258.0
 30
0.0
 11
-15.9
 21
-262.0
 31
0.0
  0
LINE
  8
0
  6
CONTINUOUS
 62
               3
  5
292
 10
-18.5
 20
-256.0
 30
0.0
 11
18.5
 21
-256.0
 31
0.0
  0
LINE
  8
0
  6
CONTINUOUS
 62
               3
  5
293
 10
-18.5
 20
-253.0
 30
0.0
 11
18.5
 21
-253.0
 31
0.0
  0
ENDBLK
  8
0
  5
294
  0
BLOCK
  8
0
  5
295
  2
MS_10
 70
               0
 10
0.0
 20
0.0
 30
0.0
  3
MS_10
  0
ARC
  8
0
  6
CONTINUOUS
 62
               3
  5
296
 10
-23.883081000000001
 20
3.6459220000000001
 30
0.0
 40
6.0
 50
105.046254
 51
178.99999700000001
  0
ARC
  8
0
  6
CONTINUOUS
 62
               3
  5
297
 10
23.883082000000002
 20
3.6459220000000001
 30
0.0
 40
6.0
 50
1.0
 51
74.953744999999998
  0
ARC
  8
0
  6
CONTINUOUS
 62
               3
  5
298
 10
0.0
 20
-85.200001
 30
0.0
 40
98.0
 50
74.953747000000007
 51
105.046254
  0
LINE
  8
0
  6
CONTINUOUS
 62
               3
  5
299
 10
-29.991271999999999
 20
0.499924
 30
0.0
 11
-29.882166000000002
 21
3.7506360000000001
 31
0.0
  0
LINE
  8
0
  6
CONTINUOUS
 62
               3
  5
29A
 10
-29.991274000000001
 20
0.499924
 30
0.0
 11
-29.508503000000001
 21
0.0
 31
0.0
  0
LINE
  8
0
  6
CONTINUOUS
 62
               3
  5
29B
 10
29.991273
 20
0.499924
 30
0.0
 11
29.882166999999999
 21
3.7506360000000001
 31
0.0
  0
LINE
  8
0
  6
CONTINUOUS
 62
               3
  5
29C
 10
29.991275000000002
 20
0.499924
 30
0.0
 11
29.508503999999999
 21
0.0
 31
0.0
  0
LINE
  8
0
  6
CONTINUOUS
 62
               3
  5
29D
 10
-29.508503000000001
 20
0.0
 30
0.0
 11
29.508503000000001
 21
0.0
 31
0.0
  0
ENDBLK
  8
0
  5
29E
  0
BLOCK
  8
0
  5
29F
  2
MS_11
 70
               0
 10
0.0
 20
0.0
 30
0.0
  3
MS_11
  0
ARC
  8
0
  6
CONTINUOUS
 62
              80
  5
2A0
 10
0.0
 20
0.0
 30
0.0
 40
2.8999999999999999
 50
350.07180899999997
 51
9.9281909999999893
  0
ARC
  8
0
  6
CONTINUOUS
 62
              80
  5
2A1
 10
0.0
 20
0.0
 30
0.0
 40
2.8999999999999999
 50
260.07180899999997
 51
279.92819100000003
  0
ARC
  8
0
  6
CONTINUOUS
 62
              80
  5
2A2
 10
0.0
 20
0.0
 30
0.0
 40
2.8999999999999999
 50
170.071809
 51
189.928191
  0
ARC
  8
0
  6
CONTINUOUS
 62
              80
  5
2A3
 10
0.0
 20
0.0
 30
0.0
 40
2.8999999999999999
 50
80.071809000000016
 51
99.928190999999998
  0
CIRCLE
  8
0
  6
CONTINUOUS
 62
               3
  5
2A4
 10
0.0
 20
0.0
 30
0.0
 40
3.8999999999999999
  0
CIRCLE
  8
0
  6
CONTINUOUS
 62
               3
  5
2A5
 10
0.0
 20
0.0
 30
0.0
 40
4.2999999999999998
  0
LINE
  8
0
  6
CONTINUOUS
 62
              80
  5
2A6
 10
0.5
 20
0.5
 30
0.0
 11
2.8565719999999999
 21
0.5
 31
0.0
  0
LINE
  8
0
  6
CONTINUOUS
 62
              80
  5
2A7
 10
0.5
 20
-0.5
 30
0.0
 11
0.5
 21
-2.8565719999999999
 31
0.0
  0
LINE
  8
0
  6
CONTINUOUS
 62
              80
  5
2A8
 10
0.5
 20
-0.5
 30
0.0
 11
2.8565719999999999
 21
-0.5
 31
0.0
  0
LINE
  8
0
  6
CONTINUOUS
 62
              80
  5
2A9
 10
-0.5
 20
-0.5
 30
0.0
 11
-0.5
 21
-2.8565719999999999
 31
0.0
  0
LINE
  8
0
  6
CONTINUOUS
 62
              80
  5
2AA
 10
-2.8565719999999999
 20
-0.5
 30
0.0
 11
-0.5
 21
-0.5
 31
0.0
  0
LINE
  8
0
  6
CONTINUOUS
 62
              80
  5
2AB
 10
-2.8565719999999999
 20
0.5
 30
0.0
 11
-0.5
 21
0.5
 31
0.0
  0
LINE
  8
0
  6
CONTINUOUS
 62
              80
  5
2AC
 10
0.5
 20
2.8565719999999999
 30
0.0
 11
0.5
 21
0.5
 31
0.0
  0
LINE
  8
0
  6
CONTINUOUS
 62
              80
  5
2AD
 10
-0.5
 20
2.8565719999999999
 30
0.0
 11
-0.5
 21
0.5
 31
0.0
  0
CIRCLE
  8
0
  6
CONTINUOUS
 62
               3
  5
2AE
 10
0.0
 20
0.0
 30
0.0
 40
30.0
  0
ENDBLK
  8
0
  5
2AF
  0
BLOCK
  8
0
  5
2B0
  2
MS_12
 70
               0
 10
0.0
 20
0.0
 30
0.0
  3
MS_12
  0
LINE
  8
0
  6
CENTER
 62
              50
  5
2B1
 10
51.0
 20
-323.0
 30
0.0
 11
65.0
 21
-323.0
 31
0.0
  0
LINE
  8
0
  6
CENTER
 62
              50
  5
2B2
 10
51.0
 20
-288.10000000000002
 30
0.0
 11
65.0
 21
-288.10000000000002
 31
0.0
  0
LINE
  8
0
  6
CONTINUOUS
 62
               3
  5
2B3
 10
-11.0
 20
0.0
 30
0.0
 11
-11.0
 21
-240.0
 31
0.0
  0
LINE
  8
0
  6
CONTINUOUS
 62
               3
  5
2B4
 10
11.0
 20
0.0
 30
0.0
 11
11.0
 21
-240.0
 31
0.0
  0
LINE
  8
0
  6
CONTINUOUS
 62
               3
  5
2B5
 10
11.0
 20
0.0
 30
0.0
 11
-11.0
 21
0.0
 31
0.0
  0
LINE
  8
0
  6
CONTINUOUS
 62
               3
  5
2B6
 10
56.0
 20
-266.0
 30
0.0
 11
56.0
 21
-339.0
 31
0.0
  0
LINE
  8
0
  6
CONTINUOUS
 62
               3
  5
2B7
 10
59.799999999999997
 20
-339.0
 30
0.0
 11
55.799999999999997
 21
-339.0
 31
0.0
  0
ARC
  8
0
  6
CONTINUOUS
 62
               3
  5
2B8
 10
52.0
 20
-266.0
 30
0.0
 40
8.0
 50
0.0
 51
90.0
  0
ARC
  8
0
  6
CONTINUOUS
 62
               3
  5
2B9
 10
52.0
 20
-266.0
 30
0.0
 40
4.0
 50
0.0
 51
90.0
  0
LINE
  8
0
  6
CONTINUOUS
 62
               3
  5
2BA
 10
60.0
 20
-266.0
 30
0.0
 11
60.0
 21
-339.0
 31
0.0
  0
LINE
  8
0
  6
CONTINUOUS
 62
               3
  5
2BB
 10
-18.5
 20
-258.0
 30
0.0
 11
52.0
 21
-258.0
 31
0.0
  0
POLYLINE
  8
0
  6
CONTINUOUS
 62
               3
  5
2BC
 66
               1
 10
0.0
 20
0.0
 30
0.0
  0
VERTEX
  8
0
  6
CONTINUOUS
 62
               3
  5
5E4
 10
18.475209
 20
-276.57093800000001
 30
0.0
  0
VERTEX
  8
0
  6
CONTINUOUS
 62
               3
  5
5E5
 10
18.215339
 20
-276.72673800000001
 30
0.0
  0
VERTEX
  8
0
  6
CONTINUOUS
 62
               3
  5
5E6
 10
17.949892999999999
 20
-276.87582099999997
 30
0.0
  0
VERTEX
  8
0
  6
CONTINUOUS
 62
               3
  5
5E7
 10
17.679245000000002
 20
-277.01772599999998
 30
0.0
  0
VERTEX
  8
0
  6
CONTINUOUS
 62
               3
  5
5E8
 10
17.403763999999999
 20
-277.151993
 30
0.0
  0
VERTEX
  8
0
  6
CONTINUOUS
 62
               3
  5
5E9
 10
17.123823000000002
 20
-277.27816200000001
 30
0.0
  0
VERTEX
  8
0
  6
CONTINUOUS
 62
               3
  5
5EA
 10
16.839794000000001
 20
-277.39577300000002
 30
0.0
  0
VERTEX
  8
0
  6
CONTINUOUS
 62
               3
  5
5EB
 10
16.552047999999999
 20
-277.504367
 30
0.0
  0
VERTEX
  8
0
  6
CONTINUOUS
 62
               3
  5
5EC
 10
16.260957000000001
 20
-277.60348199999999
 30
0.0
  0
VERTEX
  8
0
  6
CONTINUOUS
 62
               3
  5
5ED
 10
15.966893000000001
 20
-277.69265899999999
 30
0.0
  0
VERTEX
  8
0
  6
CONTINUOUS
 62
               3
  5
5EE
 10
15.670227000000001
 20
-277.77143899999999
 30
0.0
  0
VERTEX
  8
0
  6
CONTINUOUS
 62
               3
  5
5EF
 10
15.37133
 20
-277.83936
 30
0.0
  0
VERTEX
  8
0
  6
CONTINUOUS
 62
               3
  5
5F0
 10
15.070576000000001
 20
-277.89596399999999
 30
0.0
  0
VERTEX
  8
0
  6
CONTINUOUS
 62
               3
  5
5F1
 10
14.768333999999999
 20
-277.94078999999999
 30
0.0
  0
VERTEX
  8
0
  6
CONTINUOUS
 62
               3
  5
5F2
 10
14.464978
 20
-277.97337800000003
 30
0.0
  0
VERTEX
  8
0
  6
CONTINUOUS
 62
               3
  5
5F3
 10
14.160878
 20
-277.993268
 30
0.0
  0
VERTEX
  8
0
  6
CONTINUOUS
 62
               3
  5
5F4
 10
13.856406
 20
-278.0
 30
0.0
  0
VERTEX
  8
0
  6
CONTINUOUS
 62
               3
  5
5F5
 10
13.551935
 20
-277.993268
 30
0.0
  0
VERTEX
  8
0
  6
CONTINUOUS
 62
               3
  5
5F6
 10
13.247835
 20
-277.97337800000003
 30
0.0
  0
VERTEX
  8
0
  6
CONTINUOUS
 62
               3
  5
5F7
 10
12.944478999999999
 20
-277.94078999999999
 30
0.0
  0
VERTEX
  8
0
  6
CONTINUOUS
 62
               3
  5
5F8
 10
12.642237
 20
-277.89596399999999
 30
0.0
  0
VERTEX
  8
0
  6
CONTINUOUS
 62
               3
  5
5F9
 10
12.341483
 20
-277.83936
 30
0.0
  0
VERTEX
  8
0
  6
CONTINUOUS
 62
               3
  5
5FA
 10
12.042586
 20
-277.77143899999999
 30
0.0
  0
VERTEX
  8
0
  6
CONTINUOUS
 62
               3
  5
5FB
 10
11.74592
 20
-277.69265899999999
 30
0.0
  0
VERTEX
  8
0
  6
CONTINUOUS
 62
               3
  5
5FC
 10
11.451855999999999
 20
-277.60348199999999
 30
0.0
  0
VERTEX
  8
0
  6
CONTINUOUS
 62
               3
  5
5FD
 10
11.160765
 20
-277.504367
 30
0.0
  0
VERTEX
  8
0
  6
CONTINUOUS
 62
               3
  5
5FE
 10
10.873018999999999
 20
-277.39577300000002
 30
0.0
  0
VERTEX
  8
0
  6
CONTINUOUS
 62
               3
  5
5FF
 10
10.588989
 20
-277.27816200000001
 30
0.0
  0
VERTEX
  8
0
  6
CONTINUOUS
 62
               3
  5
600
 10
10.309049
 20
-277.151993
 30
0.0
  0
VERTEX
  8
0
  6
CONTINUOUS
 62
               3
  5
601
 10
10.033568000000001
 20
-277.01772599999998
 30
0.0
  0
VERTEX
  8
0
  6
CONTINUOUS
 62
               3
  5
602
 10
9.7629199999999994
 20
-276.87582099999997
 30
0.0
  0
VERTEX
  8
0
  6
CONTINUOUS
 62
               3
  5
603
 10
9.4974740000000004
 20
-276.72673800000001
 30
0.0
  0
VERTEX
  8
0
  6
CONTINUOUS
 62
               3
  5
604
 10
9.2376039999999993
 20
-276.57093800000001
 30
0.0
  0
SEQEND
  8
0
  6
CONTINUOUS
 62
               3
  5
605
  0
POLYLINE
  8
0
  6
CONTINUOUS
 62
               3
  5
2BD
 66
               1
 10
0.0
 20
0.0
 30
0.0
  0
VERTEX
  8
0
  6
CONTINUOUS
 62
               3
  5
606
 10
9.2376039999999993
 20
-266.42906199999999
 30
0.0
  0
VERTEX
  8
0
  6
CONTINUOUS
 62
               3
  5
607
 10
8.6777239999999995
 20
-266.26124299999998
 30
0.0
  0
VERTEX
  8
0
  6
CONTINUOUS
 62
               3
  5
608
 10
8.1144619999999996
 20
-266.10323899999997
 30
0.0
  0
VERTEX
  8
0
  6
CONTINUOUS
 62
               3
  5
609
 10
7.5480450000000001
 20
-265.95519100000001
 30
0.0
  0
VERTEX
  8
0
  6
CONTINUOUS
 62
               3
  5
60A
 10
6.9786970000000004
 20
-265.81723899999997
 30
0.0
  0
VERTEX
  8
0
  6
CONTINUOUS
 62
               3
  5
60B
 10
6.406644
 20
-265.68952000000002
 30
0.0
  0
VERTEX
  8
0
  6
CONTINUOUS
 62
               3
  5
60C
 10
5.8321110000000003
 20
-265.57217600000001
 30
0.0
  0
VERTEX
  8
0
  6
CONTINUOUS
 62
               3
  5
60D
 10
5.255325
 20
-265.46534600000001
 30
0.0
  0
VERTEX
  8
0
  6
CONTINUOUS
 62
               3
  5
60E
 10
4.6765090000000002
 20
-265.369169
 30
0.0
  0
VERTEX
  8
0
  6
CONTINUOUS
 62
               3
  5
60F
 10
4.0958899999999998
 20
-265.28378400000003
 30
0.0
  0
VERTEX
  8
0
  6
CONTINUOUS
 62
               3
  5
610
 10
3.5136940000000001
 20
-265.20933100000002
 30
0.0
  0
VERTEX
  8
0
  6
CONTINUOUS
 62
               3
  5
611
 10
2.9301439999999999
 20
-265.14595000000003
 30
0.0
  0
VERTEX
  8
0
  6
CONTINUOUS
 62
               3
  5
612
 10
2.3454679999999999
 20
-265.09377999999998
 30
0.0
  0
VERTEX
  8
0
  6
CONTINUOUS
 62
               3
  5
613
 10
1.75989
 20
-265.05296099999998
 30
0.0
  0
VERTEX
  8
0
  6
CONTINUOUS
 62
               3
  5
614
 10
1.1736359999999999
 20
-265.02363100000002
 30
0.0
  0
VERTEX
  8
0
  6
CONTINUOUS
 62
               3
  5
615
 10
0.586931
 20
-265.00593099999998
 30
0.0
  0
VERTEX
  8
0
  6
CONTINUOUS
 62
               3
  5
616
 10
0.0
 20
-265.0
 30
0.0
  0
VERTEX
  8
0
  6
CONTINUOUS
 62
               3
  5
617
 10
-0.586931
 20
-265.00593099999998
 30
0.0
  0
VERTEX
  8
0
  6
CONTINUOUS
 62
               3
  5
618
 10
-1.1736359999999999
 20
-265.02363100000002
 30
0.0
  0
VERTEX
  8
0
  6
CONTINUOUS
 62
               3
  5
619
 10
-1.75989
 20
-265.05296099999998
 30
0.0
  0
VERTEX
  8
0
  6
CONTINUOUS
 62
               3
  5
61A
 10
-2.3454679999999999
 20
-265.09377999999998
 30
0.0
  0
VERTEX
  8
0
  6
CONTINUOUS
 62
               3
  5
61B
 10
-2.9301439999999999
 20
-265.14595000000003
 30
0.0
  0
VERTEX
  8
0
  6
CONTINUOUS
 62
               3
  5
61C
 10
-3.5136940000000001
 20
-265.20933100000002
 30
0.0
  0
VERTEX
  8
0
  6
CONTINUOUS
 62
               3
  5
61D
 10
-4.0958899999999998
 20
-265.28378400000003
 30
0.0
  0
VERTEX
  8
0
  6
CONTINUOUS
 62
               3
  5
61E
 10
-4.6765090000000002
 20
-265.369169
 30
0.0
  0
VERTEX
  8
0
  6
CONTINUOUS
 62
               3
  5
61F
 10
-5.255325
 20
-265.46534600000001
 30
0.0
  0
VERTEX
  8
0
  6
CONTINUOUS
 62
               3
  5
620
 10
-5.8321110000000003
 20
-265.57217600000001
 30
0.0
  0
VERTEX
  8
0
  6
CONTINUOUS
 62
               3
  5
621
 10
-6.406644
 20
-265.68952000000002
 30
0.0
  0
VERTEX
  8
0
  6
CONTINUOUS
 62
               3
  5
622
 10
-6.9786970000000004
 20
-265.81723899999997
 30
0.0
  0
VERTEX
  8
0
  6
CONTINUOUS
 62
               3
  5
623
 10
-7.5480450000000001
 20
-265.95519100000001
 30
0.0
  0
VERTEX
  8
0
  6
CONTINUOUS
 62
               3
  5
624
 10
-8.1144619999999996
 20
-266.10323899999997
 30
0.0
  0
VERTEX
  8
0
  6
CONTINUOUS
 62
               3
  5
625
 10
-8.6777239999999995
 20
-266.26124299999998
 30
0.0
  0
VERTEX
  8
0
  6
CONTINUOUS
 62
               3
  5
626
 10
-9.2376039999999993
 20
-266.42906199999999
 30
0.0
  0
SEQEND
  8
0
  6
CONTINUOUS
 62
               3
  5
627
  0
POLYLINE
  8
0
  6
CONTINUOUS
 62
               3
  5
2BE
 66
               1
 10
0.0
 20
0.0
 30
0.0
  0
VERTEX
  8
0
  6
CONTINUOUS
 62
               3
  5
628
 10
18.475209
 20
-266.42906199999999
 30
0.0
  0
VERTEX
  8
0
  6
CONTINUOUS
 62
               3
  5
629
 10
18.215339
 20
-266.27326199999999
 30
0.0
  0
VERTEX
  8
0
  6
CONTINUOUS
 62
               3
  5
62A
 10
17.949892999999999
 20
-266.12417900000003
 30
0.0
  0
VERTEX
  8
0
  6
CONTINUOUS
 62
               3
  5
62B
 10
17.679245000000002
 20
-265.98227400000002
 30
0.0
  0
VERTEX
  8
0
  6
CONTINUOUS
 62
               3
  5
62C
 10
17.403763999999999
 20
-265.848007
 30
0.0
  0
VERTEX
  8
0
  6
CONTINUOUS
 62
               3
  5
62D
 10
17.123823000000002
 20
-265.72183799999999
 30
0.0
  0
VERTEX
  8
0
  6
CONTINUOUS
 62
               3
  5
62E
 10
16.839794000000001
 20
-265.60422699999998
 30
0.0
  0
VERTEX
  8
0
  6
CONTINUOUS
 62
               3
  5
62F
 10
16.552047999999999
 20
-265.495633
 30
0.0
  0
VERTEX
  8
0
  6
CONTINUOUS
 62
               3
  5
630
 10
16.260957000000001
 20
-265.39651800000001
 30
0.0
  0
VERTEX
  8
0
  6
CONTINUOUS
 62
               3
  5
631
 10
15.966893000000001
 20
-265.30734100000001
 30
0.0
  0
VERTEX
  8
0
  6
CONTINUOUS
 62
               3
  5
632
 10
15.670227000000001
 20
-265.22856100000001
 30
0.0
  0
VERTEX
  8
0
  6
CONTINUOUS
 62
               3
  5
633
 10
15.37133
 20
-265.16064
 30
0.0
  0
VERTEX
  8
0
  6
CONTINUOUS
 62
               3
  5
634
 10
15.070576000000001
 20
-265.10403600000001
 30
0.0
  0
VERTEX
  8
0
  6
CONTINUOUS
 62
               3
  5
635
 10
14.768333999999999
 20
-265.05921000000001
 30
0.0
  0
VERTEX
  8
0
  6
CONTINUOUS
 62
               3
  5
636
 10
14.464978
 20
-265.02662199999997
 30
0.0
  0
VERTEX
  8
0
  6
CONTINUOUS
 62
               3
  5
637
 10
14.160878
 20
-265.006732
 30
0.0
  0
VERTEX
  8
0
  6
CONTINUOUS
 62
               3
  5
638
 10
13.856406
 20
-265.0
 30
0.0
  0
VERTEX
  8
0
  6
CONTINUOUS
 62
               3
  5
639
 10
13.551935
 20
-265.006732
 30
0.0
  0
VERTEX
  8
0
  6
CONTINUOUS
 62
               3
  5
63A
 10
13.247835
 20
-265.02662199999997
 30
0.0
  0
VERTEX
  8
0
  6
CONTINUOUS
 62
               3
  5
63B
 10
12.944478999999999
 20
-265.05921000000001
 30
0.0
  0
VERTEX
  8
0
  6
CONTINUOUS
 62
               3
  5
63C
 10
12.642237
 20
-265.10403600000001
 30
0.0
  0
VERTEX
  8
0
  6
CONTINUOUS
 62
               3
  5
63D
 10
12.341483
 20
-265.16064
 30
0.0
  0
VERTEX
  8
0
  6
CONTINUOUS
 62
               3
  5
63E
 10
12.042586
 20
-265.22856100000001
 30
0.0
  0
VERTEX
  8
0
  6
CONTINUOUS
 62
               3
  5
63F
 10
11.74592
 20
-265.30734100000001
 30
0.0
  0
VERTEX
  8
0
  6
CONTINUOUS
 62
               3
  5
640
 10
11.451855999999999
 20
-265.39651800000001
 30
0.0
  0
VERTEX
  8
0
  6
CONTINUOUS
 62
               3
  5
641
 10
11.160765
 20
-265.495633
 30
0.0
  0
VERTEX
  8
0
  6
CONTINUOUS
 62
               3
  5
642
 10
10.873018999999999
 20
-265.60422699999998
 30
0.0
  0
VERTEX
  8
0
  6
CONTINUOUS
 62
               3
  5
643
 10
10.588989
 20
-265.72183799999999
 30
0.0
  0
VERTEX
  8
0
  6
CONTINUOUS
 62
               3
  5
644
 10
10.309049
 20
-265.848007
 30
0.0
  0
VERTEX
  8
0
  6
CONTINUOUS
 62
               3
  5
645
 10
10.033568000000001
 20
-265.98227400000002
 30
0.0
  0
VERTEX
  8
0
  6
CONTINUOUS
 62
               3
  5
646
 10
9.7629199999999994
 20
-266.12417900000003
 30
0.0
  0
VERTEX
  8
0
  6
CONTINUOUS
 62
               3
  5
647
 10
9.4974740000000004
 20
-266.27326199999999
 30
0.0
  0
VERTEX
  8
0
  6
CONTINUOUS
 62
               3
  5
648
 10
9.2376039999999993
 20
-266.42906199999999
 30
0.0
  0
SEQEND
  8
0
  6
CONTINUOUS
 62
               3
  5
649
  0
POLYLINE
  8
0
  6
CONTINUOUS
 62
               3
  5
2BF
 66
               1
 10
0.0
 20
0.0
 30
0.0
  0
VERTEX
  8
0
  6
CONTINUOUS
 62
               3
  5
64A
 10
9.2376039999999993
 20
-276.57093800000001
 30
0.0
  0
VERTEX
  8
0
  6
CONTINUOUS
 62
               3
  5
64B
 10
8.6777239999999995
 20
-276.73875700000002
 30
0.0
  0
VERTEX
  8
0
  6
CONTINUOUS
 62
               3
  5
64C
 10
8.1144619999999996
 20
-276.89676100000003
 30
0.0
  0
VERTEX
  8
0
  6
CONTINUOUS
 62
               3
  5
64D
 10
7.5480450000000001
 20
-277.04480899999999
 30
0.0
  0
VERTEX
  8
0
  6
CONTINUOUS
 62
               3
  5
64E
 10
6.9786970000000004
 20
-277.18276100000003
 30
0.0
  0
VERTEX
  8
0
  6
CONTINUOUS
 62
               3
  5
64F
 10
6.406644
 20
-277.31047999999998
 30
0.0
  0
VERTEX
  8
0
  6
CONTINUOUS
 62
               3
  5
650
 10
5.8321110000000003
 20
-277.42782399999999
 30
0.0
  0
VERTEX
  8
0
  6
CONTINUOUS
 62
               3
  5
651
 10
5.255325
 20
-277.53465399999999
 30
0.0
  0
VERTEX
  8
0
  6
CONTINUOUS
 62
               3
  5
652
 10
4.6765090000000002
 20
-277.630831
 30
0.0
  0
VERTEX
  8
0
  6
CONTINUOUS
 62
               3
  5
653
 10
4.0958899999999998
 20
-277.71621599999997
 30
0.0
  0
VERTEX
  8
0
  6
CONTINUOUS
 62
               3
  5
654
 10
3.5136940000000001
 20
-277.79066899999998
 30
0.0
  0
VERTEX
  8
0
  6
CONTINUOUS
 62
               3
  5
655
 10
2.9301439999999999
 20
-277.85404999999997
 30
0.0
  0
VERTEX
  8
0
  6
CONTINUOUS
 62
               3
  5
656
 10
2.3454679999999999
 20
-277.90622000000002
 30
0.0
  0
VERTEX
  8
0
  6
CONTINUOUS
 62
               3
  5
657
 10
1.75989
 20
-277.94703900000002
 30
0.0
  0
VERTEX
  8
0
  6
CONTINUOUS
 62
               3
  5
658
 10
1.1736359999999999
 20
-277.97636899999998
 30
0.0
  0
VERTEX
  8
0
  6
CONTINUOUS
 62
               3
  5
659
 10
0.586931
 20
-277.99406900000002
 30
0.0
  0
VERTEX
  8
0
  6
CONTINUOUS
 62
               3
  5
65A
 10
0.0
 20
-278.0
 30
0.0
  0
VERTEX
  8
0
  6
CONTINUOUS
 62
               3
  5
65B
 10
-0.586931
 20
-277.99406900000002
 30
0.0
  0
VERTEX
  8
0
  6
CONTINUOUS
 62
               3
  5
65C
 10
-1.1736359999999999
 20
-277.97636899999998
 30
0.0
  0
VERTEX
  8
0
  6
CONTINUOUS
 62
               3
  5
65D
 10
-1.75989
 20
-277.94703900000002
 30
0.0
  0
VERTEX
  8
0
  6
CONTINUOUS
 62
               3
  5
65E
 10
-2.3454679999999999
 20
-277.90622000000002
 30
0.0
  0
VERTEX
  8
0
  6
CONTINUOUS
 62
               3
  5
65F
 10
-2.9301439999999999
 20
-277.85404999999997
 30
0.0
  0
VERTEX
  8
0
  6
CONTINUOUS
 62
               3
  5
660
 10
-3.5136940000000001
 20
-277.79066899999998
 30
0.0
  0
VERTEX
  8
0
  6
CONTINUOUS
 62
               3
  5
661
 10
-4.0958899999999998
 20
-277.71621599999997
 30
0.0
  0
VERTEX
  8
0
  6
CONTINUOUS
 62
               3
  5
662
 10
-4.6765090000000002
 20
-277.630831
 30
0.0
  0
VERTEX
  8
0
  6
CONTINUOUS
 62
               3
  5
663
 10
-5.255325
 20
-277.53465399999999
 30
0.0
  0
VERTEX
  8
0
  6
CONTINUOUS
 62
               3
  5
664
 10
-5.8321110000000003
 20
-277.42782399999999
 30
0.0
  0
VERTEX
  8
0
  6
CONTINUOUS
 62
               3
  5
665
 10
-6.406644
 20
-277.31047999999998
 30
0.0
  0
VERTEX
  8
0
  6
CONTINUOUS
 62
               3
  5
666
 10
-6.9786970000000004
 20
-277.18276100000003
 30
0.0
  0
VERTEX
  8
0
  6
CONTINUOUS
 62
               3
  5
667
 10
-7.5480450000000001
 20
-277.04480899999999
 30
0.0
  0
VERTEX
  8
0
  6
CONTINUOUS
 62
               3
  5
668
 10
-8.1144619999999996
 20
-276.89676100000003
 30
0.0
  0
VERTEX
  8
0
  6
CONTINUOUS
 62
               3
  5
669
 10
-8.6777239999999995
 20
-276.73875700000002
 30
0.0
  0
VERTEX
  8
0
  6
CONTINUOUS
 62
               3
  5
66A
 10
-9.2376039999999993
 20
-276.57093800000001
 30
0.0
  0
SEQEND
  8
0
  6
CONTINUOUS
 62
               3
  5
66B
  0
POLYLINE
  8
0
  6
CONTINUOUS
 62
               3
  5
2C0
 66
               1
 10
0.0
 20
0.0
 30
0.0
  0
VERTEX
  8
0
  6
CONTINUOUS
 62
               3
  5
66C
 10
-18.475209
 20
-276.57093800000001
 30
0.0
  0
VERTEX
  8
0
  6
CONTINUOUS
 62
               3
  5
66D
 10
-18.215339
 20
-276.72673800000001
 30
0.0
  0
VERTEX
  8
0
  6
CONTINUOUS
 62
               3
  5
66E
 10
-17.949892999999999
 20
-276.87582099999997
 30
0.0
  0
VERTEX
  8
0
  6
CONTINUOUS
 62
               3
  5
66F
 10
-17.679245000000002
 20
-277.01772599999998
 30
0.0
  0
VERTEX
  8
0
  6
CONTINUOUS
 62
               3
  5
670
 10
-17.403763999999999
 20
-277.151993
 30
0.0
  0
VERTEX
  8
0
  6
CONTINUOUS
 62
               3
  5
671
 10
-17.123823000000002
 20
-277.27816200000001
 30
0.0
  0
VERTEX
  8
0
  6
CONTINUOUS
 62
               3
  5
672
 10
-16.839794000000001
 20
-277.39577300000002
 30
0.0
  0
VERTEX
  8
0
  6
CONTINUOUS
 62
               3
  5
673
 10
-16.552047999999999
 20
-277.504367
 30
0.0
  0
VERTEX
  8
0
  6
CONTINUOUS
 62
               3
  5
674
 10
-16.260957000000001
 20
-277.60348199999999
 30
0.0
  0
VERTEX
  8
0
  6
CONTINUOUS
 62
               3
  5
675
 10
-15.966893000000001
 20
-277.69265899999999
 30
0.0
  0
VERTEX
  8
0
  6
CONTINUOUS
 62
               3
  5
676
 10
-15.670227000000001
 20
-277.77143899999999
 30
0.0
  0
VERTEX
  8
0
  6
CONTINUOUS
 62
               3
  5
677
 10
-15.37133
 20
-277.83936
 30
0.0
  0
VERTEX
  8
0
  6
CONTINUOUS
 62
               3
  5
678
 10
-15.070576000000001
 20
-277.89596399999999
 30
0.0
  0
VERTEX
  8
0
  6
CONTINUOUS
 62
               3
  5
679
 10
-14.768333999999999
 20
-277.94078999999999
 30
0.0
  0
VERTEX
  8
0
  6
CONTINUOUS
 62
               3
  5
67A
 10
-14.464978
 20
-277.97337800000003
 30
0.0
  0
VERTEX
  8
0
  6
CONTINUOUS
 62
               3
  5
67B
 10
-14.160878
 20
-277.993268
 30
0.0
  0
VERTEX
  8
0
  6
CONTINUOUS
 62
               3
  5
67C
 10
-13.856406
 20
-278.0
 30
0.0
  0
VERTEX
  8
0
  6
CONTINUOUS
 62
               3
  5
67D
 10
-13.551935
 20
-277.993268
 30
0.0
  0
VERTEX
  8
0
  6
CONTINUOUS
 62
               3
  5
67E
 10
-13.247835
 20
-277.97337800000003
 30
0.0
  0
VERTEX
  8
0
  6
CONTINUOUS
 62
               3
  5
67F
 10
-12.944478999999999
 20
-277.94078999999999
 30
0.0
  0
VERTEX
  8
0
  6
CONTINUOUS
 62
               3
  5
680
 10
-12.642237
 20
-277.89596399999999
 30
0.0
  0
VERTEX
  8
0
  6
CONTINUOUS
 62
               3
  5
681
 10
-12.341483
 20
-277.83936
 30
0.0
  0
VERTEX
  8
0
  6
CONTINUOUS
 62
               3
  5
682
 10
-12.042586
 20
-277.77143899999999
 30
0.0
  0
VERTEX
  8
0
  6
CONTINUOUS
 62
               3
  5
683
 10
-11.74592
 20
-277.69265899999999
 30
0.0
  0
VERTEX
  8
0
  6
CONTINUOUS
 62
               3
  5
684
 10
-11.451855999999999
 20
-277.60348199999999
 30
0.0
  0
VERTEX
  8
0
  6
CONTINUOUS
 62
               3
  5
685
 10
-11.160765
 20
-277.504367
 30
0.0
  0
VERTEX
  8
0
  6
CONTINUOUS
 62
               3
  5
686
 10
-10.873018999999999
 20
-277.39577300000002
 30
0.0
  0
VERTEX
  8
0
  6
CONTINUOUS
 62
               3
  5
687
 10
-10.588989
 20
-277.27816200000001
 30
0.0
  0
VERTEX
  8
0
  6
CONTINUOUS
 62
               3
  5
688
 10
-10.309049
 20
-277.151993
 30
0.0
  0
VERTEX
  8
0
  6
CONTINUOUS
 62
               3
  5
689
 10
-10.033568000000001
 20
-277.01772599999998
 30
0.0
  0
VERTEX
  8
0
  6
CONTINUOUS
 62
               3
  5
68A
 10
-9.7629199999999994
 20
-276.87582099999997
 30
0.0
  0
VERTEX
  8
0
  6
CONTINUOUS
 62
               3
  5
68B
 10
-9.4974740000000004
 20
-276.72673800000001
 30
0.0
  0
VERTEX
  8
0
  6
CONTINUOUS
 62
               3
  5
68C
 10
-9.2376039999999993
 20
-276.57093800000001
 30
0.0
  0
SEQEND
  8
0
  6
CONTINUOUS
 62
               3
  5
68D
  0
POLYLINE
  8
0
  6
CONTINUOUS
 62
               3
  5
2C1
 66
               1
 10
0.0
 20
0.0
 30
0.0
  0
VERTEX
  8
0
  6
CONTINUOUS
 62
               3
  5
68E
 10
-18.475209
 20
-266.42906199999999
 30
0.0
  0
VERTEX
  8
0
  6
CONTINUOUS
 62
               3
  5
68F
 10
-18.215339
 20
-266.27326199999999
 30
0.0
  0
VERTEX
  8
0
  6
CONTINUOUS
 62
               3
  5
690
 10
-17.949892999999999
 20
-266.12417900000003
 30
0.0
  0
VERTEX
  8
0
  6
CONTINUOUS
 62
               3
  5
691
 10
-17.679245000000002
 20
-265.98227400000002
 30
0.0
  0
VERTEX
  8
0
  6
CONTINUOUS
 62
               3
  5
692
 10
-17.403763999999999
 20
-265.848007
 30
0.0
  0
VERTEX
  8
0
  6
CONTINUOUS
 62
               3
  5
693
 10
-17.123823000000002
 20
-265.72183799999999
 30
0.0
  0
VERTEX
  8
0
  6
CONTINUOUS
 62
               3
  5
694
 10
-16.839794000000001
 20
-265.60422699999998
 30
0.0
  0
VERTEX
  8
0
  6
CONTINUOUS
 62
               3
  5
695
 10
-16.552047999999999
 20
-265.495633
 30
0.0
  0
VERTEX
  8
0
  6
CONTINUOUS
 62
               3
  5
696
 10
-16.260957000000001
 20
-265.39651800000001
 30
0.0
  0
VERTEX
  8
0
  6
CONTINUOUS
 62
               3
  5
697
 10
-15.966893000000001
 20
-265.30734100000001
 30
0.0
  0
VERTEX
  8
0
  6
CONTINUOUS
 62
               3
  5
698
 10
-15.670227000000001
 20
-265.22856100000001
 30
0.0
  0
VERTEX
  8
0
  6
CONTINUOUS
 62
               3
  5
699
 10
-15.37133
 20
-265.16064
 30
0.0
  0
VERTEX
  8
0
  6
CONTINUOUS
 62
               3
  5
69A
 10
-15.070576000000001
 20
-265.10403600000001
 30
0.0
  0
VERTEX
  8
0
  6
CONTINUOUS
 62
               3
  5
69B
 10
-14.768333999999999
 20
-265.05921000000001
 30
0.0
  0
VERTEX
  8
0
  6
CONTINUOUS
 62
               3
  5
69C
 10
-14.464978
 20
-265.02662199999997
 30
0.0
  0
VERTEX
  8
0
  6
CONTINUOUS
 62
               3
  5
69D
 10
-14.160878
 20
-265.006732
 30
0.0
  0
VERTEX
  8
0
  6
CONTINUOUS
 62
               3
  5
69E
 10
-13.856406
 20
-265.0
 30
0.0
  0
VERTEX
  8
0
  6
CONTINUOUS
 62
               3
  5
69F
 10
-13.551935
 20
-265.006732
 30
0.0
  0
VERTEX
  8
0
  6
CONTINUOUS
 62
               3
  5
6A0
 10
-13.247835
 20
-265.02662199999997
 30
0.0
  0
VERTEX
  8
0
  6
CONTINUOUS
 62
               3
  5
6A1
 10
-12.944478999999999
 20
-265.05921000000001
 30
0.0
  0
VERTEX
  8
0
  6
CONTINUOUS
 62
               3
  5
6A2
 10
-12.642237
 20
-265.10403600000001
 30
0.0
  0
VERTEX
  8
0
  6
CONTINUOUS
 62
               3
  5
6A3
 10
-12.341483
 20
-265.16064
 30
0.0
  0
VERTEX
  8
0
  6
CONTINUOUS
 62
               3
  5
6A4
 10
-12.042586
 20
-265.22856100000001
 30
0.0
  0
VERTEX
  8
0
  6
CONTINUOUS
 62
               3
  5
6A5
 10
-11.74592
 20
-265.30734100000001
 30
0.0
  0
VERTEX
  8
0
  6
CONTINUOUS
 62
               3
  5
6A6
 10
-11.451855999999999
 20
-265.39651800000001
 30
0.0
  0
VERTEX
  8
0
  6
CONTINUOUS
 62
               3
  5
6A7
 10
-11.160765
 20
-265.495633
 30
0.0
  0
VERTEX
  8
0
  6
CONTINUOUS
 62
               3
  5
6A8
 10
-10.873018999999999
 20
-265.60422699999998
 30
0.0
  0
VERTEX
  8
0
  6
CONTINUOUS
 62
               3
  5
6A9
 10
-10.588989
 20
-265.72183799999999
 30
0.0
  0
VERTEX
  8
0
  6
CONTINUOUS
 62
               3
  5
6AA
 10
-10.309049
 20
-265.848007
 30
0.0
  0
VERTEX
  8
0
  6
CONTINUOUS
 62
               3
  5
6AB
 10
-10.033568000000001
 20
-265.98227400000002
 30
0.0
  0
VERTEX
  8
0
  6
CONTINUOUS
 62
               3
  5
6AC
 10
-9.7629199999999994
 20
-266.12417900000003
 30
0.0
  0
VERTEX
  8
0
  6
CONTINUOUS
 62
               3
  5
6AD
 10
-9.4974740000000004
 20
-266.27326199999999
 30
0.0
  0
VERTEX
  8
0
  6
CONTINUOUS
 62
               3
  5
6AE
 10
-9.2376039999999993
 20
-266.42906199999999
 30
0.0
  0
SEQEND
  8
0
  6
CONTINUOUS
 62
               3
  5
6AF
  0
POLYLINE
  8
0
  6
CONTINUOUS
 62
               3
  5
2C2
 66
               1
 10
0.0
 20
0.0
 30
0.0
  0
VERTEX
  8
0
  6
CONTINUOUS
 62
               3
  5
6B0
 10
-18.475209
 20
-241.42906199999999
 30
0.0
  0
VERTEX
  8
0
  6
CONTINUOUS
 62
               3
  5
6B1
 10
-18.215339
 20
-241.27326199999999
 30
0.0
  0
VERTEX
  8
0
  6
CONTINUOUS
 62
               3
  5
6B2
 10
-17.949892999999999
 20
-241.124179
 30
0.0
  0
VERTEX
  8
0
  6
CONTINUOUS
 62
               3
  5
6B3
 10
-17.679245000000002
 20
-240.98227399999999
 30
0.0
  0
VERTEX
  8
0
  6
CONTINUOUS
 62
               3
  5
6B4
 10
-17.403763999999999
 20
-240.848007
 30
0.0
  0
VERTEX
  8
0
  6
CONTINUOUS
 62
               3
  5
6B5
 10
-17.123823000000002
 20
-240.72183799999999
 30
0.0
  0
VERTEX
  8
0
  6
CONTINUOUS
 62
               3
  5
6B6
 10
-16.839794000000001
 20
-240.60422700000001
 30
0.0
  0
VERTEX
  8
0
  6
CONTINUOUS
 62
               3
  5
6B7
 10
-16.552047999999999
 20
-240.495633
 30
0.0
  0
VERTEX
  8
0
  6
CONTINUOUS
 62
               3
  5
6B8
 10
-16.260957000000001
 20
-240.39651799999999
 30
0.0
  0
VERTEX
  8
0
  6
CONTINUOUS
 62
               3
  5
6B9
 10
-15.966893000000001
 20
-240.30734100000001
 30
0.0
  0
VERTEX
  8
0
  6
CONTINUOUS
 62
               3
  5
6BA
 10
-15.670227000000001
 20
-240.22856100000001
 30
0.0
  0
VERTEX
  8
0
  6
CONTINUOUS
 62
               3
  5
6BB
 10
-15.37133
 20
-240.16064
 30
0.0
  0
VERTEX
  8
0
  6
CONTINUOUS
 62
               3
  5
6BC
 10
-15.070576000000001
 20
-240.10403600000001
 30
0.0
  0
VERTEX
  8
0
  6
CONTINUOUS
 62
               3
  5
6BD
 10
-14.768333999999999
 20
-240.05921000000001
 30
0.0
  0
VERTEX
  8
0
  6
CONTINUOUS
 62
               3
  5
6BE
 10
-14.464978
 20
-240.026622
 30
0.0
  0
VERTEX
  8
0
  6
CONTINUOUS
 62
               3
  5
6BF
 10
-14.160878
 20
-240.006732
 30
0.0
  0
VERTEX
  8
0
  6
CONTINUOUS
 62
               3
  5
6C0
 10
-13.856406
 20
-240.0
 30
0.0
  0
VERTEX
  8
0
  6
CONTINUOUS
 62
               3
  5
6C1
 10
-13.551935
 20
-240.006732
 30
0.0
  0
VERTEX
  8
0
  6
CONTINUOUS
 62
               3
  5
6C2
 10
-13.247835
 20
-240.026622
 30
0.0
  0
VERTEX
  8
0
  6
CONTINUOUS
 62
               3
  5
6C3
 10
-12.944478999999999
 20
-240.05921000000001
 30
0.0
  0
VERTEX
  8
0
  6
CONTINUOUS
 62
               3
  5
6C4
 10
-12.642237
 20
-240.10403600000001
 30
0.0
  0
VERTEX
  8
0
  6
CONTINUOUS
 62
               3
  5
6C5
 10
-12.341483
 20
-240.16064
 30
0.0
  0
VERTEX
  8
0
  6
CONTINUOUS
 62
               3
  5
6C6
 10
-12.042586
 20
-240.22856100000001
 30
0.0
  0
VERTEX
  8
0
  6
CONTINUOUS
 62
               3
  5
6C7
 10
-11.74592
 20
-240.30734100000001
 30
0.0
  0
VERTEX
  8
0
  6
CONTINUOUS
 62
               3
  5
6C8
 10
-11.451855999999999
 20
-240.39651799999999
 30
0.0
  0
VERTEX
  8
0
  6
CONTINUOUS
 62
               3
  5
6C9
 10
-11.160765
 20
-240.495633
 30
0.0
  0
VERTEX
  8
0
  6
CONTINUOUS
 62
               3
  5
6CA
 10
-10.873018999999999
 20
-240.60422700000001
 30
0.0
  0
VERTEX
  8
0
  6
CONTINUOUS
 62
               3
  5
6CB
 10
-10.588989
 20
-240.72183799999999
 30
0.0
  0
VERTEX
  8
0
  6
CONTINUOUS
 62
               3
  5
6CC
 10
-10.309049
 20
-240.848007
 30
0.0
  0
VERTEX
  8
0
  6
CONTINUOUS
 62
               3
  5
6CD
 10
-10.033568000000001
 20
-240.98227399999999
 30
0.0
  0
VERTEX
  8
0
  6
CONTINUOUS
 62
               3
  5
6CE
 10
-9.7629199999999994
 20
-241.124179
 30
0.0
  0
VERTEX
  8
0
  6
CONTINUOUS
 62
               3
  5
6CF
 10
-9.4974740000000004
 20
-241.27326199999999
 30
0.0
  0
VERTEX
  8
0
  6
CONTINUOUS
 62
               3
  5
6D0
 10
-9.2376039999999993
 20
-241.42906199999999
 30
0.0
  0
SEQEND
  8
0
  6
CONTINUOUS
 62
               3
  5
6D1
  0
POLYLINE
  8
0
  6
CONTINUOUS
 62
               3
  5
2C3
 66
               1
 10
0.0
 20
0.0
 30
0.0
  0
VERTEX
  8
0
  6
CONTINUOUS
 62
               3
  5
6D2
 10
-18.475209
 20
-251.57093800000001
 30
0.0
  0
VERTEX
  8
0
  6
CONTINUOUS
 62
               3
  5
6D3
 10
-18.215339
 20
-251.72673800000001
 30
0.0
  0
VERTEX
  8
0
  6
CONTINUOUS
 62
               3
  5
6D4
 10
-17.949892999999999
 20
-251.875821
 30
0.0
  0
VERTEX
  8
0
  6
CONTINUOUS
 62
               3
  5
6D5
 10
-17.679245000000002
 20
-252.01772600000001
 30
0.0
  0
VERTEX
  8
0
  6
CONTINUOUS
 62
               3
  5
6D6
 10
-17.403763999999999
 20
-252.151993
 30
0.0
  0
VERTEX
  8
0
  6
CONTINUOUS
 62
               3
  5
6D7
 10
-17.123823000000002
 20
-252.27816200000001
 30
0.0
  0
VERTEX
  8
0
  6
CONTINUOUS
 62
               3
  5
6D8
 10
-16.839794000000001
 20
-252.39577299999999
 30
0.0
  0
VERTEX
  8
0
  6
CONTINUOUS
 62
               3
  5
6D9
 10
-16.552047999999999
 20
-252.504367
 30
0.0
  0
VERTEX
  8
0
  6
CONTINUOUS
 62
               3
  5
6DA
 10
-16.260957000000001
 20
-252.60348200000001
 30
0.0
  0
VERTEX
  8
0
  6
CONTINUOUS
 62
               3
  5
6DB
 10
-15.966893000000001
 20
-252.69265899999999
 30
0.0
  0
VERTEX
  8
0
  6
CONTINUOUS
 62
               3
  5
6DC
 10
-15.670227000000001
 20
-252.77143899999999
 30
0.0
  0
VERTEX
  8
0
  6
CONTINUOUS
 62
               3
  5
6DD
 10
-15.37133
 20
-252.83936
 30
0.0
  0
VERTEX
  8
0
  6
CONTINUOUS
 62
               3
  5
6DE
 10
-15.070576000000001
 20
-252.89596399999999
 30
0.0
  0
VERTEX
  8
0
  6
CONTINUOUS
 62
               3
  5
6DF
 10
-14.768333999999999
 20
-252.94078999999999
 30
0.0
  0
VERTEX
  8
0
  6
CONTINUOUS
 62
               3
  5
6E0
 10
-14.464978
 20
-252.973378
 30
0.0
  0
VERTEX
  8
0
  6
CONTINUOUS
 62
               3
  5
6E1
 10
-14.160878
 20
-252.993268
 30
0.0
  0
VERTEX
  8
0
  6
CONTINUOUS
 62
               3
  5
6E2
 10
-13.856406
 20
-253.0
 30
0.0
  0
VERTEX
  8
0
  6
CONTINUOUS
 62
               3
  5
6E3
 10
-13.551935
 20
-252.993268
 30
0.0
  0
VERTEX
  8
0
  6
CONTINUOUS
 62
               3
  5
6E4
 10
-13.247835
 20
-252.973378
 30
0.0
  0
VERTEX
  8
0
  6
CONTINUOUS
 62
               3
  5
6E5
 10
-12.944478999999999
 20
-252.94078999999999
 30
0.0
  0
VERTEX
  8
0
  6
CONTINUOUS
 62
               3
  5
6E6
 10
-12.642237
 20
-252.89596399999999
 30
0.0
  0
VERTEX
  8
0
  6
CONTINUOUS
 62
               3
  5
6E7
 10
-12.341483
 20
-252.83936
 30
0.0
  0
VERTEX
  8
0
  6
CONTINUOUS
 62
               3
  5
6E8
 10
-12.042586
 20
-252.77143899999999
 30
0.0
  0
VERTEX
  8
0
  6
CONTINUOUS
 62
               3
  5
6E9
 10
-11.74592
 20
-252.69265899999999
 30
0.0
  0
VERTEX
  8
0
  6
CONTINUOUS
 62
               3
  5
6EA
 10
-11.451855999999999
 20
-252.60348200000001
 30
0.0
  0
VERTEX
  8
0
  6
CONTINUOUS
 62
               3
  5
6EB
 10
-11.160765
 20
-252.504367
 30
0.0
  0
VERTEX
  8
0
  6
CONTINUOUS
 62
               3
  5
6EC
 10
-10.873018999999999
 20
-252.39577299999999
 30
0.0
  0
VERTEX
  8
0
  6
CONTINUOUS
 62
               3
  5
6ED
 10
-10.588989
 20
-252.27816200000001
 30
0.0
  0
VERTEX
  8
0
  6
CONTINUOUS
 62
               3
  5
6EE
 10
-10.309049
 20
-252.151993
 30
0.0
  0
VERTEX
  8
0
  6
CONTINUOUS
 62
               3
  5
6EF
 10
-10.033568000000001
 20
-252.01772600000001
 30
0.0
  0
VERTEX
  8
0
  6
CONTINUOUS
 62
               3
  5
6F0
 10
-9.7629199999999994
 20
-251.875821
 30
0.0
  0
VERTEX
  8
0
  6
CONTINUOUS
 62
               3
  5
6F1
 10
-9.4974740000000004
 20
-251.72673800000001
 30
0.0
  0
VERTEX
  8
0
  6
CONTINUOUS
 62
               3
  5
6F2
 10
-9.2376039999999993
 20
-251.57093800000001
 30
0.0
  0
SEQEND
  8
0
  6
CONTINUOUS
 62
               3
  5
6F3
  0
POLYLINE
  8
0
  6
CONTINUOUS
 62
               3
  5
2C4
 66
               1
 10
0.0
 20
0.0
 30
0.0
  0
VERTEX
  8
0
  6
CONTINUOUS
 62
               3
  5
6F4
 10
18.475209
 20
-251.57093800000001
 30
0.0
  0
VERTEX
  8
0
  6
CONTINUOUS
 62
               3
  5
6F5
 10
18.215339
 20
-251.72673800000001
 30
0.0
  0
VERTEX
  8
0
  6
CONTINUOUS
 62
               3
  5
6F6
 10
17.949892999999999
 20
-251.875821
 30
0.0
  0
VERTEX
  8
0
  6
CONTINUOUS
 62
               3
  5
6F7
 10
17.679245000000002
 20
-252.01772600000001
 30
0.0
  0
VERTEX
  8
0
  6
CONTINUOUS
 62
               3
  5
6F8
 10
17.403763999999999
 20
-252.151993
 30
0.0
  0
VERTEX
  8
0
  6
CONTINUOUS
 62
               3
  5
6F9
 10
17.123823000000002
 20
-252.27816200000001
 30
0.0
  0
VERTEX
  8
0
  6
CONTINUOUS
 62
               3
  5
6FA
 10
16.839794000000001
 20
-252.39577299999999
 30
0.0
  0
VERTEX
  8
0
  6
CONTINUOUS
 62
               3
  5
6FB
 10
16.552047999999999
 20
-252.504367
 30
0.0
  0
VERTEX
  8
0
  6
CONTINUOUS
 62
               3
  5
6FC
 10
16.260957000000001
 20
-252.60348200000001
 30
0.0
  0
VERTEX
  8
0
  6
CONTINUOUS
 62
               3
  5
6FD
 10
15.966893000000001
 20
-252.69265899999999
 30
0.0
  0
VERTEX
  8
0
  6
CONTINUOUS
 62
               3
  5
6FE
 10
15.670227000000001
 20
-252.77143899999999
 30
0.0
  0
VERTEX
  8
0
  6
CONTINUOUS
 62
               3
  5
6FF
 10
15.37133
 20
-252.83936
 30
0.0
  0
VERTEX
  8
0
  6
CONTINUOUS
 62
               3
  5
700
 10
15.070576000000001
 20
-252.89596399999999
 30
0.0
  0
VERTEX
  8
0
  6
CONTINUOUS
 62
               3
  5
701
 10
14.768333999999999
 20
-252.94078999999999
 30
0.0
  0
VERTEX
  8
0
  6
CONTINUOUS
 62
               3
  5
702
 10
14.464978
 20
-252.973378
 30
0.0
  0
VERTEX
  8
0
  6
CONTINUOUS
 62
               3
  5
703
 10
14.160878
 20
-252.993268
 30
0.0
  0
VERTEX
  8
0
  6
CONTINUOUS
 62
               3
  5
704
 10
13.856406
 20
-253.0
 30
0.0
  0
VERTEX
  8
0
  6
CONTINUOUS
 62
               3
  5
705
 10
13.551935
 20
-252.993268
 30
0.0
  0
VERTEX
  8
0
  6
CONTINUOUS
 62
               3
  5
706
 10
13.247835
 20
-252.973378
 30
0.0
  0
VERTEX
  8
0
  6
CONTINUOUS
 62
               3
  5
707
 10
12.944478999999999
 20
-252.94078999999999
 30
0.0
  0
VERTEX
  8
0
  6
CONTINUOUS
 62
               3
  5
708
 10
12.642237
 20
-252.89596399999999
 30
0.0
  0
VERTEX
  8
0
  6
CONTINUOUS
 62
               3
  5
709
 10
12.341483
 20
-252.83936
 30
0.0
  0
VERTEX
  8
0
  6
CONTINUOUS
 62
               3
  5
70A
 10
12.042586
 20
-252.77143899999999
 30
0.0
  0
VERTEX
  8
0
  6
CONTINUOUS
 62
               3
  5
70B
 10
11.74592
 20
-252.69265899999999
 30
0.0
  0
VERTEX
  8
0
  6
CONTINUOUS
 62
               3
  5
70C
 10
11.451855999999999
 20
-252.60348200000001
 30
0.0
  0
VERTEX
  8
0
  6
CONTINUOUS
 62
               3
  5
70D
 10
11.160765
 20
-252.504367
 30
0.0
  0
VERTEX
  8
0
  6
CONTINUOUS
 62
               3
  5
70E
 10
10.873018999999999
 20
-252.39577299999999
 30
0.0
  0
VERTEX
  8
0
  6
CONTINUOUS
 62
               3
  5
70F
 10
10.588989
 20
-252.27816200000001
 30
0.0
  0
VERTEX
  8
0
  6
CONTINUOUS
 62
               3
  5
710
 10
10.309049
 20
-252.151993
 30
0.0
  0
VERTEX
  8
0
  6
CONTINUOUS
 62
               3
  5
711
 10
10.033568000000001
 20
-252.01772600000001
 30
0.0
  0
VERTEX
  8
0
  6
CONTINUOUS
 62
               3
  5
712
 10
9.7629199999999994
 20
-251.875821
 30
0.0
  0
VERTEX
  8
0
  6
CONTINUOUS
 62
               3
  5
713
 10
9.4974740000000004
 20
-251.72673800000001
 30
0.0
  0
VERTEX
  8
0
  6
CONTINUOUS
 62
               3
  5
714
 10
9.2376039999999993
 20
-251.57093800000001
 30
0.0
  0
SEQEND
  8
0
  6
CONTINUOUS
 62
               3
  5
715
  0
POLYLINE
  8
0
  6
CONTINUOUS
 62
               3
  5
2C5
 66
               1
 10
0.0
 20
0.0
 30
0.0
  0
VERTEX
  8
0
  6
CONTINUOUS
 62
               3
  5
716
 10
9.2376039999999993
 20
-251.57093800000001
 30
0.0
  0
VERTEX
  8
0
  6
CONTINUOUS
 62
               3
  5
717
 10
8.6777239999999995
 20
-251.73875699999999
 30
0.0
  0
VERTEX
  8
0
  6
CONTINUOUS
 62
               3
  5
718
 10
8.1144619999999996
 20
-251.896761
 30
0.0
  0
VERTEX
  8
0
  6
CONTINUOUS
 62
               3
  5
719
 10
7.5480450000000001
 20
-252.04480899999999
 30
0.0
  0
VERTEX
  8
0
  6
CONTINUOUS
 62
               3
  5
71A
 10
6.9786970000000004
 20
-252.182761
 30
0.0
  0
VERTEX
  8
0
  6
CONTINUOUS
 62
               3
  5
71B
 10
6.406644
 20
-252.31048000000001
 30
0.0
  0
VERTEX
  8
0
  6
CONTINUOUS
 62
               3
  5
71C
 10
5.8321110000000003
 20
-252.42782399999999
 30
0.0
  0
VERTEX
  8
0
  6
CONTINUOUS
 62
               3
  5
71D
 10
5.255325
 20
-252.53465399999999
 30
0.0
  0
VERTEX
  8
0
  6
CONTINUOUS
 62
               3
  5
71E
 10
4.6765090000000002
 20
-252.630831
 30
0.0
  0
VERTEX
  8
0
  6
CONTINUOUS
 62
               3
  5
71F
 10
4.0958899999999998
 20
-252.716216
 30
0.0
  0
VERTEX
  8
0
  6
CONTINUOUS
 62
               3
  5
720
 10
3.5136940000000001
 20
-252.79066900000001
 30
0.0
  0
VERTEX
  8
0
  6
CONTINUOUS
 62
               3
  5
721
 10
2.9301439999999999
 20
-252.85405
 30
0.0
  0
VERTEX
  8
0
  6
CONTINUOUS
 62
               3
  5
722
 10
2.3454679999999999
 20
-252.90621999999999
 30
0.0
  0
VERTEX
  8
0
  6
CONTINUOUS
 62
               3
  5
723
 10
1.75989
 20
-252.94703899999999
 30
0.0
  0
VERTEX
  8
0
  6
CONTINUOUS
 62
               3
  5
724
 10
1.1736359999999999
 20
-252.97636900000001
 30
0.0
  0
VERTEX
  8
0
  6
CONTINUOUS
 62
               3
  5
725
 10
0.586931
 20
-252.994069
 30
0.0
  0
VERTEX
  8
0
  6
CONTINUOUS
 62
               3
  5
726
 10
0.0
 20
-253.0
 30
0.0
  0
VERTEX
  8
0
  6
CONTINUOUS
 62
               3
  5
727
 10
-0.586931
 20
-252.994069
 30
0.0
  0
VERTEX
  8
0
  6
CONTINUOUS
 62
               3
  5
728
 10
-1.1736359999999999
 20
-252.97636900000001
 30
0.0
  0
VERTEX
  8
0
  6
CONTINUOUS
 62
               3
  5
729
 10
-1.75989
 20
-252.94703899999999
 30
0.0
  0
VERTEX
  8
0
  6
CONTINUOUS
 62
               3
  5
72A
 10
-2.3454679999999999
 20
-252.90621999999999
 30
0.0
  0
VERTEX
  8
0
  6
CONTINUOUS
 62
               3
  5
72B
 10
-2.9301439999999999
 20
-252.85405
 30
0.0
  0
VERTEX
  8
0
  6
CONTINUOUS
 62
               3
  5
72C
 10
-3.5136940000000001
 20
-252.79066900000001
 30
0.0
  0
VERTEX
  8
0
  6
CONTINUOUS
 62
               3
  5
72D
 10
-4.0958899999999998
 20
-252.716216
 30
0.0
  0
VERTEX
  8
0
  6
CONTINUOUS
 62
               3
  5
72E
 10
-4.6765090000000002
 20
-252.630831
 30
0.0
  0
VERTEX
  8
0
  6
CONTINUOUS
 62
               3
  5
72F
 10
-5.255325
 20
-252.53465399999999
 30
0.0
  0
VERTEX
  8
0
  6
CONTINUOUS
 62
               3
  5
730
 10
-5.8321110000000003
 20
-252.42782399999999
 30
0.0
  0
VERTEX
  8
0
  6
CONTINUOUS
 62
               3
  5
731
 10
-6.406644
 20
-252.31048000000001
 30
0.0
  0
VERTEX
  8
0
  6
CONTINUOUS
 62
               3
  5
732
 10
-6.9786970000000004
 20
-252.182761
 30
0.0
  0
VERTEX
  8
0
  6
CONTINUOUS
 62
               3
  5
733
 10
-7.5480450000000001
 20
-252.04480899999999
 30
0.0
  0
VERTEX
  8
0
  6
CONTINUOUS
 62
               3
  5
734
 10
-8.1144619999999996
 20
-251.896761
 30
0.0
  0
VERTEX
  8
0
  6
CONTINUOUS
 62
               3
  5
735
 10
-8.6777239999999995
 20
-251.73875699999999
 30
0.0
  0
VERTEX
  8
0
  6
CONTINUOUS
 62
               3
  5
736
 10
-9.2376039999999993
 20
-251.57093800000001
 30
0.0
  0
SEQEND
  8
0
  6
CONTINUOUS
 62
               3
  5
737
  0
POLYLINE
  8
0
  6
CONTINUOUS
 62
               3
  5
2C6
 66
               1
 10
0.0
 20
0.0
 30
0.0
  0
VERTEX
  8
0
  6
CONTINUOUS
 62
               3
  5
738
 10
9.2376039999999993
 20
-241.42906199999999
 30
0.0
  0
VERTEX
  8
0
  6
CONTINUOUS
 62
               3
  5
739
 10
8.6777239999999995
 20
-241.26124300000001
 30
0.0
  0
VERTEX
  8
0
  6
CONTINUOUS
 62
               3
  5
73A
 10
8.1144619999999996
 20
-241.103239
 30
0.0
  0
VERTEX
  8
0
  6
CONTINUOUS
 62
               3
  5
73B
 10
7.5480450000000001
 20
-240.95519100000001
 30
0.0
  0
VERTEX
  8
0
  6
CONTINUOUS
 62
               3
  5
73C
 10
6.9786970000000004
 20
-240.817239
 30
0.0
  0
VERTEX
  8
0
  6
CONTINUOUS
 62
               3
  5
73D
 10
6.406644
 20
-240.68951999999999
 30
0.0
  0
VERTEX
  8
0
  6
CONTINUOUS
 62
               3
  5
73E
 10
5.8321110000000003
 20
-240.57217600000001
 30
0.0
  0
VERTEX
  8
0
  6
CONTINUOUS
 62
               3
  5
73F
 10
5.255325
 20
-240.46534600000001
 30
0.0
  0
VERTEX
  8
0
  6
CONTINUOUS
 62
               3
  5
740
 10
4.6765090000000002
 20
-240.369169
 30
0.0
  0
VERTEX
  8
0
  6
CONTINUOUS
 62
               3
  5
741
 10
4.0958899999999998
 20
-240.283784
 30
0.0
  0
VERTEX
  8
0
  6
CONTINUOUS
 62
               3
  5
742
 10
3.5136940000000001
 20
-240.20933099999999
 30
0.0
  0
VERTEX
  8
0
  6
CONTINUOUS
 62
               3
  5
743
 10
2.9301439999999999
 20
-240.14595
 30
0.0
  0
VERTEX
  8
0
  6
CONTINUOUS
 62
               3
  5
744
 10
2.3454679999999999
 20
-240.09378000000001
 30
0.0
  0
VERTEX
  8
0
  6
CONTINUOUS
 62
               3
  5
745
 10
1.75989
 20
-240.05296100000001
 30
0.0
  0
VERTEX
  8
0
  6
CONTINUOUS
 62
               3
  5
746
 10
1.1736359999999999
 20
-240.02363099999999
 30
0.0
  0
VERTEX
  8
0
  6
CONTINUOUS
 62
               3
  5
747
 10
0.586931
 20
-240.005931
 30
0.0
  0
VERTEX
  8
0
  6
CONTINUOUS
 62
               3
  5
748
 10
0.0
 20
-240.0
 30
0.0
  0
VERTEX
  8
0
  6
CONTINUOUS
 62
               3
  5
749
 10
-0.586931
 20
-240.005931
 30
0.0
  0
VERTEX
  8
0
  6
CONTINUOUS
 62
               3
  5
74A
 10
-1.1736359999999999
 20
-240.02363099999999
 30
0.0
  0
VERTEX
  8
0
  6
CONTINUOUS
 62
               3
  5
74B
 10
-1.75989
 20
-240.05296100000001
 30
0.0
  0
VERTEX
  8
0
  6
CONTINUOUS
 62
               3
  5
74C
 10
-2.3454679999999999
 20
-240.09378000000001
 30
0.0
  0
VERTEX
  8
0
  6
CONTINUOUS
 62
               3
  5
74D
 10
-2.9301439999999999
 20
-240.14595
 30
0.0
  0
VERTEX
  8
0
  6
CONTINUOUS
 62
               3
  5
74E
 10
-3.5136940000000001
 20
-240.20933099999999
 30
0.0
  0
VERTEX
  8
0
  6
CONTINUOUS
 62
               3
  5
74F
 10
-4.0958899999999998
 20
-240.283784
 30
0.0
  0
VERTEX
  8
0
  6
CONTINUOUS
 62
               3
  5
750
 10
-4.6765090000000002
 20
-240.369169
 30
0.0
  0
VERTEX
  8
0
  6
CONTINUOUS
 62
               3
  5
751
 10
-5.255325
 20
-240.46534600000001
 30
0.0
  0
VERTEX
  8
0
  6
CONTINUOUS
 62
               3
  5
752
 10
-5.8321110000000003
 20
-240.57217600000001
 30
0.0
  0
VERTEX
  8
0
  6
CONTINUOUS
 62
               3
  5
753
 10
-6.406644
 20
-240.68951999999999
 30
0.0
  0
VERTEX
  8
0
  6
CONTINUOUS
 62
               3
  5
754
 10
-6.9786970000000004
 20
-240.817239
 30
0.0
  0
VERTEX
  8
0
  6
CONTINUOUS
 62
               3
  5
755
 10
-7.5480450000000001
 20
-240.95519100000001
 30
0.0
  0
VERTEX
  8
0
  6
CONTINUOUS
 62
               3
  5
756
 10
-8.1144619999999996
 20
-241.103239
 30
0.0
  0
VERTEX
  8
0
  6
CONTINUOUS
 62
               3
  5
757
 10
-8.6777239999999995
 20
-241.26124300000001
 30
0.0
  0
VERTEX
  8
0
  6
CONTINUOUS
 62
               3
  5
758
 10
-9.2376039999999993
 20
-241.42906199999999
 30
0.0
  0
SEQEND
  8
0
  6
CONTINUOUS
 62
               3
  5
759
  0
POLYLINE
  8
0
  6
CONTINUOUS
 62
               3
  5
2C7
 66
               1
 10
0.0
 20
0.0
 30
0.0
  0
VERTEX
  8
0
  6
CONTINUOUS
 62
               3
  5
75A
 10
18.475209
 20
-241.42906199999999
 30
0.0
  0
VERTEX
  8
0
  6
CONTINUOUS
 62
               3
  5
75B
 10
18.215339
 20
-241.27326199999999
 30
0.0
  0
VERTEX
  8
0
  6
CONTINUOUS
 62
               3
  5
75C
 10
17.949892999999999
 20
-241.124179
 30
0.0
  0
VERTEX
  8
0
  6
CONTINUOUS
 62
               3
  5
75D
 10
17.679245000000002
 20
-240.98227399999999
 30
0.0
  0
VERTEX
  8
0
  6
CONTINUOUS
 62
               3
  5
75E
 10
17.403763999999999
 20
-240.848007
 30
0.0
  0
VERTEX
  8
0
  6
CONTINUOUS
 62
               3
  5
75F
 10
17.123823000000002
 20
-240.72183799999999
 30
0.0
  0
VERTEX
  8
0
  6
CONTINUOUS
 62
               3
  5
760
 10
16.839794000000001
 20
-240.60422700000001
 30
0.0
  0
VERTEX
  8
0
  6
CONTINUOUS
 62
               3
  5
761
 10
16.552047999999999
 20
-240.495633
 30
0.0
  0
VERTEX
  8
0
  6
CONTINUOUS
 62
               3
  5
762
 10
16.260957000000001
 20
-240.39651799999999
 30
0.0
  0
VERTEX
  8
0
  6
CONTINUOUS
 62
               3
  5
763
 10
15.966893000000001
 20
-240.30734100000001
 30
0.0
  0
VERTEX
  8
0
  6
CONTINUOUS
 62
               3
  5
764
 10
15.670227000000001
 20
-240.22856100000001
 30
0.0
  0
VERTEX
  8
0
  6
CONTINUOUS
 62
               3
  5
765
 10
15.37133
 20
-240.16064
 30
0.0
  0
VERTEX
  8
0
  6
CONTINUOUS
 62
               3
  5
766
 10
15.070576000000001
 20
-240.10403600000001
 30
0.0
  0
VERTEX
  8
0
  6
CONTINUOUS
 62
               3
  5
767
 10
14.768333999999999
 20
-240.05921000000001
 30
0.0
  0
VERTEX
  8
0
  6
CONTINUOUS
 62
               3
  5
768
 10
14.464978
 20
-240.026622
 30
0.0
  0
VERTEX
  8
0
  6
CONTINUOUS
 62
               3
  5
769
 10
14.160878
 20
-240.006732
 30
0.0
  0
VERTEX
  8
0
  6
CONTINUOUS
 62
               3
  5
76A
 10
13.856406
 20
-240.0
 30
0.0
  0
VERTEX
  8
0
  6
CONTINUOUS
 62
               3
  5
76B
 10
13.551935
 20
-240.006732
 30
0.0
  0
VERTEX
  8
0
  6
CONTINUOUS
 62
               3
  5
76C
 10
13.247835
 20
-240.026622
 30
0.0
  0
VERTEX
  8
0
  6
CONTINUOUS
 62
               3
  5
76D
 10
12.944478999999999
 20
-240.05921000000001
 30
0.0
  0
VERTEX
  8
0
  6
CONTINUOUS
 62
               3
  5
76E
 10
12.642237
 20
-240.10403600000001
 30
0.0
  0
VERTEX
  8
0
  6
CONTINUOUS
 62
               3
  5
76F
 10
12.341483
 20
-240.16064
 30
0.0
  0
VERTEX
  8
0
  6
CONTINUOUS
 62
               3
  5
770
 10
12.042586
 20
-240.22856100000001
 30
0.0
  0
VERTEX
  8
0
  6
CONTINUOUS
 62
               3
  5
771
 10
11.74592
 20
-240.30734100000001
 30
0.0
  0
VERTEX
  8
0
  6
CONTINUOUS
 62
               3
  5
772
 10
11.451855999999999
 20
-240.39651799999999
 30
0.0
  0
VERTEX
  8
0
  6
CONTINUOUS
 62
               3
  5
773
 10
11.160765
 20
-240.495633
 30
0.0
  0
VERTEX
  8
0
  6
CONTINUOUS
 62
               3
  5
774
 10
10.873018999999999
 20
-240.60422700000001
 30
0.0
  0
VERTEX
  8
0
  6
CONTINUOUS
 62
               3
  5
775
 10
10.588989
 20
-240.72183799999999
 30
0.0
  0
VERTEX
  8
0
  6
CONTINUOUS
 62
               3
  5
776
 10
10.309049
 20
-240.848007
 30
0.0
  0
VERTEX
  8
0
  6
CONTINUOUS
 62
               3
  5
777
 10
10.033568000000001
 20
-240.98227399999999
 30
0.0
  0
VERTEX
  8
0
  6
CONTINUOUS
 62
               3
  5
778
 10
9.7629199999999994
 20
-241.124179
 30
0.0
  0
VERTEX
  8
0
  6
CONTINUOUS
 62
               3
  5
779
 10
9.4974740000000004
 20
-241.27326199999999
 30
0.0
  0
VERTEX
  8
0
  6
CONTINUOUS
 62
               3
  5
77A
 10
9.2376039999999993
 20
-241.42906199999999
 30
0.0
  0
SEQEND
  8
0
  6
CONTINUOUS
 62
               3
  5
77B
  0
ARC
  8
0
  6
CONTINUOUS
 62
               3
  5
2C8
 10
-9.0
 20
-287.0
 30
0.0
 40
1.0
 50
180.0
 51
270.0
  0
ARC
  8
0
  6
CONTINUOUS
 62
               3
  5
2C9
 10
9.0
 20
-287.0
 30
0.0
 40
1.0
 50
270.0
 51
0.0
  0
LINE
  8
0
  6
CONTINUOUS
 62
               3
  5
2CA
 10
18.5
 20
-265.0
 30
0.0
 11
-18.5
 21
-265.0
 31
0.0
  0
LINE
  8
0
  6
CONTINUOUS
 62
               3
  5
2CB
 10
-9.2376039999999993
 20
-266.42906199999999
 30
0.0
 11
-9.2376039999999993
 21
-276.57093800000001
 31
0.0
  0
LINE
  8
0
  6
CONTINUOUS
 62
               3
  5
2CC
 10
-18.5
 20
-262.0
 30
0.0
 11
-18.5
 21
-265.0
 31
0.0
  0
LINE
  8
0
  6
CONTINUOUS
 62
               3
  5
2CD
 10
-18.5
 20
-262.0
 30
0.0
 11
52.0
 21
-262.0
 31
0.0
  0
LINE
  8
0
  6
CONTINUOUS
 62
               3
  5
2CE
 10
18.475209
 20
-266.42906199999999
 30
0.0
 11
18.475209
 21
-276.57093800000001
 31
0.0
  0
LINE
  8
0
  6
CONTINUOUS
 62
               3
  5
2CF
 10
18.475209
 20
-276.57093800000001
 30
0.0
 11
16.0
 21
-278.0
 31
0.0
  0
LINE
  8
0
  6
CONTINUOUS
 62
               3
  5
2D0
 10
16.0
 20
-278.0
 30
0.0
 11
-16.0
 21
-278.0
 31
0.0
  0
LINE
  8
0
  6
CONTINUOUS
 62
               3
  5
2D1
 10
18.5
 20
-262.0
 30
0.0
 11
18.5
 21
-265.0
 31
0.0
  0
LINE
  8
0
  6
CONTINUOUS
 62
               3
  5
2D2
 10
9.2376039999999993
 20
-266.42906199999999
 30
0.0
 11
9.2376039999999993
 21
-276.57093800000001
 31
0.0
  0
LINE
  8
0
  6
CONTINUOUS
 62
               3
  5
2D3
 10
18.475209
 20
-266.42906199999999
 30
0.0
 11
16.0
 21
-265.0
 31
0.0
  0
LINE
  8
0
  6
CONTINUOUS
 62
               3
  5
2D4
 10
-18.475209
 20
-266.42906199999999
 30
0.0
 11
-16.0
 21
-265.0
 31
0.0
  0
LINE
  8
0
  6
CONTINUOUS
 62
               3
  5
2D5
 10
-18.475209
 20
-276.57093800000001
 30
0.0
 11
-16.0
 21
-278.0
 31
0.0
  0
LINE
  8
0
  6
CONTINUOUS
 62
               3
  5
2D6
 10
-18.475209
 20
-266.42906199999999
 30
0.0
 11
-18.475209
 21
-276.57093800000001
 31
0.0
  0
LINE
  8
0
  6
CONTINUOUS
 62
               3
  5
2D7
 10
-18.5
 20
-258.0
 30
0.0
 11
-18.5
 21
-253.0
 31
0.0
  0
LINE
  8
0
  6
CONTINUOUS
 62
               3
  5
2D8
 10
18.5
 20
-258.0
 30
0.0
 11
18.5
 21
-253.0
 31
0.0
  0
LINE
  8
0
  6
CONTINUOUS
 62
               3
  5
2D9
 10
-18.475209
 20
-251.57093800000001
 30
0.0
 11
-18.475209
 21
-241.42906199999999
 31
0.0
  0
LINE
  8
0
  6
CONTINUOUS
 62
               3
  5
2DA
 10
-18.475209
 20
-241.42906199999999
 30
0.0
 11
-16.0
 21
-240.0
 31
0.0
  0
LINE
  8
0
  6
CONTINUOUS
 62
               3
  5
2DB
 10
-18.475209
 20
-251.57093800000001
 30
0.0
 11
-16.0
 21
-253.0
 31
0.0
  0
LINE
  8
0
  6
CONTINUOUS
 62
               3
  5
2DC
 10
18.475209
 20
-251.57093800000001
 30
0.0
 11
16.0
 21
-253.0
 31
0.0
  0
LINE
  8
0
  6
CONTINUOUS
 62
               3
  5
2DD
 10
-9.2376039999999993
 20
-251.57093800000001
 30
0.0
 11
-9.2376039999999993
 21
-241.42906199999999
 31
0.0
  0
LINE
  8
0
  6
CONTINUOUS
 62
               3
  5
2DE
 10
18.475209
 20
-241.42906199999999
 30
0.0
 11
16.0
 21
-240.0
 31
0.0
  0
LINE
  8
0
  6
CONTINUOUS
 62
               3
  5
2DF
 10
18.475209
 20
-251.57093800000001
 30
0.0
 11
18.475209
 21
-241.42906199999999
 31
0.0
  0
LINE
  8
0
  6
CONTINUOUS
 62
               3
  5
2E0
 10
9.2376039999999993
 20
-251.57093800000001
 30
0.0
 11
9.2376039999999993
 21
-241.42906199999999
 31
0.0
  0
LINE
  8
0
  6
CONTINUOUS
 62
               3
  5
2E1
 10
10.0
 20
-284.0
 30
0.0
 11
10.0
 21
-287.0
 31
0.0
  0
LINE
  8
0
  6
CONTINUOUS
 62
               3
  5
2E2
 10
-10.0
 20
-284.0
 30
0.0
 11
-10.0
 21
-287.0
 31
0.0
  0
LINE
  8
0
  6
CONTINUOUS
 62
               3
  5
2E3
 10
9.0
 20
-288.0
 30
0.0
 11
-9.0
 21
-288.0
 31
0.0
  0
LINE
  8
0
  6
CONTINUOUS
 62
               3
  5
2E4
 10
9.5
 20
-284.0
 30
0.0
 11
9.5
 21
-278.0
 31
0.0
  0
LINE
  8
0
  6
CONTINUOUS
 62
               3
  5
2E5
 10
-9.5
 20
-284.0
 30
0.0
 11
-9.5
 21
-278.0
 31
0.0
  0
LINE
  8
0
  6
CONTINUOUS
 62
               3
  5
2E6
 10
11.0
 20
-282.5
 30
0.0
 11
-11.0
 21
-282.5
 31
0.0
  0
LINE
  8
0
  6
CONTINUOUS
 62
               3
  5
2E7
 10
9.5
 20
-284.0
 30
0.0
 11
11.0
 21
-282.5
 31
0.0
  0
LINE
  8
0
  6
CONTINUOUS
 62
               3
  5
2E8
 10
-9.5
 20
-284.0
 30
0.0
 11
-11.0
 21
-282.5
 31
0.0
  0
LINE
  8
0
  6
CONTINUOUS
 62
               3
  5
2E9
 10
11.0
 20
-282.5
 30
0.0
 11
11.0
 21
-278.0
 31
0.0
  0
LINE
  8
0
  6
CONTINUOUS
 62
               3
  5
2EA
 10
-11.0
 20
-282.5
 30
0.0
 11
-11.0
 21
-278.0
 31
0.0
  0
LINE
  8
0
  6
CONTINUOUS
 62
               3
  5
2EB
 10
10.0
 20
-284.0
 30
0.0
 11
-10.0
 21
-284.0
 31
0.0
  0
LINE
  8
0
  6
CONTINUOUS
 62
               3
  5
2EC
 10
16.0
 20
-240.0
 30
0.0
 11
-16.0
 21
-240.0
 31
0.0
  0
LINE
  8
0
  6
CONTINUOUS
 62
               3
  5
2ED
 10
-16.100000000000001
 20
-258.0
 30
0.0
 11
-16.100000000000001
 21
-262.0
 31
0.0
  0
LINE
  8
0
  6
CONTINUOUS
 62
               3
  5
2EE
 10
18.5
 20
-256.0
 30
0.0
 11
-18.5
 21
-256.0
 31
0.0
  0
LINE
  8
0
  6
CONTINUOUS
 62
               3
  5
2EF
 10
18.5
 20
-253.0
 30
0.0
 11
-18.5
 21
-253.0
 31
0.0
  0
ENDBLK
  8
0
  5
2F0
  0
BLOCK
  8
0
  5
2F1
  2
MS_13
 70
               0
 10
0.0
 20
0.0
 30
0.0
  3
MS_13
  0
LINE
  8
0
  6
CONTINUOUS
 62
               3
  5
2F2
 10
29.5
 20
0.0
 30
0.0
 11
-29.5
 21
0.0
 31
0.0
  0
LINE
  8
0
  6
CONTINUOUS
 62
               3
  5
2F3
 10
28.627105
 20
-16.5
 30
0.0
 11
-28.618528000000001
 21
-16.5
 31
0.0
  0
LINE
  8
0
  6
CONTINUOUS
 62
               3
  5
2F4
 10
-15.5
 20
-36.5
 30
0.0
 11
15.5
 21
-36.5
 31
0.0
  0
LINE
  8
0
  6
CONTINUOUS
 62
               3
  5
2F5
 10
-29.875622
 20
-7.6170650000000002
 30
0.0
 11
-30.0
 21
-0.491422
 31
0.0
  0
ARC
  8
0
  6
CONTINUOUS
 62
               3
  5
2F6
 10
-26.658771000000002
 20
-26.5
 30
0.0
 40
10.0
 50
1.0
 51
90.0
  0
ARC
  8
0
  6
CONTINUOUS
 62
               3
  5
2F7
 10
20.062353999999999
 20
-5.1273799999999996
 30
0.0
 40
50.0
 50
182.85415
 51
193.147131
  0
ARC
  8
0
  6
CONTINUOUS
 62
               3
  5
2F8
 10
-15.5
 20
-35.5
 30
0.0
 40
1.0
 50
180.0
 51
270.0
  0
LINE
  8
0
  6
CONTINUOUS
 62
               3
  5
2F9
 10
-16.499848
 20
-35.517451999999999
 30
0.0
 11
-16.660294
 21
-26.325475999999998
 31
0.0
  0
ARC
  8
0
  6
CONTINUOUS
 62
               3
  5
2FA
 10
-20.062355
 20
-5.1273799999999996
 30
0.0
 40
50.0
 50
346.852869
 51
357.14585
  0
ARC
  8
0
  6
CONTINUOUS
 62
               3
  5
2FB
 10
26.658771000000002
 20
-26.5
 30
0.0
 40
10.0
 50
90.0
 51
179.0
  0
ARC
  8
0
  6
CONTINUOUS
 62
               3
  5
2FC
 10
15.5
 20
-35.5
 30
0.0
 40
1.0
 50
270.0
 51
0.0
  0
LINE
  8
0
  6
CONTINUOUS
 62
               3
  5
2FD
 10
16.499846999999999
 20
-35.517451999999999
 30
0.0
 11
16.660294
 21
-26.325475999999998
 31
0.0
  0
LINE
  8
0
  6
CONTINUOUS
 62
               3
  5
2FE
 10
-29.508579000000001
 20
0.0
 30
0.0
 11
-30.000001000000001
 21
-0.491422
 31
0.0
  0
LINE
  8
0
  6
CONTINUOUS
 62
               3
  5
2FF
 10
29.508578
 20
0.0
 30
0.0
 11
30.0
 21
-0.491422
 31
0.0
  0
LINE
  8
0
  6
CONTINUOUS
 62
               3
  5
300
 10
29.875620999999999
 20
-7.6170650000000002
 30
0.0
 11
30.0
 21
-0.491422
 31
0.0
  0
ENDBLK
  8
0
  5
301
  0
BLOCK
  8
0
  5
302
  2
MS_14
 70
               0
 10
0.0
 20
0.0
 30
0.0
  3
MS_14
  0
LINE
  8
0
  6
CONTINUOUS
 62
               3
  5
303
 10
-30.0
 20
-0.5
 30
0.0
 11
-30.0
 21
-39.5
 31
0.0
  0
LINE
  8
0
  6
CONTINUOUS
 62
               3
  5
304
 10
30.0
 20
-0.5
 30
0.0
 11
30.0
 21
-39.5
 31
0.0
  0
LINE
  8
0
  6
CONTINUOUS
 62
               3
  5
305
 10
9.800001
 20
-43.199809999999999
 30
0.0
 11
9.7650900000000007
 21
-45.199809999999999
 31
0.0
  0
LINE
  8
0
  6
CONTINUOUS
 62
               3
  5
306
 10
-3.5423979999999999
 20
-48.499809999999997
 30
0.0
 11
3.5423990000000001
 21
-48.499809999999997
 31
0.0
  0
LINE
  8
0
  6
CONTINUOUS
 62
               3
  5
307
 10
-0.160692
 20
-43.199809999999999
 30
0.0
 11
-0.147463
 21
-45.199809999999999
 31
0.0
  0
LINE
  8
0
  6
CONTINUOUS
 62
               3
  5
308
 10
0.160693
 20
-43.199809999999999
 30
0.0
 11
0.147464
 21
-45.199809999999999
 31
0.0
  0
LINE
  8
0
  6
CONTINUOUS
 62
               3
  5
309
 10
-9.7999989999999997
 20
-43.199809999999999
 30
0.0
 11
9.800001
 21
-43.199809999999999
 31
0.0
  0
LINE
  8
0
  6
CONTINUOUS
 62
               3
  5
30A
 10
7.6940629999999999
 20
-47.899810000000002
 30
0.0
 11
7.7411919999999999
 21
-45.199809999999999
 31
0.0
  0
LINE
  8
0
  6
CONTINUOUS
 62
               3
  5
30B
 10
5.7883199999999997
 20
-47.899810000000002
 30
0.0
 11
5.7411919999999999
 21
-45.199809999999999
 31
0.0
  0
LINE
  8
0
  6
CONTINUOUS
 62
               3
  5
30C
 10
5.7883199999999997
 20
-47.899810000000002
 30
0.0
 11
7.6940629999999999
 21
-47.899810000000002
 31
0.0
  0
LINE
  8
0
  6
CONTINUOUS
 62
               3
  5
30D
 10
9.3235449999999993
 20
-43.199809999999999
 30
0.0
 11
9.2866350000000004
 21
-45.199809999999999
 31
0.0
  0
LINE
  8
0
  6
CONTINUOUS
 62
               3
  5
30E
 10
8.6577380000000002
 20
-43.199809999999999
 30
0.0
 11
8.6212759999999999
 21
-45.199809999999999
 31
0.0
  0
LINE
  8
0
  6
CONTINUOUS
 62
               3
  5
30F
 10
2.04765
 20
-43.199809999999999
 30
0.0
 11
2.0286369999999998
 21
-45.199809999999999
 31
0.0
  0
LINE
  8
0
  6
CONTINUOUS
 62
               3
  5
310
 10
3.6807319999999999
 20
-43.199809999999999
 30
0.0
 11
3.6565129999999999
 21
-45.199809999999999
 31
0.0
  0
LINE
  8
0
  6
CONTINUOUS
 62
               3
  5
311
 10
5.2019770000000003
 20
-43.199809999999999
 30
0.0
 11
5.1732880000000003
 21
-45.199809999999999
 31
0.0
  0
LINE
  8
0
  6
CONTINUOUS
 62
               3
  5
312
 10
6.5651630000000001
 20
-43.199809999999999
 30
0.0
 11
6.5328749999999998
 21
-45.199809999999999
 31
0.0
  0
LINE
  8
0
  6
CONTINUOUS
 62
               3
  5
313
 10
7.7288690000000004
 20
-43.199809999999999
 30
0.0
 11
7.6939640000000002
 21
-45.199809999999999
 31
0.0
  0
LINE
  8
0
  6
CONTINUOUS
 62
               3
  5
314
 10
3.6000009999999998
 20
-45.199809999999999
 30
0.0
 11
3.5423990000000001
 21
-48.499809999999997
 31
0.0
  0
LINE
  8
0
  6
CONTINUOUS
 62
               3
  5
315
 10
-7.6940619999999997
 20
-47.899810000000002
 30
0.0
 11
-7.7411909999999997
 21
-45.199809999999999
 31
0.0
  0
LINE
  8
0
  6
CONTINUOUS
 62
               3
  5
316
 10
-5.7883190000000004
 20
-47.899810000000002
 30
0.0
 11
-5.7411909999999997
 21
-45.199809999999999
 31
0.0
  0
LINE
  8
0
  6
CONTINUOUS
 62
               3
  5
317
 10
-5.7883190000000004
 20
-47.899810000000002
 30
0.0
 11
-7.6940619999999997
 21
-47.899810000000002
 31
0.0
  0
LINE
  8
0
  6
CONTINUOUS
 62
               3
  5
318
 10
-5.2019760000000002
 20
-43.199809999999999
 30
0.0
 11
-5.1732870000000002
 21
-45.199809999999999
 31
0.0
  0
LINE
  8
0
  6
CONTINUOUS
 62
               3
  5
319
 10
-6.5651619999999999
 20
-43.199809999999999
 30
0.0
 11
-6.5328739999999996
 21
-45.199809999999999
 31
0.0
  0
LINE
  8
0
  6
CONTINUOUS
 62
               3
  5
31A
 10
-7.7288680000000003
 20
-43.199809999999999
 30
0.0
 11
-7.6939630000000001
 21
-45.199809999999999
 31
0.0
  0
LINE
  8
0
  6
CONTINUOUS
 62
               3
  5
31B
 10
-8.6577359999999999
 20
-43.199809999999999
 30
0.0
 11
-8.6212750000000007
 21
-45.199809999999999
 31
0.0
  0
LINE
  8
0
  6
CONTINUOUS
 62
               3
  5
31C
 10
-9.3235440000000001
 20
-43.199809999999999
 30
0.0
 11
-9.2866339999999994
 21
-45.199809999999999
 31
0.0
  0
LINE
  8
0
  6
CONTINUOUS
 62
               3
  5
31D
 10
-9.7999989999999997
 20
-43.199809999999999
 30
0.0
 11
-9.7650889999999997
 21
-45.199809999999999
 31
0.0
  0
LINE
  8
0
  6
CONTINUOUS
 62
               3
  5
31E
 10
-2.0476489999999998
 20
-43.199809999999999
 30
0.0
 11
-2.0286360000000001
 21
-45.199809999999999
 31
0.0
  0
LINE
  8
0
  6
CONTINUOUS
 62
               3
  5
31F
 10
-3.6807310000000002
 20
-43.199809999999999
 30
0.0
 11
-3.6565120000000002
 21
-45.199809999999999
 31
0.0
  0
LINE
  8
0
  6
CONTINUOUS
 62
               3
  5
320
 10
-3.5999989999999999
 20
-45.199809999999999
 30
0.0
 11
-3.5423979999999999
 21
-48.499809999999997
 31
0.0
  0
LINE
  8
0
  6
CONTINUOUS
 62
               3
  5
321
 10
-9.7650889999999997
 20
-45.199809999999999
 30
0.0
 11
9.7650900000000007
 21
-45.199809999999999
 31
0.0
  0
LINE
  8
0
  6
CONTINUOUS
 62
               3
  5
322
 10
29.875622
 20
-62.417065000000001
 30
0.0
 11
30.0
 21
-55.291421999999997
 31
0.0
  0
LINE
  8
0
  6
CONTINUOUS
 62
               3
  5
323
 10
29.508579000000001
 20
-54.799999999999997
 30
0.0
 11
30.000001000000001
 21
-55.291421999999997
 31
0.0
  0
LINE
  8
0
  6
CONTINUOUS
 62
               3
  5
324
 10
-29.508578
 20
-54.799999999999997
 30
0.0
 11
-30.0
 21
-55.291421999999997
 31
0.0
  0
LINE
  8
0
  6
CONTINUOUS
 62
               3
  5
325
 10
16.499848
 20
-90.317452000000003
 30
0.0
 11
16.660294
 21
-81.125476000000006
 31
0.0
  0
ARC
  8
0
  6
CONTINUOUS
 62
               3
  5
326
 10
15.500000999999999
 20
-90.299999999999997
 30
0.0
 40
1.0
 50
270.0
 51
0.0
  0
ARC
  8
0
  6
CONTINUOUS
 62
               3
  5
327
 10
26.658771000000002
 20
-81.299999999999997
 30
0.0
 40
10.0
 50
90.0
 51
179.0
  0
ARC
  8
0
  6
CONTINUOUS
 62
               3
  5
328
 10
-20.062353999999999
 20
-59.927379999999999
 30
0.0
 40
50.0
 50
346.852869
 51
357.14585
  0
LINE
  8
0
  6
CONTINUOUS
 62
               3
  5
329
 10
-16.499846999999999
 20
-90.317452000000003
 30
0.0
 11
-16.660294
 21
-81.125476000000006
 31
0.0
  0
ARC
  8
0
  6
CONTINUOUS
 62
               3
  5
32A
 10
-15.499999000000001
 20
-90.299999999999997
 30
0.0
 40
1.0
 50
180.0
 51
270.0
  0
ARC
  8
0
  6
CONTINUOUS
 62
               3
  5
32B
 10
20.062355
 20
-59.927379999999999
 30
0.0
 40
50.0
 50
182.85415
 51
193.147131
  0
ARC
  8
0
  6
CONTINUOUS
 62
               3
  5
32C
 10
-26.658771000000002
 20
-81.299999999999997
 30
0.0
 40
10.0
 50
1.0
 51
90.0
  0
LINE
  8
0
  6
CONTINUOUS
 62
               3
  5
32D
 10
-29.875620999999999
 20
-62.417065000000001
 30
0.0
 11
-30.0
 21
-55.291421999999997
 31
0.0
  0
LINE
  8
0
  6
CONTINUOUS
 62
               3
  5
32E
 10
-15.499999000000001
 20
-91.299999999999997
 30
0.0
 11
15.500000999999999
 21
-91.299999999999997
 31
0.0
  0
LINE
  8
0
  6
CONTINUOUS
 62
               3
  5
32F
 10
28.627106000000001
 20
-71.299999999999997
 30
0.0
 11
-28.618527
 21
-71.299999999999997
 31
0.0
  0
ARC
  8
0
  6
CONTINUOUS
 62
               3
  5
330
 10
-28.999998999999999
 20
-41.999809999999997
 30
0.0
 40
1.0
 50
180.0
 51
269.50000000000006
  0
ARC
  8
0
  6
CONTINUOUS
 62
               3
  5
331
 10
-28.999998999999999
 20
-50.013617000000004
 30
0.0
 40
1.0
 50
90.5
 51
180.0
  0
ARC
  8
0
  6
CONTINUOUS
 62
               3
  5
332
 10
29.000001000000001
 20
-41.999809999999997
 30
0.0
 40
1.0
 50
270.5
 51
0.0
  0
ARC
  8
0
  6
CONTINUOUS
 62
               3
  5
333
 10
29.000001000000001
 20
-50.013617000000004
 30
0.0
 40
1.0
 50
0.0
 51
89.5
  0
LINE
  8
0
  6
CONTINUOUS
 62
               3
  5
334
 10
30.0
 20
-39.500000999999997
 30
0.0
 11
29.500001000000001
 21
-40.0
 31
0.0
  0
LINE
  8
0
  6
CONTINUOUS
 62
               3
  5
335
 10
29.5
 20
-40.0
 30
0.0
 11
-29.5
 21
-40.0
 31
0.0
  0
LINE
  8
0
  6
CONTINUOUS
 62
               3
  5
336
 10
-30.0
 20
-39.500000999999997
 30
0.0
 11
-29.5
 21
-40.0
 31
0.0
  0
LINE
  8
0
  6
CONTINUOUS
 62
               3
  5
337
 10
10.912388999999999
 20
-49.013655
 30
0.0
 11
10.912388999999999
 21
-42.999809999999997
 31
0.0
  0
LINE
  8
0
  6
CONTINUOUS
 62
               3
  5
338
 10
-10.912388
 20
-49.013655
 30
0.0
 11
-10.912388
 21
-42.999809999999997
 31
0.0
  0
LINE
  8
0
  6
CONTINUOUS
 62
               3
  5
339
 10
30.000001000000001
 20
-54.299999999999997
 30
0.0
 11
29.5
 21
-54.799999999999997
 31
0.0
  0
LINE
  8
0
  6
CONTINUOUS
 62
               3
  5
33A
 10
-29.499998999999999
 20
-54.799999999999997
 30
0.0
 11
-30.0
 21
-54.299999
 31
0.0
  0
LINE
  8
0
  6
CONTINUOUS
 62
               3
  5
33B
 10
-29.999998999999999
 20
-41.999809999999997
 30
0.0
 11
-29.999998999999999
 21
-40.5
 31
0.0
  0
LINE
  8
0
  6
CONTINUOUS
 62
               3
  5
33C
 10
-28.699999999999999
 20
-49.013655
 30
0.0
 11
-28.699999999999999
 21
-42.999809999999997
 31
0.0
  0
LINE
  8
0
  6
CONTINUOUS
 62
               3
  5
33D
 10
-29.999998999999999
 20
-54.299999999999997
 30
0.0
 11
-29.999998999999999
 21
-50.013617000000004
 31
0.0
  0
LINE
  8
0
  6
CONTINUOUS
 62
               3
  5
33E
 10
-28.699999999999999
 20
-49.013655
 30
0.0
 11
-28.999998999999999
 21
-49.013655
 31
0.0
  0
LINE
  8
0
  6
CONTINUOUS
 62
               3
  5
33F
 10
30.000001000000001
 20
-41.999809999999997
 30
0.0
 11
30.000001000000001
 21
-40.5
 31
0.0
  0
LINE
  8
0
  6
CONTINUOUS
 62
               3
  5
340
 10
-28.699999999999999
 20
-49.013655
 30
0.0
 11
29.000001000000001
 21
-49.013655
 31
0.0
  0
LINE
  8
0
  6
CONTINUOUS
 62
               3
  5
341
 10
-28.699999999999999
 20
-42.999809999999997
 30
0.0
 11
-28.999998999999999
 21
-42.999809999999997
 31
0.0
  0
LINE
  8
0
  6
CONTINUOUS
 62
               3
  5
342
 10
30.000001000000001
 20
-54.299999999999997
 30
0.0
 11
30.000001000000001
 21
-50.013617000000004
 31
0.0
  0
LINE
  8
0
  6
CONTINUOUS
 62
               3
  5
343
 10
-28.699999999999999
 20
-42.999809999999997
 30
0.0
 11
29.000001000000001
 21
-42.999809999999997
 31
0.0
  0
LINE
  8
0
  6
CONTINUOUS
 62
               3
  5
344
 10
29.500001000000001
 20
-40.0
 30
0.0
 11
30.000001000000001
 21
-40.5
 31
0.0
  0
LINE
  8
0
  6
CONTINUOUS
 62
               3
  5
345
 10
28.700001
 20
-49.013655
 30
0.0
 11
28.700001
 21
-42.999809999999997
 31
0.0
  0
LINE
  8
0
  6
CONTINUOUS
 62
               3
  5
346
 10
-29.499998999999999
 20
-40.0
 30
0.0
 11
-29.999998999999999
 21
-40.5
 31
0.0
  0
LINE
  8
0
  6
CONTINUOUS
 62
               3
  5
347
 10
29.5
 20
-54.799999999999997
 30
0.0
 11
-29.499998999999999
 21
-54.799999999999997
 31
0.0
  0
LINE
  8
0
  6
CONTINUOUS
 62
               3
  5
348
 10
29.5
 20
0.0
 30
0.0
 11
30.0
 21
-0.5
 31
0.0
  0
LINE
  8
0
  6
CONTINUOUS
 62
               3
  5
349
 10
-29.5
 20
0.0
 30
0.0
 11
-30.0
 21
-0.5
 31
0.0
  0
LINE
  8
0
  6
CONTINUOUS
 62
               3
  5
34A
 10
29.5
 20
0.0
 30
0.0
 11
-29.5
 21
0.0
 31
0.0
  0
ENDBLK
  8
0
  5
34B
  0
BLOCK
  8
0
  5
34C
  2
MS_15
 70
               0
 10
0.0
 20
0.0
 30
0.0
  3
MS_15
  0
LINE
  8
0
  6
CONTINUOUS
 62
               3
  5
34D
 10
-10.912388999999999
 20
-156.013845
 30
0.0
 11
-10.912388999999999
 21
-150.0
 31
0.0
  0
LINE
  8
0
  6
CONTINUOUS
 62
               3
  5
34E
 10
10.912388999999999
 20
-156.013845
 30
0.0
 11
10.912388999999999
 21
-150.0
 31
0.0
  0
LINE
  8
0
  6
CONTINUOUS
 62
               3
  5
34F
 10
-29.5
 20
0.0
 30
0.0
 11
29.5
 21
0.0
 31
0.0
  0
LINE
  8
0
  6
CONTINUOUS
 62
               3
  5
350
 10
-30.0
 20
-0.5
 30
0.0
 11
-30.0
 21
-140.5
 31
0.0
  0
LINE
  8
0
  6
CONTINUOUS
 62
               3
  5
351
 10
-29.5
 20
0.0
 30
0.0
 11
-30.0
 21
-0.5
 31
0.0
  0
LINE
  8
0
  6
CONTINUOUS
 62
               3
  5
352
 10
30.0
 20
-0.5
 30
0.0
 11
30.0
 21
-140.5
 31
0.0
  0
LINE
  8
0
  6
CONTINUOUS
 62
               3
  5
353
 10
29.5
 20
0.0
 30
0.0
 11
30.0
 21
-0.5
 31
0.0
  0
LINE
  8
0
  6
CONTINUOUS
 62
               3
  5
354
 10
29.499998999999999
 20
-141.0
 30
0.0
 11
-29.5
 21
-141.0
 31
0.0
  0
LINE
  8
0
  6
CONTINUOUS
 62
               3
  5
355
 10
-29.999998999999999
 20
-140.5
 30
0.0
 11
-29.5
 21
-141.0
 31
0.0
  0
LINE
  8
0
  6
CONTINUOUS
 62
               3
  5
356
 10
29.999998999999999
 20
-140.5
 30
0.0
 11
29.5
 21
-141.0
 31
0.0
  0
ARC
  8
0
  6
CONTINUOUS
 62
               3
  5
357
 10
-15.517303
 20
-207.0
 30
0.0
 40
1.0
 50
181.0
 51
270.0
  0
LINE
  8
0
  6
CONTINUOUS
 62
               3
  5
358
 10
-16.517150000000001
 20
-207.01745199999999
 30
0.0
 11
-16.677596999999999
 21
-197.82547600000001
 31
0.0
  0
LINE
  8
0
  6
CONTINUOUS
 62
               3
  5
359
 10
29.508576999999999
 20
-171.5
 30
0.0
 11
-29.508578
 21
-171.5
 31
0.0
  0
LINE
  8
0
  6
CONTINUOUS
 62
               3
  5
35A
 10
-29.875620999999999
 20
-179.117065
 30
0.0
 11
-30.0
 21
-171.991422
 31
0.0
  0
LINE
  8
0
  6
CONTINUOUS
 62
               3
  5
35B
 10
-29.508578
 20
-171.5
 30
0.0
 11
-30.0
 21
-171.991422
 31
0.0
  0
ARC
  8
0
  6
CONTINUOUS
 62
               3
  5
35C
 10
20.062355
 20
-176.62737899999999
 30
0.0
 40
50.0
 50
182.85415
 51
193.147131
  0
ARC
  8
0
  6
CONTINUOUS
 62
               3
  5
35D
 10
-26.676074
 20
-198.0
 30
0.0
 40
10.0
 50
1.0
 51
90.0
  0
ARC
  8
0
  6
CONTINUOUS
 62
               3
  5
35E
 10
15.517303
 20
-207.0
 30
0.0
 40
1.0
 50
270.0
 51
0.0
  0
LINE
  8
0
  6
CONTINUOUS
 62
               3
  5
35F
 10
-15.517303
 20
-208.0
 30
0.0
 11
15.517303
 21
-208.0
 31
0.0
  0
LINE
  8
0
  6
CONTINUOUS
 62
               3
  5
360
 10
16.517150000000001
 20
-207.01745199999999
 30
0.0
 11
16.677596999999999
 21
-197.82547600000001
 31
0.0
  0
ARC
  8
0
  6
CONTINUOUS
 62
               3
  5
361
 10
26.676074
 20
-198.0
 30
0.0
 40
10.0
 50
90.0
 51
179.0
  0
LINE
  8
0
  6
CONTINUOUS
 62
               3
  5
362
 10
-28.627105
 20
-188.0
 30
0.0
 11
28.627105
 21
-188.0
 31
0.0
  0
ARC
  8
0
  6
CONTINUOUS
 62
               3
  5
363
 10
-20.062355
 20
-176.62737899999999
 30
0.0
 40
50.0
 50
346.852869
 51
357.14585
  0
LINE
  8
0
  6
CONTINUOUS
 62
               3
  5
364
 10
29.875620999999999
 20
-179.117065
 30
0.0
 11
30.0
 21
-171.991422
 31
0.0
  0
LINE
  8
0
  6
CONTINUOUS
 62
               3
  5
365
 10
29.508578
 20
-171.5
 30
0.0
 11
30.0
 21
-171.991422
 31
0.0
  0
LINE
  8
0
  6
CONTINUOUS
 62
               3
  5
366
 10
33.499999000000003
 20
-166.499999
 30
0.0
 11
30.5
 21
-171.0
 31
0.0
  0
LINE
  8
0
  6
CONTINUOUS
 62
               3
  5
367
 10
33.499999000000003
 20
-166.499999
 30
0.0
 11
33.0
 21
-166.0
 31
0.0
  0
LINE
  8
0
  6
CONTINUOUS
 62
               3
  5
368
 10
33.499999000000003
 20
-165.500001
 30
0.0
 11
33.0
 21
-166.0
 31
0.0
  0
LINE
  8
0
  6
CONTINUOUS
 62
               3
  5
369
 10
-33.499999000000003
 20
-166.499999
 30
0.0
 11
-30.5
 21
-171.0
 31
0.0
  0
LINE
  8
0
  6
CONTINUOUS
 62
               3
  5
36A
 10
-33.499999000000003
 20
-166.499999
 30
0.0
 11
-33.0
 21
-166.0
 31
0.0
  0
LINE
  8
0
  6
CONTINUOUS
 62
               3
  5
36B
 10
-33.499999000000003
 20
-165.500001
 30
0.0
 11
-33.0
 21
-166.0
 31
0.0
  0
LINE
  8
0
  6
CONTINUOUS
 62
               3
  5
36C
 10
-32.0
 20
-156.0
 30
0.0
 11
32.0
 21
-156.0
 31
0.0
  0
LINE
  8
0
  6
CONTINUOUS
 62
               3
  5
36D
 10
-32.0
 20
-150.0
 30
0.0
 11
32.0
 21
-150.0
 31
0.0
  0
LINE
  8
0
  6
CONTINUOUS
 62
               3
  5
36E
 10
-33.5
 20
-146.0
 30
0.0
 11
33.5
 21
-146.0
 31
0.0
  0
LINE
  8
0
  6
CONTINUOUS
 62
               3
  5
36F
 10
-33.5
 20
-165.500001
 30
0.0
 11
-33.5
 21
-157.5
 31
0.0
  0
LINE
  8
0
  6
CONTINUOUS
 62
               3
  5
370
 10
-32.0
 20
-156.0
 30
0.0
 11
-32.0
 21
-150.0
 31
0.0
  0
ARC
  8
0
  6
CONTINUOUS
 62
               3
  5
371
 10
-32.0
 20
-148.5
 30
0.0
 40
1.5
 50
180.0
 51
270.0
  0
LINE
  8
0
  6
CONTINUOUS
 62
               3
  5
372
 10
-29.5
 20
-141.0
 30
0.0
 11
-30.0
 21
-141.5
 31
0.0
  0
ARC
  8
0
  6
CONTINUOUS
 62
               3
  5
373
 10
-34.599877999999997
 20
-141.53342799999999
 30
0.0
 40
4.5999999999999996
 50
283.83366599999999
 51
0.4163669999999851
  0
LINE
  8
0
  6
CONTINUOUS
 62
               3
  5
374
 10
-30.5
 20
-171.0
 30
0.0
 11
-30.0
 21
-171.0
 31
0.0
  0
LINE
  8
0
  6
CONTINUOUS
 62
               3
  5
375
 10
-29.5
 20
-171.5
 30
0.0
 11
-30.0
 21
-171.0
 31
0.0
  0
LINE
  8
0
  6
CONTINUOUS
 62
               3
  5
376
 10
-33.0
 20
-166.0
 30
0.0
 11
33.0
 21
-166.0
 31
0.0
  0
ARC
  8
0
  6
CONTINUOUS
 62
               3
  5
377
 10
-32.0
 20
-157.5
 30
0.0
 40
1.5
 50
90.0
 51
180.0
  0
LINE
  8
0
  6
CONTINUOUS
 62
               3
  5
378
 10
-33.5
 20
-148.5
 30
0.0
 11
-33.5
 21
-146.0
 31
0.0
  0
LINE
  8
0
  6
CONTINUOUS
 62
               3
  5
379
 10
33.5
 20
-148.5
 30
0.0
 11
33.5
 21
-146.0
 31
0.0
  0
ARC
  8
0
  6
CONTINUOUS
 62
               3
  5
37A
 10
32.0
 20
-157.5
 30
0.0
 40
1.5
 50
0.0
 51
90.0
  0
LINE
  8
0
  6
CONTINUOUS
 62
               3
  5
37B
 10
29.5
 20
-171.5
 30
0.0
 11
30.0
 21
-171.0
 31
0.0
  0
ARC
  8
0
  6
CONTINUOUS
 62
               3
  5
37C
 10
34.599879000000001
 20
-141.53342799999999
 30
0.0
 40
4.5999999999999996
 50
179.58363299999999
 51
256.16633400000001
  0
LINE
  8
0
  6
CONTINUOUS
 62
               3
  5
37D
 10
29.5
 20
-141.0
 30
0.0
 11
30.0
 21
-141.5
 31
0.0
  0
ARC
  8
0
  6
CONTINUOUS
 62
               3
  5
37E
 10
32.0
 20
-148.5
 30
0.0
 40
1.5
 50
270.0
 51
0.0
  0
LINE
  8
0
  6
CONTINUOUS
 62
               3
  5
37F
 10
32.0
 20
-156.0
 30
0.0
 11
32.0
 21
-150.0
 31
0.0
  0
LINE
  8
0
  6
CONTINUOUS
 62
               3
  5
380
 10
33.5
 20
-165.5
 30
0.0
 11
33.5
 21
-157.5
 31
0.0
  0
LINE
  8
0
  6
CONTINUOUS
 62
               3
  5
381
 10
30.0
 20
-171.0
 30
0.0
 11
30.5
 21
-171.0
 31
0.0
  0
ENDBLK
  8
0
  5
382
  0
BLOCK
  8
0
  5
383
  2
MS_16
 70
               0
 10
0.0
 20
0.0
 30
0.0
  3
MS_16
  0
POLYLINE
  8
0
  6
CONTINUOUS
 62
              80
  5
384
 66
               1
 10
0.0
 20
0.0
 30
0.0
 70
               1
  0
VERTEX
  8
0
  6
CONTINUOUS
 62
              80
  5
77C
 10
4.2501410000000002
 20
-11.528829
 30
0.0
  0
VERTEX
  8
0
  6
CONTINUOUS
 62
              80
  5
77D
 10
4.2500460000000002
 20
-11.517567
 30
0.0
  0
VERTEX
  8
0
  6
CONTINUOUS
 62
              80
  5
77E
 10
4.2497619999999996
 20
-11.506299
 30
0.0
  0
VERTEX
  8
0
  6
CONTINUOUS
 62
              80
  5
77F
 10
4.2492910000000004
 20
-11.495029000000001
 30
0.0
  0
VERTEX
  8
0
  6
CONTINUOUS
 62
              80
  5
780
 10
4.2486329999999999
 20
-11.483760999999999
 30
0.0
  0
VERTEX
  8
0
  6
CONTINUOUS
 62
              80
  5
781
 10
4.2477910000000003
 20
-11.472498999999999
 30
0.0
  0
VERTEX
  8
0
  6
CONTINUOUS
 62
              80
  5
782
 10
4.246766
 20
-11.461247999999999
 30
0.0
  0
VERTEX
  8
0
  6
CONTINUOUS
 62
              80
  5
783
 10
4.2455579999999999
 20
-11.450011
 30
0.0
  0
VERTEX
  8
0
  6
CONTINUOUS
 62
              80
  5
784
 10
4.2441709999999997
 20
-11.438794
 30
0.0
  0
VERTEX
  8
0
  6
CONTINUOUS
 62
              80
  5
785
 10
4.2426050000000002
 20
-11.427599000000001
 30
0.0
  0
VERTEX
  8
0
  6
CONTINUOUS
 62
              80
  5
786
 10
4.2408609999999998
 20
-11.416432
 30
0.0
  0
VERTEX
  8
0
  6
CONTINUOUS
 62
              80
  5
787
 10
4.2389419999999998
 20
-11.405296
 30
0.0
  0
VERTEX
  8
0
  6
CONTINUOUS
 62
              80
  5
788
 10
4.236847
 20
-11.394197
 30
0.0
  0
VERTEX
  8
0
  6
CONTINUOUS
 62
              80
  5
789
 10
4.2345800000000002
 20
-11.383137
 30
0.0
  0
VERTEX
  8
0
  6
CONTINUOUS
 62
              80
  5
78A
 10
4.2321410000000004
 20
-11.372121
 30
0.0
  0
VERTEX
  8
0
  6
CONTINUOUS
 62
              80
  5
78B
 10
4.2295319999999998
 20
-11.361153
 30
0.0
  0
VERTEX
  8
0
  6
CONTINUOUS
 62
              80
  5
78C
 10
4.2267539999999997
 20
-11.350237999999999
 30
0.0
  0
VERTEX
  8
0
  6
CONTINUOUS
 62
              80
  5
78D
 10
4.2235170000000002
 20
-11.338331
 30
0.0
  0
VERTEX
  8
0
  6
CONTINUOUS
 62
              80
  5
78E
 10
4.2200790000000001
 20
-11.326472000000001
 30
0.0
  0
VERTEX
  8
0
  6
CONTINUOUS
 62
              80
  5
78F
 10
4.2164450000000002
 20
-11.314664
 30
0.0
  0
VERTEX
  8
0
  6
CONTINUOUS
 62
              80
  5
790
 10
4.212618
 20
-11.302909
 30
0.0
  0
VERTEX
  8
0
  6
CONTINUOUS
 62
              80
  5
791
 10
4.2086009999999998
 20
-11.291212
 30
0.0
  0
VERTEX
  8
0
  6
CONTINUOUS
 62
              80
  5
792
 10
4.2043990000000004
 20
-11.279574
 30
0.0
  0
VERTEX
  8
0
  6
CONTINUOUS
 62
              80
  5
793
 10
4.2000149999999996
 20
-11.268000000000001
 30
0.0
  0
VERTEX
  8
0
  6
CONTINUOUS
 62
              80
  5
794
 10
4.1954529999999997
 20
-11.256491
 30
0.0
  0
VERTEX
  8
0
  6
CONTINUOUS
 62
              80
  5
795
 10
4.1907170000000002
 20
-11.245051999999999
 30
0.0
  0
VERTEX
  8
0
  6
CONTINUOUS
 62
              80
  5
796
 10
4.1858110000000002
 20
-11.233686000000001
 30
0.0
  0
VERTEX
  8
0
  6
CONTINUOUS
 62
              80
  5
797
 10
4.1807379999999998
 20
-11.222395000000001
 30
0.0
  0
VERTEX
  8
0
  6
CONTINUOUS
 62
              80
  5
798
 10
4.1755019999999998
 20
-11.211183
 30
0.0
  0
VERTEX
  8
0
  6
CONTINUOUS
 62
              80
  5
799
 10
4.1701069999999998
 20
-11.200051999999999
 30
0.0
  0
VERTEX
  8
0
  6
CONTINUOUS
 62
              80
  5
79A
 10
4.1645570000000003
 20
-11.189007
 30
0.0
  0
VERTEX
  8
0
  6
CONTINUOUS
 62
              80
  5
79B
 10
4.158855
 20
-11.178049
 30
0.0
  0
VERTEX
  8
0
  6
CONTINUOUS
 62
              80
  5
79C
 10
4.1530050000000003
 20
-11.167183
 30
0.0
  0
VERTEX
  8
0
  6
CONTINUOUS
 62
              80
  5
79D
 10
4.1461050000000004
 20
-11.154807999999999
 30
0.0
  0
VERTEX
  8
0
  6
CONTINUOUS
 62
              80
  5
79E
 10
4.1390099999999999
 20
-11.142535000000001
 30
0.0
  0
VERTEX
  8
0
  6
CONTINUOUS
 62
              80
  5
79F
 10
4.1317240000000002
 20
-11.130364999999999
 30
0.0
  0
VERTEX
  8
0
  6
CONTINUOUS
 62
              80
  5
7A0
 10
4.1242539999999996
 20
-11.1183
 30
0.0
  0
VERTEX
  8
0
  6
CONTINUOUS
 62
              80
  5
7A1
 10
4.1166029999999996
 20
-11.106341
 30
0.0
  0
VERTEX
  8
0
  6
CONTINUOUS
 62
              80
  5
7A2
 10
4.1087769999999999
 20
-11.094491
 30
0.0
  0
VERTEX
  8
0
  6
CONTINUOUS
 62
              80
  5
7A3
 10
4.1007790000000002
 20
-11.082751
 30
0.0
  0
VERTEX
  8
0
  6
CONTINUOUS
 62
              80
  5
7A4
 10
4.0926169999999997
 20
-11.071122000000001
 30
0.0
  0
VERTEX
  8
0
  6
CONTINUOUS
 62
              80
  5
7A5
 10
4.0842929999999997
 20
-11.059606
 30
0.0
  0
VERTEX
  8
0
  6
CONTINUOUS
 62
              80
  5
7A6
 10
4.0758130000000001
 20
-11.048204
 30
0.0
  0
VERTEX
  8
0
  6
CONTINUOUS
 62
              80
  5
7A7
 10
4.0671819999999999
 20
-11.036918999999999
 30
0.0
  0
VERTEX
  8
0
  6
CONTINUOUS
 62
              80
  5
7A8
 10
4.0584049999999996
 20
-11.025751
 30
0.0
  0
VERTEX
  8
0
  6
CONTINUOUS
 62
              80
  5
7A9
 10
4.0494870000000001
 20
-11.014703000000001
 30
0.0
  0
VERTEX
  8
0
  6
CONTINUOUS
 62
              80
  5
7AA
 10
4.0404309999999999
 20
-11.003774999999999
 30
0.0
  0
VERTEX
  8
0
  6
CONTINUOUS
 62
              80
  5
7AB
 10
4.0312450000000002
 20
-10.99297
 30
0.0
  0
VERTEX
  8
0
  6
CONTINUOUS
 62
              80
  5
7AC
 10
4.0219310000000004
 20
-10.982289
 30
0.0
  0
VERTEX
  8
0
  6
CONTINUOUS
 62
              80
  5
7AD
 10
4.0110520000000003
 20
-10.970141
 30
0.0
  0
VERTEX
  8
0
  6
CONTINUOUS
 62
              80
  5
7AE
 10
4.0000010000000001
 20
-10.958138999999999
 30
0.0
  0
VERTEX
  8
0
  6
CONTINUOUS
 62
              80
  5
7AF
 10
3.988782
 20
-10.946285
 30
0.0
  0
VERTEX
  8
0
  6
CONTINUOUS
 62
              80
  5
7B0
 10
3.977401
 20
-10.934577000000001
 30
0.0
  0
VERTEX
  8
0
  6
CONTINUOUS
 62
              80
  5
7B1
 10
3.965862
 20
-10.923017
 30
0.0
  0
VERTEX
  8
0
  6
CONTINUOUS
 62
              80
  5
7B2
 10
3.9541710000000001
 20
-10.911606000000001
 30
0.0
  0
VERTEX
  8
0
  6
CONTINUOUS
 62
              80
  5
7B3
 10
3.9423319999999999
 20
-10.900342
 30
0.0
  0
VERTEX
  8
0
  6
CONTINUOUS
 62
              80
  5
7B4
 10
3.9303490000000001
 20
-10.889227
 30
0.0
  0
VERTEX
  8
0
  6
CONTINUOUS
 62
              80
  5
7B5
 10
3.9182290000000002
 20
-10.878261999999999
 30
0.0
  0
VERTEX
  8
0
  6
CONTINUOUS
 62
              80
  5
7B6
 10
3.9059750000000002
 20
-10.867445
 30
0.0
  0
VERTEX
  8
0
  6
CONTINUOUS
 62
              80
  5
7B7
 10
3.8935930000000001
 20
-10.856778
 30
0.0
  0
VERTEX
  8
0
  6
CONTINUOUS
 62
              80
  5
7B8
 10
3.8810880000000001
 20
-10.846261
 30
0.0
  0
VERTEX
  8
0
  6
CONTINUOUS
 62
              80
  5
7B9
 10
3.8684639999999999
 20
-10.835894
 30
0.0
  0
VERTEX
  8
0
  6
CONTINUOUS
 62
              80
  5
7BA
 10
3.8557260000000002
 20
-10.825678
 30
0.0
  0
VERTEX
  8
0
  6
CONTINUOUS
 62
              80
  5
7BB
 10
3.8428789999999999
 20
-10.815612
 30
0.0
  0
VERTEX
  8
0
  6
CONTINUOUS
 62
              80
  5
7BC
 10
3.8299289999999999
 20
-10.805698
 30
0.0
  0
VERTEX
  8
0
  6
CONTINUOUS
 62
              80
  5
7BD
 10
3.81521
 20
-10.794701999999999
 30
0.0
  0
VERTEX
  8
0
  6
CONTINUOUS
 62
              80
  5
7BE
 10
3.8003520000000002
 20
-10.783884
 30
0.0
  0
VERTEX
  8
0
  6
CONTINUOUS
 62
              80
  5
7BF
 10
3.7853590000000001
 20
-10.773243000000001
 30
0.0
  0
VERTEX
  8
0
  6
CONTINUOUS
 62
              80
  5
7C0
 10
3.770235
 20
-10.762779
 30
0.0
  0
VERTEX
  8
0
  6
CONTINUOUS
 62
              80
  5
7C1
 10
3.7549839999999999
 20
-10.752490999999999
 30
0.0
  0
VERTEX
  8
0
  6
CONTINUOUS
 62
              80
  5
7C2
 10
3.7396120000000002
 20
-10.742378
 30
0.0
  0
VERTEX
  8
0
  6
CONTINUOUS
 62
              80
  5
7C3
 10
3.7241219999999999
 20
-10.732442000000001
 30
0.0
  0
VERTEX
  8
0
  6
CONTINUOUS
 62
              80
  5
7C4
 10
3.7085180000000002
 20
-10.72268
 30
0.0
  0
VERTEX
  8
0
  6
CONTINUOUS
 62
              80
  5
7C5
 10
3.692806
 20
-10.713094
 30
0.0
  0
VERTEX
  8
0
  6
CONTINUOUS
 62
              80
  5
7C6
 10
3.6769880000000001
 20
-10.703681
 30
0.0
  0
VERTEX
  8
0
  6
CONTINUOUS
 62
              80
  5
7C7
 10
3.6610710000000002
 20
-10.694443
 30
0.0
  0
VERTEX
  8
0
  6
CONTINUOUS
 62
              80
  5
7C8
 10
3.645057
 20
-10.685378
 30
0.0
  0
VERTEX
  8
0
  6
CONTINUOUS
 62
              80
  5
7C9
 10
3.6289509999999998
 20
-10.676486000000001
 30
0.0
  0
VERTEX
  8
0
  6
CONTINUOUS
 62
              80
  5
7CA
 10
3.6127579999999999
 20
-10.667767
 30
0.0
  0
VERTEX
  8
0
  6
CONTINUOUS
 62
              80
  5
7CB
 10
3.596482
 20
-10.659219999999999
 30
0.0
  0
VERTEX
  8
0
  6
CONTINUOUS
 62
              80
  5
7CC
 10
3.5801280000000002
 20
-10.650846
 30
0.0
  0
VERTEX
  8
0
  6
CONTINUOUS
 62
              80
  5
7CD
 10
3.5621399999999999
 20
-10.641875000000001
 30
0.0
  0
VERTEX
  8
0
  6
CONTINUOUS
 62
              80
  5
7CE
 10
3.5440489999999998
 20
-10.633100000000001
 30
0.0
  0
VERTEX
  8
0
  6
CONTINUOUS
 62
              80
  5
7CF
 10
3.5258579999999999
 20
-10.624518999999999
 30
0.0
  0
VERTEX
  8
0
  6
CONTINUOUS
 62
              80
  5
7D0
 10
3.5075720000000001
 20
-10.616133
 30
0.0
  0
VERTEX
  8
0
  6
CONTINUOUS
 62
              80
  5
7D1
 10
3.4891920000000001
 20
-10.607939999999999
 30
0.0
  0
VERTEX
  8
0
  6
CONTINUOUS
 62
              80
  5
7D2
 10
3.4707240000000001
 20
-10.59994
 30
0.0
  0
VERTEX
  8
0
  6
CONTINUOUS
 62
              80
  5
7D3
 10
3.4521709999999999
 20
-10.592131999999999
 30
0.0
  0
VERTEX
  8
0
  6
CONTINUOUS
 62
              80
  5
7D4
 10
3.4335369999999998
 20
-10.584516000000001
 30
0.0
  0
VERTEX
  8
0
  6
CONTINUOUS
 62
              80
  5
7D5
 10
3.414825
 20
-10.577092
 30
0.0
  0
VERTEX
  8
0
  6
CONTINUOUS
 62
              80
  5
7D6
 10
3.396039
 20
-10.569857000000001
 30
0.0
  0
VERTEX
  8
0
  6
CONTINUOUS
 62
              80
  5
7D7
 10
3.377183
 20
-10.562813
 30
0.0
  0
VERTEX
  8
0
  6
CONTINUOUS
 62
              80
  5
7D8
 10
3.3582610000000002
 20
-10.555958
 30
0.0
  0
VERTEX
  8
0
  6
CONTINUOUS
 62
              80
  5
7D9
 10
3.3392750000000002
 20
-10.549291
 30
0.0
  0
VERTEX
  8
0
  6
CONTINUOUS
 62
              80
  5
7DA
 10
3.32023
 20
-10.542812
 30
0.0
  0
VERTEX
  8
0
  6
CONTINUOUS
 62
              80
  5
7DB
 10
3.3011300000000001
 20
-10.536521
 30
0.0
  0
VERTEX
  8
0
  6
CONTINUOUS
 62
              80
  5
7DC
 10
3.2819769999999999
 20
-10.530417
 30
0.0
  0
VERTEX
  8
0
  6
CONTINUOUS
 62
              80
  5
7DD
 10
3.261593
 20
-10.524139999999999
 30
0.0
  0
VERTEX
  8
0
  6
CONTINUOUS
 62
              80
  5
7DE
 10
3.2411409999999998
 20
-10.518067
 30
0.0
  0
VERTEX
  8
0
  6
CONTINUOUS
 62
              80
  5
7DF
 10
3.2206229999999998
 20
-10.512198
 30
0.0
  0
VERTEX
  8
0
  6
CONTINUOUS
 62
              80
  5
7E0
 10
3.200043
 20
-10.506531000000001
 30
0.0
  0
VERTEX
  8
0
  6
CONTINUOUS
 62
              80
  5
7E1
 10
3.179405
 20
-10.501066
 30
0.0
  0
VERTEX
  8
0
  6
CONTINUOUS
 62
              80
  5
7E2
 10
3.1587109999999998
 20
-10.495803
 30
0.0
  0
VERTEX
  8
0
  6
CONTINUOUS
 62
              80
  5
7E3
 10
3.1379640000000002
 20
-10.490741
 30
0.0
  0
VERTEX
  8
0
  6
CONTINUOUS
 62
              80
  5
7E4
 10
3.1171679999999999
 20
-10.485880999999999
 30
0.0
  0
VERTEX
  8
0
  6
CONTINUOUS
 62
              80
  5
7E5
 10
3.0963259999999999
 20
-10.48122
 30
0.0
  0
VERTEX
  8
0
  6
CONTINUOUS
 62
              80
  5
7E6
 10
3.0754410000000001
 20
-10.476758999999999
 30
0.0
  0
VERTEX
  8
0
  6
CONTINUOUS
 62
              80
  5
7E7
 10
3.054516
 20
-10.472497000000001
 30
0.0
  0
VERTEX
  8
0
  6
CONTINUOUS
 62
              80
  5
7E8
 10
3.0335540000000001
 20
-10.468434999999999
 30
0.0
  0
VERTEX
  8
0
  6
CONTINUOUS
 62
              80
  5
7E9
 10
3.012559
 20
-10.46457
 30
0.0
  0
VERTEX
  8
0
  6
CONTINUOUS
 62
              80
  5
7EA
 10
2.991533
 20
-10.460903
 30
0.0
  0
VERTEX
  8
0
  6
CONTINUOUS
 62
              80
  5
7EB
 10
2.9704799999999998
 20
-10.457433999999999
 30
0.0
  0
VERTEX
  8
0
  6
CONTINUOUS
 62
              80
  5
7EC
 10
2.9494039999999999
 20
-10.454160999999999
 30
0.0
  0
VERTEX
  8
0
  6
CONTINUOUS
 62
              80
  5
7ED
 10
2.9276689999999999
 20
-10.450995000000001
 30
0.0
  0
VERTEX
  8
0
  6
CONTINUOUS
 62
              80
  5
7EE
 10
2.9058989999999998
 20
-10.448035000000001
 30
0.0
  0
VERTEX
  8
0
  6
CONTINUOUS
 62
              80
  5
7EF
 10
2.884096
 20
-10.44528
 30
0.0
  0
VERTEX
  8
0
  6
CONTINUOUS
 62
              80
  5
7F0
 10
2.8622640000000001
 20
-10.442729999999999
 30
0.0
  0
VERTEX
  8
0
  6
CONTINUOUS
 62
              80
  5
7F1
 10
2.8404050000000001
 20
-10.440386
 30
0.0
  0
VERTEX
  8
0
  6
CONTINUOUS
 62
              80
  5
7F2
 10
2.8185210000000001
 20
-10.438245999999999
 30
0.0
  0
VERTEX
  8
0
  6
CONTINUOUS
 62
              80
  5
7F3
 10
2.7966169999999999
 20
-10.436310000000001
 30
0.0
  0
VERTEX
  8
0
  6
CONTINUOUS
 62
              80
  5
7F4
 10
2.7746949999999999
 20
-10.43458
 30
0.0
  0
VERTEX
  8
0
  6
CONTINUOUS
 62
              80
  5
7F5
 10
2.7527569999999999
 20
-10.433052999999999
 30
0.0
  0
VERTEX
  8
0
  6
CONTINUOUS
 62
              80
  5
7F6
 10
2.730807
 20
-10.431730999999999
 30
0.0
  0
VERTEX
  8
0
  6
CONTINUOUS
 62
              80
  5
7F7
 10
2.708847
 20
-10.430612
 30
0.0
  0
VERTEX
  8
0
  6
CONTINUOUS
 62
              80
  5
7F8
 10
2.6868810000000001
 20
-10.429698
 30
0.0
  0
VERTEX
  8
0
  6
CONTINUOUS
 62
              80
  5
7F9
 10
2.6649099999999999
 20
-10.428986999999999
 30
0.0
  0
VERTEX
  8
0
  6
CONTINUOUS
 62
              80
  5
7FA
 10
2.6429399999999998
 20
-10.428478999999999
 30
0.0
  0
VERTEX
  8
0
  6
CONTINUOUS
 62
              80
  5
7FB
 10
2.6209709999999999
 20
-10.428175
 30
0.0
  0
VERTEX
  8
0
  6
CONTINUOUS
 62
              80
  5
7FC
 10
2.5990069999999998
 20
-10.428072999999999
 30
0.0
  0
VERTEX
  8
0
  6
CONTINUOUS
 62
              80
  5
7FD
 10
2.5770430000000002
 20
-10.428175
 30
0.0
  0
VERTEX
  8
0
  6
CONTINUOUS
 62
              80
  5
7FE
 10
2.5550739999999998
 20
-10.428478999999999
 30
0.0
  0
VERTEX
  8
0
  6
CONTINUOUS
 62
              80
  5
7FF
 10
2.5331030000000001
 20
-10.428986999999999
 30
0.0
  0
VERTEX
  8
0
  6
CONTINUOUS
 62
              80
  5
800
 10
2.5111330000000001
 20
-10.429698
 30
0.0
  0
VERTEX
  8
0
  6
CONTINUOUS
 62
              80
  5
801
 10
2.4891670000000001
 20
-10.430612
 30
0.0
  0
VERTEX
  8
0
  6
CONTINUOUS
 62
              80
  5
802
 10
2.4672070000000001
 20
-10.431730999999999
 30
0.0
  0
VERTEX
  8
0
  6
CONTINUOUS
 62
              80
  5
803
 10
2.4452569999999998
 20
-10.433052999999999
 30
0.0
  0
VERTEX
  8
0
  6
CONTINUOUS
 62
              80
  5
804
 10
2.4233189999999998
 20
-10.43458
 30
0.0
  0
VERTEX
  8
0
  6
CONTINUOUS
 62
              80
  5
805
 10
2.4013969999999998
 20
-10.436310000000001
 30
0.0
  0
VERTEX
  8
0
  6
CONTINUOUS
 62
              80
  5
806
 10
2.3794919999999999
 20
-10.438245999999999
 30
0.0
  0
VERTEX
  8
0
  6
CONTINUOUS
 62
              80
  5
807
 10
2.3576090000000001
 20
-10.440386
 30
0.0
  0
VERTEX
  8
0
  6
CONTINUOUS
 62
              80
  5
808
 10
2.33575
 20
-10.442729999999999
 30
0.0
  0
VERTEX
  8
0
  6
CONTINUOUS
 62
              80
  5
809
 10
2.313917
 20
-10.44528
 30
0.0
  0
VERTEX
  8
0
  6
CONTINUOUS
 62
              80
  5
80A
 10
2.2921149999999999
 20
-10.448035000000001
 30
0.0
  0
VERTEX
  8
0
  6
CONTINUOUS
 62
              80
  5
80B
 10
2.2703449999999998
 20
-10.450995000000001
 30
0.0
  0
VERTEX
  8
0
  6
CONTINUOUS
 62
              80
  5
80C
 10
2.2486100000000002
 20
-10.454160999999999
 30
0.0
  0
VERTEX
  8
0
  6
CONTINUOUS
 62
              80
  5
80D
 10
2.2275330000000002
 20
-10.457433999999999
 30
0.0
  0
VERTEX
  8
0
  6
CONTINUOUS
 62
              80
  5
80E
 10
2.2064810000000001
 20
-10.460903
 30
0.0
  0
VERTEX
  8
0
  6
CONTINUOUS
 62
              80
  5
80F
 10
2.1854550000000001
 20
-10.46457
 30
0.0
  0
VERTEX
  8
0
  6
CONTINUOUS
 62
              80
  5
810
 10
2.1644600000000001
 20
-10.468434999999999
 30
0.0
  0
VERTEX
  8
0
  6
CONTINUOUS
 62
              80
  5
811
 10
2.1434980000000001
 20
-10.472497000000001
 30
0.0
  0
VERTEX
  8
0
  6
CONTINUOUS
 62
              80
  5
812
 10
2.122573
 20
-10.476758999999999
 30
0.0
  0
VERTEX
  8
0
  6
CONTINUOUS
 62
              80
  5
813
 10
2.1016879999999998
 20
-10.48122
 30
0.0
  0
VERTEX
  8
0
  6
CONTINUOUS
 62
              80
  5
814
 10
2.0808460000000002
 20
-10.485880999999999
 30
0.0
  0
VERTEX
  8
0
  6
CONTINUOUS
 62
              80
  5
815
 10
2.0600499999999999
 20
-10.490741
 30
0.0
  0
VERTEX
  8
0
  6
CONTINUOUS
 62
              80
  5
816
 10
2.0393029999999999
 20
-10.495803
 30
0.0
  0
VERTEX
  8
0
  6
CONTINUOUS
 62
              80
  5
817
 10
2.0186090000000001
 20
-10.501066
 30
0.0
  0
VERTEX
  8
0
  6
CONTINUOUS
 62
              80
  5
818
 10
1.9979709999999999
 20
-10.506531000000001
 30
0.0
  0
VERTEX
  8
0
  6
CONTINUOUS
 62
              80
  5
819
 10
1.9773909999999999
 20
-10.512198
 30
0.0
  0
VERTEX
  8
0
  6
CONTINUOUS
 62
              80
  5
81A
 10
1.9568730000000001
 20
-10.518067
 30
0.0
  0
VERTEX
  8
0
  6
CONTINUOUS
 62
              80
  5
81B
 10
1.9364209999999999
 20
-10.524139999999999
 30
0.0
  0
VERTEX
  8
0
  6
CONTINUOUS
 62
              80
  5
81C
 10
1.916037
 20
-10.530417
 30
0.0
  0
VERTEX
  8
0
  6
CONTINUOUS
 62
              80
  5
81D
 10
1.896884
 20
-10.536521
 30
0.0
  0
VERTEX
  8
0
  6
CONTINUOUS
 62
              80
  5
81E
 10
1.8777839999999999
 20
-10.542812
 30
0.0
  0
VERTEX
  8
0
  6
CONTINUOUS
 62
              80
  5
81F
 10
1.8587389999999999
 20
-10.549291
 30
0.0
  0
VERTEX
  8
0
  6
CONTINUOUS
 62
              80
  5
820
 10
1.839753
 20
-10.555958
 30
0.0
  0
VERTEX
  8
0
  6
CONTINUOUS
 62
              80
  5
821
 10
1.8208299999999999
 20
-10.562813
 30
0.0
  0
VERTEX
  8
0
  6
CONTINUOUS
 62
              80
  5
822
 10
1.801974
 20
-10.569857000000001
 30
0.0
  0
VERTEX
  8
0
  6
CONTINUOUS
 62
              80
  5
823
 10
1.783188
 20
-10.577092
 30
0.0
  0
VERTEX
  8
0
  6
CONTINUOUS
 62
              80
  5
824
 10
1.7644770000000001
 20
-10.584516000000001
 30
0.0
  0
VERTEX
  8
0
  6
CONTINUOUS
 62
              80
  5
825
 10
1.7458419999999999
 20
-10.592131999999999
 30
0.0
  0
VERTEX
  8
0
  6
CONTINUOUS
 62
              80
  5
826
 10
1.7272890000000001
 20
-10.59994
 30
0.0
  0
VERTEX
  8
0
  6
CONTINUOUS
 62
              80
  5
827
 10
1.7088209999999999
 20
-10.607939999999999
 30
0.0
  0
VERTEX
  8
0
  6
CONTINUOUS
 62
              80
  5
828
 10
1.690442
 20
-10.616133
 30
0.0
  0
VERTEX
  8
0
  6
CONTINUOUS
 62
              80
  5
829
 10
1.6721550000000001
 20
-10.624518999999999
 30
0.0
  0
VERTEX
  8
0
  6
CONTINUOUS
 62
              80
  5
82A
 10
1.6539649999999999
 20
-10.633100000000001
 30
0.0
  0
VERTEX
  8
0
  6
CONTINUOUS
 62
              80
  5
82B
 10
1.6358740000000001
 20
-10.641875000000001
 30
0.0
  0
VERTEX
  8
0
  6
CONTINUOUS
 62
              80
  5
82C
 10
1.6178859999999999
 20
-10.650846
 30
0.0
  0
VERTEX
  8
0
  6
CONTINUOUS
 62
              80
  5
82D
 10
1.601531
 20
-10.659219999999999
 30
0.0
  0
VERTEX
  8
0
  6
CONTINUOUS
 62
              80
  5
82E
 10
1.5852550000000001
 20
-10.667767
 30
0.0
  0
VERTEX
  8
0
  6
CONTINUOUS
 62
              80
  5
82F
 10
1.569062
 20
-10.676486000000001
 30
0.0
  0
VERTEX
  8
0
  6
CONTINUOUS
 62
              80
  5
830
 10
1.5529569999999999
 20
-10.685378
 30
0.0
  0
VERTEX
  8
0
  6
CONTINUOUS
 62
              80
  5
831
 10
1.5369429999999999
 20
-10.694443
 30
0.0
  0
VERTEX
  8
0
  6
CONTINUOUS
 62
              80
  5
832
 10
1.5210250000000001
 20
-10.703681
 30
0.0
  0
VERTEX
  8
0
  6
CONTINUOUS
 62
              80
  5
833
 10
1.5052080000000001
 20
-10.713094
 30
0.0
  0
VERTEX
  8
0
  6
CONTINUOUS
 62
              80
  5
834
 10
1.4894959999999999
 20
-10.72268
 30
0.0
  0
VERTEX
  8
0
  6
CONTINUOUS
 62
              80
  5
835
 10
1.473892
 20
-10.732442000000001
 30
0.0
  0
VERTEX
  8
0
  6
CONTINUOUS
 62
              80
  5
836
 10
1.458402
 20
-10.742378
 30
0.0
  0
VERTEX
  8
0
  6
CONTINUOUS
 62
              80
  5
837
 10
1.4430289999999999
 20
-10.752490999999999
 30
0.0
  0
VERTEX
  8
0
  6
CONTINUOUS
 62
              80
  5
838
 10
1.4277789999999999
 20
-10.762779
 30
0.0
  0
VERTEX
  8
0
  6
CONTINUOUS
 62
              80
  5
839
 10
1.412655
 20
-10.773243000000001
 30
0.0
  0
VERTEX
  8
0
  6
CONTINUOUS
 62
              80
  5
83A
 10
1.397662
 20
-10.783884
 30
0.0
  0
VERTEX
  8
0
  6
CONTINUOUS
 62
              80
  5
83B
 10
1.3828039999999999
 20
-10.794701999999999
 30
0.0
  0
VERTEX
  8
0
  6
CONTINUOUS
 62
              80
  5
83C
 10
1.368085
 20
-10.805698
 30
0.0
  0
VERTEX
  8
0
  6
CONTINUOUS
 62
              80
  5
83D
 10
1.355135
 20
-10.815612
 30
0.0
  0
VERTEX
  8
0
  6
CONTINUOUS
 62
              80
  5
83E
 10
1.3422879999999999
 20
-10.825678
 30
0.0
  0
VERTEX
  8
0
  6
CONTINUOUS
 62
              80
  5
83F
 10
1.32955
 20
-10.835894
 30
0.0
  0
VERTEX
  8
0
  6
CONTINUOUS
 62
              80
  5
840
 10
1.316926
 20
-10.846261
 30
0.0
  0
VERTEX
  8
0
  6
CONTINUOUS
 62
              80
  5
841
 10
1.3044210000000001
 20
-10.856778
 30
0.0
  0
VERTEX
  8
0
  6
CONTINUOUS
 62
              80
  5
842
 10
1.2920389999999999
 20
-10.867445
 30
0.0
  0
VERTEX
  8
0
  6
CONTINUOUS
 62
              80
  5
843
 10
1.279785
 20
-10.878261999999999
 30
0.0
  0
VERTEX
  8
0
  6
CONTINUOUS
 62
              80
  5
844
 10
1.267665
 20
-10.889227
 30
0.0
  0
VERTEX
  8
0
  6
CONTINUOUS
 62
              80
  5
845
 10
1.255682
 20
-10.900342
 30
0.0
  0
VERTEX
  8
0
  6
CONTINUOUS
 62
              80
  5
846
 10
1.243843
 20
-10.911606000000001
 30
0.0
  0
VERTEX
  8
0
  6
CONTINUOUS
 62
              80
  5
847
 10
1.232151
 20
-10.923017
 30
0.0
  0
VERTEX
  8
0
  6
CONTINUOUS
 62
              80
  5
848
 10
1.2206129999999999
 20
-10.934577000000001
 30
0.0
  0
VERTEX
  8
0
  6
CONTINUOUS
 62
              80
  5
849
 10
1.2092320000000001
 20
-10.946285
 30
0.0
  0
VERTEX
  8
0
  6
CONTINUOUS
 62
              80
  5
84A
 10
1.198013
 20
-10.958138999999999
 30
0.0
  0
VERTEX
  8
0
  6
CONTINUOUS
 62
              80
  5
84B
 10
1.1869620000000001
 20
-10.970141
 30
0.0
  0
VERTEX
  8
0
  6
CONTINUOUS
 62
              80
  5
84C
 10
1.176083
 20
-10.982289
 30
0.0
  0
VERTEX
  8
0
  6
CONTINUOUS
 62
              80
  5
84D
 10
1.1667689999999999
 20
-10.99297
 30
0.0
  0
VERTEX
  8
0
  6
CONTINUOUS
 62
              80
  5
84E
 10
1.1575820000000001
 20
-11.003774999999999
 30
0.0
  0
VERTEX
  8
0
  6
CONTINUOUS
 62
              80
  5
84F
 10
1.1485270000000001
 20
-11.014703000000001
 30
0.0
  0
VERTEX
  8
0
  6
CONTINUOUS
 62
              80
  5
850
 10
1.1396090000000001
 20
-11.025751
 30
0.0
  0
VERTEX
  8
0
  6
CONTINUOUS
 62
              80
  5
851
 10
1.1308309999999999
 20
-11.036918999999999
 30
0.0
  0
VERTEX
  8
0
  6
CONTINUOUS
 62
              80
  5
852
 10
1.122201
 20
-11.048204
 30
0.0
  0
VERTEX
  8
0
  6
CONTINUOUS
 62
              80
  5
853
 10
1.113721
 20
-11.059606
 30
0.0
  0
VERTEX
  8
0
  6
CONTINUOUS
 62
              80
  5
854
 10
1.105397
 20
-11.071122000000001
 30
0.0
  0
VERTEX
  8
0
  6
CONTINUOUS
 62
              80
  5
855
 10
1.097234
 20
-11.082751
 30
0.0
  0
VERTEX
  8
0
  6
CONTINUOUS
 62
              80
  5
856
 10
1.089237
 20
-11.094491
 30
0.0
  0
VERTEX
  8
0
  6
CONTINUOUS
 62
              80
  5
857
 10
1.0814109999999999
 20
-11.106341
 30
0.0
  0
VERTEX
  8
0
  6
CONTINUOUS
 62
              80
  5
858
 10
1.07376
 20
-11.1183
 30
0.0
  0
VERTEX
  8
0
  6
CONTINUOUS
 62
              80
  5
859
 10
1.066289
 20
-11.130364999999999
 30
0.0
  0
VERTEX
  8
0
  6
CONTINUOUS
 62
              80
  5
85A
 10
1.0590040000000001
 20
-11.142535000000001
 30
0.0
  0
VERTEX
  8
0
  6
CONTINUOUS
 62
              80
  5
85B
 10
1.051909
 20
-11.154807999999999
 30
0.0
  0
VERTEX
  8
0
  6
CONTINUOUS
 62
              80
  5
85C
 10
1.0450090000000001
 20
-11.167183
 30
0.0
  0
VERTEX
  8
0
  6
CONTINUOUS
 62
              80
  5
85D
 10
1.0391589999999999
 20
-11.178049
 30
0.0
  0
VERTEX
  8
0
  6
CONTINUOUS
 62
              80
  5
85E
 10
1.0334570000000001
 20
-11.189007
 30
0.0
  0
VERTEX
  8
0
  6
CONTINUOUS
 62
              80
  5
85F
 10
1.0279069999999999
 20
-11.200051999999999
 30
0.0
  0
VERTEX
  8
0
  6
CONTINUOUS
 62
              80
  5
860
 10
1.0225120000000001
 20
-11.211183
 30
0.0
  0
VERTEX
  8
0
  6
CONTINUOUS
 62
              80
  5
861
 10
1.0172760000000001
 20
-11.222395000000001
 30
0.0
  0
VERTEX
  8
0
  6
CONTINUOUS
 62
              80
  5
862
 10
1.012203
 20
-11.233686000000001
 30
0.0
  0
VERTEX
  8
0
  6
CONTINUOUS
 62
              80
  5
863
 10
1.0072970000000001
 20
-11.245051999999999
 30
0.0
  0
VERTEX
  8
0
  6
CONTINUOUS
 62
              80
  5
864
 10
1.002561
 20
-11.256491
 30
0.0
  0
VERTEX
  8
0
  6
CONTINUOUS
 62
              80
  5
865
 10
0.997999
 20
-11.268000000000001
 30
0.0
  0
VERTEX
  8
0
  6
CONTINUOUS
 62
              80
  5
866
 10
0.993615
 20
-11.279574
 30
0.0
  0
VERTEX
  8
0
  6
CONTINUOUS
 62
              80
  5
867
 10
0.989413
 20
-11.291212
 30
0.0
  0
VERTEX
  8
0
  6
CONTINUOUS
 62
              80
  5
868
 10
0.9853960000000001
 20
-11.302909
 30
0.0
  0
VERTEX
  8
0
  6
CONTINUOUS
 62
              80
  5
869
 10
0.981569
 20
-11.314664
 30
0.0
  0
VERTEX
  8
0
  6
CONTINUOUS
 62
              80
  5
86A
 10
0.977934
 20
-11.326472000000001
 30
0.0
  0
VERTEX
  8
0
  6
CONTINUOUS
 62
              80
  5
86B
 10
0.974497
 20
-11.338331
 30
0.0
  0
VERTEX
  8
0
  6
CONTINUOUS
 62
              80
  5
86C
 10
0.971259
 20
-11.350237999999999
 30
0.0
  0
VERTEX
  8
0
  6
CONTINUOUS
 62
              80
  5
86D
 10
0.968482
 20
-11.361153
 30
0.0
  0
VERTEX
  8
0
  6
CONTINUOUS
 62
              80
  5
86E
 10
0.965873
 20
-11.372121
 30
0.0
  0
VERTEX
  8
0
  6
CONTINUOUS
 62
              80
  5
86F
 10
0.963434
 20
-11.383137
 30
0.0
  0
VERTEX
  8
0
  6
CONTINUOUS
 62
              80
  5
870
 10
0.961166
 20
-11.394197
 30
0.0
  0
VERTEX
  8
0
  6
CONTINUOUS
 62
              80
  5
871
 10
0.959072
 20
-11.405296
 30
0.0
  0
VERTEX
  8
0
  6
CONTINUOUS
 62
              80
  5
872
 10
0.957153
 20
-11.416432
 30
0.0
  0
VERTEX
  8
0
  6
CONTINUOUS
 62
              80
  5
873
 10
0.955409
 20
-11.427599000000001
 30
0.0
  0
VERTEX
  8
0
  6
CONTINUOUS
 62
              80
  5
874
 10
0.953843
 20
-11.438794
 30
0.0
  0
VERTEX
  8
0
  6
CONTINUOUS
 62
              80
  5
875
 10
0.9524550000000001
 20
-11.450011
 30
0.0
  0
VERTEX
  8
0
  6
CONTINUOUS
 62
              80
  5
876
 10
0.951248
 20
-11.461247999999999
 30
0.0
  0
VERTEX
  8
0
  6
CONTINUOUS
 62
              80
  5
877
 10
0.950223
 20
-11.472498999999999
 30
0.0
  0
VERTEX
  8
0
  6
CONTINUOUS
 62
              80
  5
878
 10
0.949381
 20
-11.483760999999999
 30
0.0
  0
VERTEX
  8
0
  6
CONTINUOUS
 62
              80
  5
879
 10
0.948723
 20
-11.495029000000001
 30
0.0
  0
VERTEX
  8
0
  6
CONTINUOUS
 62
              80
  5
87A
 10
0.948252
 20
-11.506299
 30
0.0
  0
VERTEX
  8
0
  6
CONTINUOUS
 62
              80
  5
87B
 10
0.947968
 20
-11.517567
 30
0.0
  0
VERTEX
  8
0
  6
CONTINUOUS
 62
              80
  5
87C
 10
0.947873
 20
-11.528829
 30
0.0
  0
VERTEX
  8
0
  6
CONTINUOUS
 62
              80
  5
87D
 10
0.947968
 20
-11.540091
 30
0.0
  0
VERTEX
  8
0
  6
CONTINUOUS
 62
              80
  5
87E
 10
0.948252
 20
-11.551359
 30
0.0
  0
VERTEX
  8
0
  6
CONTINUOUS
 62
              80
  5
87F
 10
0.948723
 20
-11.562628999999999
 30
0.0
  0
VERTEX
  8
0
  6
CONTINUOUS
 62
              80
  5
880
 10
0.949381
 20
-11.573897000000001
 30
0.0
  0
VERTEX
  8
0
  6
CONTINUOUS
 62
              80
  5
881
 10
0.950223
 20
-11.585159000000001
 30
0.0
  0
VERTEX
  8
0
  6
CONTINUOUS
 62
              80
  5
882
 10
0.951248
 20
-11.596410000000001
 30
0.0
  0
VERTEX
  8
0
  6
CONTINUOUS
 62
              80
  5
883
 10
0.9524550000000001
 20
-11.607647
 30
0.0
  0
VERTEX
  8
0
  6
CONTINUOUS
 62
              80
  5
884
 10
0.953843
 20
-11.618864
 30
0.0
  0
VERTEX
  8
0
  6
CONTINUOUS
 62
              80
  5
885
 10
0.955409
 20
-11.630058999999999
 30
0.0
  0
VERTEX
  8
0
  6
CONTINUOUS
 62
              80
  5
886
 10
0.957153
 20
-11.641226
 30
0.0
  0
VERTEX
  8
0
  6
CONTINUOUS
 62
              80
  5
887
 10
0.959072
 20
-11.652362
 30
0.0
  0
VERTEX
  8
0
  6
CONTINUOUS
 62
              80
  5
888
 10
0.961166
 20
-11.663462000000001
 30
0.0
  0
VERTEX
  8
0
  6
CONTINUOUS
 62
              80
  5
889
 10
0.963434
 20
-11.674522
 30
0.0
  0
VERTEX
  8
0
  6
CONTINUOUS
 62
              80
  5
88A
 10
0.965873
 20
-11.685537999999999
 30
0.0
  0
VERTEX
  8
0
  6
CONTINUOUS
 62
              80
  5
88B
 10
0.968482
 20
-11.696505
 30
0.0
  0
VERTEX
  8
0
  6
CONTINUOUS
 62
              80
  5
88C
 10
0.971259
 20
-11.707420000000001
 30
0.0
  0
VERTEX
  8
0
  6
CONTINUOUS
 62
              80
  5
88D
 10
0.974497
 20
-11.719327
 30
0.0
  0
VERTEX
  8
0
  6
CONTINUOUS
 62
              80
  5
88E
 10
0.977934
 20
-11.731185999999999
 30
0.0
  0
VERTEX
  8
0
  6
CONTINUOUS
 62
              80
  5
88F
 10
0.981569
 20
-11.742993999999999
 30
0.0
  0
VERTEX
  8
0
  6
CONTINUOUS
 62
              80
  5
890
 10
0.9853960000000001
 20
-11.754749
 30
0.0
  0
VERTEX
  8
0
  6
CONTINUOUS
 62
              80
  5
891
 10
0.989413
 20
-11.766446
 30
0.0
  0
VERTEX
  8
0
  6
CONTINUOUS
 62
              80
  5
892
 10
0.993615
 20
-11.778084
 30
0.0
  0
VERTEX
  8
0
  6
CONTINUOUS
 62
              80
  5
893
 10
0.997999
 20
-11.789659
 30
0.0
  0
VERTEX
  8
0
  6
CONTINUOUS
 62
              80
  5
894
 10
1.002561
 20
-11.801167
 30
0.0
  0
VERTEX
  8
0
  6
CONTINUOUS
 62
              80
  5
895
 10
1.0072970000000001
 20
-11.812606000000001
 30
0.0
  0
VERTEX
  8
0
  6
CONTINUOUS
 62
              80
  5
896
 10
1.012203
 20
-11.823971999999999
 30
0.0
  0
VERTEX
  8
0
  6
CONTINUOUS
 62
              80
  5
897
 10
1.0172760000000001
 20
-11.835262999999999
 30
0.0
  0
VERTEX
  8
0
  6
CONTINUOUS
 62
              80
  5
898
 10
1.0225120000000001
 20
-11.846475
 30
0.0
  0
VERTEX
  8
0
  6
CONTINUOUS
 62
              80
  5
899
 10
1.0279069999999999
 20
-11.857606000000001
 30
0.0
  0
VERTEX
  8
0
  6
CONTINUOUS
 62
              80
  5
89A
 10
1.0334570000000001
 20
-11.868651
 30
0.0
  0
VERTEX
  8
0
  6
CONTINUOUS
 62
              80
  5
89B
 10
1.0391589999999999
 20
-11.879609
 30
0.0
  0
VERTEX
  8
0
  6
CONTINUOUS
 62
              80
  5
89C
 10
1.0450090000000001
 20
-11.890475
 30
0.0
  0
VERTEX
  8
0
  6
CONTINUOUS
 62
              80
  5
89D
 10
1.051909
 20
-11.902850000000001
 30
0.0
  0
VERTEX
  8
0
  6
CONTINUOUS
 62
              80
  5
89E
 10
1.0590040000000001
 20
-11.915124
 30
0.0
  0
VERTEX
  8
0
  6
CONTINUOUS
 62
              80
  5
89F
 10
1.066289
 20
-11.927294
 30
0.0
  0
VERTEX
  8
0
  6
CONTINUOUS
 62
              80
  5
8A0
 10
1.07376
 20
-11.939359
 30
0.0
  0
VERTEX
  8
0
  6
CONTINUOUS
 62
              80
  5
8A1
 10
1.0814109999999999
 20
-11.951317
 30
0.0
  0
VERTEX
  8
0
  6
CONTINUOUS
 62
              80
  5
8A2
 10
1.089237
 20
-11.963167
 30
0.0
  0
VERTEX
  8
0
  6
CONTINUOUS
 62
              80
  5
8A3
 10
1.097234
 20
-11.974907
 30
0.0
  0
VERTEX
  8
0
  6
CONTINUOUS
 62
              80
  5
8A4
 10
1.105397
 20
-11.986535999999999
 30
0.0
  0
VERTEX
  8
0
  6
CONTINUOUS
 62
              80
  5
8A5
 10
1.113721
 20
-11.998051999999999
 30
0.0
  0
VERTEX
  8
0
  6
CONTINUOUS
 62
              80
  5
8A6
 10
1.122201
 20
-12.009454
 30
0.0
  0
VERTEX
  8
0
  6
CONTINUOUS
 62
              80
  5
8A7
 10
1.1308309999999999
 20
-12.020739000000001
 30
0.0
  0
VERTEX
  8
0
  6
CONTINUOUS
 62
              80
  5
8A8
 10
1.1396090000000001
 20
-12.031907
 30
0.0
  0
VERTEX
  8
0
  6
CONTINUOUS
 62
              80
  5
8A9
 10
1.1485270000000001
 20
-12.042954999999999
 30
0.0
  0
VERTEX
  8
0
  6
CONTINUOUS
 62
              80
  5
8AA
 10
1.1575820000000001
 20
-12.053883000000001
 30
0.0
  0
VERTEX
  8
0
  6
CONTINUOUS
 62
              80
  5
8AB
 10
1.1667689999999999
 20
-12.064688
 30
0.0
  0
VERTEX
  8
0
  6
CONTINUOUS
 62
              80
  5
8AC
 10
1.176083
 20
-12.075369
 30
0.0
  0
VERTEX
  8
0
  6
CONTINUOUS
 62
              80
  5
8AD
 10
1.1869620000000001
 20
-12.087517
 30
0.0
  0
VERTEX
  8
0
  6
CONTINUOUS
 62
              80
  5
8AE
 10
1.198013
 20
-12.099519000000001
 30
0.0
  0
VERTEX
  8
0
  6
CONTINUOUS
 62
              80
  5
8AF
 10
1.2092320000000001
 20
-12.111374
 30
0.0
  0
VERTEX
  8
0
  6
CONTINUOUS
 62
              80
  5
8B0
 10
1.2206129999999999
 20
-12.123081000000001
 30
0.0
  0
VERTEX
  8
0
  6
CONTINUOUS
 62
              80
  5
8B1
 10
1.232151
 20
-12.134641
 30
0.0
  0
VERTEX
  8
0
  6
CONTINUOUS
 62
              80
  5
8B2
 10
1.243843
 20
-12.146053
 30
0.0
  0
VERTEX
  8
0
  6
CONTINUOUS
 62
              80
  5
8B3
 10
1.255682
 20
-12.157316
 30
0.0
  0
VERTEX
  8
0
  6
CONTINUOUS
 62
              80
  5
8B4
 10
1.267665
 20
-12.168431
 30
0.0
  0
VERTEX
  8
0
  6
CONTINUOUS
 62
              80
  5
8B5
 10
1.279785
 20
-12.179397
 30
0.0
  0
VERTEX
  8
0
  6
CONTINUOUS
 62
              80
  5
8B6
 10
1.2920389999999999
 20
-12.190213
 30
0.0
  0
VERTEX
  8
0
  6
CONTINUOUS
 62
              80
  5
8B7
 10
1.3044210000000001
 20
-12.20088
 30
0.0
  0
VERTEX
  8
0
  6
CONTINUOUS
 62
              80
  5
8B8
 10
1.316926
 20
-12.211397
 30
0.0
  0
VERTEX
  8
0
  6
CONTINUOUS
 62
              80
  5
8B9
 10
1.32955
 20
-12.221764
 30
0.0
  0
VERTEX
  8
0
  6
CONTINUOUS
 62
              80
  5
8BA
 10
1.3422879999999999
 20
-12.231980999999999
 30
0.0
  0
VERTEX
  8
0
  6
CONTINUOUS
 62
              80
  5
8BB
 10
1.355135
 20
-12.242046
 30
0.0
  0
VERTEX
  8
0
  6
CONTINUOUS
 62
              80
  5
8BC
 10
1.368085
 20
-12.25196
 30
0.0
  0
VERTEX
  8
0
  6
CONTINUOUS
 62
              80
  5
8BD
 10
1.3828039999999999
 20
-12.262956000000001
 30
0.0
  0
VERTEX
  8
0
  6
CONTINUOUS
 62
              80
  5
8BE
 10
1.397662
 20
-12.273774
 30
0.0
  0
VERTEX
  8
0
  6
CONTINUOUS
 62
              80
  5
8BF
 10
1.412655
 20
-12.284414999999999
 30
0.0
  0
VERTEX
  8
0
  6
CONTINUOUS
 62
              80
  5
8C0
 10
1.4277789999999999
 20
-12.294879999999999
 30
0.0
  0
VERTEX
  8
0
  6
CONTINUOUS
 62
              80
  5
8C1
 10
1.4430289999999999
 20
-12.305168
 30
0.0
  0
VERTEX
  8
0
  6
CONTINUOUS
 62
              80
  5
8C2
 10
1.458402
 20
-12.31528
 30
0.0
  0
VERTEX
  8
0
  6
CONTINUOUS
 62
              80
  5
8C3
 10
1.473892
 20
-12.325215999999999
 30
0.0
  0
VERTEX
  8
0
  6
CONTINUOUS
 62
              80
  5
8C4
 10
1.4894959999999999
 20
-12.334978
 30
0.0
  0
VERTEX
  8
0
  6
CONTINUOUS
 62
              80
  5
8C5
 10
1.5052080000000001
 20
-12.344564999999999
 30
0.0
  0
VERTEX
  8
0
  6
CONTINUOUS
 62
              80
  5
8C6
 10
1.5210250000000001
 20
-12.353977
 30
0.0
  0
VERTEX
  8
0
  6
CONTINUOUS
 62
              80
  5
8C7
 10
1.5369429999999999
 20
-12.363215
 30
0.0
  0
VERTEX
  8
0
  6
CONTINUOUS
 62
              80
  5
8C8
 10
1.5529569999999999
 20
-12.37228
 30
0.0
  0
VERTEX
  8
0
  6
CONTINUOUS
 62
              80
  5
8C9
 10
1.569062
 20
-12.381171999999999
 30
0.0
  0
VERTEX
  8
0
  6
CONTINUOUS
 62
              80
  5
8CA
 10
1.5852550000000001
 20
-12.389891
 30
0.0
  0
VERTEX
  8
0
  6
CONTINUOUS
 62
              80
  5
8CB
 10
1.601531
 20
-12.398438000000001
 30
0.0
  0
VERTEX
  8
0
  6
CONTINUOUS
 62
              80
  5
8CC
 10
1.6178859999999999
 20
-12.406812
 30
0.0
  0
VERTEX
  8
0
  6
CONTINUOUS
 62
              80
  5
8CD
 10
1.6358740000000001
 20
-12.415782999999999
 30
0.0
  0
VERTEX
  8
0
  6
CONTINUOUS
 62
              80
  5
8CE
 10
1.6539649999999999
 20
-12.424559
 30
0.0
  0
VERTEX
  8
0
  6
CONTINUOUS
 62
              80
  5
8CF
 10
1.6721550000000001
 20
-12.433139000000001
 30
0.0
  0
VERTEX
  8
0
  6
CONTINUOUS
 62
              80
  5
8D0
 10
1.690442
 20
-12.441526
 30
0.0
  0
VERTEX
  8
0
  6
CONTINUOUS
 62
              80
  5
8D1
 10
1.7088209999999999
 20
-12.449718000000001
 30
0.0
  0
VERTEX
  8
0
  6
CONTINUOUS
 62
              80
  5
8D2
 10
1.7272890000000001
 20
-12.457718
 30
0.0
  0
VERTEX
  8
0
  6
CONTINUOUS
 62
              80
  5
8D3
 10
1.7458419999999999
 20
-12.465526000000001
 30
0.0
  0
VERTEX
  8
0
  6
CONTINUOUS
 62
              80
  5
8D4
 10
1.7644770000000001
 20
-12.473141999999999
 30
0.0
  0
VERTEX
  8
0
  6
CONTINUOUS
 62
              80
  5
8D5
 10
1.783188
 20
-12.480567000000001
 30
0.0
  0
VERTEX
  8
0
  6
CONTINUOUS
 62
              80
  5
8D6
 10
1.801974
 20
-12.487800999999999
 30
0.0
  0
VERTEX
  8
0
  6
CONTINUOUS
 62
              80
  5
8D7
 10
1.8208299999999999
 20
-12.494846000000001
 30
0.0
  0
VERTEX
  8
0
  6
CONTINUOUS
 62
              80
  5
8D8
 10
1.839753
 20
-12.501701000000001
 30
0.0
  0
VERTEX
  8
0
  6
CONTINUOUS
 62
              80
  5
8D9
 10
1.8587389999999999
 20
-12.508367
 30
0.0
  0
VERTEX
  8
0
  6
CONTINUOUS
 62
              80
  5
8DA
 10
1.8777839999999999
 20
-12.514846
 30
0.0
  0
VERTEX
  8
0
  6
CONTINUOUS
 62
              80
  5
8DB
 10
1.896884
 20
-12.521137
 30
0.0
  0
VERTEX
  8
0
  6
CONTINUOUS
 62
              80
  5
8DC
 10
1.916037
 20
-12.527241999999999
 30
0.0
  0
VERTEX
  8
0
  6
CONTINUOUS
 62
              80
  5
8DD
 10
1.9364209999999999
 20
-12.533518000000001
 30
0.0
  0
VERTEX
  8
0
  6
CONTINUOUS
 62
              80
  5
8DE
 10
1.9568730000000001
 20
-12.539591
 30
0.0
  0
VERTEX
  8
0
  6
CONTINUOUS
 62
              80
  5
8DF
 10
1.9773909999999999
 20
-12.545461
 30
0.0
  0
VERTEX
  8
0
  6
CONTINUOUS
 62
              80
  5
8E0
 10
1.9979709999999999
 20
-12.551126999999999
 30
0.0
  0
VERTEX
  8
0
  6
CONTINUOUS
 62
              80
  5
8E1
 10
2.0186090000000001
 20
-12.556592
 30
0.0
  0
VERTEX
  8
0
  6
CONTINUOUS
 62
              80
  5
8E2
 10
2.0393029999999999
 20
-12.561855
 30
0.0
  0
VERTEX
  8
0
  6
CONTINUOUS
 62
              80
  5
8E3
 10
2.0600499999999999
 20
-12.566917
 30
0.0
  0
VERTEX
  8
0
  6
CONTINUOUS
 62
              80
  5
8E4
 10
2.0808460000000002
 20
-12.571778
 30
0.0
  0
VERTEX
  8
0
  6
CONTINUOUS
 62
              80
  5
8E5
 10
2.1016879999999998
 20
-12.576438
 30
0.0
  0
VERTEX
  8
0
  6
CONTINUOUS
 62
              80
  5
8E6
 10
2.122573
 20
-12.580899
 30
0.0
  0
VERTEX
  8
0
  6
CONTINUOUS
 62
              80
  5
8E7
 10
2.1434980000000001
 20
-12.585160999999999
 30
0.0
  0
VERTEX
  8
0
  6
CONTINUOUS
 62
              80
  5
8E8
 10
2.1644600000000001
 20
-12.589224
 30
0.0
  0
VERTEX
  8
0
  6
CONTINUOUS
 62
              80
  5
8E9
 10
2.1854550000000001
 20
-12.593088
 30
0.0
  0
VERTEX
  8
0
  6
CONTINUOUS
 62
              80
  5
8EA
 10
2.2064810000000001
 20
-12.596755
 30
0.0
  0
VERTEX
  8
0
  6
CONTINUOUS
 62
              80
  5
8EB
 10
2.2275330000000002
 20
-12.600224000000001
 30
0.0
  0
VERTEX
  8
0
  6
CONTINUOUS
 62
              80
  5
8EC
 10
2.2486100000000002
 20
-12.603497000000001
 30
0.0
  0
VERTEX
  8
0
  6
CONTINUOUS
 62
              80
  5
8ED
 10
2.2703449999999998
 20
-12.606662999999999
 30
0.0
  0
VERTEX
  8
0
  6
CONTINUOUS
 62
              80
  5
8EE
 10
2.2921149999999999
 20
-12.609622999999999
 30
0.0
  0
VERTEX
  8
0
  6
CONTINUOUS
 62
              80
  5
8EF
 10
2.313917
 20
-12.612378
 30
0.0
  0
VERTEX
  8
0
  6
CONTINUOUS
 62
              80
  5
8F0
 10
2.33575
 20
-12.614928000000001
 30
0.0
  0
VERTEX
  8
0
  6
CONTINUOUS
 62
              80
  5
8F1
 10
2.3576090000000001
 20
-12.617273000000001
 30
0.0
  0
VERTEX
  8
0
  6
CONTINUOUS
 62
              80
  5
8F2
 10
2.3794919999999999
 20
-12.619413
 30
0.0
  0
VERTEX
  8
0
  6
CONTINUOUS
 62
              80
  5
8F3
 10
2.4013969999999998
 20
-12.621347999999999
 30
0.0
  0
VERTEX
  8
0
  6
CONTINUOUS
 62
              80
  5
8F4
 10
2.4233189999999998
 20
-12.623079000000001
 30
0.0
  0
VERTEX
  8
0
  6
CONTINUOUS
 62
              80
  5
8F5
 10
2.4452569999999998
 20
-12.624605000000001
 30
0.0
  0
VERTEX
  8
0
  6
CONTINUOUS
 62
              80
  5
8F6
 10
2.4672070000000001
 20
-12.625927000000001
 30
0.0
  0
VERTEX
  8
0
  6
CONTINUOUS
 62
              80
  5
8F7
 10
2.4891670000000001
 20
-12.627046
 30
0.0
  0
VERTEX
  8
0
  6
CONTINUOUS
 62
              80
  5
8F8
 10
2.5111330000000001
 20
-12.627961000000001
 30
0.0
  0
VERTEX
  8
0
  6
CONTINUOUS
 62
              80
  5
8F9
 10
2.5331030000000001
 20
-12.628672
 30
0.0
  0
VERTEX
  8
0
  6
CONTINUOUS
 62
              80
  5
8FA
 10
2.5550739999999998
 20
-12.629179000000001
 30
0.0
  0
VERTEX
  8
0
  6
CONTINUOUS
 62
              80
  5
8FB
 10
2.5770430000000002
 20
-12.629484
 30
0.0
  0
VERTEX
  8
0
  6
CONTINUOUS
 62
              80
  5
8FC
 10
2.5990069999999998
 20
-12.629585000000001
 30
0.0
  0
VERTEX
  8
0
  6
CONTINUOUS
 62
              80
  5
8FD
 10
2.6209709999999999
 20
-12.629484
 30
0.0
  0
VERTEX
  8
0
  6
CONTINUOUS
 62
              80
  5
8FE
 10
2.6429399999999998
 20
-12.629179000000001
 30
0.0
  0
VERTEX
  8
0
  6
CONTINUOUS
 62
              80
  5
8FF
 10
2.6649099999999999
 20
-12.628672
 30
0.0
  0
VERTEX
  8
0
  6
CONTINUOUS
 62
              80
  5
900
 10
2.6868810000000001
 20
-12.627961000000001
 30
0.0
  0
VERTEX
  8
0
  6
CONTINUOUS
 62
              80
  5
901
 10
2.708847
 20
-12.627046
 30
0.0
  0
VERTEX
  8
0
  6
CONTINUOUS
 62
              80
  5
902
 10
2.730807
 20
-12.625927000000001
 30
0.0
  0
VERTEX
  8
0
  6
CONTINUOUS
 62
              80
  5
903
 10
2.7527569999999999
 20
-12.624605000000001
 30
0.0
  0
VERTEX
  8
0
  6
CONTINUOUS
 62
              80
  5
904
 10
2.7746949999999999
 20
-12.623079000000001
 30
0.0
  0
VERTEX
  8
0
  6
CONTINUOUS
 62
              80
  5
905
 10
2.7966169999999999
 20
-12.621347999999999
 30
0.0
  0
VERTEX
  8
0
  6
CONTINUOUS
 62
              80
  5
906
 10
2.8185210000000001
 20
-12.619413
 30
0.0
  0
VERTEX
  8
0
  6
CONTINUOUS
 62
              80
  5
907
 10
2.8404050000000001
 20
-12.617273000000001
 30
0.0
  0
VERTEX
  8
0
  6
CONTINUOUS
 62
              80
  5
908
 10
2.8622640000000001
 20
-12.614928000000001
 30
0.0
  0
VERTEX
  8
0
  6
CONTINUOUS
 62
              80
  5
909
 10
2.884096
 20
-12.612378
 30
0.0
  0
VERTEX
  8
0
  6
CONTINUOUS
 62
              80
  5
90A
 10
2.9058989999999998
 20
-12.609622999999999
 30
0.0
  0
VERTEX
  8
0
  6
CONTINUOUS
 62
              80
  5
90B
 10
2.9276689999999999
 20
-12.606662999999999
 30
0.0
  0
VERTEX
  8
0
  6
CONTINUOUS
 62
              80
  5
90C
 10
2.9494039999999999
 20
-12.603497000000001
 30
0.0
  0
VERTEX
  8
0
  6
CONTINUOUS
 62
              80
  5
90D
 10
2.9704799999999998
 20
-12.600224000000001
 30
0.0
  0
VERTEX
  8
0
  6
CONTINUOUS
 62
              80
  5
90E
 10
2.991533
 20
-12.596755
 30
0.0
  0
VERTEX
  8
0
  6
CONTINUOUS
 62
              80
  5
90F
 10
3.012559
 20
-12.593088
 30
0.0
  0
VERTEX
  8
0
  6
CONTINUOUS
 62
              80
  5
910
 10
3.0335540000000001
 20
-12.589224
 30
0.0
  0
VERTEX
  8
0
  6
CONTINUOUS
 62
              80
  5
911
 10
3.054516
 20
-12.585160999999999
 30
0.0
  0
VERTEX
  8
0
  6
CONTINUOUS
 62
              80
  5
912
 10
3.0754410000000001
 20
-12.580899
 30
0.0
  0
VERTEX
  8
0
  6
CONTINUOUS
 62
              80
  5
913
 10
3.0963259999999999
 20
-12.576438
 30
0.0
  0
VERTEX
  8
0
  6
CONTINUOUS
 62
              80
  5
914
 10
3.1171679999999999
 20
-12.571778
 30
0.0
  0
VERTEX
  8
0
  6
CONTINUOUS
 62
              80
  5
915
 10
3.1379640000000002
 20
-12.566917
 30
0.0
  0
VERTEX
  8
0
  6
CONTINUOUS
 62
              80
  5
916
 10
3.1587109999999998
 20
-12.561855
 30
0.0
  0
VERTEX
  8
0
  6
CONTINUOUS
 62
              80
  5
917
 10
3.179405
 20
-12.556592
 30
0.0
  0
VERTEX
  8
0
  6
CONTINUOUS
 62
              80
  5
918
 10
3.200043
 20
-12.551126999999999
 30
0.0
  0
VERTEX
  8
0
  6
CONTINUOUS
 62
              80
  5
919
 10
3.2206229999999998
 20
-12.545461
 30
0.0
  0
VERTEX
  8
0
  6
CONTINUOUS
 62
              80
  5
91A
 10
3.2411409999999998
 20
-12.539591
 30
0.0
  0
VERTEX
  8
0
  6
CONTINUOUS
 62
              80
  5
91B
 10
3.261593
 20
-12.533518000000001
 30
0.0
  0
VERTEX
  8
0
  6
CONTINUOUS
 62
              80
  5
91C
 10
3.2819769999999999
 20
-12.527241999999999
 30
0.0
  0
VERTEX
  8
0
  6
CONTINUOUS
 62
              80
  5
91D
 10
3.3011300000000001
 20
-12.521137
 30
0.0
  0
VERTEX
  8
0
  6
CONTINUOUS
 62
              80
  5
91E
 10
3.32023
 20
-12.514846
 30
0.0
  0
VERTEX
  8
0
  6
CONTINUOUS
 62
              80
  5
91F
 10
3.3392750000000002
 20
-12.508367
 30
0.0
  0
VERTEX
  8
0
  6
CONTINUOUS
 62
              80
  5
920
 10
3.3582610000000002
 20
-12.501701000000001
 30
0.0
  0
VERTEX
  8
0
  6
CONTINUOUS
 62
              80
  5
921
 10
3.377183
 20
-12.494846000000001
 30
0.0
  0
VERTEX
  8
0
  6
CONTINUOUS
 62
              80
  5
922
 10
3.396039
 20
-12.487800999999999
 30
0.0
  0
VERTEX
  8
0
  6
CONTINUOUS
 62
              80
  5
923
 10
3.414825
 20
-12.480567000000001
 30
0.0
  0
VERTEX
  8
0
  6
CONTINUOUS
 62
              80
  5
924
 10
3.4335369999999998
 20
-12.473141999999999
 30
0.0
  0
VERTEX
  8
0
  6
CONTINUOUS
 62
              80
  5
925
 10
3.4521709999999999
 20
-12.465526000000001
 30
0.0
  0
VERTEX
  8
0
  6
CONTINUOUS
 62
              80
  5
926
 10
3.4707240000000001
 20
-12.457718
 30
0.0
  0
VERTEX
  8
0
  6
CONTINUOUS
 62
              80
  5
927
 10
3.4891920000000001
 20
-12.449718000000001
 30
0.0
  0
VERTEX
  8
0
  6
CONTINUOUS
 62
              80
  5
928
 10
3.5075720000000001
 20
-12.441526
 30
0.0
  0
VERTEX
  8
0
  6
CONTINUOUS
 62
              80
  5
929
 10
3.5258579999999999
 20
-12.433139000000001
 30
0.0
  0
VERTEX
  8
0
  6
CONTINUOUS
 62
              80
  5
92A
 10
3.5440489999999998
 20
-12.424559
 30
0.0
  0
VERTEX
  8
0
  6
CONTINUOUS
 62
              80
  5
92B
 10
3.5621399999999999
 20
-12.415782999999999
 30
0.0
  0
VERTEX
  8
0
  6
CONTINUOUS
 62
              80
  5
92C
 10
3.5801280000000002
 20
-12.406812
 30
0.0
  0
VERTEX
  8
0
  6
CONTINUOUS
 62
              80
  5
92D
 10
3.596482
 20
-12.398438000000001
 30
0.0
  0
VERTEX
  8
0
  6
CONTINUOUS
 62
              80
  5
92E
 10
3.6127579999999999
 20
-12.389891
 30
0.0
  0
VERTEX
  8
0
  6
CONTINUOUS
 62
              80
  5
92F
 10
3.6289509999999998
 20
-12.381171999999999
 30
0.0
  0
VERTEX
  8
0
  6
CONTINUOUS
 62
              80
  5
930
 10
3.645057
 20
-12.37228
 30
0.0
  0
VERTEX
  8
0
  6
CONTINUOUS
 62
              80
  5
931
 10
3.6610710000000002
 20
-12.363215
 30
0.0
  0
VERTEX
  8
0
  6
CONTINUOUS
 62
              80
  5
932
 10
3.6769880000000001
 20
-12.353977
 30
0.0
  0
VERTEX
  8
0
  6
CONTINUOUS
 62
              80
  5
933
 10
3.692806
 20
-12.344564999999999
 30
0.0
  0
VERTEX
  8
0
  6
CONTINUOUS
 62
              80
  5
934
 10
3.7085180000000002
 20
-12.334978
 30
0.0
  0
VERTEX
  8
0
  6
CONTINUOUS
 62
              80
  5
935
 10
3.7241219999999999
 20
-12.325215999999999
 30
0.0
  0
VERTEX
  8
0
  6
CONTINUOUS
 62
              80
  5
936
 10
3.7396120000000002
 20
-12.31528
 30
0.0
  0
VERTEX
  8
0
  6
CONTINUOUS
 62
              80
  5
937
 10
3.7549839999999999
 20
-12.305168
 30
0.0
  0
VERTEX
  8
0
  6
CONTINUOUS
 62
              80
  5
938
 10
3.770235
 20
-12.294879999999999
 30
0.0
  0
VERTEX
  8
0
  6
CONTINUOUS
 62
              80
  5
939
 10
3.7853590000000001
 20
-12.284414999999999
 30
0.0
  0
VERTEX
  8
0
  6
CONTINUOUS
 62
              80
  5
93A
 10
3.8003520000000002
 20
-12.273774
 30
0.0
  0
VERTEX
  8
0
  6
CONTINUOUS
 62
              80
  5
93B
 10
3.81521
 20
-12.262956000000001
 30
0.0
  0
VERTEX
  8
0
  6
CONTINUOUS
 62
              80
  5
93C
 10
3.8299289999999999
 20
-12.25196
 30
0.0
  0
VERTEX
  8
0
  6
CONTINUOUS
 62
              80
  5
93D
 10
3.8428789999999999
 20
-12.242046
 30
0.0
  0
VERTEX
  8
0
  6
CONTINUOUS
 62
              80
  5
93E
 10
3.8557260000000002
 20
-12.231980999999999
 30
0.0
  0
VERTEX
  8
0
  6
CONTINUOUS
 62
              80
  5
93F
 10
3.8684639999999999
 20
-12.221764
 30
0.0
  0
VERTEX
  8
0
  6
CONTINUOUS
 62
              80
  5
940
 10
3.8810880000000001
 20
-12.211397
 30
0.0
  0
VERTEX
  8
0
  6
CONTINUOUS
 62
              80
  5
941
 10
3.8935930000000001
 20
-12.20088
 30
0.0
  0
VERTEX
  8
0
  6
CONTINUOUS
 62
              80
  5
942
 10
3.9059750000000002
 20
-12.190213
 30
0.0
  0
VERTEX
  8
0
  6
CONTINUOUS
 62
              80
  5
943
 10
3.9182290000000002
 20
-12.179397
 30
0.0
  0
VERTEX
  8
0
  6
CONTINUOUS
 62
              80
  5
944
 10
3.9303490000000001
 20
-12.168431
 30
0.0
  0
VERTEX
  8
0
  6
CONTINUOUS
 62
              80
  5
945
 10
3.9423319999999999
 20
-12.157316
 30
0.0
  0
VERTEX
  8
0
  6
CONTINUOUS
 62
              80
  5
946
 10
3.9541710000000001
 20
-12.146053
 30
0.0
  0
VERTEX
  8
0
  6
CONTINUOUS
 62
              80
  5
947
 10
3.965862
 20
-12.134641
 30
0.0
  0
VERTEX
  8
0
  6
CONTINUOUS
 62
              80
  5
948
 10
3.977401
 20
-12.123081000000001
 30
0.0
  0
VERTEX
  8
0
  6
CONTINUOUS
 62
              80
  5
949
 10
3.988782
 20
-12.111374
 30
0.0
  0
VERTEX
  8
0
  6
CONTINUOUS
 62
              80
  5
94A
 10
4.0000010000000001
 20
-12.099519000000001
 30
0.0
  0
VERTEX
  8
0
  6
CONTINUOUS
 62
              80
  5
94B
 10
4.0110520000000003
 20
-12.087517
 30
0.0
  0
VERTEX
  8
0
  6
CONTINUOUS
 62
              80
  5
94C
 10
4.0219310000000004
 20
-12.075369
 30
0.0
  0
VERTEX
  8
0
  6
CONTINUOUS
 62
              80
  5
94D
 10
4.0312450000000002
 20
-12.064688
 30
0.0
  0
VERTEX
  8
0
  6
CONTINUOUS
 62
              80
  5
94E
 10
4.0404309999999999
 20
-12.053883000000001
 30
0.0
  0
VERTEX
  8
0
  6
CONTINUOUS
 62
              80
  5
94F
 10
4.0494870000000001
 20
-12.042954999999999
 30
0.0
  0
VERTEX
  8
0
  6
CONTINUOUS
 62
              80
  5
950
 10
4.0584049999999996
 20
-12.031907
 30
0.0
  0
VERTEX
  8
0
  6
CONTINUOUS
 62
              80
  5
951
 10
4.0671819999999999
 20
-12.020739000000001
 30
0.0
  0
VERTEX
  8
0
  6
CONTINUOUS
 62
              80
  5
952
 10
4.0758130000000001
 20
-12.009454
 30
0.0
  0
VERTEX
  8
0
  6
CONTINUOUS
 62
              80
  5
953
 10
4.0842929999999997
 20
-11.998051999999999
 30
0.0
  0
VERTEX
  8
0
  6
CONTINUOUS
 62
              80
  5
954
 10
4.0926169999999997
 20
-11.986535999999999
 30
0.0
  0
VERTEX
  8
0
  6
CONTINUOUS
 62
              80
  5
955
 10
4.1007790000000002
 20
-11.974907
 30
0.0
  0
VERTEX
  8
0
  6
CONTINUOUS
 62
              80
  5
956
 10
4.1087769999999999
 20
-11.963167
 30
0.0
  0
VERTEX
  8
0
  6
CONTINUOUS
 62
              80
  5
957
 10
4.1166029999999996
 20
-11.951317
 30
0.0
  0
VERTEX
  8
0
  6
CONTINUOUS
 62
              80
  5
958
 10
4.1242539999999996
 20
-11.939359
 30
0.0
  0
VERTEX
  8
0
  6
CONTINUOUS
 62
              80
  5
959
 10
4.1317240000000002
 20
-11.927294
 30
0.0
  0
VERTEX
  8
0
  6
CONTINUOUS
 62
              80
  5
95A
 10
4.1390099999999999
 20
-11.915124
 30
0.0
  0
VERTEX
  8
0
  6
CONTINUOUS
 62
              80
  5
95B
 10
4.1461050000000004
 20
-11.902850000000001
 30
0.0
  0
VERTEX
  8
0
  6
CONTINUOUS
 62
              80
  5
95C
 10
4.1530050000000003
 20
-11.890475
 30
0.0
  0
VERTEX
  8
0
  6
CONTINUOUS
 62
              80
  5
95D
 10
4.158855
 20
-11.879609
 30
0.0
  0
VERTEX
  8
0
  6
CONTINUOUS
 62
              80
  5
95E
 10
4.1645570000000003
 20
-11.868651
 30
0.0
  0
VERTEX
  8
0
  6
CONTINUOUS
 62
              80
  5
95F
 10
4.1701069999999998
 20
-11.857606000000001
 30
0.0
  0
VERTEX
  8
0
  6
CONTINUOUS
 62
              80
  5
960
 10
4.1755019999999998
 20
-11.846475
 30
0.0
  0
VERTEX
  8
0
  6
CONTINUOUS
 62
              80
  5
961
 10
4.1807379999999998
 20
-11.835262999999999
 30
0.0
  0
VERTEX
  8
0
  6
CONTINUOUS
 62
              80
  5
962
 10
4.1858110000000002
 20
-11.823971999999999
 30
0.0
  0
VERTEX
  8
0
  6
CONTINUOUS
 62
              80
  5
963
 10
4.1907170000000002
 20
-11.812606000000001
 30
0.0
  0
VERTEX
  8
0
  6
CONTINUOUS
 62
              80
  5
964
 10
4.1954529999999997
 20
-11.801167
 30
0.0
  0
VERTEX
  8
0
  6
CONTINUOUS
 62
              80
  5
965
 10
4.2000149999999996
 20
-11.789659
 30
0.0
  0
VERTEX
  8
0
  6
CONTINUOUS
 62
              80
  5
966
 10
4.2043990000000004
 20
-11.778084
 30
0.0
  0
VERTEX
  8
0
  6
CONTINUOUS
 62
              80
  5
967
 10
4.2086009999999998
 20
-11.766446
 30
0.0
  0
VERTEX
  8
0
  6
CONTINUOUS
 62
              80
  5
968
 10
4.212618
 20
-11.754749
 30
0.0
  0
VERTEX
  8
0
  6
CONTINUOUS
 62
              80
  5
969
 10
4.2164450000000002
 20
-11.742993999999999
 30
0.0
  0
VERTEX
  8
0
  6
CONTINUOUS
 62
              80
  5
96A
 10
4.2200790000000001
 20
-11.731185999999999
 30
0.0
  0
VERTEX
  8
0
  6
CONTINUOUS
 62
              80
  5
96B
 10
4.2235170000000002
 20
-11.719327
 30
0.0
  0
VERTEX
  8
0
  6
CONTINUOUS
 62
              80
  5
96C
 10
4.2267539999999997
 20
-11.707420000000001
 30
0.0
  0
VERTEX
  8
0
  6
CONTINUOUS
 62
              80
  5
96D
 10
4.2295319999999998
 20
-11.696505
 30
0.0
  0
VERTEX
  8
0
  6
CONTINUOUS
 62
              80
  5
96E
 10
4.2321410000000004
 20
-11.685537999999999
 30
0.0
  0
VERTEX
  8
0
  6
CONTINUOUS
 62
              80
  5
96F
 10
4.2345800000000002
 20
-11.674522
 30
0.0
  0
VERTEX
  8
0
  6
CONTINUOUS
 62
              80
  5
970
 10
4.236847
 20
-11.663462000000001
 30
0.0
  0
VERTEX
  8
0
  6
CONTINUOUS
 62
              80
  5
971
 10
4.2389419999999998
 20
-11.652362
 30
0.0
  0
VERTEX
  8
0
  6
CONTINUOUS
 62
              80
  5
972
 10
4.2408609999999998
 20
-11.641226
 30
0.0
  0
VERTEX
  8
0
  6
CONTINUOUS
 62
              80
  5
973
 10
4.2426050000000002
 20
-11.630058999999999
 30
0.0
  0
VERTEX
  8
0
  6
CONTINUOUS
 62
              80
  5
974
 10
4.2441709999999997
 20
-11.618864
 30
0.0
  0
VERTEX
  8
0
  6
CONTINUOUS
 62
              80
  5
975
 10
4.2455579999999999
 20
-11.607647
 30
0.0
  0
VERTEX
  8
0
  6
CONTINUOUS
 62
              80
  5
976
 10
4.246766
 20
-11.596410000000001
 30
0.0
  0
VERTEX
  8
0
  6
CONTINUOUS
 62
              80
  5
977
 10
4.2477910000000003
 20
-11.585159000000001
 30
0.0
  0
VERTEX
  8
0
  6
CONTINUOUS
 62
              80
  5
978
 10
4.2486329999999999
 20
-11.573897000000001
 30
0.0
  0
VERTEX
  8
0
  6
CONTINUOUS
 62
              80
  5
979
 10
4.2492910000000004
 20
-11.562628999999999
 30
0.0
  0
VERTEX
  8
0
  6
CONTINUOUS
 62
              80
  5
97A
 10
4.2497619999999996
 20
-11.551359
 30
0.0
  0
VERTEX
  8
0
  6
CONTINUOUS
 62
              80
  5
97B
 10
4.2500460000000002
 20
-11.540091
 30
0.0
  0
SEQEND
  8
0
  6
CONTINUOUS
 62
              80
  5
97C
  0
POLYLINE
  8
0
  6
CONTINUOUS
 62
              80
  5
385
 66
               1
 10
0.0
 20
0.0
 30
0.0
 70
               1
  0
VERTEX
  8
0
  6
CONTINUOUS
 62
              80
  5
97D
 10
4.8616720000000004
 20
-11.528829
 30
0.0
  0
VERTEX
  8
0
  6
CONTINUOUS
 62
              80
  5
97E
 10
4.8530620000000004
 20
-11.379593
 30
0.0
  0
VERTEX
  8
0
  6
CONTINUOUS
 62
              80
  5
97F
 10
4.8272969999999997
 20
-11.231494
 30
0.0
  0
VERTEX
  8
0
  6
CONTINUOUS
 62
              80
  5
980
 10
4.7845740000000001
 20
-11.085656999999999
 30
0.0
  0
VERTEX
  8
0
  6
CONTINUOUS
 62
              80
  5
981
 10
4.7252169999999998
 20
-10.943192
 30
0.0
  0
VERTEX
  8
0
  6
CONTINUOUS
 62
              80
  5
982
 10
4.6496779999999998
 20
-10.805185
 30
0.0
  0
VERTEX
  8
0
  6
CONTINUOUS
 62
              80
  5
983
 10
4.5585319999999996
 20
-10.672686000000001
 30
0.0
  0
VERTEX
  8
0
  6
CONTINUOUS
 62
              80
  5
984
 10
4.4524739999999996
 20
-10.546702
 30
0.0
  0
VERTEX
  8
0
  6
CONTINUOUS
 62
              80
  5
985
 10
4.3323090000000004
 20
-10.428191999999999
 30
0.0
  0
VERTEX
  8
0
  6
CONTINUOUS
 62
              80
  5
986
 10
4.1989530000000004
 20
-10.318059
 30
0.0
  0
VERTEX
  8
0
  6
CONTINUOUS
 62
              80
  5
987
 10
4.05342
 20
-10.217141
 30
0.0
  0
VERTEX
  8
0
  6
CONTINUOUS
 62
              80
  5
988
 10
3.8968180000000001
 20
-10.126206
 30
0.0
  0
VERTEX
  8
0
  6
CONTINUOUS
 62
              80
  5
989
 10
3.7303389999999998
 20
-10.045945
 30
0.0
  0
VERTEX
  8
0
  6
CONTINUOUS
 62
              80
  5
98A
 10
3.55525
 20
-9.9769699999999997
 30
0.0
  0
VERTEX
  8
0
  6
CONTINUOUS
 62
              80
  5
98B
 10
3.372884
 20
-9.9198050000000002
 30
0.0
  0
VERTEX
  8
0
  6
CONTINUOUS
 62
              80
  5
98C
 10
3.184628
 20
-9.8748869999999993
 30
0.0
  0
VERTEX
  8
0
  6
CONTINUOUS
 62
              80
  5
98D
 10
2.9919150000000001
 20
-9.8425550000000008
 30
0.0
  0
VERTEX
  8
0
  6
CONTINUOUS
 62
              80
  5
98E
 10
2.796211
 20
-9.8230579999999996
 30
0.0
  0
VERTEX
  8
0
  6
CONTINUOUS
 62
              80
  5
98F
 10
2.5990069999999998
 20
-9.8165420000000001
 30
0.0
  0
VERTEX
  8
0
  6
CONTINUOUS
 62
              80
  5
990
 10
2.4018030000000001
 20
-9.8230579999999996
 30
0.0
  0
VERTEX
  8
0
  6
CONTINUOUS
 62
              80
  5
991
 10
2.206099
 20
-9.8425550000000008
 30
0.0
  0
VERTEX
  8
0
  6
CONTINUOUS
 62
              80
  5
992
 10
2.0133860000000001
 20
-9.8748869999999993
 30
0.0
  0
VERTEX
  8
0
  6
CONTINUOUS
 62
              80
  5
993
 10
1.8251299999999999
 20
-9.9198050000000002
 30
0.0
  0
VERTEX
  8
0
  6
CONTINUOUS
 62
              80
  5
994
 10
1.642763
 20
-9.9769699999999997
 30
0.0
  0
VERTEX
  8
0
  6
CONTINUOUS
 62
              80
  5
995
 10
1.4676739999999999
 20
-10.045945
 30
0.0
  0
VERTEX
  8
0
  6
CONTINUOUS
 62
              80
  5
996
 10
1.3011950000000001
 20
-10.126206
 30
0.0
  0
VERTEX
  8
0
  6
CONTINUOUS
 62
              80
  5
997
 10
1.1445939999999999
 20
-10.217141
 30
0.0
  0
VERTEX
  8
0
  6
CONTINUOUS
 62
              80
  5
998
 10
0.999061
 20
-10.318059
 30
0.0
  0
VERTEX
  8
0
  6
CONTINUOUS
 62
              80
  5
999
 10
0.865705
 20
-10.428191999999999
 30
0.0
  0
VERTEX
  8
0
  6
CONTINUOUS
 62
              80
  5
99A
 10
0.74554
 20
-10.546702
 30
0.0
  0
VERTEX
  8
0
  6
CONTINUOUS
 62
              80
  5
99B
 10
0.639481
 20
-10.672686000000001
 30
0.0
  0
VERTEX
  8
0
  6
CONTINUOUS
 62
              80
  5
99C
 10
0.5483360000000001
 20
-10.805185
 30
0.0
  0
VERTEX
  8
0
  6
CONTINUOUS
 62
              80
  5
99D
 10
0.472797
 20
-10.943192
 30
0.0
  0
VERTEX
  8
0
  6
CONTINUOUS
 62
              80
  5
99E
 10
0.41344
 20
-11.085656999999999
 30
0.0
  0
VERTEX
  8
0
  6
CONTINUOUS
 62
              80
  5
99F
 10
0.370717
 20
-11.231494
 30
0.0
  0
VERTEX
  8
0
  6
CONTINUOUS
 62
              80
  5
9A0
 10
0.344952
 20
-11.379593
 30
0.0
  0
VERTEX
  8
0
  6
CONTINUOUS
 62
              80
  5
9A1
 10
0.336342
 20
-11.528829
 30
0.0
  0
VERTEX
  8
0
  6
CONTINUOUS
 62
              80
  5
9A2
 10
0.344952
 20
-11.678065
 30
0.0
  0
VERTEX
  8
0
  6
CONTINUOUS
 62
              80
  5
9A3
 10
0.370717
 20
-11.826165
 30
0.0
  0
VERTEX
  8
0
  6
CONTINUOUS
 62
              80
  5
9A4
 10
0.41344
 20
-11.972002
 30
0.0
  0
VERTEX
  8
0
  6
CONTINUOUS
 62
              80
  5
9A5
 10
0.472797
 20
-12.114466
 30
0.0
  0
VERTEX
  8
0
  6
CONTINUOUS
 62
              80
  5
9A6
 10
0.5483360000000001
 20
-12.252473
 30
0.0
  0
VERTEX
  8
0
  6
CONTINUOUS
 62
              80
  5
9A7
 10
0.639481
 20
-12.384973
 30
0.0
  0
VERTEX
  8
0
  6
CONTINUOUS
 62
              80
  5
9A8
 10
0.74554
 20
-12.510956999999999
 30
0.0
  0
VERTEX
  8
0
  6
CONTINUOUS
 62
              80
  5
9A9
 10
0.865705
 20
-12.629466000000001
 30
0.0
  0
VERTEX
  8
0
  6
CONTINUOUS
 62
              80
  5
9AA
 10
0.999061
 20
-12.739599
 30
0.0
  0
VERTEX
  8
0
  6
CONTINUOUS
 62
              80
  5
9AB
 10
1.1445939999999999
 20
-12.840517
 30
0.0
  0
VERTEX
  8
0
  6
CONTINUOUS
 62
              80
  5
9AC
 10
1.3011950000000001
 20
-12.931452999999999
 30
0.0
  0
VERTEX
  8
0
  6
CONTINUOUS
 62
              80
  5
9AD
 10
1.4676739999999999
 20
-13.011713
 30
0.0
  0
VERTEX
  8
0
  6
CONTINUOUS
 62
              80
  5
9AE
 10
1.642763
 20
-13.080688
 30
0.0
  0
VERTEX
  8
0
  6
CONTINUOUS
 62
              80
  5
9AF
 10
1.8251299999999999
 20
-13.137853
 30
0.0
  0
VERTEX
  8
0
  6
CONTINUOUS
 62
              80
  5
9B0
 10
2.0133860000000001
 20
-13.182772
 30
0.0
  0
VERTEX
  8
0
  6
CONTINUOUS
 62
              80
  5
9B1
 10
2.206099
 20
-13.215102999999999
 30
0.0
  0
VERTEX
  8
0
  6
CONTINUOUS
 62
              80
  5
9B2
 10
2.4018030000000001
 20
-13.234601
 30
0.0
  0
VERTEX
  8
0
  6
CONTINUOUS
 62
              80
  5
9B3
 10
2.5990069999999998
 20
-13.241116
 30
0.0
  0
VERTEX
  8
0
  6
CONTINUOUS
 62
              80
  5
9B4
 10
2.796211
 20
-13.234601
 30
0.0
  0
VERTEX
  8
0
  6
CONTINUOUS
 62
              80
  5
9B5
 10
2.9919150000000001
 20
-13.215102999999999
 30
0.0
  0
VERTEX
  8
0
  6
CONTINUOUS
 62
              80
  5
9B6
 10
3.184628
 20
-13.182772
 30
0.0
  0
VERTEX
  8
0
  6
CONTINUOUS
 62
              80
  5
9B7
 10
3.372884
 20
-13.137853
 30
0.0
  0
VERTEX
  8
0
  6
CONTINUOUS
 62
              80
  5
9B8
 10
3.55525
 20
-13.080688
 30
0.0
  0
VERTEX
  8
0
  6
CONTINUOUS
 62
              80
  5
9B9
 10
3.7303389999999998
 20
-13.011713
 30
0.0
  0
VERTEX
  8
0
  6
CONTINUOUS
 62
              80
  5
9BA
 10
3.8968180000000001
 20
-12.931452999999999
 30
0.0
  0
VERTEX
  8
0
  6
CONTINUOUS
 62
              80
  5
9BB
 10
4.05342
 20
-12.840517
 30
0.0
  0
VERTEX
  8
0
  6
CONTINUOUS
 62
              80
  5
9BC
 10
4.1989530000000004
 20
-12.739599
 30
0.0
  0
VERTEX
  8
0
  6
CONTINUOUS
 62
              80
  5
9BD
 10
4.3323090000000004
 20
-12.629466000000001
 30
0.0
  0
VERTEX
  8
0
  6
CONTINUOUS
 62
              80
  5
9BE
 10
4.4524739999999996
 20
-12.510956999999999
 30
0.0
  0
VERTEX
  8
0
  6
CONTINUOUS
 62
              80
  5
9BF
 10
4.5585319999999996
 20
-12.384973
 30
0.0
  0
VERTEX
  8
0
  6
CONTINUOUS
 62
              80
  5
9C0
 10
4.6496779999999998
 20
-12.252473
 30
0.0
  0
VERTEX
  8
0
  6
CONTINUOUS
 62
              80
  5
9C1
 10
4.7252169999999998
 20
-12.114466
 30
0.0
  0
VERTEX
  8
0
  6
CONTINUOUS
 62
              80
  5
9C2
 10
4.7845740000000001
 20
-11.972002
 30
0.0
  0
VERTEX
  8
0
  6
CONTINUOUS
 62
              80
  5
9C3
 10
4.8272969999999997
 20
-11.826165
 30
0.0
  0
VERTEX
  8
0
  6
CONTINUOUS
 62
              80
  5
9C4
 10
4.8530620000000004
 20
-11.678065
 30
0.0
  0
SEQEND
  8
0
  6
CONTINUOUS
 62
              80
  5
9C5
  0
CIRCLE
  8
0
  6
CONTINUOUS
 62
               3
  5
386
 10
0.0
 20
0.0
 30
0.0
 40
3.5
  0
ARC
  8
0
  6
CONTINUOUS
 62
              80
  5
387
 10
-0.886721
 20
-11.039603
 30
0.0
 40
0.305766
 50
269.99999700000001
 51
90.000003000000035
  0
CIRCLE
  8
0
  6
CONTINUOUS
 62
               3
  5
388
 10
0.0
 20
0.0
 30
0.0
 40
4.2999999999999998
  0
ARC
  8
0
  6
CONTINUOUS
 62
              80
  5
389
 10
-0.886721
 20
-11.039603
 30
0.0
 40
1.0396030000000001
 50
286.92734400000001
 51
90.000003000000035
  0
ARC
  8
0
  6
CONTINUOUS
 62
              80
  5
38A
 10
-4.0666820000000001
 20
-11.039603
 30
0.0
 40
1.0396030000000001
 50
286.92734400000001
 51
90.000003000000035
  0
ARC
  8
0
  6
CONTINUOUS
 62
              80
  5
38B
 10
-4.0666820000000001
 20
-11.039603
 30
0.0
 40
0.305766
 50
269.99999700000001
 51
90.000003000000035
  0
CIRCLE
  8
0
  6
CONTINUOUS
 62
               3
  5
38C
 10
0.0
 20
0.0
 30
0.0
 40
19.991194
  0
LINE
  8
0
  6
CONTINUOUS
 62
               3
  5
38D
 10
2.5455839999999998
 20
-1.5556350000000001
 30
0.0
 11
0.989949
 21
0.0
 31
0.0
  0
LINE
  8
0
  6
CONTINUOUS
 62
               3
  5
38E
 10
-2.5455839999999998
 20
-1.5556350000000001
 30
0.0
 11
-1.5556350000000001
 21
-2.5455839999999998
 31
0.0
  0
LINE
  8
0
  6
CONTINUOUS
 62
               3
  5
38F
 10
-2.5455839999999998
 20
1.5556350000000001
 30
0.0
 11
-0.989949
 21
0.0
 31
0.0
  0
LINE
  8
0
  6
CONTINUOUS
 62
               3
  5
390
 10
-1.5556350000000001
 20
2.5455839999999998
 30
0.0
 11
0.0
 21
0.989949
 31
0.0
  0
LINE
  8
0
  6
CONTINUOUS
 62
               3
  5
391
 10
2.5455839999999998
 20
1.5556350000000001
 30
0.0
 11
0.989949
 21
0.0
 31
0.0
  0
LINE
  8
0
  6
CONTINUOUS
 62
               3
  5
392
 10
1.5556350000000001
 20
2.5455839999999998
 30
0.0
 11
0.0
 21
0.989949
 31
0.0
  0
LINE
  8
0
  6
CONTINUOUS
 62
               3
  5
393
 10
-2.5455839999999998
 20
-1.5556350000000001
 30
0.0
 11
-0.989949
 21
0.0
 31
0.0
  0
LINE
  8
0
  6
CONTINUOUS
 62
               3
  5
394
 10
1.5556350000000001
 20
-2.5455839999999998
 30
0.0
 11
2.5455839999999998
 21
-1.5556350000000001
 31
0.0
  0
LINE
  8
0
  6
CONTINUOUS
 62
               3
  5
395
 10
2.5455839999999998
 20
1.5556350000000001
 30
0.0
 11
1.5556350000000001
 21
2.5455839999999998
 31
0.0
  0
LINE
  8
0
  6
CONTINUOUS
 62
               3
  5
396
 10
-1.5556350000000001
 20
2.5455839999999998
 30
0.0
 11
-2.5455839999999998
 21
1.5556350000000001
 31
0.0
  0
LINE
  8
0
  6
CONTINUOUS
 62
               3
  5
397
 10
1.5556350000000001
 20
-2.5455839999999998
 30
0.0
 11
0.0
 21
-0.989949
 31
0.0
  0
LINE
  8
0
  6
CONTINUOUS
 62
               3
  5
398
 10
-1.5556350000000001
 20
-2.5455839999999998
 30
0.0
 11
0.0
 21
-0.989949
 31
0.0
  0
LINE
  8
0
  6
CONTINUOUS
 62
              80
  5
399
 10
-5.9624290000000002
 20
-10.0
 30
0.0
 11
-5.9624290000000002
 21
-10.733838
 31
0.0
  0
LINE
  8
0
  6
CONTINUOUS
 62
              80
  5
39A
 10
-2.782467
 20
-11.345369
 30
0.0
 11
-2.782467
 21
-13.057657000000001
 31
0.0
  0
LINE
  8
0
  6
CONTINUOUS
 62
              80
  5
39B
 10
-5.2285919999999999
 20
-12.079207
 30
0.0
 11
-5.2285919999999999
 21
-13.057657000000001
 31
0.0
  0
LINE
  8
0
  6
CONTINUOUS
 62
              80
  5
39C
 10
-5.9624290000000002
 20
-10.733838
 30
0.0
 11
-4.0666820000000001
 21
-10.733838
 31
0.0
  0
LINE
  8
0
  6
CONTINUOUS
 62
              80
  5
39D
 10
9.1907789999999991
 20
-10.0
 30
0.0
 11
9.9985330000000001
 21
-10.0
 31
0.0
  0
LINE
  8
0
  6
CONTINUOUS
 62
              80
  5
39E
 10
-5.9624290000000002
 20
-11.345369
 30
0.0
 11
-4.0666820000000001
 21
-11.345369
 31
0.0
  0
LINE
  8
0
  6
CONTINUOUS
 62
              80
  5
39F
 10
-5.2285919999999999
 20
-12.079207
 30
0.0
 11
-4.6358220000000001
 21
-12.079207
 31
0.0
  0
LINE
  8
0
  6
CONTINUOUS
 62
              80
  5
3A0
 10
7.0631839999999997
 20
-10.0
 30
0.0
 11
7.5524089999999999
 21
-10.0
 31
0.0
  0
LINE
  8
0
  6
CONTINUOUS
 62
              80
  5
3A1
 10
8.5920120000000004
 20
-13.057656
 30
0.0
 11
9.9985330000000001
 21
-10.000000999999999
 31
0.0
  0
LINE
  8
0
  6
CONTINUOUS
 62
              80
  5
3A2
 10
7.3077959999999997
 20
-11.224223
 30
0.0
 11
6.4644170000000001
 21
-13.057657000000001
 31
0.0
  0
LINE
  8
0
  6
CONTINUOUS
 62
              80
  5
3A3
 10
8.371594
 20
-11.780837
 30
0.0
 11
9.1907779999999999
 21
-10.000002
 31
0.0
  0
LINE
  8
0
  6
CONTINUOUS
 62
              80
  5
3A4
 10
7.0631839999999997
 20
-10.0
 30
0.0
 11
6.2439989999999996
 21
-11.780837999999999
 31
0.0
  0
LINE
  8
0
  6
CONTINUOUS
 62
              80
  5
3A5
 10
-2.782467
 20
-10.0
 30
0.0
 11
-2.782467
 21
-10.733838
 31
0.0
  0
LINE
  8
0
  6
CONTINUOUS
 62
              80
  5
3A6
 10
4.6170590000000002
 20
-10.0
 30
0.0
 11
6.0235810000000001
 21
-13.057657000000001
 31
0.0
  0
LINE
  8
0
  6
CONTINUOUS
 62
              80
  5
3A7
 10
5.4248139999999996
 20
-10.000000999999999
 30
0.0
 11
6.2439989999999996
 21
-11.780837999999999
 31
0.0
  0
LINE
  8
0
  6
CONTINUOUS
 62
              80
  5
3A8
 10
-7.8581750000000001
 20
-10.0
 30
0.0
 11
-6.2070410000000003
 21
-13.057656
 31
0.0
  0
LINE
  8
0
  6
CONTINUOUS
 62
              80
  5
3A9
 10
7.3077959999999997
 20
-11.224221999999999
 30
0.0
 11
8.1511750000000003
 21
-13.057656
 31
0.0
  0
LINE
  8
0
  6
CONTINUOUS
 62
              80
  5
3AA
 10
-8.3474009999999996
 20
-10.000000999999999
 30
0.0
 11
-9.9985350000000004
 21
-13.057656
 31
0.0
  0
LINE
  8
0
  6
CONTINUOUS
 62
              80
  5
3AB
 10
-8.3474009999999996
 20
-10.0
 30
0.0
 11
-7.8581760000000003
 21
-10.0
 31
0.0
  0
LINE
  8
0
  6
CONTINUOUS
 62
              80
  5
3AC
 10
-9.9985339999999994
 20
-13.057657000000001
 30
0.0
 11
-9.1645389999999995
 21
-13.057657000000001
 31
0.0
  0
LINE
  8
0
  6
CONTINUOUS
 62
              80
  5
3AD
 10
-5.9624290000000002
 20
-10.0
 30
0.0
 11
-4.0666820000000001
 21
-10.0
 31
0.0
  0
LINE
  8
0
  6
CONTINUOUS
 62
              80
  5
3AE
 10
-5.9624290000000002
 20
-11.345369
 30
0.0
 11
-5.9624290000000002
 21
-13.057657000000001
 31
0.0
  0
LINE
  8
0
  6
CONTINUOUS
 62
              80
  5
3AF
 10
-5.9624290000000002
 20
-13.057657000000001
 30
0.0
 11
-5.2285919999999999
 21
-13.057657000000001
 31
0.0
  0
LINE
  8
0
  6
CONTINUOUS
 62
              80
  5
3B0
 10
-3.9313389999999999
 20
-13.057657000000001
 30
0.0
 11
-3.0214470000000002
 21
-13.057657000000001
 31
0.0
  0
LINE
  8
0
  6
CONTINUOUS
 62
              80
  5
3B1
 10
4.6170600000000004
 20
-10.0
 30
0.0
 11
5.4248139999999996
 21
-10.0
 31
0.0
  0
LINE
  8
0
  6
CONTINUOUS
 62
              80
  5
3B2
 10
-2.782467
 20
-10.733838
 30
0.0
 11
-0.886721
 21
-10.733838
 31
0.0
  0
LINE
  8
0
  6
CONTINUOUS
 62
              80
  5
3B3
 10
6.0235810000000001
 20
-13.057657000000001
 30
0.0
 11
6.4644170000000001
 21
-13.057657000000001
 31
0.0
  0
LINE
  8
0
  6
CONTINUOUS
 62
              80
  5
3B4
 10
8.1511759999999995
 20
-13.057657000000001
 30
0.0
 11
8.5920120000000004
 21
-13.057657000000001
 31
0.0
  0
LINE
  8
0
  6
CONTINUOUS
 62
              80
  5
3B5
 10
-0.751377
 20
-13.057657000000001
 30
0.0
 11
0.152882
 21
-13.057657000000001
 31
0.0
  0
LINE
  8
0
  6
CONTINUOUS
 62
              80
  5
3B6
 10
-2.782467
 20
-13.057657000000001
 30
0.0
 11
-2.0486300000000002
 21
-13.057657000000001
 31
0.0
  0
LINE
  8
0
  6
CONTINUOUS
 62
              80
  5
3B7
 10
-2.782467
 20
-11.345369
 30
0.0
 11
-0.886721
 21
-11.345369
 31
0.0
  0
LINE
  8
0
  6
CONTINUOUS
 62
              80
  5
3B8
 10
-1.4558610000000001
 20
-12.079208
 30
0.0
 11
-0.751377
 21
-13.057657000000001
 31
0.0
  0
LINE
  8
0
  6
CONTINUOUS
 62
              80
  5
3B9
 10
-0.584031
 20
-12.034166000000001
 30
0.0
 11
0.152883
 21
-13.057657000000001
 31
0.0
  0
LINE
  8
0
  6
CONTINUOUS
 62
              80
  5
3BA
 10
-2.0486300000000002
 20
-12.079207
 30
0.0
 11
-1.4558610000000001
 21
-12.079207
 31
0.0
  0
LINE
  8
0
  6
CONTINUOUS
 62
              80
  5
3BB
 10
-2.782467
 20
-10.0
 30
0.0
 11
-0.886721
 21
-10.0
 31
0.0
  0
LINE
  8
0
  6
CONTINUOUS
 62
              80
  5
3BC
 10
7.5524089999999999
 20
-10.0
 30
0.0
 11
8.371594
 21
-11.780837
 31
0.0
  0
LINE
  8
0
  6
CONTINUOUS
 62
              80
  5
3BD
 10
-2.0486300000000002
 20
-12.079207
 30
0.0
 11
-2.0486300000000002
 21
-13.057657000000001
 31
0.0
  0
LINE
  8
0
  6
CONTINUOUS
 62
              80
  5
3BE
 10
-3.0270790000000001
 20
-13.057657000000001
 30
0.0
 11
-3.7639930000000001
 21
-12.034166000000001
 31
0.0
  0
LINE
  8
0
  6
CONTINUOUS
 62
              80
  5
3BF
 10
-7.0410360000000001
 20
-13.057657000000001
 30
0.0
 11
-6.2070410000000003
 21
-13.057657000000001
 31
0.0
  0
LINE
  8
0
  6
CONTINUOUS
 62
              80
  5
3C0
 10
-3.9313380000000002
 20
-13.057657000000001
 30
0.0
 11
-4.6358230000000002
 21
-12.079205999999999
 31
0.0
  0
LINE
  8
0
  6
CONTINUOUS
 62
              80
  5
3C1
 10
-8.1027880000000003
 20
-11.09145
 30
0.0
 11
-7.0410370000000002
 21
-13.057656
 31
0.0
  0
LINE
  8
0
  6
CONTINUOUS
 62
              80
  5
3C2
 10
-8.1027889999999996
 20
-11.091450999999999
 30
0.0
 11
-9.1645400000000006
 21
-13.057656
 31
0.0
  0
ENDBLK
  8
0
  5
3C3
  0
BLOCK
  8
0
  6
BYBLOCK
 62
               0
  5
30
  2
_OPEN30
 70
               2
 10
0.0
 20
0.0
 30
0.0
  3
_OPEN30
  0
LINE
  8
0
  6
BYBLOCK
 62
               0
  5
31
 10
-1.0
 20
0.267949
 30
0.0
 11
0.0
 21
0.0
 31
0.0
  0
LINE
  8
0
  6
BYBLOCK
 62
               0
  5
32
 10
0.0
 20
0.0
 30
0.0
 11
-1.0
 21
-0.267949
 31
0.0
  0
LINE
  8
0
  6
BYBLOCK
 62
               0
  5
33
 10
0.0
 20
0.0
 30
0.0
 11
-1.0
 21
0.0
 31
0.0
  0
ENDBLK
  8
0
  6
BYBLOCK
 62
               0
  5
34
  0
ENDSEC
  0
SECTION
  2
ENTITIES
  0
INSERT
  8
LY_3
  6
BYBLOCK
  5
3C4
  2
MS_11
 10
300.00008000000003
 20
985.80001200000004
 30
0.0
  0
INSERT
  8
LY_3
  6
BYBLOCK
  5
3C5
  2
MS_11
 10
300.00008000000003
 20
2185.8000120000002
 30
0.0
  0
INSERT
  8
LY_3
  6
BYBLOCK
  5
3C6
  2
MS_11
 10
500.00008000000003
 20
985.80001200000004
 30
0.0
  0
INSERT
  8
LY_3
  6
BYBLOCK
  5
3C7
  2
MS_11
 10
500.00008000000003
 20
2185.8000120000002
 30
0.0
  0
INSERT
  8
LY_3
  6
BYBLOCK
  5
3C8
  2
MS_11
 10
700.00008000000003
 20
985.80001200000004
 30
0.0
  0
INSERT
  8
LY_3
  6
BYBLOCK
  5
3C9
  2
MS_11
 10
700.00008000000003
 20
2185.8000120000002
 30
0.0
  0
INSERT
  8
LY_3
  6
BYBLOCK
  5
3CA
  2
MS_11
 10
900.00008000000003
 20
985.80001200000004
 30
0.0
  0
INSERT
  8
LY_3
  6
BYBLOCK
  5
3CB
  2
MS_11
 10
900.00008000000003
 20
2185.8000120000002
 30
0.0
  0
INSERT
  8
LY_3
  6
BYBLOCK
  5
3CC
  2
MS_9
 10
300.000001
 20
463.00001300000002
 30
0.0
  0
INSERT
  8
LY_3
  6
BYBLOCK
  5
3CD
  2
MS_9
 10
500.000001
 20
463.00001300000002
 30
0.0
  0
INSERT
  8
LY_3
  6
BYBLOCK
  5
3CE
  2
MS_9
 10
700.000001
 20
463.00001300000002
 30
0.0
  0
INSERT
  8
LY_3
  6
BYBLOCK
  5
3CF
  2
MS_9
 10
900.000001
 20
463.00001300000002
 30
0.0
  0
INSERT
  8
LY_3
  6
BYBLOCK
  5
3D0
  2
MS_9
 10
1100.0000010000001
 20
463.00001300000002
 30
0.0
  0
INSERT
  8
LY_3
  6
BYBLOCK
  5
3D1
  2
MS_15
 10
1100.00008
 20
671.00001299999997
 30
0.0
  0
INSERT
  8
LY_3
  6
BYBLOCK
  5
3D2
  2
MS_15
 10
900.00008000000003
 20
671.00001299999997
 30
0.0
  0
INSERT
  8
LY_3
  6
BYBLOCK
  5
3D3
  2
MS_15
 10
700.00008000000003
 20
671.00001299999997
 30
0.0
  0
INSERT
  8
LY_3
  6
BYBLOCK
  5
3D4
  2
MS_15
 10
500.00008000000003
 20
671.00001299999997
 30
0.0
  0
INSERT
  8
LY_3
  6
BYBLOCK
  5
3D5
  2
MS_15
 10
300.00008000000003
 20
671.00001299999997
 30
0.0
  0
INSERT
  8
LY_3
  6
BYBLOCK
  5
3D6
  2
MS_11
 10
1100.00008
 20
985.80001200000004
 30
0.0
  0
INSERT
  8
LY_3
  6
BYBLOCK
  5
3D7
  2
MS_8
 10
1100.00008
 20
671.00001299999997
 30
0.0
  0
INSERT
  8
LY_3
  6
BYBLOCK
  5
3D8
  2
MS_8
 10
1100.00008
 20
711.00001299999997
 30
0.0
  0
INSERT
  8
LY_3
  6
BYBLOCK
  5
3D9
  2
MS_8
 10
1100.00008
 20
751.00001299999997
 30
0.0
  0
INSERT
  8
LY_3
  6
BYBLOCK
  5
3DA
  2
MS_8
 10
1100.00008
 20
791.00001299999997
 30
0.0
  0
INSERT
  8
LY_3
  6
BYBLOCK
  5
3DB
  2
MS_8
 10
1100.0000789999999
 20
831.00001299999997
 30
0.0
  0
INSERT
  8
LY_3
  6
BYBLOCK
  5
3DC
  2
MS_10
 10
1100.0000789999999
 20
871.00001299999997
 30
0.0
  0
INSERT
  8
LY_3
  6
BYBLOCK
  5
3DD
  2
MS_8
 10
900.00008000000003
 20
671.00001299999997
 30
0.0
  0
INSERT
  8
LY_3
  6
BYBLOCK
  5
3DE
  2
MS_8
 10
900.00008000000003
 20
711.00001299999997
 30
0.0
  0
INSERT
  8
LY_3
  6
BYBLOCK
  5
3DF
  2
MS_8
 10
900.00008000000003
 20
751.00001299999997
 30
0.0
  0
INSERT
  8
LY_3
  6
BYBLOCK
  5
3E0
  2
MS_8
 10
900.00008000000003
 20
791.00001299999997
 30
0.0
  0
INSERT
  8
LY_3
  6
BYBLOCK
  5
3E1
  2
MS_10
 10
900.00007900000003
 20
831.00001299999997
 30
0.0
  0
INSERT
  8
LY_3
  6
BYBLOCK
  5
3E2
  2
MS_8
 10
700.00008000000003
 20
671.00001299999997
 30
0.0
  0
INSERT
  8
LY_3
  6
BYBLOCK
  5
3E3
  2
MS_8
 10
700.00008000000003
 20
711.00001299999997
 30
0.0
  0
INSERT
  8
LY_3
  6
BYBLOCK
  5
3E4
  2
MS_8
 10
700.00008000000003
 20
751.00001299999997
 30
0.0
  0
INSERT
  8
LY_3
  6
BYBLOCK
  5
3E5
  2
MS_10
 10
700.00007900000003
 20
791.00001299999997
 30
0.0
  0
INSERT
  8
LY_3
  6
BYBLOCK
  5
3E6
  2
MS_8
 10
500.00008000000003
 20
671.00001299999997
 30
0.0
  0
INSERT
  8
LY_3
  6
BYBLOCK
  5
3E7
  2
MS_8
 10
500.00008000000003
 20
711.00001299999997
 30
0.0
  0
INSERT
  8
LY_3
  6
BYBLOCK
  5
3E8
  2
MS_10
 10
500.00008000000003
 20
751.00001299999997
 30
0.0
  0
INSERT
  8
LY_3
  6
BYBLOCK
  5
3E9
  2
MS_10
 10
300.00008000000003
 20
711.00001299999997
 30
0.0
  0
INSERT
  8
LY_3
  6
BYBLOCK
  5
3EA
  2
MS_8
 10
300.00008000000003
 20
671.00001299999997
 30
0.0
  0
INSERT
  8
LY_3
  6
BYBLOCK
  5
3EB
  2
MS_11
 10
1100.00008
 20
2185.8000120000002
 30
0.0
  0
INSERT
  8
LY_3
  6
BYBLOCK
  5
3EC
  2
MS_10
 10
300.00008000000003
 20
1911.0000130000001
 30
0.0
  0
INSERT
  8
LY_3
  6
BYBLOCK
  5
3ED
  2
MS_9
 10
1100.0
 20
1834.5000130000001
 30
0.0
  0
INSERT
  8
LY_3
  6
BYBLOCK
  5
3EE
  2
MS_13
 10
1100.00008
 20
1871.0000130000001
 30
0.0
  0
INSERT
  8
LY_3
  6
BYBLOCK
  5
3EF
  2
MS_8
 10
1100.00008
 20
1871.0000130000001
 30
0.0
  0
INSERT
  8
LY_3
  6
BYBLOCK
  5
3F0
  2
MS_8
 10
1100.00008
 20
1911.0000130000001
 30
0.0
  0
INSERT
  8
LY_3
  6
BYBLOCK
  5
3F1
  2
MS_8
 10
1100.00008
 20
1951.0000130000001
 30
0.0
  0
INSERT
  8
LY_3
  6
BYBLOCK
  5
3F2
  2
MS_8
 10
1100.00008
 20
1991.0000130000001
 30
0.0
  0
INSERT
  8
LY_3
  6
BYBLOCK
  5
3F3
  2
MS_8
 10
1100.0000789999999
 20
2031.0000130000001
 30
0.0
  0
INSERT
  8
LY_3
  6
BYBLOCK
  5
3F4
  2
MS_10
 10
1100.0000789999999
 20
2071.0000129999999
 30
0.0
  0
INSERT
  8
LY_3
  6
BYBLOCK
  5
3F5
  2
MS_9
 10
900.0
 20
1834.5000130000001
 30
0.0
  0
INSERT
  8
LY_3
  6
BYBLOCK
  5
3F6
  2
MS_13
 10
900.00008000000003
 20
1871.0000130000001
 30
0.0
  0
INSERT
  8
LY_3
  6
BYBLOCK
  5
3F7
  2
MS_8
 10
900.00008000000003
 20
1871.0000130000001
 30
0.0
  0
INSERT
  8
LY_3
  6
BYBLOCK
  5
3F8
  2
MS_8
 10
900.00008000000003
 20
1911.0000130000001
 30
0.0
  0
INSERT
  8
LY_3
  6
BYBLOCK
  5
3F9
  2
MS_8
 10
900.00008000000003
 20
1951.0000130000001
 30
0.0
  0
INSERT
  8
LY_3
  6
BYBLOCK
  5
3FA
  2
MS_8
 10
900.00008000000003
 20
1991.0000130000001
 30
0.0
  0
INSERT
  8
LY_3
  6
BYBLOCK
  5
3FB
  2
MS_10
 10
900.00007900000003
 20
2031.0000130000001
 30
0.0
  0
INSERT
  8
LY_3
  6
BYBLOCK
  5
3FC
  2
MS_9
 10
700.0
 20
1834.5000130000001
 30
0.0
  0
INSERT
  8
LY_3
  6
BYBLOCK
  5
3FD
  2
MS_13
 10
700.00008000000003
 20
1871.0000130000001
 30
0.0
  0
INSERT
  8
LY_3
  6
BYBLOCK
  5
3FE
  2
MS_8
 10
700.00008000000003
 20
1871.0000130000001
 30
0.0
  0
INSERT
  8
LY_3
  6
BYBLOCK
  5
3FF
  2
MS_8
 10
700.00008000000003
 20
1911.0000130000001
 30
0.0
  0
INSERT
  8
LY_3
  6
BYBLOCK
  5
400
  2
MS_8
 10
700.00008000000003
 20
1951.0000130000001
 30
0.0
  0
INSERT
  8
LY_3
  6
BYBLOCK
  5
401
  2
MS_10
 10
700.00007900000003
 20
1991.0000130000001
 30
0.0
  0
INSERT
  8
LY_3
  6
BYBLOCK
  5
402
  2
MS_9
 10
500.0
 20
1834.5000130000001
 30
0.0
  0
INSERT
  8
LY_3
  6
BYBLOCK
  5
403
  2
MS_13
 10
500.00008000000003
 20
1871.0000130000001
 30
0.0
  0
INSERT
  8
LY_3
  6
BYBLOCK
  5
404
  2
MS_8
 10
500.00008000000003
 20
1871.0000130000001
 30
0.0
  0
INSERT
  8
LY_3
  6
BYBLOCK
  5
405
  2
MS_8
 10
500.00008000000003
 20
1911.0000130000001
 30
0.0
  0
INSERT
  8
LY_3
  6
BYBLOCK
  5
406
  2
MS_10
 10
500.00008000000003
 20
1951.0000130000001
 30
0.0
  0
INSERT
  8
LY_3
  6
BYBLOCK
  5
407
  2
MS_8
 10
300.00008000000003
 20
1871.0000130000001
 30
0.0
  0
INSERT
  8
LY_3
  6
BYBLOCK
  5
408
  2
MS_13
 10
300.00008000000003
 20
1871.0000130000001
 30
0.0
  0
INSERT
  8
LY_3
  6
BYBLOCK
  5
409
  2
MS_9
 10
300.0
 20
1834.5000130000001
 30
0.0
  0
LINE
  8
LY_3
  6
CONTINUOUS
 62
               3
  5
40A
 10
284.00008000000003
 20
1015.232138
 30
0.0
 11
284.00008000000003
 21
1045.7999319999999
 31
0.0
  0
LINE
  8
LY_3
  6
CONTINUOUS
 62
               3
  5
40B
 10
316.00008000000003
 20
1015.232138
 30
0.0
 11
316.00008000000003
 21
1045.7999319999999
 31
0.0
  0
LINE
  8
LY_3
  6
CONTINUOUS
 62
               3
  5
40C
 10
316.00008000000003
 20
1045.7999319999999
 30
0.0
 11
284.00008000000003
 21
1045.7999319999999
 31
0.0
  0
CIRCLE
  8
LY_3
  6
CONTINUOUS
 62
               3
  5
40D
 10
300.00008000000003
 20
985.80001200000004
 30
0.0
 40
33.500000999999997
  0
LINE
  8
LY_3
  6
CONTINUOUS
 62
               3
  5
40E
 10
284.00008000000003
 20
2211.1771669999998
 30
0.0
 11
284.00008000000003
 21
2245.7999319999999
 31
0.0
  0
LINE
  8
LY_3
  6
CONTINUOUS
 62
               3
  5
40F
 10
316.00008000000003
 20
2211.1771669999998
 30
0.0
 11
316.00008000000003
 21
2245.7999319999999
 31
0.0
  0
LINE
  8
LY_3
  6
CONTINUOUS
 62
               3
  5
410
 10
316.00008000000003
 20
2245.7999319999999
 30
0.0
 11
284.00008000000003
 21
2245.7999319999999
 31
0.0
  0
LINE
  8
LY_3
  6
CONTINUOUS
 62
               3
  5
411
 10
484.00008000000003
 20
1015.232138
 30
0.0
 11
484.00008000000003
 21
1045.7999319999999
 31
0.0
  0
LINE
  8
LY_3
  6
CONTINUOUS
 62
               3
  5
412
 10
516.00008000000003
 20
1015.232138
 30
0.0
 11
516.00008000000003
 21
1045.7999319999999
 31
0.0
  0
LINE
  8
LY_3
  6
CONTINUOUS
 62
               3
  5
413
 10
516.00008000000003
 20
1045.7999319999999
 30
0.0
 11
484.00008000000003
 21
1045.7999319999999
 31
0.0
  0
CIRCLE
  8
LY_3
  6
CONTINUOUS
 62
               3
  5
414
 10
500.00008000000003
 20
985.80001200000004
 30
0.0
 40
33.500000999999997
  0
LINE
  8
LY_3
  6
CONTINUOUS
 62
               3
  5
415
 10
484.00008000000003
 20
2211.1771669999998
 30
0.0
 11
484.00008000000003
 21
2245.7999319999999
 31
0.0
  0
LINE
  8
LY_3
  6
CONTINUOUS
 62
               3
  5
416
 10
516.00008000000003
 20
2211.1771669999998
 30
0.0
 11
516.00008000000003
 21
2245.7999319999999
 31
0.0
  0
LINE
  8
LY_3
  6
CONTINUOUS
 62
               3
  5
417
 10
516.00008000000003
 20
2245.7999319999999
 30
0.0
 11
484.00008000000003
 21
2245.7999319999999
 31
0.0
  0
LINE
  8
LY_3
  6
CONTINUOUS
 62
               3
  5
418
 10
684.00008000000003
 20
1015.232138
 30
0.0
 11
684.00008000000003
 21
1045.7999319999999
 31
0.0
  0
LINE
  8
LY_3
  6
CONTINUOUS
 62
               3
  5
419
 10
716.00008000000003
 20
1015.232138
 30
0.0
 11
716.00008000000003
 21
1045.7999319999999
 31
0.0
  0
LINE
  8
LY_3
  6
CONTINUOUS
 62
               3
  5
41A
 10
716.00008000000003
 20
1045.7999319999999
 30
0.0
 11
684.00008000000003
 21
1045.7999319999999
 31
0.0
  0
CIRCLE
  8
LY_3
  6
CONTINUOUS
 62
               3
  5
41B
 10
700.00008000000003
 20
985.80001200000004
 30
0.0
 40
33.500000999999997
  0
LINE
  8
LY_3
  6
CONTINUOUS
 62
               3
  5
41C
 10
684.00008000000003
 20
2211.1771669999998
 30
0.0
 11
684.00008000000003
 21
2245.7999319999999
 31
0.0
  0
LINE
  8
LY_3
  6
CONTINUOUS
 62
               3
  5
41D
 10
716.00008000000003
 20
2211.1771669999998
 30
0.0
 11
716.00008000000003
 21
2245.7999319999999
 31
0.0
  0
LINE
  8
LY_3
  6
CONTINUOUS
 62
               3
  5
41E
 10
716.00008000000003
 20
2245.7999319999999
 30
0.0
 11
684.00008000000003
 21
2245.7999319999999
 31
0.0
  0
LINE
  8
LY_3
  6
CONTINUOUS
 62
               3
  5
41F
 10
884.00008000000003
 20
1015.232138
 30
0.0
 11
884.00008000000003
 21
1045.7999319999999
 31
0.0
  0
LINE
  8
LY_3
  6
CONTINUOUS
 62
               3
  5
420
 10
916.00008000000003
 20
1015.232138
 30
0.0
 11
916.00008000000003
 21
1045.7999319999999
 31
0.0
  0
LINE
  8
LY_3
  6
CONTINUOUS
 62
               3
  5
421
 10
916.00008000000003
 20
1045.7999319999999
 30
0.0
 11
884.00008000000003
 21
1045.7999319999999
 31
0.0
  0
CIRCLE
  8
LY_3
  6
CONTINUOUS
 62
               3
  5
422
 10
900.00008000000003
 20
985.80001200000004
 30
0.0
 40
33.500000999999997
  0
LINE
  8
LY_3
  6
CONTINUOUS
 62
               3
  5
423
 10
884.00008000000003
 20
2211.1771669999998
 30
0.0
 11
884.00008000000003
 21
2245.7999319999999
 31
0.0
  0
LINE
  8
LY_3
  6
CONTINUOUS
 62
               3
  5
424
 10
916.00008000000003
 20
2211.1771669999998
 30
0.0
 11
916.00008000000003
 21
2245.7999319999999
 31
0.0
  0
LINE
  8
LY_3
  6
CONTINUOUS
 62
               3
  5
425
 10
916.00008000000003
 20
2245.7999319999999
 30
0.0
 11
884.00008000000003
 21
2245.7999319999999
 31
0.0
  0
CIRCLE
  8
LY_3
  6
CONTINUOUS
 62
               3
  5
426
 10
1100.00008
 20
985.80001200000004
 30
0.0
 40
33.500000999999997
  0
LINE
  8
LY_3
  6
CONTINUOUS
 62
               3
  5
427
 10
1116.00008
 20
1045.7999319999999
 30
0.0
 11
1084.00008
 21
1045.7999319999999
 31
0.0
  0
LINE
  8
LY_3
  6
CONTINUOUS
 62
               3
  5
428
 10
1116.00008
 20
1015.232138
 30
0.0
 11
1116.00008
 21
1045.7999319999999
 31
0.0
  0
LINE
  8
LY_3
  6
CONTINUOUS
 62
               3
  5
429
 10
1084.00008
 20
1015.232138
 30
0.0
 11
1084.00008
 21
1045.7999319999999
 31
0.0
  0
LINE
  8
LY_3
  6
CONTINUOUS
 62
               3
  5
42A
 10
1116.00008
 20
2245.7999319999999
 30
0.0
 11
1084.00008
 21
2245.7999319999999
 31
0.0
  0
LINE
  8
LY_3
  6
CONTINUOUS
 62
               3
  5
42B
 10
1116.00008
 20
2211.1771669999998
 30
0.0
 11
1116.00008
 21
2245.7999319999999
 31
0.0
  0
LINE
  8
LY_3
  6
CONTINUOUS
 62
               3
  5
42C
 10
1084.00008
 20
2211.1771669999998
 30
0.0
 11
1084.00008
 21
2245.7999319999999
 31
0.0
  0
TEXT
  8
LY_3
  6
CONTINUOUS
 62
             255
  5
42D
 10
648.76961021725822
 20
1148.3000119999999
 30
0.0
 40
30.0
  1
XVC6M
 41
0.878906243451638
  7
MX_NOTE_STANDARD
 11
648.76961021725822
 21
1163.3000119999999
 31
0.0
 73
               2
  0
TEXT
  8
LY_3
  6
CONTINUOUS
 62
             255
  5
42E
 10
648.76961021725822
 20
2348.3000120000002
 30
0.0
 40
30.0
  1
XVC6B
 41
0.878906243451638
  7
MX_NOTE_STANDARD
 11
648.76961021725822
 21
2363.3000120000002
 31
0.0
 73
               2
  0
ENDSEC
  0
EOF
