  0
SECTION
  2
HEADER
  9
$ACADVER
  1
AC1009
  9
$DWGCODEPAGE
  3
dos932
  9
$INSBASE
 10
0.0
 20
0.0
 30
0.0
  9
$EXTMIN
 10
133.354265
 20
-1196.012504
 30
0.0
  9
$EXTMAX
 10
1216.455845
 20
674.089077
 30
0.0
  9
$LIMMIN
 10
133.354265
 20
-1196.012504
  9
$LIMMAX
 10
1216.455845
 20
674.089077
  9
$ORTHOMODE
 70
     0
  9
$REGENMODE
 70
     1
  9
$FILLMODE
 70
     1
  9
$QTEXTMODE
 70
     0
  9
$MIRRTEXT
 70
     1
  9
$DRAGMODE
 70
     2
  9
$LTSCALE
 40
1.0
  9
$OSMODE
 70
     0
  9
$ATTMODE
 70
     1
  9
$TEXTSIZE
 40
4.1656
  9
$TRACEWID
 40
0.05
  9
$TEXTSTYLE
  7
MX_NOTE_STANDARD
  9
$CLAYER
  8
LY_1
  9
$CELTYPE
  6
CONTINUOUS
  9
$CECOLOR
 62
   256
  9
$DIMSCALE
 40
1.0
  9
$DIMASZ
 40
2.5
  9
$DIMEXO
 40
0.5
  9
$DIMDLI
 40
3.75
  9
$DIMRND
 40
0.0
  9
$DIMDLE
 40
0.0
  9
$DIMEXE
 40
1.0
  9
$DIMTP
 40
0.0
  9
$DIMTM
 40
0.0
  9
$DIMTXT
 40
2.5
  9
$DIMCEN
 40
2.5
  9
$DIMTSZ
 40
0.0
  9
$DIMTOL
 70
     0
  9
$DIMLIM
 70
     0
  9
$DIMTIH
 70
     0
  9
$DIMTOH
 70
     0
  9
$DIMSE1
 70
     0
  9
$DIMSE2
 70
     0
  9
$DIMTAD
 70
     1
  9
$DIMZIN
 70
     8
  9
$DIMBLK
  1

  9
$DIMASO
 70
     1
  9
$DIMSHO
 70
     1
  9
$DIMPOST
  1

  9
$DIMAPOST
  1

  9
$DIMALT
 70
     0
  9
$DIMALTD
 70
     4
  9
$DIMALTF
 40
0.03937
  9
$DIMLFAC
 40
1.0
  9
$DIMTOFL
 70
     1
  9
$DIMTVP
 40
0.0
  9
$DIMTIX
 70
     0
  9
$DIMSOXD
 70
     0
  9
$DIMSAH
 70
     0
  9
$DIMBLK1
  1

  9
$DIMBLK2
  1

  9
$DIMSTYLE
  2
MXDIMSTYLE
  9
$DIMCLRD
 70
     0
  9
$DIMCLRE
 70
     0
  9
$DIMCLRT
 70
     0
  9
$DIMTFAC
 40
1.0
  9
$DIMGAP
 40
1.0
  9
$LUNITS
 70
     2
  9
$LUPREC
 70
     4
  9
$AXISMODE
 70
     0
  9
$AXISUNIT
 10
0.0
 20
0.0
  9
$SKETCHINC
 40
0.1
  9
$FILLETRAD
 40
0.0
  9
$AUNITS
 70
     0
  9
$AUPREC
 70
     0
  9
$MENU
  1
acad
  9
$ELEVATION
 40
0.0
  9
$PELEVATION
 40
0.0
  9
$THICKNESS
 40
0.0
  9
$LIMCHECK
 70
     0
  9
$BLIPMODE
 70
     1
  9
$CHAMFERA
 40
0.0
  9
$CHAMFERB
 40
0.0
  9
$SKPOLY
 70
     0
  9
$TDCREATE
 40
2453858.567268519
  9
$TDUPDATE
 40
2453858.567268519
  9
$TDINDWG
 40
0.0000000000
  9
$TDUSRTIMER
 40
0.0000000000
  9
$USRTIMER
 70
     1
  9
$ANGBASE
 50
0.0
  9
$ANGDIR
 70
     0
  9
$PDMODE
 70
     0
  9
$PDSIZE
 40
0.0
  9
$PLINEWID
 40
0.0
  9
$COORDS
 70
     1
  9
$SPLFRAME
 70
     0
  9
$SPLINETYPE
 70
     6
  9
$SPLINESEGS
 70
     8
  9
$ATTDIA
 70
     0
  9
$ATTREQ
 70
     1
  9
$HANDLING
 70
     1
  9
$HANDSEED
  5
851
  9
$SURFTAB1
 70
     6
  9
$SURFTAB2
 70
     6
  9
$SURFTYPE
 70
     6
  9
$SURFU
 70
     6
  9
$SURFV
 70
     6
  9
$UCSNAME
  2

  9
$UCSORG
 10
0.0
 20
0.0
 30
0.0
  9
$UCSXDIR
 10
1.0
 20
0.0
 30
0.0
  9
$UCSYDIR
 10
0.0
 20
1.0
 30
0.0
  9
$PUCSNAME
  2

  9
$PUCSORG
 10
0.0
 20
0.0
 30
0.0
  9
$PUCSXDIR
 10
1.0
 20
0.0
 30
0.0
  9
$PUCSYDIR
 10
0.0
 20
1.0
 30
0.0
  9
$USERI1
 70
     0
  9
$USERI2
 70
     0
  9
$USERI3
 70
     0
  9
$USERI4
 70
     0
  9
$USERI5
 70
     0
  9
$USERR1
 40
0.0
  9
$USERR2
 40
0.0
  9
$USERR3
 40
0.0
  9
$USERR4
 40
0.0
  9
$USERR5
 40
0.0
  9
$WORLDVIEW
 70
     1
  9
$SHADEDGE
 70
     3
  9
$SHADEDIF
 70
    70
  9
$TILEMODE
 70
     1
  9
$MAXACTVP
 70
    16
  9
$PINSBASE
 10
0.0
 20
0.0
 30
0.0
  9
$PLIMCHECK
 70
     0
  9
$PEXTMIN
 10
1.000000E+20
 20
1.000000E+20
 30
1.000000E+20
  9
$PEXTMAX
 10
-1.000000E+20
 20
-1.000000E+20
 30
-1.000000E+20
  9
$PLIMMIN
 10
0.0
 20
0.0
  9
$PLIMMAX
 10
12.0
 20
9.0
  9
$UNITMODE
 70
     0
  9
$VISRETAIN
 70
     0
  9
$PLINEGEN
 70
     1
  9
$PSLTSCALE
 70
     0
  9
$TREEDEPTH
 70
  3020
  9
$DWGCODEPAGE
  3
dos932
  0
ENDSEC
  0
SECTION
  2
TABLES
  0
TABLE
  2
VPORT
 70
     1
  0
VPORT
  2
*ACTIVE
 70
     0
 10
0.0
 20
0.0
 11
1.0
 21
1.0
 12
674.905055
 22
-260.961714
 13
0.0
 23
0.0
 14
1.0
 24
1.0
 15
0.0
 25
0.0
 16
0.0
 26
0.0
 36
1.0
 17
0.0
 27
0.0
 37
0.0
 40
1888.802596
 41
1.732051
 42
50.0
 43
0.0
 44
0.0
 50
0.0
 51
0.0
 71
     0
 72
   100
 73
     1
 74
     1
 75
     0
 76
     0
 77
     0
 78
     0
  0
ENDTAB
  0
TABLE
  2
LTYPE
 70
     3
  0
LTYPE
  2
CONTINUOUS
 70
    64
  3
Solid line
 72
    65
 73
     0
 40
0.0
  0
LTYPE
  2
DASHED
 70
    64
  3
Dashed __ __ __ __ __ __ __ __ __ __ __ __ __ _
 72
    65
 73
     2
 40
19.05
 49
12.7
 49
-6.35
  0
LTYPE
  2
PHANTOM
 70
    64
  3
Phantom ______  __  __  ______  __  __  ______
 72
    65
 73
     6
 40
63.5
 49
31.75
 49
-6.35
 49
6.35
 49
-6.35
 49
6.35
 49
-6.35
  0
ENDTAB
  0
TABLE
  2
LAYER
 70
     3
  0
LAYER
  2
0
 70
     0
 62
     7
  6
CONTINUOUS
  0
LAYER
  2
LY_1
 70
     0
 62
     7
  6
CONTINUOUS
  0
LAYER
  2
DEFPOINTS
 70
     0
 62
     7
  6
CONTINUOUS
  0
ENDTAB
  0
TABLE
  2
STYLE
 70
     1
  0
STYLE
  2
MX_NOTE_STANDARD
 70
     0
 40
0.0
 41
1.0
 50
0.0
 71
     0
 42
4.1656
  3
txt.shx
  4
extfont.shx
  0
ENDTAB
  0
TABLE
  2
VIEW
 70
     0
  0
ENDTAB
  0
TABLE
  2
UCS
 70
     0
  0
ENDTAB
  0
TABLE
  2
APPID
 70
     1
  0
APPID
  2
ACAD
 70
     0
  0
ENDTAB
  0
TABLE
  2
DIMSTYLE
 70
     1
  0
DIMSTYLE
  2
MXDIMSTYLE
 70
     0
  3

  4

  5

  6

  7

 40
1.0
 41
2.5
 42
0.5
 43
3.75
 44
1.0
 45
0.0
 46
0.0
 47
0.0
 48
0.0
 71
     0
 72
     0
 73
     0
 74
     0
 75
     0
 76
     0
 77
     1
 78
     8
140
2.5
141
2.5
142
0.0
143
0.03937
144
1.0
145
0.0
146
1.0
147
1.0
170
     0
171
     4
172
     1
173
     0
174
     0
175
     0
176
     0
177
     0
178
     0
  0
ENDTAB
  0
ENDSEC
  0
SECTION
  2
BLOCKS
  0
BLOCK
  8
0
  5
29
  2
MS_1
 70
     0
 10
0.0
 20
0.0
 30
0.0
  3
MS_1
  0
LINE
  8
0
  6
CONTINUOUS
 62
     3
  5
2A
 10
-32.239427
 20
10.0
 30
0.0
 11
31.565139
 21
10.0
 31
0.0
  0
LINE
  8
0
  6
CONTINUOUS
 62
     3
  5
2B
 10
-34.997109
 20
0.297109
 30
0.0
 11
34.997109
 21
0.297109
 31
0.0
  0
LINE
  8
0
  6
CONTINUOUS
 62
     3
  5
2C
 10
-34.7
 20
0.0
 30
0.0
 11
-34.997109
 21
0.297109
 31
0.0
  0
LINE
  8
0
  6
CONTINUOUS
 62
     3
  5
2D
 10
34.997109
 20
0.297109
 30
0.0
 11
34.853574
 21
8.520186
 31
0.0
  0
LINE
  8
0
  6
CONTINUOUS
 62
     3
  5
2E
 10
-34.7
 20
0.0
 30
0.0
 11
34.7
 21
0.0
 31
0.0
  0
LINE
  8
0
  6
CONTINUOUS
 62
     3
  5
2F
 10
-34.997109
 20
0.297109
 30
0.0
 11
-34.853574
 21
8.520186
 31
0.0
  0
ARC
  8
0
  6
CONTINUOUS
 62
     3
  5
30
 10
0.0
 20
-108.797175
 30
0.0
 40
123.797175
 50
74.351053
 51
105.648947
  0
LINE
  8
0
  6
CONTINUOUS
 62
     3
  5
31
 10
34.7
 20
0.0
 30
0.0
 11
34.997109
 21
0.297109
 31
0.0
  0
ARC
  8
0
  6
CONTINUOUS
 62
     3
  5
32
 10
32.853879
 20
8.485281
 30
0.0
 40
2.0
 50
1.0
 51
74.351053
  0
ARC
  8
0
  6
CONTINUOUS
 62
     3
  5
33
 10
-32.853879
 20
8.485281
 30
0.0
 40
2.0
 50
105.648947
 51
179.0
  0
ENDBLK
  8
0
  5
34
  0
BLOCK
  8
0
  5
35
  2
MS_2
 70
     0
 10
0.0
 20
0.0
 30
0.0
  3
MS_2
  0
LINE
  8
0
  6
CONTINUOUS
 62
     3
  5
36
 10
-34.5
 20
40.0
 30
0.0
 11
34.5
 21
40.0
 31
0.0
  0
ARC
  8
0
  6
CONTINUOUS
 62
     3
  5
37
 10
-34.5
 20
39.5
 30
0.0
 40
0.5
 50
90.0
 51
270.0
  0
ARC
  8
0
  6
CONTINUOUS
 62
     3
  5
38
 10
34.5
 20
39.5
 30
0.0
 40
0.5
 50
270.0
 51
90.0
  0
LINE
  8
0
  6
CONTINUOUS
 62
     3
  5
39
 10
-34.7
 20
0.0
 30
0.0
 11
34.7
 21
0.0
 31
0.0
  0
LINE
  8
0
  6
CONTINUOUS
 62
     3
  5
3A
 10
-34.7
 20
39.0
 30
0.0
 11
34.7
 21
39.0
 31
0.0
  0
LINE
  8
0
  6
CONTINUOUS
 62
   140
  5
3B
 10
-35.0
 20
38.7
 30
0.0
 11
35.0
 21
38.7
 31
0.0
  0
LINE
  8
0
  6
CONTINUOUS
 62
   140
  5
3C
 10
-35.0
 20
0.3
 30
0.0
 11
35.0
 21
0.3
 31
0.0
  0
LINE
  8
0
  6
CONTINUOUS
 62
     3
  5
3D
 10
-34.7
 20
39.0
 30
0.0
 11
-35.0
 21
38.7
 31
0.0
  0
LINE
  8
0
  6
CONTINUOUS
 62
     3
  5
3E
 10
-34.7
 20
0.0
 30
0.0
 11
-35.0
 21
0.3
 31
0.0
  0
LINE
  8
0
  6
CONTINUOUS
 62
     3
  5
3F
 10
34.7
 20
0.0
 30
0.0
 11
35.0
 21
0.3
 31
0.0
  0
LINE
  8
0
  6
CONTINUOUS
 62
     3
  5
40
 10
34.7
 20
39.0
 30
0.0
 11
35.0
 21
38.7
 31
0.0
  0
LINE
  8
0
  6
CONTINUOUS
 62
     3
  5
41
 10
-35.0
 20
5.0
 30
0.0
 11
-35.0
 21
7.0
 31
0.0
  0
LINE
  8
0
  6
CONTINUOUS
 62
     3
  5
42
 10
-35.0
 20
10.0
 30
0.0
 11
-35.0
 21
12.0
 31
0.0
  0
LINE
  8
0
  6
CONTINUOUS
 62
     3
  5
43
 10
-35.0
 20
15.0
 30
0.0
 11
-35.0
 21
17.0
 31
0.0
  0
LINE
  8
0
  6
CONTINUOUS
 62
     3
  5
44
 10
-35.0
 20
20.0
 30
0.0
 11
-35.0
 21
22.0
 31
0.0
  0
LINE
  8
0
  6
CONTINUOUS
 62
     3
  5
45
 10
-35.0
 20
25.0
 30
0.0
 11
-35.0
 21
26.5
 31
0.0
  0
LINE
  8
0
  6
CONTINUOUS
 62
     3
  5
46
 10
-35.0
 20
29.0
 30
0.0
 11
-35.0
 21
30.5
 31
0.0
  0
LINE
  8
0
  6
CONTINUOUS
 62
     3
  5
47
 10
-35.0
 20
33.0
 30
0.0
 11
-35.0
 21
34.5
 31
0.0
  0
LINE
  8
0
  6
CONTINUOUS
 62
     3
  5
48
 10
-35.0
 20
37.0
 30
0.0
 11
-35.0
 21
38.7
 31
0.0
  0
LINE
  8
0
  6
CONTINUOUS
 62
     3
  5
49
 10
-34.2
 20
36.829955
 30
0.0
 11
-35.0
 21
37.0
 31
0.0
  0
ARC
  8
0
  6
CONTINUOUS
 62
     3
  5
4A
 10
-38.0
 20
36.832381
 30
0.0
 40
3.8
 50
322.136354
 51
0.0
  0
LINE
  8
0
  6
CONTINUOUS
 62
     3
  5
4B
 10
-34.2
 20
32.858938
 30
0.0
 11
-35.0
 21
33.0
 31
0.0
  0
ARC
  8
0
  6
CONTINUOUS
 62
     3
  5
4C
 10
-37.3
 20
32.578461
 30
0.0
 40
3.1
 50
317.896551
 51
0.0
  0
LINE
  8
0
  6
CONTINUOUS
 62
     3
  5
4D
 10
-34.2
 20
28.901772
 30
0.0
 11
-35.0
 21
29.0
 31
0.0
  0
ARC
  8
0
  6
CONTINUOUS
 62
     3
  5
4E
 10
-38.2
 20
28.9
 30
0.0
 40
4.0
 50
323.130102
 51
0.025388
  0
ARC
  8
0
  6
CONTINUOUS
 62
     3
  5
4F
 10
-37.9
 20
23.959592
 30
0.0
 40
3.5
 50
325.952268
 51
14.999678
  0
LINE
  8
0
  6
CONTINUOUS
 62
     3
  5
50
 10
-34.519255
 20
24.865439
 30
0.0
 11
-35.0
 21
25.0
 31
0.0
  0
ARC
  8
0
  6
CONTINUOUS
 62
     3
  5
51
 10
-37.2
 20
18.732051
 30
0.0
 40
2.8
 50
321.786789
 51
25.168774
  0
LINE
  8
0
  6
CONTINUOUS
 62
     3
  5
52
 10
-34.665835
 20
19.922852
 30
0.0
 11
-35.0
 21
20.0
 31
0.0
  0
ARC
  8
0
  6
CONTINUOUS
 62
     3
  5
53
 10
-44.4
 20
15.411744
 30
0.0
 40
10.0
 50
340.051557
 51
350.708135
  0
ARC
  8
0
  6
CONTINUOUS
 62
     3
  5
54
 10
-36.9
 20
13.375192
 30
0.0
 40
2.5
 50
22.887261
 51
40.535806
  0
ARC
  8
0
  6
CONTINUOUS
 62
     3
  5
55
 10
-35.518092
 20
13.958571
 30
0.0
 40
1.0
 50
350.708135
 51
22.887261
  0
ARC
  8
0
  6
CONTINUOUS
 62
     3
  5
56
 10
-47.4
 20
10.903844
 30
0.0
 40
13.0
 50
342.524635
 51
351.997446
  0
ARC
  8
0
  6
CONTINUOUS
 62
     3
  5
57
 10
-36.4
 20
8.571714
 30
0.0
 40
2.0
 50
23.241629
 51
45.572996
  0
ARC
  8
0
  6
CONTINUOUS
 62
     3
  5
58
 10
-35.021727
 20
9.163629
 30
0.0
 40
0.5
 50
351.997446
 51
23.241629
  0
ARC
  8
0
  6
CONTINUOUS
 62
     3
  5
59
 10
-35.021727
 20
4.163629
 30
0.0
 40
0.5
 50
351.997446
 51
23.241629
  0
ARC
  8
0
  6
CONTINUOUS
 62
     3
  5
5A
 10
-36.4
 20
3.571714
 30
0.0
 40
2.0
 50
23.241629
 51
45.572996
  0
ARC
  8
0
  6
CONTINUOUS
 62
     3
  5
5B
 10
-47.4
 20
5.903844
 30
0.0
 40
13.0
 50
342.524635
 51
351.997446
  0
LINE
  8
0
  6
CONTINUOUS
 62
     3
  5
5C
 10
-35.0
 20
0.3
 30
0.0
 11
-35.0
 21
2.0
 31
0.0
  0
LINE
  8
0
  6
CONTINUOUS
 62
   130
  5
5D
 10
31.457608
 20
4.1
 30
0.0
 11
31.457608
 21
37.5
 31
0.0
  0
LINE
  8
0
  6
CONTINUOUS
 62
   130
  5
5E
 10
31.108928
 20
4.1
 30
0.0
 11
31.108928
 21
37.5
 31
0.0
  0
LINE
  8
0
  6
CONTINUOUS
 62
   130
  5
5F
 10
30.89484
 20
4.1
 30
0.0
 11
30.89484
 21
37.5
 31
0.0
  0
LINE
  8
0
  6
CONTINUOUS
 62
   130
  5
60
 10
29.444673
 20
4.1
 30
0.0
 11
29.444673
 21
37.5
 31
0.0
  0
LINE
  8
0
  6
CONTINUOUS
 62
   130
  5
61
 10
28.732253
 20
4.1
 30
0.0
 11
28.732253
 21
37.5
 31
0.0
  0
LINE
  8
0
  6
CONTINUOUS
 62
   130
  5
62
 10
26.220489
 20
4.1
 30
0.0
 11
26.220489
 21
37.5
 31
0.0
  0
LINE
  8
0
  6
CONTINUOUS
 62
   130
  5
63
 10
25.466787
 20
4.1
 30
0.0
 11
25.466787
 21
37.5
 31
0.0
  0
LINE
  8
0
  6
CONTINUOUS
 62
   130
  5
64
 10
22.506848
 20
4.1
 30
0.0
 11
22.506848
 21
37.5
 31
0.0
  0
LINE
  8
0
  6
CONTINUOUS
 62
   130
  5
65
 10
21.494552
 20
4.1
 30
0.0
 11
21.494552
 21
37.5
 31
0.0
  0
LINE
  8
0
  6
CONTINUOUS
 62
   130
  5
66
 10
18.504689
 20
4.1
 30
0.0
 11
18.504689
 21
37.5
 31
0.0
  0
LINE
  8
0
  6
CONTINUOUS
 62
   130
  5
67
 10
17.496455
 20
4.1
 30
0.0
 11
17.496455
 21
37.5
 31
0.0
  0
LINE
  8
0
  6
CONTINUOUS
 62
   130
  5
68
 10
14.502938
 20
4.1
 30
0.0
 11
14.502938
 21
37.5
 31
0.0
  0
LINE
  8
0
  6
CONTINUOUS
 62
   130
  5
69
 10
13.49795
 20
4.1
 30
0.0
 11
13.49795
 21
37.5
 31
0.0
  0
LINE
  8
0
  6
CONTINUOUS
 62
   130
  5
6A
 10
10.501595
 20
4.1
 30
0.0
 11
10.501595
 21
37.5
 31
0.0
  0
LINE
  8
0
  6
CONTINUOUS
 62
   130
  5
6B
 10
9.499038
 20
4.1
 30
0.0
 11
9.499038
 21
37.5
 31
0.0
  0
LINE
  8
0
  6
CONTINUOUS
 62
   130
  5
6C
 10
6.500658
 20
4.1
 30
0.0
 11
6.500658
 21
37.5
 31
0.0
  0
LINE
  8
0
  6
CONTINUOUS
 62
   130
  5
6D
 10
5.499722
 20
4.1
 30
0.0
 11
5.499722
 21
37.5
 31
0.0
  0
LINE
  8
0
  6
CONTINUOUS
 62
   130
  5
6E
 10
2.500126
 20
4.1
 30
0.0
 11
2.500126
 21
37.5
 31
0.0
  0
LINE
  8
0
  6
CONTINUOUS
 62
   130
  5
6F
 10
1.5
 20
4.1
 30
0.0
 11
1.5
 21
37.5
 31
0.0
  0
LINE
  8
0
  6
CONTINUOUS
 62
   130
  5
70
 10
-35.0
 20
37.0
 30
0.0
 11
35.0
 21
37.0
 31
0.0
  0
LINE
  8
0
  6
CONTINUOUS
 62
   130
  5
71
 10
-35.0
 20
34.5
 30
0.0
 11
35.0
 21
34.5
 31
0.0
  0
LINE
  8
0
  6
CONTINUOUS
 62
   130
  5
72
 10
-35.0
 20
33.0
 30
0.0
 11
35.0
 21
33.0
 31
0.0
  0
LINE
  8
0
  6
CONTINUOUS
 62
   130
  5
73
 10
-35.0
 20
30.5
 30
0.0
 11
35.0
 21
30.5
 31
0.0
  0
LINE
  8
0
  6
CONTINUOUS
 62
   130
  5
74
 10
-35.0
 20
29.0
 30
0.0
 11
35.0
 21
29.0
 31
0.0
  0
LINE
  8
0
  6
CONTINUOUS
 62
   130
  5
75
 10
-35.0
 20
26.5
 30
0.0
 11
35.0
 21
26.5
 31
0.0
  0
LINE
  8
0
  6
CONTINUOUS
 62
   130
  5
76
 10
-35.0
 20
25.0
 30
0.0
 11
35.0
 21
25.0
 31
0.0
  0
LINE
  8
0
  6
CONTINUOUS
 62
   130
  5
77
 10
-35.0
 20
22.0
 30
0.0
 11
35.0
 21
22.0
 31
0.0
  0
LINE
  8
0
  6
CONTINUOUS
 62
   130
  5
78
 10
-35.0
 20
20.0
 30
0.0
 11
35.0
 21
20.0
 31
0.0
  0
LINE
  8
0
  6
CONTINUOUS
 62
   130
  5
79
 10
-35.0
 20
17.0
 30
0.0
 11
35.0
 21
17.0
 31
0.0
  0
LINE
  8
0
  6
CONTINUOUS
 62
   130
  5
7A
 10
-35.0
 20
15.0
 30
0.0
 11
35.0
 21
15.0
 31
0.0
  0
LINE
  8
0
  6
CONTINUOUS
 62
   130
  5
7B
 10
-35.0
 20
12.0
 30
0.0
 11
35.0
 21
12.0
 31
0.0
  0
LINE
  8
0
  6
CONTINUOUS
 62
   130
  5
7C
 10
-35.0
 20
10.0
 30
0.0
 11
35.0
 21
10.0
 31
0.0
  0
LINE
  8
0
  6
CONTINUOUS
 62
   130
  5
7D
 10
-35.0
 20
7.0
 30
0.0
 11
35.0
 21
7.0
 31
0.0
  0
LINE
  8
0
  6
CONTINUOUS
 62
   130
  5
7E
 10
-35.0
 20
5.0
 30
0.0
 11
35.0
 21
5.0
 31
0.0
  0
LINE
  8
0
  6
CONTINUOUS
 62
   130
  5
7F
 10
-35.0
 20
2.0
 30
0.0
 11
35.0
 21
2.0
 31
0.0
  0
LINE
  8
0
  6
CONTINUOUS
 62
     3
  5
80
 10
35.0
 20
37.0
 30
0.0
 11
35.0
 21
38.7
 31
0.0
  0
LINE
  8
0
  6
CONTINUOUS
 62
     3
  5
81
 10
35.0
 20
0.3
 30
0.0
 11
35.0
 21
2.0
 31
0.0
  0
ARC
  8
0
  6
CONTINUOUS
 62
     3
  5
82
 10
47.4
 20
5.903844
 30
0.0
 40
13.0
 50
188.002554
 51
197.475365
  0
ARC
  8
0
  6
CONTINUOUS
 62
     3
  5
83
 10
36.4
 20
3.571714
 30
0.0
 40
2.0
 50
134.427004
 51
156.758371
  0
ARC
  8
0
  6
CONTINUOUS
 62
     3
  5
84
 10
35.021727
 20
4.163629
 30
0.0
 40
0.5
 50
156.758371
 51
188.002554
  0
ARC
  8
0
  6
CONTINUOUS
 62
     3
  5
85
 10
35.021727
 20
9.163629
 30
0.0
 40
0.5
 50
156.758371
 51
188.002554
  0
ARC
  8
0
  6
CONTINUOUS
 62
     3
  5
86
 10
36.4
 20
8.571714
 30
0.0
 40
2.0
 50
134.427004
 51
156.758371
  0
ARC
  8
0
  6
CONTINUOUS
 62
     3
  5
87
 10
47.4
 20
10.903844
 30
0.0
 40
13.0
 50
188.002554
 51
197.475365
  0
ARC
  8
0
  6
CONTINUOUS
 62
     3
  5
88
 10
35.518092
 20
13.958571
 30
0.0
 40
1.0
 50
157.112739
 51
189.291865
  0
ARC
  8
0
  6
CONTINUOUS
 62
     3
  5
89
 10
36.9
 20
13.375192
 30
0.0
 40
2.5
 50
139.464194
 51
157.112739
  0
ARC
  8
0
  6
CONTINUOUS
 62
     3
  5
8A
 10
44.4
 20
15.411744
 30
0.0
 40
10.0
 50
189.291865
 51
199.948443
  0
LINE
  8
0
  6
CONTINUOUS
 62
     3
  5
8B
 10
34.665835
 20
19.922852
 30
0.0
 11
35.0
 21
20.0
 31
0.0
  0
ARC
  8
0
  6
CONTINUOUS
 62
     3
  5
8C
 10
37.2
 20
18.732051
 30
0.0
 40
2.8
 50
154.831226
 51
218.213211
  0
LINE
  8
0
  6
CONTINUOUS
 62
     3
  5
8D
 10
34.519255
 20
24.865439
 30
0.0
 11
35.0
 21
25.0
 31
0.0
  0
ARC
  8
0
  6
CONTINUOUS
 62
     3
  5
8E
 10
37.9
 20
23.959592
 30
0.0
 40
3.5
 50
165.000322
 51
214.047732
  0
ARC
  8
0
  6
CONTINUOUS
 62
     3
  5
8F
 10
38.2
 20
28.9
 30
0.0
 40
4.0
 50
179.974612
 51
216.869898
  0
LINE
  8
0
  6
CONTINUOUS
 62
     3
  5
90
 10
34.2
 20
28.901772
 30
0.0
 11
35.0
 21
29.0
 31
0.0
  0
ARC
  8
0
  6
CONTINUOUS
 62
     3
  5
91
 10
37.3
 20
32.578461
 30
0.0
 40
3.1
 50
180.0
 51
222.103449
  0
LINE
  8
0
  6
CONTINUOUS
 62
     3
  5
92
 10
34.2
 20
32.858938
 30
0.0
 11
35.0
 21
33.0
 31
0.0
  0
ARC
  8
0
  6
CONTINUOUS
 62
     3
  5
93
 10
38.0
 20
36.832381
 30
0.0
 40
3.8
 50
180.0
 51
217.863646
  0
LINE
  8
0
  6
CONTINUOUS
 62
     3
  5
94
 10
34.2
 20
36.829955
 30
0.0
 11
35.0
 21
37.0
 31
0.0
  0
LINE
  8
0
  6
CONTINUOUS
 62
     3
  5
95
 10
35.0
 20
33.0
 30
0.0
 11
35.0
 21
34.5
 31
0.0
  0
LINE
  8
0
  6
CONTINUOUS
 62
     3
  5
96
 10
35.0
 20
29.0
 30
0.0
 11
35.0
 21
30.5
 31
0.0
  0
LINE
  8
0
  6
CONTINUOUS
 62
     3
  5
97
 10
35.0
 20
25.0
 30
0.0
 11
35.0
 21
26.5
 31
0.0
  0
LINE
  8
0
  6
CONTINUOUS
 62
     3
  5
98
 10
35.0
 20
20.0
 30
0.0
 11
35.0
 21
22.0
 31
0.0
  0
LINE
  8
0
  6
CONTINUOUS
 62
     3
  5
99
 10
35.0
 20
15.0
 30
0.0
 11
35.0
 21
17.0
 31
0.0
  0
LINE
  8
0
  6
CONTINUOUS
 62
     3
  5
9A
 10
35.0
 20
10.0
 30
0.0
 11
35.0
 21
12.0
 31
0.0
  0
LINE
  8
0
  6
CONTINUOUS
 62
     3
  5
9B
 10
35.0
 20
5.0
 30
0.0
 11
35.0
 21
7.0
 31
0.0
  0
LINE
  8
0
  6
CONTINUOUS
 62
   130
  5
9C
 10
-31.457608
 20
4.1
 30
0.0
 11
-31.457608
 21
37.5
 31
0.0
  0
LINE
  8
0
  6
CONTINUOUS
 62
   130
  5
9D
 10
-31.108928
 20
4.1
 30
0.0
 11
-31.108928
 21
37.5
 31
0.0
  0
LINE
  8
0
  6
CONTINUOUS
 62
   130
  5
9E
 10
-30.89484
 20
4.1
 30
0.0
 11
-30.89484
 21
37.5
 31
0.0
  0
LINE
  8
0
  6
CONTINUOUS
 62
   130
  5
9F
 10
-29.444673
 20
4.1
 30
0.0
 11
-29.444673
 21
37.5
 31
0.0
  0
LINE
  8
0
  6
CONTINUOUS
 62
   130
  5
A0
 10
-28.732253
 20
4.1
 30
0.0
 11
-28.732253
 21
37.5
 31
0.0
  0
LINE
  8
0
  6
CONTINUOUS
 62
   130
  5
A1
 10
-26.220489
 20
4.1
 30
0.0
 11
-26.220489
 21
37.5
 31
0.0
  0
LINE
  8
0
  6
CONTINUOUS
 62
   130
  5
A2
 10
-25.466787
 20
4.1
 30
0.0
 11
-25.466787
 21
37.5
 31
0.0
  0
LINE
  8
0
  6
CONTINUOUS
 62
   130
  5
A3
 10
-22.506848
 20
4.1
 30
0.0
 11
-22.506848
 21
37.5
 31
0.0
  0
LINE
  8
0
  6
CONTINUOUS
 62
   130
  5
A4
 10
-21.494552
 20
4.1
 30
0.0
 11
-21.494552
 21
37.5
 31
0.0
  0
LINE
  8
0
  6
CONTINUOUS
 62
   130
  5
A5
 10
-18.504689
 20
4.1
 30
0.0
 11
-18.504689
 21
37.5
 31
0.0
  0
LINE
  8
0
  6
CONTINUOUS
 62
   130
  5
A6
 10
-17.496455
 20
4.1
 30
0.0
 11
-17.496455
 21
37.5
 31
0.0
  0
LINE
  8
0
  6
CONTINUOUS
 62
   130
  5
A7
 10
-14.502938
 20
4.1
 30
0.0
 11
-14.502938
 21
37.5
 31
0.0
  0
LINE
  8
0
  6
CONTINUOUS
 62
   130
  5
A8
 10
-13.49795
 20
4.1
 30
0.0
 11
-13.49795
 21
37.5
 31
0.0
  0
LINE
  8
0
  6
CONTINUOUS
 62
   130
  5
A9
 10
-10.501595
 20
4.1
 30
0.0
 11
-10.501595
 21
37.5
 31
0.0
  0
LINE
  8
0
  6
CONTINUOUS
 62
   130
  5
AA
 10
-9.499038
 20
4.1
 30
0.0
 11
-9.499038
 21
37.5
 31
0.0
  0
LINE
  8
0
  6
CONTINUOUS
 62
   130
  5
AB
 10
-6.500658
 20
4.1
 30
0.0
 11
-6.500658
 21
37.5
 31
0.0
  0
LINE
  8
0
  6
CONTINUOUS
 62
   130
  5
AC
 10
-5.499722
 20
4.1
 30
0.0
 11
-5.499722
 21
37.5
 31
0.0
  0
LINE
  8
0
  6
CONTINUOUS
 62
   130
  5
AD
 10
-2.500126
 20
4.1
 30
0.0
 11
-2.500126
 21
37.5
 31
0.0
  0
LINE
  8
0
  6
CONTINUOUS
 62
   130
  5
AE
 10
-1.5
 20
4.1
 30
0.0
 11
-1.5
 21
37.5
 31
0.0
  0
ENDBLK
  8
0
  5
AF
  0
BLOCK
  8
0
  5
B0
  2
MS_3
 70
     0
 10
0.0
 20
0.0
 30
0.0
  3
MS_3
  0
LINE
  8
0
  6
DASHED
 62
     7
  5
B2
 10
31.327413
 20
-35.4
 30
0.0
 11
31.30123
 21
-33.9
 31
0.0
  0
LINE
  8
0
  6
DASHED
 62
     7
  5
B3
 10
5.376213
 20
-7.974982
 30
0.0
 11
2.018521
 21
-7.974982
 31
0.0
  0
LINE
  8
0
  6
DASHED
 62
     7
  5
B4
 10
31.30123
 20
-33.9
 30
0.0
 11
5.376213
 21
-7.974982
 31
0.0
  0
LINE
  8
0
  6
DASHED
 62
     7
  5
B5
 10
-31.246404
 20
-33.9
 30
0.0
 11
-5.321387
 21
-7.974982
 31
0.0
  0
LINE
  8
0
  6
DASHED
 62
     7
  5
B6
 10
3.777413
 20
-0.9
 30
0.0
 11
3.777413
 21
-7.974982
 31
0.0
  0
LINE
  8
0
  6
DASHED
 62
     7
  5
B7
 10
-31.272587
 20
-35.4
 30
0.0
 11
31.327413
 21
-35.4
 31
0.0
  0
LINE
  8
0
  6
DASHED
 62
     7
  5
B8
 10
33.477413
 20
-36.9
 30
0.0
 11
33.463358
 21
-36.094764
 31
0.0
  0
LINE
  8
0
  6
DASHED
 62
     7
  5
B9
 10
31.727413
 20
-35.8
 30
0.0
 11
33.163403
 21
-35.8
 31
0.0
  0
LINE
  8
0
  6
DASHED
 62
     7
  5
BA
 10
-31.672587
 20
-35.8
 30
0.0
 11
-33.108577
 21
-35.8
 31
0.0
  0
LINE
  8
0
  6
DASHED
 62
     7
  5
BB
 10
33.477413
 20
-36.9
 30
0.0
 11
-33.422587
 21
-36.9
 31
0.0
  0
LINE
  8
0
  6
DASHED
 62
     7
  5
BC
 10
-33.422587
 20
-36.9
 30
0.0
 11
-33.408532
 21
-36.094764
 31
0.0
  0
LINE
  8
0
  6
DASHED
 62
     7
  5
BD
 10
31.327413
 20
-35.4
 30
0.0
 11
31.727413
 21
-35.8
 31
0.0
  0
LINE
  8
0
  6
DASHED
 62
     7
  5
BE
 10
-31.272587
 20
-35.4
 30
0.0
 11
-31.672587
 21
-35.8
 31
0.0
  0
ARC
  8
0
  6
DASHED
 62
     7
  5
BF
 10
33.163403
 20
-36.1
 30
0.0
 40
0.3
 50
1.0
 51
90.0
  0
ARC
  8
0
  6
DASHED
 62
     7
  5
C0
 10
-33.108577
 20
-36.1
 30
0.0
 40
0.3
 50
90.0
 51
179.0
  0
ARC
  8
0
  6
DASHED
 62
     7
  5
C1
 10
-18.8
 20
-6.5
 30
0.0
 40
2.5
 50
180.0
 51
0.0
  0
LINE
  8
0
  6
DASHED
 62
     7
  5
C2
 10
-16.3
 20
-6.5
 30
0.0
 11
-16.3
 21
-1.0
 31
0.0
  0
LINE
  8
0
  6
DASHED
 62
     7
  5
C3
 10
-21.3
 20
-6.5
 30
0.0
 11
-21.3
 21
-1.0
 31
0.0
  0
LINE
  8
0
  6
DASHED
 62
     7
  5
C4
 10
-31.272587
 20
-35.4
 30
0.0
 11
-31.246404
 21
-33.9
 31
0.0
  0
LINE
  8
0
  6
DASHED
 62
     7
  5
C5
 10
-15.793608
 20
-6.5
 30
0.0
 11
-15.793608
 21
-1.0
 31
0.0
  0
LINE
  8
0
  6
DASHED
 62
     7
  5
C6
 10
-10.793608
 20
-6.5
 30
0.0
 11
-10.793608
 21
-1.0
 31
0.0
  0
ARC
  8
0
  6
DASHED
 62
     7
  5
C7
 10
-13.293608
 20
-6.5
 30
0.0
 40
2.5
 50
180.0
 51
0.0
  0
LINE
  8
0
  6
DASHED
 62
     7
  5
C8
 10
-2.5
 20
-6.5
 30
0.0
 11
-2.5
 21
-1.0
 31
0.0
  0
LINE
  8
0
  6
DASHED
 62
     7
  5
C9
 10
2.5
 20
-6.5
 30
0.0
 11
2.5
 21
-1.0
 31
0.0
  0
ARC
  8
0
  6
DASHED
 62
     7
  5
CA
 10
0.0
 20
-6.5
 30
0.0
 40
2.5
 50
180.0
 51
0.0
  0
ARC
  8
0
  6
DASHED
 62
     7
  5
CB
 10
13.348434
 20
-6.5
 30
0.0
 40
2.5
 50
180.0
 51
0.0
  0
LINE
  8
0
  6
DASHED
 62
     7
  5
CC
 10
10.848434
 20
-6.5
 30
0.0
 11
10.848434
 21
-1.0
 31
0.0
  0
LINE
  8
0
  6
DASHED
 62
     7
  5
CD
 10
15.848434
 20
-6.5
 30
0.0
 11
15.848434
 21
-1.0
 31
0.0
  0
LINE
  8
0
  6
DASHED
 62
     7
  5
CE
 10
21.354826
 20
-6.5
 30
0.0
 11
21.354826
 21
-1.0
 31
0.0
  0
LINE
  8
0
  6
DASHED
 62
     7
  5
CF
 10
16.354826
 20
-6.5
 30
0.0
 11
16.354826
 21
-1.0
 31
0.0
  0
ARC
  8
0
  6
DASHED
 62
     7
  5
D0
 10
18.854826
 20
-6.5
 30
0.0
 40
2.5
 50
180.0
 51
0.0
  0
LINE
  8
0
  6
DASHED
 62
     7
  5
D1
 10
-2.018521
 20
-7.974982
 30
0.0
 11
-5.321387
 21
-7.974982
 31
0.0
  0
LINE
  8
0
  6
DASHED
 62
     7
  5
D2
 10
-3.722587
 20
-0.9
 30
0.0
 11
-3.722587
 21
-7.974982
 31
0.0
  0
ENDBLK
  8
0
  5
D3
  0
BLOCK
  8
0
  5
D4
  2
MS_4
 70
     0
 10
0.0
 20
0.0
 30
0.0
  3
MS_4
  0
CIRCLE
  8
0
  6
PHANTOM
 62
    80
  5
D6
 10
0.0
 20
0.0
 30
0.0
 40
47.601581
  0
ARC
  8
0
  6
CONTINUOUS
 62
     3
  5
D7
 10
-23.797138
 20
23.797138
 30
0.0
 40
10.0
 50
95.787275
 51
174.212725
  0
ARC
  8
0
  6
CONTINUOUS
 62
     3
  5
D8
 10
0.0
 20
-211.0
 30
0.0
 40
246.0
 50
84.212725
 51
95.787275
  0
ARC
  8
0
  6
CONTINUOUS
 62
     3
  5
D9
 10
23.797138
 20
23.797138
 30
0.0
 40
10.0
 50
5.787275
 51
84.212725
  0
ARC
  8
0
  6
CONTINUOUS
 62
     3
  5
DA
 10
-211.0
 20
0.0
 30
0.0
 40
246.0
 50
354.212725
 51
5.787275
  0
ARC
  8
0
  6
CONTINUOUS
 62
     3
  5
DB
 10
0.0
 20
211.0
 30
0.0
 40
246.0
 50
264.212725
 51
275.787275
  0
ARC
  8
0
  6
CONTINUOUS
 62
     3
  5
DC
 10
23.797138
 20
-23.797138
 30
0.0
 40
10.0
 50
275.787275
 51
354.212725
  0
ARC
  8
0
  6
CONTINUOUS
 62
     3
  5
DD
 10
211.0
 20
0.0
 30
0.0
 40
246.0
 50
174.212725
 51
185.787275
  0
ARC
  8
0
  6
CONTINUOUS
 62
     3
  5
DE
 10
-23.797138
 20
-23.797138
 30
0.0
 40
10.0
 50
185.787275
 51
264.212725
  0
CIRCLE
  8
0
  6
CONTINUOUS
 62
     3
  5
DF
 10
0.0
 20
0.0
 30
0.0
 40
5.0
  0
ARC
  8
0
  6
CONTINUOUS
 62
   253
  5
E0
 10
1.494995
 20
-1.494995
 30
0.0
 40
0.92
 50
90.000003
 51
180.000005
  0
ARC
  8
0
  6
CONTINUOUS
 62
   253
  5
E1
 10
-1.494995
 20
-1.494995
 30
0.0
 40
0.92
 50
0.0
 51
90.000003
  0
ARC
  8
0
  6
CONTINUOUS
 62
   253
  5
E2
 10
1.494995
 20
1.494995
 30
0.0
 40
0.92
 50
179.999995
 51
269.999997
  0
CIRCLE
  8
0
  6
CONTINUOUS
 62
   253
  5
E3
 10
0.0
 20
0.0
 30
0.0
 40
3.5
  0
ARC
  8
0
  6
CONTINUOUS
 62
   253
  5
E4
 10
-1.494995
 20
1.494995
 30
0.0
 40
0.92
 50
269.999997
 51
0.0
  0
LINE
  8
0
  6
CONTINUOUS
 62
   253
  5
E5
 10
1.494995
 20
-0.575012
 30
0.0
 11
2.299988
 21
-0.575012
 31
0.0
  0
LINE
  8
0
  6
CONTINUOUS
 62
   253
  5
E6
 10
0.575012
 20
-1.494995
 30
0.0
 11
0.575012
 21
-2.299988
 31
0.0
  0
LINE
  8
0
  6
CONTINUOUS
 62
   253
  5
E7
 10
-0.575012
 20
-1.494995
 30
0.0
 11
-0.575012
 21
-2.299988
 31
0.0
  0
LINE
  8
0
  6
CONTINUOUS
 62
   253
  5
E8
 10
-2.299988
 20
-0.575012
 30
0.0
 11
-1.494995
 21
-0.575012
 31
0.0
  0
LINE
  8
0
  6
CONTINUOUS
 62
   253
  5
E9
 10
-0.575012
 20
-2.299988
 30
0.0
 11
0.575012
 21
-2.299988
 31
0.0
  0
LINE
  8
0
  6
CONTINUOUS
 62
   253
  5
EA
 10
-2.299988
 20
0.575012
 30
0.0
 11
-2.299988
 21
-0.575012
 31
0.0
  0
LINE
  8
0
  6
CONTINUOUS
 62
   253
  5
EB
 10
-0.575012
 20
2.299988
 30
0.0
 11
-0.575012
 21
1.494995
 31
0.0
  0
LINE
  8
0
  6
CONTINUOUS
 62
   253
  5
EC
 10
1.494995
 20
0.575012
 30
0.0
 11
2.299988
 21
0.575012
 31
0.0
  0
LINE
  8
0
  6
CONTINUOUS
 62
   253
  5
ED
 10
0.575012
 20
2.299988
 30
0.0
 11
0.575012
 21
1.494995
 31
0.0
  0
LINE
  8
0
  6
CONTINUOUS
 62
   253
  5
EE
 10
-0.575012
 20
2.299988
 30
0.0
 11
0.575012
 21
2.299988
 31
0.0
  0
LINE
  8
0
  6
CONTINUOUS
 62
   253
  5
EF
 10
2.299988
 20
0.575012
 30
0.0
 11
2.299988
 21
-0.575012
 31
0.0
  0
LINE
  8
0
  6
CONTINUOUS
 62
   253
  5
F0
 10
-2.299988
 20
0.575012
 30
0.0
 11
-1.494995
 21
0.575012
 31
0.0
  0
LINE
  8
0
  6
CONTINUOUS
 62
     3
  5
F1
 10
26.5
 20
-33.424939
 30
0.0
 11
33.471341
 21
-33.424939
 31
0.0
  0
ARC
  8
0
  6
CONTINUOUS
 62
     3
  5
F2
 10
33.471341
 20
-32.424939
 30
0.0
 40
1.0
 50
270.0
 51
359.0
  0
LINE
  8
0
  6
CONTINUOUS
 62
     3
  5
F3
 10
34.471189
 20
-32.442391
 30
0.0
 11
34.962533
 21
-4.293292
 31
0.0
  0
ENDBLK
  8
0
  5
F4
  0
BLOCK
  8
0
  5
F5
  2
MS_5
 70
     0
 10
0.0
 20
0.0
 30
0.0
  3
MS_5
  0
LINE
  8
0
  6
CONTINUOUS
 62
     3
  5
F6
 10
-35.5
 20
-200.2
 30
0.0
 11
-35.5
 21
-198.2
 31
0.0
  0
LINE
  8
0
  6
CONTINUOUS
 62
     3
  5
F7
 10
35.5
 20
-200.2
 30
0.0
 11
35.5
 21
-198.2
 31
0.0
  0
LINE
  8
0
  6
CONTINUOUS
 62
     3
  5
F8
 10
-35.5
 20
-200.2
 30
0.0
 11
35.5
 21
-200.2
 31
0.0
  0
LINE
  8
0
  6
CONTINUOUS
 62
     3
  5
F9
 10
-35.0
 20
-144.7
 30
0.0
 11
35.0
 21
-144.7
 31
0.0
  0
LINE
  8
0
  6
CONTINUOUS
 62
     3
  5
FA
 10
-35.0
 20
-0.3
 30
0.0
 11
35.0
 21
-0.3
 31
0.0
  0
LINE
  8
0
  6
CONTINUOUS
 62
     3
  5
FB
 10
35.0
 20
-144.7
 30
0.0
 11
34.7
 21
-145.0
 31
0.0
  0
LINE
  8
0
  6
CONTINUOUS
 62
     3
  5
FC
 10
35.0
 20
-145.3
 30
0.0
 11
34.7
 21
-145.0
 31
0.0
  0
LINE
  8
0
  6
CONTINUOUS
 62
     3
  5
FD
 10
34.7
 20
-145.0
 30
0.0
 11
-34.7
 21
-145.0
 31
0.0
  0
LINE
  8
0
  6
CONTINUOUS
 62
     3
  5
FE
 10
35.0
 20
-168.95
 30
0.0
 11
35.0
 21
-145.3
 31
0.0
  0
LINE
  8
0
  6
CONTINUOUS
 62
     3
  5
FF
 10
-35.0
 20
-144.7
 30
0.0
 11
-34.7
 21
-145.0
 31
0.0
  0
LINE
  8
0
  6
CONTINUOUS
 62
     3
  5
100
 10
34.5
 20
-170.45
 30
0.0
 11
34.5
 21
-169.45
 31
0.0
  0
LINE
  8
0
  6
CONTINUOUS
 62
     3
  5
101
 10
35.0
 20
-168.95
 30
0.0
 11
34.5
 21
-169.45
 31
0.0
  0
LINE
  8
0
  6
CONTINUOUS
 62
     3
  5
102
 10
34.5
 20
-170.45
 30
0.0
 11
35.0
 21
-170.95
 31
0.0
  0
LINE
  8
0
  6
CONTINUOUS
 62
     3
  5
103
 10
-34.5
 20
-170.45
 30
0.0
 11
-35.0
 21
-170.95
 31
0.0
  0
LINE
  8
0
  6
CONTINUOUS
 62
     3
  5
104
 10
-35.0
 20
-168.95
 30
0.0
 11
-34.5
 21
-169.45
 31
0.0
  0
LINE
  8
0
  6
CONTINUOUS
 62
     3
  5
105
 10
-34.5
 20
-170.45
 30
0.0
 11
-34.5
 21
-169.45
 31
0.0
  0
LINE
  8
0
  6
CONTINUOUS
 62
     3
  5
106
 10
-35.0
 20
-145.3
 30
0.0
 11
-34.7
 21
-145.0
 31
0.0
  0
LINE
  8
0
  6
CONTINUOUS
 62
     3
  5
107
 10
-35.0
 20
-168.95
 30
0.0
 11
-35.0
 21
-145.3
 31
0.0
  0
LINE
  8
0
  6
CONTINUOUS
 62
     3
  5
108
 10
-34.5
 20
-169.45
 30
0.0
 11
-24.898214
 21
-169.45
 31
0.0
  0
LINE
  8
0
  6
CONTINUOUS
 62
     3
  5
109
 10
-34.5
 20
-170.45
 30
0.0
 11
-24.283005
 21
-170.45
 31
0.0
  0
LINE
  8
0
  6
CONTINUOUS
 62
     3
  5
10A
 10
32.493589
 20
-169.45
 30
0.0
 11
34.5
 21
-169.45
 31
0.0
  0
LINE
  8
0
  6
CONTINUOUS
 62
     3
  5
10B
 10
32.493589
 20
-170.45
 30
0.0
 11
34.5
 21
-170.45
 31
0.0
  0
ARC
  8
0
  6
CONTINUOUS
 62
     3
  5
10C
 10
13.0
 20
-169.95
 30
0.0
 40
19.5
 50
241.826551
 51
90.0
  0
LINE
  8
0
  6
CONTINUOUS
 62
     3
  5
10D
 10
-13.7
 20
-150.45
 30
0.0
 11
-0.5
 21
-150.45
 31
0.0
  0
ARC
  8
0
  6
CONTINUOUS
 62
     3
  5
10E
 10
-13.7
 20
-163.25
 30
0.0
 40
12.8
 50
90.0
 51
242.805218
  0
LINE
  8
0
  6
CONTINUOUS
 62
     3
  5
10F
 10
3.793225
 20
-187.139686
 30
0.0
 11
-19.743422
 21
-174.533486
 31
0.0
  0
ARC
  8
0
  6
CONTINUOUS
 62
     3
  5
110
 10
14.0
 20
-169.95
 30
0.0
 40
20.454038
 50
316.535977
 51
43.464023
  0
ARC
  8
0
  6
CONTINUOUS
 62
     3
  5
111
 10
36.5
 20
-148.625132
 30
0.0
 40
10.545962
 50
180.0
 51
223.464023
  0
ARC
  8
0
  6
CONTINUOUS
 62
     3
  5
112
 10
36.5
 20
-191.274868
 30
0.0
 40
10.545962
 50
136.535977
 51
180.0
  0
LINE
  8
0
  6
CONTINUOUS
 62
     3
  5
113
 10
0.5
 20
-151.45
 30
0.0
 11
0.5
 21
-150.45
 31
0.0
  0
LINE
  8
0
  6
CONTINUOUS
 62
     3
  5
114
 10
-0.5
 20
-151.45
 30
0.0
 11
-0.5
 21
-150.45
 31
0.0
  0
LINE
  8
0
  6
CONTINUOUS
 62
     3
  5
115
 10
-0.5
 20
-151.45
 30
0.0
 11
0.5
 21
-151.45
 31
0.0
  0
LINE
  8
0
  6
CONTINUOUS
 62
     3
  5
116
 10
0.5
 20
-150.45
 30
0.0
 11
13.0
 21
-150.45
 31
0.0
  0
LINE
  8
0
  6
CONTINUOUS
 62
     3
  5
117
 10
-35.0
 20
-144.7
 30
0.0
 11
-35.0
 21
-21.5
 31
0.0
  0
LINE
  8
0
  6
CONTINUOUS
 62
     3
  5
118
 10
-35.0
 20
-5.0
 30
0.0
 11
35.0
 21
-5.0
 31
0.0
  0
LINE
  8
0
  6
CONTINUOUS
 62
     3
  5
119
 10
-35.0
 20
-12.5
 30
0.0
 11
35.0
 21
-12.5
 31
0.0
  0
LINE
  8
0
  6
CONTINUOUS
 62
     3
  5
11A
 10
-35.0
 20
-14.0
 30
0.0
 11
35.0
 21
-14.0
 31
0.0
  0
LINE
  8
0
  6
CONTINUOUS
 62
     3
  5
11B
 10
-35.0
 20
-21.5
 30
0.0
 11
35.0
 21
-21.5
 31
0.0
  0
LINE
  8
0
  6
CONTINUOUS
 62
     3
  5
11C
 10
-33.5
 20
-6.5
 30
0.0
 11
33.5
 21
-6.5
 31
0.0
  0
LINE
  8
0
  6
CONTINUOUS
 62
     3
  5
11D
 10
-33.5
 20
-11.0
 30
0.0
 11
33.5
 21
-11.0
 31
0.0
  0
LINE
  8
0
  6
CONTINUOUS
 62
     3
  5
11E
 10
-33.5
 20
-15.5
 30
0.0
 11
33.5
 21
-15.5
 31
0.0
  0
LINE
  8
0
  6
CONTINUOUS
 62
     3
  5
11F
 10
-33.5
 20
-20.0
 30
0.0
 11
33.5
 21
-20.0
 31
0.0
  0
LINE
  8
0
  6
CONTINUOUS
 62
     3
  5
120
 10
-33.5
 20
-11.0
 30
0.0
 11
-35.0
 21
-12.5
 31
0.0
  0
LINE
  8
0
  6
CONTINUOUS
 62
     3
  5
121
 10
-33.5
 20
-20.0
 30
0.0
 11
-35.0
 21
-21.5
 31
0.0
  0
LINE
  8
0
  6
CONTINUOUS
 62
     3
  5
122
 10
-33.5
 20
-15.5
 30
0.0
 11
-35.0
 21
-14.0
 31
0.0
  0
LINE
  8
0
  6
CONTINUOUS
 62
     3
  5
123
 10
-33.5
 20
-6.5
 30
0.0
 11
-35.0
 21
-5.0
 31
0.0
  0
LINE
  8
0
  6
CONTINUOUS
 62
     3
  5
124
 10
-33.5
 20
-20.0
 30
0.0
 11
-33.5
 21
-15.5
 31
0.0
  0
LINE
  8
0
  6
CONTINUOUS
 62
     3
  5
125
 10
-35.0
 20
-14.0
 30
0.0
 11
-35.0
 21
-12.5
 31
0.0
  0
LINE
  8
0
  6
CONTINUOUS
 62
     3
  5
126
 10
-33.5
 20
-11.0
 30
0.0
 11
-33.5
 21
-6.5
 31
0.0
  0
LINE
  8
0
  6
CONTINUOUS
 62
     3
  5
127
 10
-35.0
 20
-5.0
 30
0.0
 11
-35.0
 21
-0.3
 31
0.0
  0
LINE
  8
0
  6
CONTINUOUS
 62
     3
  5
128
 10
-34.7
 20
0.0
 30
0.0
 11
34.7
 21
0.0
 31
0.0
  0
LINE
  8
0
  6
CONTINUOUS
 62
     3
  5
129
 10
-35.0
 20
-0.3
 30
0.0
 11
-34.7
 21
0.0
 31
0.0
  0
LINE
  8
0
  6
CONTINUOUS
 62
     3
  5
12A
 10
-35.0
 20
-197.7
 30
0.0
 11
35.0
 21
-197.7
 31
0.0
  0
LINE
  8
0
  6
CONTINUOUS
 62
     3
  5
12B
 10
-35.5
 20
-198.2
 30
0.0
 11
35.5
 21
-198.2
 31
0.0
  0
LINE
  8
0
  6
CONTINUOUS
 62
     3
  5
12C
 10
35.0
 20
-197.7
 30
0.0
 11
35.0
 21
-170.95
 31
0.0
  0
LINE
  8
0
  6
CONTINUOUS
 62
     3
  5
12D
 10
34.7
 20
-198.2
 30
0.0
 11
34.7
 21
-197.7
 31
0.0
  0
LINE
  8
0
  6
CONTINUOUS
 62
     3
  5
12E
 10
-35.0
 20
-197.7
 30
0.0
 11
-35.0
 21
-170.95
 31
0.0
  0
LINE
  8
0
  6
CONTINUOUS
 62
     3
  5
12F
 10
-34.7
 20
-198.2
 30
0.0
 11
-34.7
 21
-197.7
 31
0.0
  0
LINE
  8
0
  6
CONTINUOUS
 62
     3
  5
130
 10
35.0
 20
-144.7
 30
0.0
 11
35.0
 21
-21.5
 31
0.0
  0
LINE
  8
0
  6
CONTINUOUS
 62
     3
  5
131
 10
35.0
 20
-0.3
 30
0.0
 11
34.7
 21
0.0
 31
0.0
  0
LINE
  8
0
  6
CONTINUOUS
 62
     3
  5
132
 10
35.0
 20
-5.0
 30
0.0
 11
35.0
 21
-0.3
 31
0.0
  0
LINE
  8
0
  6
CONTINUOUS
 62
     3
  5
133
 10
33.5
 20
-11.0
 30
0.0
 11
33.5
 21
-6.5
 31
0.0
  0
LINE
  8
0
  6
CONTINUOUS
 62
     3
  5
134
 10
35.0
 20
-14.0
 30
0.0
 11
35.0
 21
-12.5
 31
0.0
  0
LINE
  8
0
  6
CONTINUOUS
 62
     3
  5
135
 10
33.5
 20
-20.0
 30
0.0
 11
33.5
 21
-15.5
 31
0.0
  0
LINE
  8
0
  6
CONTINUOUS
 62
     3
  5
136
 10
33.5
 20
-6.5
 30
0.0
 11
35.0
 21
-5.0
 31
0.0
  0
LINE
  8
0
  6
CONTINUOUS
 62
     3
  5
137
 10
33.5
 20
-15.5
 30
0.0
 11
35.0
 21
-14.0
 31
0.0
  0
LINE
  8
0
  6
CONTINUOUS
 62
     3
  5
138
 10
33.5
 20
-20.0
 30
0.0
 11
35.0
 21
-21.5
 31
0.0
  0
LINE
  8
0
  6
CONTINUOUS
 62
     3
  5
139
 10
33.5
 20
-11.0
 30
0.0
 11
35.0
 21
-12.5
 31
0.0
  0
LINE
  8
0
  6
CONTINUOUS
 62
    80
  5
13A
 10
-6.0
 20
-175.95
 30
0.0
 11
-6.0
 21
-163.95
 31
0.0
  0
LINE
  8
0
  6
CONTINUOUS
 62
    80
  5
13B
 10
0.0
 20
-175.95
 30
0.0
 11
0.0
 21
-163.95
 31
0.0
  0
LINE
  8
0
  6
CONTINUOUS
 62
    80
  5
13C
 10
6.0
 20
-175.95
 30
0.0
 11
6.0
 21
-163.95
 31
0.0
  0
LINE
  8
0
  6
CONTINUOUS
 62
    80
  5
13D
 10
12.0
 20
-175.95
 30
0.0
 11
12.0
 21
-163.95
 31
0.0
  0
LINE
  8
0
  6
CONTINUOUS
 62
    80
  5
13E
 10
18.0
 20
-175.95
 30
0.0
 11
18.0
 21
-163.95
 31
0.0
  0
LINE
  8
0
  6
CONTINUOUS
 62
    80
  5
13F
 10
24.0
 20
-175.95
 30
0.0
 11
24.0
 21
-163.95
 31
0.0
  0
LINE
  8
0
  6
CONTINUOUS
 62
    80
  5
140
 10
30.0
 20
-175.95
 30
0.0
 11
30.0
 21
-163.95
 31
0.0
  0
TEXT
  8
0
  6
CONTINUOUS
 62
     3
  5
141
 10
-4.76249
 20
-169.95
 30
0.0
 40
6.0
  1
S
 41
1.05001
  7
MX_NOTE_STANDARD
 11
-4.76249
 21
-166.95
 31
0.0
 73
     2
  0
TEXT
  8
0
  6
CONTINUOUS
 62
     3
  5
142
 10
1.23751
 20
-169.95
 30
0.0
 40
6.0
  1
q
 41
1.05001
  7
MX_NOTE_STANDARD
 11
1.23751
 21
-166.95
 31
0.0
 73
     2
  0
TEXT
  8
0
  6
CONTINUOUS
 62
     3
  5
143
 10
7.23751
 20
-169.95
 30
0.0
 40
6.0
  1
u
 41
1.05001
  7
MX_NOTE_STANDARD
 11
7.23751
 21
-166.95
 31
0.0
 73
     2
  0
TEXT
  8
0
  6
CONTINUOUS
 62
     3
  5
144
 10
13.23751
 20
-169.95
 30
0.0
 40
6.0
  1
a
 41
1.05001
  7
MX_NOTE_STANDARD
 11
13.23751
 21
-166.95
 31
0.0
 73
     2
  0
TEXT
  8
0
  6
CONTINUOUS
 62
     3
  5
145
 10
19.23751
 20
-169.95
 30
0.0
 40
6.0
  1
r
 41
1.05001
  7
MX_NOTE_STANDARD
 11
19.23751
 21
-166.95
 31
0.0
 73
     2
  0
TEXT
  8
0
  6
CONTINUOUS
 62
     3
  5
146
 10
25.23751
 20
-169.95
 30
0.0
 40
6.0
  1
e
 41
1.05001
  7
MX_NOTE_STANDARD
 11
25.23751
 21
-166.95
 31
0.0
 73
     2
  0
SOLID
  8
0
  6
CONTINUOUS
 62
    80
  5
147
 10
-6.0
 20
-169.95
 30
0.0
 11
0.0
 21
-169.95
 31
0.0
 12
-6.0
 22
-175.95
 32
0.0
 13
0.0
 23
-175.95
 33
0.0
  0
LINE
  8
0
  6
CONTINUOUS
 62
    80
  5
148
 10
-6.0
 20
-175.95
 30
0.0
 11
30.0
 21
-175.95
 31
0.0
  0
LINE
  8
0
  6
CONTINUOUS
 62
    80
  5
149
 10
-6.0
 20
-169.95
 30
0.0
 11
30.0
 21
-169.95
 31
0.0
  0
LINE
  8
0
  6
CONTINUOUS
 62
    80
  5
14A
 10
-6.0
 20
-163.95
 30
0.0
 11
30.0
 21
-163.95
 31
0.0
  0
TEXT
  8
0
  6
CONTINUOUS
 62
     3
  5
14B
 10
7.23751
 20
-175.95
 30
0.0
 40
6.0
  1
o
 41
1.05001
  7
MX_NOTE_STANDARD
 11
7.23751
 21
-172.95
 31
0.0
 73
     2
  0
TEXT
  8
0
  6
CONTINUOUS
 62
     3
  5
14C
 10
1.23751
 20
-175.95
 30
0.0
 40
6.0
  1
T
 41
1.05001
  7
MX_NOTE_STANDARD
 11
1.23751
 21
-172.95
 31
0.0
 73
     2
  0
TEXT
  8
0
  6
CONTINUOUS
 62
     3
  5
14D
 10
13.23751
 20
-175.95
 30
0.0
 40
6.0
  1
w
 41
1.05001
  7
MX_NOTE_STANDARD
 11
13.23751
 21
-172.95
 31
0.0
 73
     2
  0
TEXT
  8
0
  6
CONTINUOUS
 62
     3
  5
14E
 10
19.23751
 20
-175.95
 30
0.0
 40
6.0
  1
e
 41
1.05001
  7
MX_NOTE_STANDARD
 11
19.23751
 21
-172.95
 31
0.0
 73
     2
  0
TEXT
  8
0
  6
CONTINUOUS
 62
     3
  5
14F
 10
25.23751
 20
-175.95
 30
0.0
 40
6.0
  1
r
 41
1.05001
  7
MX_NOTE_STANDARD
 11
25.23751
 21
-172.95
 31
0.0
 73
     2
  0
TEXT
  8
0
  6
CONTINUOUS
 62
     3
  5
150
 10
-17.179487
 20
-161.95
 30
0.0
 40
4.0
  1
Super LED SIGNTOWER
 41
0.480769
  7
MX_NOTE_STANDARD
 11
-17.179487
 21
-159.95
 31
0.0
 73
     2
  0
INSERT
  8
0
  6
BYBLOCK
 62
    80
  5
287
  2
*X10
 10
0.0
 20
0.0
 30
0.0
  0
INSERT
  8
0
  6
BYBLOCK
 62
    80
  5
2C7
  2
*X11
 10
0.0
 20
0.0
 30
0.0
  0
INSERT
  8
0
  6
BYBLOCK
 62
    80
  5
2F4
  2
*X12
 10
0.0
 20
0.0
 30
0.0
  0
INSERT
  8
0
  6
BYBLOCK
 62
    80
  5
324
  2
*X13
 10
0.0
 20
0.0
 30
0.0
  0
INSERT
  8
0
  6
BYBLOCK
 62
    80
  5
34D
  2
*X14
 10
0.0
 20
0.0
 30
0.0
  0
INSERT
  8
0
  6
BYBLOCK
 62
    80
  5
38A
  2
*X15
 10
0.0
 20
0.0
 30
0.0
  0
ENDBLK
  8
0
  5
38B
  0
BLOCK
  8
0
  5
38C
  2
MS_6
 70
     0
 10
0.0
 20
0.0
 30
0.0
  3
MS_6
  0
LINE
  8
0
  6
DASHED
 62
    80
  5
38D
 10
-8.45
 20
0.0
 30
0.0
 11
8.45
 21
0.0
 31
0.0
  0
LINE
  8
0
  6
CONTINUOUS
 62
     3
  5
38E
 10
0.8
 20
-37.0
 30
0.0
 11
0.8
 21
-33.672193
 31
0.0
  0
LINE
  8
0
  6
DASHED
 62
    80
  5
38F
 10
-0.8
 20
-37.0
 30
0.0
 11
-0.8
 21
-33.672193
 31
0.0
  0
LINE
  8
0
  6
DASHED
 62
    80
  5
390
 10
2.4
 20
-37.0
 30
0.0
 11
2.4
 21
-33.672193
 31
0.0
  0
LINE
  8
0
  6
DASHED
 62
    80
  5
391
 10
-2.4
 20
-37.0
 30
0.0
 11
-2.4
 21
-33.672193
 31
0.0
  0
LINE
  8
0
  6
DASHED
 62
    80
  5
392
 10
-4.0
 20
-37.0
 30
0.0
 11
-4.0
 21
-33.672193
 31
0.0
  0
LINE
  8
0
  6
DASHED
 62
    80
  5
393
 10
4.0
 20
-37.0
 30
0.0
 11
4.0
 21
-33.672193
 31
0.0
  0
ARC
  8
0
  6
DASHED
 62
    80
  5
394
 10
-3.579983
 20
-32.422193
 30
0.0
 40
1.25
 50
180.0
 51
270.0
  0
ARC
  8
0
  6
DASHED
 62
    80
  5
395
 10
3.579983
 20
-32.422193
 30
0.0
 40
1.25
 50
270.0
 51
0.0
  0
LINE
  8
0
  6
DASHED
 62
    80
  5
396
 10
-4.829983
 20
-32.422193
 30
0.0
 11
-4.829983
 21
-22.7
 31
0.0
  0
LINE
  8
0
  6
DASHED
 62
    80
  5
397
 10
4.829983
 20
-32.422193
 30
0.0
 11
4.829983
 21
-22.7
 31
0.0
  0
LINE
  8
0
  6
DASHED
 62
    80
  5
398
 10
-3.579983
 20
-33.672193
 30
0.0
 11
3.579983
 21
-33.672193
 31
0.0
  0
LINE
  8
0
  6
DASHED
 62
    80
  5
399
 10
-6.791411
 20
-22.7
 30
0.0
 11
6.791411
 21
-22.7
 31
0.0
  0
LINE
  8
0
  6
DASHED
 62
    80
  5
39A
 10
-8.45
 20
-6.2
 30
0.0
 11
8.45
 21
-6.2
 31
0.0
  0
LINE
  8
0
  6
DASHED
 62
    80
  5
39B
 10
-7.5
 20
-6.2
 30
0.0
 11
-6.791411
 21
-22.7
 31
0.0
  0
LINE
  8
0
  6
DASHED
 62
    80
  5
39C
 10
7.5
 20
-6.2
 30
0.0
 11
6.791411
 21
-22.7
 31
0.0
  0
ARC
  8
0
  6
DASHED
 62
    80
  5
39D
 10
9.0
 20
-37.0
 30
0.0
 40
13.0
 50
180.0
 51
270.0
  0
ARC
  8
0
  6
DASHED
 62
    80
  5
39E
 10
9.0
 20
-37.0
 30
0.0
 40
11.4
 50
180.0
 51
270.0
  0
ARC
  8
0
  6
DASHED
 62
    80
  5
39F
 10
9.0
 20
-37.0
 30
0.0
 40
9.8
 50
180.0
 51
270.0
  0
ARC
  8
0
  6
DASHED
 62
    80
  5
3A0
 10
9.0
 20
-37.0
 30
0.0
 40
8.2
 50
180.0
 51
270.0
  0
ARC
  8
0
  6
DASHED
 62
    80
  5
3A1
 10
9.0
 20
-37.0
 30
0.0
 40
6.6
 50
180.0
 51
270.0
  0
ARC
  8
0
  6
DASHED
 62
    80
  5
3A2
 10
9.0
 20
-37.0
 30
0.0
 40
5.0
 50
180.0
 51
270.0
  0
LINE
  8
0
  6
DASHED
 62
    80
  5
3A3
 10
9.0
 20
-42.0
 30
0.0
 11
35.5
 21
-42.0
 31
0.0
  0
LINE
  8
0
  6
DASHED
 62
    80
  5
3A4
 10
9.0
 20
-43.6
 30
0.0
 11
35.5
 21
-43.6
 31
0.0
  0
LINE
  8
0
  6
DASHED
 62
    80
  5
3A5
 10
9.0
 20
-45.2
 30
0.0
 11
35.5
 21
-45.2
 31
0.0
  0
LINE
  8
0
  6
DASHED
 62
    80
  5
3A6
 10
9.0
 20
-46.8
 30
0.0
 11
35.5
 21
-46.8
 31
0.0
  0
LINE
  8
0
  6
DASHED
 62
    80
  5
3A7
 10
9.0
 20
-48.4
 30
0.0
 11
35.5
 21
-48.4
 31
0.0
  0
LINE
  8
0
  6
DASHED
 62
    80
  5
3A8
 10
9.0
 20
-50.0
 30
0.0
 11
35.5
 21
-50.0
 31
0.0
  0
LINE
  8
0
  6
DASHED
 62
    80
  5
3A9
 10
8.45
 20
-6.2
 30
0.0
 11
8.45
 21
0.0
 31
0.0
  0
LINE
  8
0
  6
DASHED
 62
    80
  5
3AA
 10
-8.45
 20
-6.2
 30
0.0
 11
-8.45
 21
0.0
 31
0.0
  0
ENDBLK
  8
0
  5
3AB
  0
BLOCK
  8
0
  5
3AC
  2
MS_7
 70
     0
 10
0.0
 20
0.0
 30
0.0
  3
MS_7
  0
INSERT
  8
0
  6
BYBLOCK
 62
    80
  5
3B2
  2
*X16
 10
0.0
 20
0.0
 30
0.0
  0
INSERT
  8
0
  6
BYBLOCK
 62
    80
  5
456
  2
*X17
 10
0.0
 20
0.0
 30
0.0
  0
CIRCLE
  8
0
  6
CONTINUOUS
 62
    80
  5
457
 10
13.0
 20
-181.95
 30
0.0
 40
1.0
  0
CIRCLE
  8
0
  6
CONTINUOUS
 62
    80
  5
458
 10
18.196152
 20
-181.95
 30
0.0
 40
1.0
  0
CIRCLE
  8
0
  6
CONTINUOUS
 62
    80
  5
459
 10
15.598076
 20
-183.45
 30
0.0
 40
1.0
  0
CIRCLE
  8
0
  6
CONTINUOUS
 62
    80
  5
45A
 10
7.803848
 20
-181.95
 30
0.0
 40
1.0
  0
CIRCLE
  8
0
  6
CONTINUOUS
 62
    80
  5
45B
 10
10.401924
 20
-183.45
 30
0.0
 40
1.0
  0
CIRCLE
  8
0
  6
CONTINUOUS
 62
    80
  5
45C
 10
23.392305
 20
-178.95
 30
0.0
 40
1.0
  0
CIRCLE
  8
0
  6
CONTINUOUS
 62
    80
  5
45D
 10
18.196152
 20
-178.95
 30
0.0
 40
1.0
  0
CIRCLE
  8
0
  6
CONTINUOUS
 62
    80
  5
45E
 10
20.794229
 20
-180.45
 30
0.0
 40
1.0
  0
CIRCLE
  8
0
  6
CONTINUOUS
 62
    80
  5
45F
 10
15.598076
 20
-180.45
 30
0.0
 40
1.0
  0
CIRCLE
  8
0
  6
CONTINUOUS
 62
    80
  5
460
 10
5.205771
 20
-180.45
 30
0.0
 40
1.0
  0
CIRCLE
  8
0
  6
CONTINUOUS
 62
    80
  5
461
 10
10.401924
 20
-180.45
 30
0.0
 40
1.0
  0
CIRCLE
  8
0
  6
CONTINUOUS
 62
    80
  5
462
 10
13.0
 20
-178.95
 30
0.0
 40
1.0
  0
CIRCLE
  8
0
  6
CONTINUOUS
 62
    80
  5
463
 10
7.803848
 20
-178.95
 30
0.0
 40
1.0
  0
CIRCLE
  8
0
  6
CONTINUOUS
 62
    80
  5
464
 10
2.607695
 20
-178.95
 30
0.0
 40
1.0
  0
CIRCLE
  8
0
  6
CONTINUOUS
 62
    80
  5
465
 10
15.598076
 20
-156.45
 30
0.0
 40
1.0
  0
CIRCLE
  8
0
  6
CONTINUOUS
 62
    80
  5
466
 10
10.401924
 20
-156.45
 30
0.0
 40
1.0
  0
CIRCLE
  8
0
  6
CONTINUOUS
 62
    80
  5
467
 10
10.401924
 20
-159.45
 30
0.0
 40
1.0
  0
CIRCLE
  8
0
  6
CONTINUOUS
 62
    80
  5
468
 10
15.598076
 20
-159.45
 30
0.0
 40
1.0
  0
CIRCLE
  8
0
  6
CONTINUOUS
 62
    80
  5
469
 10
13.0
 20
-157.95
 30
0.0
 40
1.0
  0
CIRCLE
  8
0
  6
CONTINUOUS
 62
    80
  5
46A
 10
18.196152
 20
-157.95
 30
0.0
 40
1.0
  0
CIRCLE
  8
0
  6
CONTINUOUS
 62
    80
  5
46B
 10
20.794229
 20
-159.45
 30
0.0
 40
1.0
  0
CIRCLE
  8
0
  6
CONTINUOUS
 62
    80
  5
46C
 10
5.205771
 20
-159.45
 30
0.0
 40
1.0
  0
CIRCLE
  8
0
  6
CONTINUOUS
 62
    80
  5
46D
 10
7.803848
 20
-157.95
 30
0.0
 40
1.0
  0
CIRCLE
  8
0
  6
CONTINUOUS
 62
    80
  5
46E
 10
15.598076
 20
-174.45
 30
0.0
 40
1.0
  0
CIRCLE
  8
0
  6
CONTINUOUS
 62
    80
  5
46F
 10
2.607695
 20
-163.95
 30
0.0
 40
1.0
  0
CIRCLE
  8
0
  6
CONTINUOUS
 62
    80
  5
470
 10
7.803848
 20
-163.95
 30
0.0
 40
1.0
  0
CIRCLE
  8
0
  6
CONTINUOUS
 62
    80
  5
471
 10
5.205771
 20
-165.45
 30
0.0
 40
1.0
  0
CIRCLE
  8
0
  6
CONTINUOUS
 62
    80
  5
472
 10
10.401924
 20
-165.45
 30
0.0
 40
1.0
  0
CIRCLE
  8
0
  6
CONTINUOUS
 62
    80
  5
473
 10
15.598076
 20
-165.45
 30
0.0
 40
1.0
  0
CIRCLE
  8
0
  6
CONTINUOUS
 62
    80
  5
474
 10
13.0
 20
-163.95
 30
0.0
 40
1.0
  0
CIRCLE
  8
0
  6
CONTINUOUS
 62
    80
  5
475
 10
15.598076
 20
-168.45
 30
0.0
 40
1.0
  0
CIRCLE
  8
0
  6
CONTINUOUS
 62
    80
  5
476
 10
15.598076
 20
-171.45
 30
0.0
 40
1.0
  0
CIRCLE
  8
0
  6
CONTINUOUS
 62
    80
  5
477
 10
13.0
 20
-169.95
 30
0.0
 40
1.0
  0
CIRCLE
  8
0
  6
CONTINUOUS
 62
    80
  5
478
 10
13.0
 20
-166.95
 30
0.0
 40
1.0
  0
CIRCLE
  8
0
  6
CONTINUOUS
 62
    80
  5
479
 10
10.401924
 20
-168.45
 30
0.0
 40
1.0
  0
CIRCLE
  8
0
  6
CONTINUOUS
 62
    80
  5
47A
 10
10.401924
 20
-171.45
 30
0.0
 40
1.0
  0
CIRCLE
  8
0
  6
CONTINUOUS
 62
    80
  5
47B
 10
5.205771
 20
-168.45
 30
0.0
 40
1.0
  0
CIRCLE
  8
0
  6
CONTINUOUS
 62
    80
  5
47C
 10
5.205771
 20
-171.45
 30
0.0
 40
1.0
  0
CIRCLE
  8
0
  6
CONTINUOUS
 62
    80
  5
47D
 10
7.803848
 20
-169.95
 30
0.0
 40
1.0
  0
CIRCLE
  8
0
  6
CONTINUOUS
 62
    80
  5
47E
 10
7.803848
 20
-166.95
 30
0.0
 40
1.0
  0
CIRCLE
  8
0
  6
CONTINUOUS
 62
    80
  5
47F
 10
2.607695
 20
-169.95
 30
0.0
 40
1.0
  0
CIRCLE
  8
0
  6
CONTINUOUS
 62
    80
  5
480
 10
2.607695
 20
-166.95
 30
0.0
 40
1.0
  0
CIRCLE
  8
0
  6
CONTINUOUS
 62
    80
  5
481
 10
13.0
 20
-172.95
 30
0.0
 40
1.0
  0
CIRCLE
  8
0
  6
CONTINUOUS
 62
    80
  5
482
 10
7.803848
 20
-172.95
 30
0.0
 40
1.0
  0
CIRCLE
  8
0
  6
CONTINUOUS
 62
    80
  5
483
 10
2.607695
 20
-172.95
 30
0.0
 40
1.0
  0
CIRCLE
  8
0
  6
CONTINUOUS
 62
    80
  5
484
 10
5.205771
 20
-174.45
 30
0.0
 40
1.0
  0
CIRCLE
  8
0
  6
CONTINUOUS
 62
    80
  5
485
 10
10.401924
 20
-174.45
 30
0.0
 40
1.0
  0
CIRCLE
  8
0
  6
CONTINUOUS
 62
    80
  5
486
 10
23.392305
 20
-172.95
 30
0.0
 40
1.0
  0
CIRCLE
  8
0
  6
CONTINUOUS
 62
    80
  5
487
 10
18.196152
 20
-172.95
 30
0.0
 40
1.0
  0
CIRCLE
  8
0
  6
CONTINUOUS
 62
    80
  5
488
 10
20.794229
 20
-174.45
 30
0.0
 40
1.0
  0
CIRCLE
  8
0
  6
CONTINUOUS
 62
    80
  5
489
 10
20.794229
 20
-168.45
 30
0.0
 40
1.0
  0
CIRCLE
  8
0
  6
CONTINUOUS
 62
    80
  5
48A
 10
18.196152
 20
-169.95
 30
0.0
 40
1.0
  0
CIRCLE
  8
0
  6
CONTINUOUS
 62
    80
  5
48B
 10
20.794229
 20
-171.45
 30
0.0
 40
1.0
  0
CIRCLE
  8
0
  6
CONTINUOUS
 62
    80
  5
48C
 10
23.392305
 20
-169.95
 30
0.0
 40
1.0
  0
CIRCLE
  8
0
  6
CONTINUOUS
 62
    80
  5
48D
 10
23.392305
 20
-163.95
 30
0.0
 40
1.0
  0
CIRCLE
  8
0
  6
CONTINUOUS
 62
    80
  5
48E
 10
18.196152
 20
-163.95
 30
0.0
 40
1.0
  0
CIRCLE
  8
0
  6
CONTINUOUS
 62
    80
  5
48F
 10
18.196152
 20
-166.95
 30
0.0
 40
1.0
  0
CIRCLE
  8
0
  6
CONTINUOUS
 62
    80
  5
490
 10
23.392305
 20
-166.95
 30
0.0
 40
1.0
  0
CIRCLE
  8
0
  6
CONTINUOUS
 62
    80
  5
491
 10
20.794229
 20
-165.45
 30
0.0
 40
1.0
  0
CIRCLE
  8
0
  6
CONTINUOUS
 62
    80
  5
492
 10
13.0
 20
-160.95
 30
0.0
 40
1.0
  0
CIRCLE
  8
0
  6
CONTINUOUS
 62
    80
  5
493
 10
18.196152
 20
-160.95
 30
0.0
 40
1.0
  0
CIRCLE
  8
0
  6
CONTINUOUS
 62
    80
  5
494
 10
23.392305
 20
-160.95
 30
0.0
 40
1.0
  0
CIRCLE
  8
0
  6
CONTINUOUS
 62
    80
  5
495
 10
10.401924
 20
-162.45
 30
0.0
 40
1.0
  0
CIRCLE
  8
0
  6
CONTINUOUS
 62
    80
  5
496
 10
5.205771
 20
-162.45
 30
0.0
 40
1.0
  0
CIRCLE
  8
0
  6
CONTINUOUS
 62
    80
  5
497
 10
7.803848
 20
-160.95
 30
0.0
 40
1.0
  0
CIRCLE
  8
0
  6
CONTINUOUS
 62
    80
  5
498
 10
2.607695
 20
-160.95
 30
0.0
 40
1.0
  0
CIRCLE
  8
0
  6
CONTINUOUS
 62
    80
  5
499
 10
25.990381
 20
-165.45
 30
0.0
 40
1.0
  0
CIRCLE
  8
0
  6
CONTINUOUS
 62
    80
  5
49A
 10
15.598076
 20
-162.45
 30
0.0
 40
1.0
  0
CIRCLE
  8
0
  6
CONTINUOUS
 62
    80
  5
49B
 10
20.794229
 20
-162.45
 30
0.0
 40
1.0
  0
CIRCLE
  8
0
  6
CONTINUOUS
 62
    80
  5
49C
 10
25.990381
 20
-171.45
 30
0.0
 40
1.0
  0
CIRCLE
  8
0
  6
CONTINUOUS
 62
    80
  5
49D
 10
25.990381
 20
-168.45
 30
0.0
 40
1.0
  0
CIRCLE
  8
0
  6
CONTINUOUS
 62
    80
  5
49E
 10
25.990381
 20
-174.45
 30
0.0
 40
1.0
  0
CIRCLE
  8
0
  6
CONTINUOUS
 62
    80
  5
49F
 10
23.392305
 20
-175.95
 30
0.0
 40
1.0
  0
CIRCLE
  8
0
  6
CONTINUOUS
 62
    80
  5
4A0
 10
18.196152
 20
-175.95
 30
0.0
 40
1.0
  0
CIRCLE
  8
0
  6
CONTINUOUS
 62
    80
  5
4A1
 10
20.794229
 20
-177.45
 30
0.0
 40
1.0
  0
CIRCLE
  8
0
  6
CONTINUOUS
 62
    80
  5
4A2
 10
10.401924
 20
-177.45
 30
0.0
 40
1.0
  0
CIRCLE
  8
0
  6
CONTINUOUS
 62
    80
  5
4A3
 10
5.205771
 20
-177.45
 30
0.0
 40
1.0
  0
CIRCLE
  8
0
  6
CONTINUOUS
 62
    80
  5
4A4
 10
2.607695
 20
-175.95
 30
0.0
 40
1.0
  0
CIRCLE
  8
0
  6
CONTINUOUS
 62
    80
  5
4A5
 10
7.803848
 20
-175.95
 30
0.0
 40
1.0
  0
CIRCLE
  8
0
  6
CONTINUOUS
 62
    80
  5
4A6
 10
13.0
 20
-175.95
 30
0.0
 40
1.0
  0
CIRCLE
  8
0
  6
CONTINUOUS
 62
    80
  5
4A7
 10
0.009619
 20
-168.45
 30
0.0
 40
1.0
  0
CIRCLE
  8
0
  6
CONTINUOUS
 62
    80
  5
4A8
 10
0.009619
 20
-171.45
 30
0.0
 40
1.0
  0
CIRCLE
  8
0
  6
CONTINUOUS
 62
    80
  5
4A9
 10
0.009619
 20
-165.45
 30
0.0
 40
1.0
  0
CIRCLE
  8
0
  6
CONTINUOUS
 62
    80
  5
4AA
 10
0.009619
 20
-174.45
 30
0.0
 40
1.0
  0
CIRCLE
  8
0
  6
CONTINUOUS
 62
    80
  5
4AB
 10
15.598076
 20
-177.45
 30
0.0
 40
1.0
  0
CIRCLE
  8
0
  6
CONTINUOUS
 62
    80
  5
4AC
 10
-13.7
 20
-163.25
 30
0.0
 40
9.3
  0
CIRCLE
  8
0
  6
CONTINUOUS
 62
    80
  5
4AD
 10
-13.7
 20
-163.25
 30
0.0
 40
8.3
  0
LINE
  8
0
  6
CONTINUOUS
 62
    80
  5
4AE
 10
-7.388319
 20
-161.135129
 30
0.0
 11
-8.1476
 21
-159.578372
 31
0.0
  0
LINE
  8
0
  6
CONTINUOUS
 62
    80
  5
4AF
 10
-8.1476
 20
-159.578372
 30
0.0
 11
-6.419768
 21
-159.699194
 31
0.0
  0
LINE
  8
0
  6
CONTINUOUS
 62
    80
  5
4B0
 10
-7.388319
 20
-161.135129
 30
0.0
 11
-6.419768
 21
-159.699194
 31
0.0
  0
ARC
  8
0
  6
CONTINUOUS
 62
    80
  5
4B1
 10
-13.7
 20
-163.25
 30
0.0
 40
7.3
 50
33.873494
 51
198.126506
  0
ARC
  8
0
  6
CONTINUOUS
 62
    80
  5
4B2
 10
-13.7
 20
-163.25
 30
0.0
 40
7.3
 50
213.873494
 51
18.126506
  0
LINE
  8
0
  6
CONTINUOUS
 62
    80
  5
4B3
 10
-19.760973
 20
-167.318736
 30
0.0
 11
-6.762285
 21
-160.978852
 31
0.0
  0
LINE
  8
0
  6
CONTINUOUS
 62
    80
  5
4B4
 10
-20.637715
 20
-165.521148
 30
0.0
 11
-7.639027
 21
-159.181264
 31
0.0
  0
INSERT
  8
0
  6
BYBLOCK
 62
    80
  5
59F
  2
*X18
 10
0.0
 20
0.0
 30
0.0
  0
TEXT
  8
0
  6
CONTINUOUS
 62
     3
  5
5A0
 10
-3.46
 20
-154.75
 30
0.0
 40
2.0
  1
Max.
 41
0.72
  7
MX_NOTE_STANDARD
 11
-3.46
 21
-153.75
 31
0.0
 73
     2
  0
TEXT
  8
0
  6
CONTINUOUS
 62
     3
  5
5A1
 10
-11.1
 20
-177.25
 30
0.0
 40
2.0
  1
Min.
 41
0.9
  7
MX_NOTE_STANDARD
 11
-11.1
 21
-176.25
 31
0.0
 73
     2
  0
TEXT
  8
0
  6
CONTINUOUS
 62
     3
  5
5A2
 10
18.551785
 20
-187.35056
 30
0.0
 40
2.5
  1
R
 50
20.0
 41
1.05001
  7
MX_NOTE_STANDARD
 11
18.12426
 21
-186.175944
 31
0.0
 73
     2
  0
TEXT
  8
0
  6
CONTINUOUS
 62
     3
  5
5A3
 10
16.076065
 20
-187.953878
 30
0.0
 40
2.5
  1
E
 50
12.0
 41
1.05001
  7
MX_NOTE_STANDARD
 11
15.816176
 21
-186.731193
 31
0.0
 73
     2
  0
TEXT
  8
0
  6
CONTINUOUS
 62
     3
  5
5A4
 10
13.540474
 20
-188.206771
 30
0.0
 40
2.5
  1
Z
 50
4.0
 41
1.05001
  7
MX_NOTE_STANDARD
 11
13.453278
 21
-186.959816
 31
0.0
 73
     2
  0
TEXT
  8
0
  6
CONTINUOUS
 62
     3
  5
5A5
 10
10.994362
 20
-188.104317
 30
0.0
 40
2.5
  1
Z
 50
-4.0
 41
1.05001
  7
MX_NOTE_STANDARD
 11
11.081558
 21
-186.857362
 31
0.0
 73
     2
  0
TEXT
  8
0
  6
CONTINUOUS
 62
     3
  5
5A6
 10
8.487289
 20
-187.648509
 30
0.0
 40
2.5
  1
U
 50
-12.0
 41
1.05001
  7
MX_NOTE_STANDARD
 11
8.747178
 21
-186.425825
 31
0.0
 73
     2
  0
TEXT
  8
0
  6
CONTINUOUS
 62
     3
  5
5A7
 10
6.06805
 20
-186.848221
 30
0.0
 40
2.5
  1
B
 50
-20.0
 41
1.05001
  7
MX_NOTE_STANDARD
 11
6.495575
 21
-185.673605
 31
0.0
 73
     2
  0
INSERT
  8
0
  6
BYBLOCK
 62
    80
  5
5E4
  2
*X19
 10
0.0
 20
0.0
 30
0.0
  0
INSERT
  8
0
  6
BYBLOCK
 62
    80
  5
60D
  2
*X20
 10
0.0
 20
0.0
 30
0.0
  0
INSERT
  8
0
  6
BYBLOCK
 62
    80
  5
63D
  2
*X21
 10
0.0
 20
0.0
 30
0.0
  0
INSERT
  8
0
  6
BYBLOCK
 62
    80
  5
66A
  2
*X22
 10
0.0
 20
0.0
 30
0.0
  0
INSERT
  8
0
  6
BYBLOCK
 62
    80
  5
6AA
  2
*X23
 10
0.0
 20
0.0
 30
0.0
  0
LINE
  8
0
  6
CONTINUOUS
 62
     3
  5
6AB
 10
-34.7
 20
0.0
 30
0.0
 11
34.7
 21
0.0
 31
0.0
  0
LINE
  8
0
  6
CONTINUOUS
 62
     3
  5
6AC
 10
33.5
 20
-11.0
 30
0.0
 11
35.0
 21
-12.5
 31
0.0
  0
LINE
  8
0
  6
CONTINUOUS
 62
     3
  5
6AD
 10
33.5
 20
-20.0
 30
0.0
 11
35.0
 21
-21.5
 31
0.0
  0
LINE
  8
0
  6
CONTINUOUS
 62
     3
  5
6AE
 10
33.5
 20
-15.5
 30
0.0
 11
35.0
 21
-14.0
 31
0.0
  0
LINE
  8
0
  6
CONTINUOUS
 62
     3
  5
6AF
 10
33.5
 20
-6.5
 30
0.0
 11
35.0
 21
-5.0
 31
0.0
  0
LINE
  8
0
  6
CONTINUOUS
 62
     3
  5
6B0
 10
33.5
 20
-20.0
 30
0.0
 11
33.5
 21
-15.5
 31
0.0
  0
LINE
  8
0
  6
CONTINUOUS
 62
     3
  5
6B1
 10
35.0
 20
-14.0
 30
0.0
 11
35.0
 21
-12.5
 31
0.0
  0
LINE
  8
0
  6
CONTINUOUS
 62
     3
  5
6B2
 10
33.5
 20
-11.0
 30
0.0
 11
33.5
 21
-6.5
 31
0.0
  0
LINE
  8
0
  6
CONTINUOUS
 62
     3
  5
6B3
 10
35.0
 20
-5.0
 30
0.0
 11
35.0
 21
-0.3
 31
0.0
  0
LINE
  8
0
  6
CONTINUOUS
 62
     3
  5
6B4
 10
35.0
 20
-0.3
 30
0.0
 11
34.7
 21
0.0
 31
0.0
  0
LINE
  8
0
  6
CONTINUOUS
 62
     3
  5
6B5
 10
35.0
 20
-144.7
 30
0.0
 11
35.0
 21
-21.5
 31
0.0
  0
LINE
  8
0
  6
CONTINUOUS
 62
     3
  5
6B6
 10
-34.7
 20
-198.2
 30
0.0
 11
-34.7
 21
-197.7
 31
0.0
  0
LINE
  8
0
  6
CONTINUOUS
 62
     3
  5
6B7
 10
-35.0
 20
-197.7
 30
0.0
 11
-35.0
 21
-170.95
 31
0.0
  0
LINE
  8
0
  6
CONTINUOUS
 62
     3
  5
6B8
 10
34.7
 20
-198.2
 30
0.0
 11
34.7
 21
-197.7
 31
0.0
  0
LINE
  8
0
  6
CONTINUOUS
 62
     3
  5
6B9
 10
35.0
 20
-197.7
 30
0.0
 11
35.0
 21
-170.95
 31
0.0
  0
LINE
  8
0
  6
CONTINUOUS
 62
     3
  5
6BA
 10
-35.5
 20
-198.2
 30
0.0
 11
35.5
 21
-198.2
 31
0.0
  0
LINE
  8
0
  6
CONTINUOUS
 62
     3
  5
6BB
 10
-35.0
 20
-197.7
 30
0.0
 11
35.0
 21
-197.7
 31
0.0
  0
LINE
  8
0
  6
CONTINUOUS
 62
     3
  5
6BC
 10
-35.0
 20
-0.3
 30
0.0
 11
-34.7
 21
0.0
 31
0.0
  0
LINE
  8
0
  6
CONTINUOUS
 62
     3
  5
6BD
 10
-34.7
 20
0.0
 30
0.0
 11
34.7
 21
0.0
 31
0.0
  0
LINE
  8
0
  6
CONTINUOUS
 62
     3
  5
6BE
 10
-35.0
 20
-5.0
 30
0.0
 11
-35.0
 21
-0.3
 31
0.0
  0
LINE
  8
0
  6
CONTINUOUS
 62
     3
  5
6BF
 10
-33.5
 20
-11.0
 30
0.0
 11
-33.5
 21
-6.5
 31
0.0
  0
LINE
  8
0
  6
CONTINUOUS
 62
     3
  5
6C0
 10
-35.0
 20
-14.0
 30
0.0
 11
-35.0
 21
-12.5
 31
0.0
  0
LINE
  8
0
  6
CONTINUOUS
 62
     3
  5
6C1
 10
-33.5
 20
-20.0
 30
0.0
 11
-33.5
 21
-15.5
 31
0.0
  0
LINE
  8
0
  6
CONTINUOUS
 62
     3
  5
6C2
 10
-33.5
 20
-6.5
 30
0.0
 11
-35.0
 21
-5.0
 31
0.0
  0
LINE
  8
0
  6
CONTINUOUS
 62
     3
  5
6C3
 10
-33.5
 20
-15.5
 30
0.0
 11
-35.0
 21
-14.0
 31
0.0
  0
LINE
  8
0
  6
CONTINUOUS
 62
     3
  5
6C4
 10
-33.5
 20
-20.0
 30
0.0
 11
-35.0
 21
-21.5
 31
0.0
  0
LINE
  8
0
  6
CONTINUOUS
 62
     3
  5
6C5
 10
-33.5
 20
-11.0
 30
0.0
 11
-35.0
 21
-12.5
 31
0.0
  0
LINE
  8
0
  6
CONTINUOUS
 62
     3
  5
6C6
 10
-33.5
 20
-20.0
 30
0.0
 11
33.5
 21
-20.0
 31
0.0
  0
LINE
  8
0
  6
CONTINUOUS
 62
     3
  5
6C7
 10
-33.5
 20
-15.5
 30
0.0
 11
33.5
 21
-15.5
 31
0.0
  0
LINE
  8
0
  6
CONTINUOUS
 62
     3
  5
6C8
 10
-33.5
 20
-11.0
 30
0.0
 11
33.5
 21
-11.0
 31
0.0
  0
LINE
  8
0
  6
CONTINUOUS
 62
     3
  5
6C9
 10
-33.5
 20
-6.5
 30
0.0
 11
33.5
 21
-6.5
 31
0.0
  0
LINE
  8
0
  6
CONTINUOUS
 62
     3
  5
6CA
 10
-35.0
 20
-21.5
 30
0.0
 11
35.0
 21
-21.5
 31
0.0
  0
LINE
  8
0
  6
CONTINUOUS
 62
     3
  5
6CB
 10
-35.0
 20
-14.0
 30
0.0
 11
35.0
 21
-14.0
 31
0.0
  0
LINE
  8
0
  6
CONTINUOUS
 62
     3
  5
6CC
 10
-35.0
 20
-12.5
 30
0.0
 11
35.0
 21
-12.5
 31
0.0
  0
LINE
  8
0
  6
CONTINUOUS
 62
     3
  5
6CD
 10
-35.0
 20
-5.0
 30
0.0
 11
35.0
 21
-5.0
 31
0.0
  0
LINE
  8
0
  6
CONTINUOUS
 62
     3
  5
6CE
 10
-35.0
 20
-144.7
 30
0.0
 11
-35.0
 21
-21.5
 31
0.0
  0
LINE
  8
0
  6
CONTINUOUS
 62
     3
  5
6CF
 10
0.5
 20
-150.45
 30
0.0
 11
13.0
 21
-150.45
 31
0.0
  0
LINE
  8
0
  6
CONTINUOUS
 62
     3
  5
6D0
 10
-0.5
 20
-151.45
 30
0.0
 11
0.5
 21
-151.45
 31
0.0
  0
LINE
  8
0
  6
CONTINUOUS
 62
     3
  5
6D1
 10
-0.5
 20
-151.45
 30
0.0
 11
-0.5
 21
-150.45
 31
0.0
  0
LINE
  8
0
  6
CONTINUOUS
 62
     3
  5
6D2
 10
0.5
 20
-151.45
 30
0.0
 11
0.5
 21
-150.45
 31
0.0
  0
ARC
  8
0
  6
CONTINUOUS
 62
     3
  5
6D3
 10
36.5
 20
-191.274868
 30
0.0
 40
10.545962
 50
136.535977
 51
180.0
  0
ARC
  8
0
  6
CONTINUOUS
 62
     3
  5
6D4
 10
36.5
 20
-148.625132
 30
0.0
 40
10.545962
 50
180.0
 51
223.464023
  0
ARC
  8
0
  6
CONTINUOUS
 62
     3
  5
6D5
 10
14.0
 20
-169.95
 30
0.0
 40
20.454038
 50
316.535977
 51
43.464023
  0
LINE
  8
0
  6
CONTINUOUS
 62
     3
  5
6D6
 10
3.793225
 20
-187.139686
 30
0.0
 11
-19.743422
 21
-174.533486
 31
0.0
  0
ARC
  8
0
  6
CONTINUOUS
 62
     3
  5
6D7
 10
-13.7
 20
-163.25
 30
0.0
 40
12.8
 50
90.0
 51
242.805218
  0
LINE
  8
0
  6
CONTINUOUS
 62
     3
  5
6D8
 10
-13.7
 20
-150.45
 30
0.0
 11
-0.5
 21
-150.45
 31
0.0
  0
ARC
  8
0
  6
CONTINUOUS
 62
     3
  5
6D9
 10
13.0
 20
-169.95
 30
0.0
 40
19.5
 50
241.826551
 51
90.0
  0
LINE
  8
0
  6
CONTINUOUS
 62
     3
  5
6DA
 10
32.493589
 20
-170.45
 30
0.0
 11
34.5
 21
-170.45
 31
0.0
  0
LINE
  8
0
  6
CONTINUOUS
 62
     3
  5
6DB
 10
32.493589
 20
-169.45
 30
0.0
 11
34.5
 21
-169.45
 31
0.0
  0
LINE
  8
0
  6
CONTINUOUS
 62
     3
  5
6DC
 10
-34.5
 20
-170.45
 30
0.0
 11
-24.283005
 21
-170.45
 31
0.0
  0
LINE
  8
0
  6
CONTINUOUS
 62
     3
  5
6DD
 10
-34.5
 20
-169.45
 30
0.0
 11
-24.898214
 21
-169.45
 31
0.0
  0
LINE
  8
0
  6
CONTINUOUS
 62
     3
  5
6DE
 10
-35.0
 20
-168.95
 30
0.0
 11
-35.0
 21
-145.3
 31
0.0
  0
LINE
  8
0
  6
CONTINUOUS
 62
     3
  5
6DF
 10
-35.0
 20
-145.3
 30
0.0
 11
-34.7
 21
-145.0
 31
0.0
  0
LINE
  8
0
  6
CONTINUOUS
 62
     3
  5
6E0
 10
-34.5
 20
-170.45
 30
0.0
 11
-34.5
 21
-169.45
 31
0.0
  0
LINE
  8
0
  6
CONTINUOUS
 62
     3
  5
6E1
 10
-35.0
 20
-168.95
 30
0.0
 11
-34.5
 21
-169.45
 31
0.0
  0
LINE
  8
0
  6
CONTINUOUS
 62
     3
  5
6E2
 10
-34.5
 20
-170.45
 30
0.0
 11
-35.0
 21
-170.95
 31
0.0
  0
LINE
  8
0
  6
CONTINUOUS
 62
     3
  5
6E3
 10
34.5
 20
-170.45
 30
0.0
 11
35.0
 21
-170.95
 31
0.0
  0
LINE
  8
0
  6
CONTINUOUS
 62
     3
  5
6E4
 10
35.0
 20
-168.95
 30
0.0
 11
34.5
 21
-169.45
 31
0.0
  0
LINE
  8
0
  6
CONTINUOUS
 62
     3
  5
6E5
 10
34.5
 20
-170.45
 30
0.0
 11
34.5
 21
-169.45
 31
0.0
  0
LINE
  8
0
  6
CONTINUOUS
 62
     3
  5
6E6
 10
-35.0
 20
-144.7
 30
0.0
 11
-34.7
 21
-145.0
 31
0.0
  0
LINE
  8
0
  6
CONTINUOUS
 62
     3
  5
6E7
 10
35.0
 20
-168.95
 30
0.0
 11
35.0
 21
-145.3
 31
0.0
  0
LINE
  8
0
  6
CONTINUOUS
 62
     3
  5
6E8
 10
34.7
 20
-145.0
 30
0.0
 11
-34.7
 21
-145.0
 31
0.0
  0
LINE
  8
0
  6
CONTINUOUS
 62
     3
  5
6E9
 10
35.0
 20
-145.3
 30
0.0
 11
34.7
 21
-145.0
 31
0.0
  0
LINE
  8
0
  6
CONTINUOUS
 62
     3
  5
6EA
 10
35.0
 20
-144.7
 30
0.0
 11
34.7
 21
-145.0
 31
0.0
  0
LINE
  8
0
  6
CONTINUOUS
 62
     3
  5
6EB
 10
-35.0
 20
-0.3
 30
0.0
 11
35.0
 21
-0.3
 31
0.0
  0
LINE
  8
0
  6
CONTINUOUS
 62
     3
  5
6EC
 10
-35.0
 20
-144.7
 30
0.0
 11
35.0
 21
-144.7
 31
0.0
  0
LINE
  8
0
  6
CONTINUOUS
 62
     3
  5
6ED
 10
-35.5
 20
-200.2
 30
0.0
 11
35.5
 21
-200.2
 31
0.0
  0
LINE
  8
0
  6
CONTINUOUS
 62
     3
  5
6EE
 10
35.5
 20
-200.2
 30
0.0
 11
35.5
 21
-198.2
 31
0.0
  0
LINE
  8
0
  6
CONTINUOUS
 62
     3
  5
6EF
 10
-35.5
 20
-200.2
 30
0.0
 11
-35.5
 21
-198.2
 31
0.0
  0
ENDBLK
  8
0
  5
6F0
  0
BLOCK
  8
0
  5
6F1
  2
MS_8
 70
     0
 10
0.0
 20
0.0
 30
0.0
  3
MS_8
  0
LINE
  8
0
  6
CONTINUOUS
 62
     3
  5
6F2
 10
34.7
 20
-148.0
 30
0.0
 11
-34.7
 21
-148.0
 31
0.0
  0
LINE
  8
0
  6
CONTINUOUS
 62
     3
  5
6F3
 10
35.0
 20
-148.3
 30
0.0
 11
34.7
 21
-148.0
 31
0.0
  0
LINE
  8
0
  6
CONTINUOUS
 62
     3
  5
6F4
 10
35.0
 20
-171.95
 30
0.0
 11
35.0
 21
-148.3
 31
0.0
  0
LINE
  8
0
  6
CONTINUOUS
 62
     3
  5
6F5
 10
-35.0
 20
-148.3
 30
0.0
 11
-34.7
 21
-148.0
 31
0.0
  0
LINE
  8
0
  6
CONTINUOUS
 62
     3
  5
6F6
 10
-35.0
 20
-171.95
 30
0.0
 11
-35.0
 21
-148.3
 31
0.0
  0
LINE
  8
0
  6
CONTINUOUS
 62
     3
  5
6F7
 10
34.5
 20
-173.45
 30
0.0
 11
34.5
 21
-172.45
 31
0.0
  0
LINE
  8
0
  6
CONTINUOUS
 62
     3
  5
6F8
 10
35.0
 20
-171.95
 30
0.0
 11
34.5
 21
-172.45
 31
0.0
  0
LINE
  8
0
  6
CONTINUOUS
 62
     3
  5
6F9
 10
34.5
 20
-173.45
 30
0.0
 11
35.0
 21
-173.95
 31
0.0
  0
LINE
  8
0
  6
CONTINUOUS
 62
     3
  5
6FA
 10
-34.5
 20
-173.45
 30
0.0
 11
-35.0
 21
-173.95
 31
0.0
  0
LINE
  8
0
  6
CONTINUOUS
 62
     3
  5
6FB
 10
-35.0
 20
-171.95
 30
0.0
 11
-34.5
 21
-172.45
 31
0.0
  0
LINE
  8
0
  6
CONTINUOUS
 62
     3
  5
6FC
 10
-34.5
 20
-173.45
 30
0.0
 11
-34.5
 21
-172.45
 31
0.0
  0
LINE
  8
0
  6
CONTINUOUS
 62
     3
  5
6FD
 10
34.5
 20
-172.45
 30
0.0
 11
-34.5
 21
-172.45
 31
0.0
  0
LINE
  8
0
  6
CONTINUOUS
 62
     3
  5
6FE
 10
34.5
 20
-173.45
 30
0.0
 11
-34.5
 21
-173.45
 31
0.0
  0
LINE
  8
0
  6
CONTINUOUS
 62
     3
  5
6FF
 10
-35.0
 20
-148.3
 30
0.0
 11
35.0
 21
-148.3
 31
0.0
  0
LINE
  8
0
  6
CONTINUOUS
 62
     3
  5
700
 10
-35.0
 20
-171.95
 30
0.0
 11
35.0
 21
-171.95
 31
0.0
  0
LINE
  8
0
  6
CONTINUOUS
 62
     3
  5
701
 10
-35.0
 20
-173.95
 30
0.0
 11
35.0
 21
-173.95
 31
0.0
  0
LINE
  8
0
  6
CONTINUOUS
 62
     3
  5
702
 10
-34.7
 20
-201.2
 30
0.0
 11
-34.7
 21
-200.7
 31
0.0
  0
LINE
  8
0
  6
CONTINUOUS
 62
     3
  5
703
 10
-35.0
 20
-200.7
 30
0.0
 11
-35.0
 21
-173.95
 31
0.0
  0
LINE
  8
0
  6
CONTINUOUS
 62
     3
  5
704
 10
34.7
 20
-201.2
 30
0.0
 11
34.7
 21
-200.7
 31
0.0
  0
LINE
  8
0
  6
CONTINUOUS
 62
     3
  5
705
 10
35.0
 20
-200.7
 30
0.0
 11
35.0
 21
-173.95
 31
0.0
  0
LINE
  8
0
  6
CONTINUOUS
 62
     3
  5
706
 10
-35.5
 20
-201.2
 30
0.0
 11
35.5
 21
-201.2
 31
0.0
  0
LINE
  8
0
  6
CONTINUOUS
 62
     3
  5
707
 10
-35.0
 20
-200.7
 30
0.0
 11
35.0
 21
-200.7
 31
0.0
  0
LINE
  8
0
  6
CONTINUOUS
 62
     3
  5
708
 10
-35.5
 20
-203.2
 30
0.0
 11
35.5
 21
-203.2
 31
0.0
  0
LINE
  8
0
  6
CONTINUOUS
 62
     3
  5
709
 10
35.5
 20
-203.2
 30
0.0
 11
35.5
 21
-201.2
 31
0.0
  0
LINE
  8
0
  6
CONTINUOUS
 62
     3
  5
70A
 10
-35.5
 20
-203.2
 30
0.0
 11
-35.5
 21
-201.2
 31
0.0
  0
LINE
  8
0
  6
CONTINUOUS
 62
     3
  5
70B
 10
-35.0
 20
-147.7
 30
0.0
 11
-34.7
 21
-148.0
 31
0.0
  0
LINE
  8
0
  6
CONTINUOUS
 62
     3
  5
70C
 10
-33.5
 20
-23.0
 30
0.0
 11
-35.0
 21
-24.5
 31
0.0
  0
LINE
  8
0
  6
CONTINUOUS
 62
     3
  5
70D
 10
-33.5
 20
-14.0
 30
0.0
 11
-35.0
 21
-15.5
 31
0.0
  0
LINE
  8
0
  6
CONTINUOUS
 62
     3
  5
70E
 10
-33.5
 20
-18.5
 30
0.0
 11
-35.0
 21
-17.0
 31
0.0
  0
LINE
  8
0
  6
CONTINUOUS
 62
     3
  5
70F
 10
-33.5
 20
-9.5
 30
0.0
 11
-35.0
 21
-8.0
 31
0.0
  0
LINE
  8
0
  6
CONTINUOUS
 62
     3
  5
710
 10
-33.5
 20
-14.0
 30
0.0
 11
-33.5
 21
-9.5
 31
0.0
  0
LINE
  8
0
  6
CONTINUOUS
 62
     3
  5
711
 10
-35.0
 20
-8.0
 30
0.0
 11
-35.0
 21
-3.3
 31
0.0
  0
LINE
  8
0
  6
CONTINUOUS
 62
     3
  5
712
 10
-35.0
 20
-17.0
 30
0.0
 11
-35.0
 21
-15.5
 31
0.0
  0
LINE
  8
0
  6
CONTINUOUS
 62
     3
  5
713
 10
-33.5
 20
-23.0
 30
0.0
 11
-33.5
 21
-18.5
 31
0.0
  0
LINE
  8
0
  6
CONTINUOUS
 62
     3
  5
714
 10
-35.0
 20
-3.3
 30
0.0
 11
-34.7
 21
-3.0
 31
0.0
  0
LINE
  8
0
  6
CONTINUOUS
 62
     3
  5
715
 10
-34.7
 20
-3.0
 30
0.0
 11
34.7
 21
-3.0
 31
0.0
  0
LINE
  8
0
  6
CONTINUOUS
 62
     3
  5
716
 10
-35.0
 20
-147.7
 30
0.0
 11
-35.0
 21
-24.5
 31
0.0
  0
LINE
  8
0
  6
CONTINUOUS
 62
     3
  5
717
 10
-34.7
 20
-148.0
 30
0.0
 11
34.7
 21
-148.0
 31
0.0
  0
LINE
  8
0
  6
CONTINUOUS
 62
     3
  5
718
 10
35.0
 20
-147.7
 30
0.0
 11
35.0
 21
-24.5
 31
0.0
  0
LINE
  8
0
  6
CONTINUOUS
 62
     3
  5
719
 10
35.0
 20
-3.3
 30
0.0
 11
34.7
 21
-3.0
 31
0.0
  0
LINE
  8
0
  6
CONTINUOUS
 62
     3
  5
71A
 10
35.0
 20
-147.7
 30
0.0
 11
34.7
 21
-148.0
 31
0.0
  0
LINE
  8
0
  6
CONTINUOUS
 62
     3
  5
71B
 10
33.5
 20
-23.0
 30
0.0
 11
33.5
 21
-18.5
 31
0.0
  0
LINE
  8
0
  6
CONTINUOUS
 62
     3
  5
71C
 10
35.0
 20
-17.0
 30
0.0
 11
35.0
 21
-15.5
 31
0.0
  0
LINE
  8
0
  6
CONTINUOUS
 62
     3
  5
71D
 10
35.0
 20
-8.0
 30
0.0
 11
35.0
 21
-3.3
 31
0.0
  0
LINE
  8
0
  6
CONTINUOUS
 62
     3
  5
71E
 10
33.5
 20
-14.0
 30
0.0
 11
33.5
 21
-9.5
 31
0.0
  0
LINE
  8
0
  6
CONTINUOUS
 62
     3
  5
71F
 10
33.5
 20
-9.5
 30
0.0
 11
35.0
 21
-8.0
 31
0.0
  0
LINE
  8
0
  6
CONTINUOUS
 62
     3
  5
720
 10
33.5
 20
-18.5
 30
0.0
 11
35.0
 21
-17.0
 31
0.0
  0
LINE
  8
0
  6
CONTINUOUS
 62
     3
  5
721
 10
33.5
 20
-14.0
 30
0.0
 11
35.0
 21
-15.5
 31
0.0
  0
LINE
  8
0
  6
CONTINUOUS
 62
     3
  5
722
 10
33.5
 20
-23.0
 30
0.0
 11
35.0
 21
-24.5
 31
0.0
  0
LINE
  8
0
  6
CONTINUOUS
 62
     3
  5
723
 10
-35.0
 20
-3.3
 30
0.0
 11
35.0
 21
-3.3
 31
0.0
  0
LINE
  8
0
  6
CONTINUOUS
 62
     3
  5
724
 10
-35.0
 20
-8.0
 30
0.0
 11
35.0
 21
-8.0
 31
0.0
  0
LINE
  8
0
  6
CONTINUOUS
 62
     3
  5
725
 10
-33.5
 20
-9.5
 30
0.0
 11
33.5
 21
-9.5
 31
0.0
  0
LINE
  8
0
  6
CONTINUOUS
 62
     3
  5
726
 10
-33.5
 20
-14.0
 30
0.0
 11
33.5
 21
-14.0
 31
0.0
  0
LINE
  8
0
  6
CONTINUOUS
 62
     3
  5
727
 10
-35.0
 20
-15.5
 30
0.0
 11
35.0
 21
-15.5
 31
0.0
  0
LINE
  8
0
  6
CONTINUOUS
 62
     3
  5
728
 10
-35.0
 20
-17.0
 30
0.0
 11
35.0
 21
-17.0
 31
0.0
  0
LINE
  8
0
  6
CONTINUOUS
 62
     3
  5
729
 10
-33.5
 20
-18.5
 30
0.0
 11
33.5
 21
-18.5
 31
0.0
  0
LINE
  8
0
  6
CONTINUOUS
 62
     3
  5
72A
 10
-33.5
 20
-23.0
 30
0.0
 11
33.5
 21
-23.0
 31
0.0
  0
LINE
  8
0
  6
CONTINUOUS
 62
     3
  5
72B
 10
-35.0
 20
-24.5
 30
0.0
 11
35.0
 21
-24.5
 31
0.0
  0
LINE
  8
0
  6
CONTINUOUS
 62
     3
  5
72C
 10
-35.0
 20
-147.7
 30
0.0
 11
35.0
 21
-147.7
 31
0.0
  0
ENDBLK
  8
0
  5
72D
  0
BLOCK
  8
0
  5
72E
  2
MS_9
 70
     0
 10
0.0
 20
0.0
 30
0.0
  3
MS_9
  0
LINE
  8
0
  6
CONTINUOUS
 62
     3
  5
72F
 10
-35.5
 20
-55.2
 30
0.0
 11
-35.5
 21
-53.2
 31
0.0
  0
LINE
  8
0
  6
CONTINUOUS
 62
     3
  5
730
 10
35.5
 20
-55.2
 30
0.0
 11
35.5
 21
-53.2
 31
0.0
  0
LINE
  8
0
  6
CONTINUOUS
 62
     3
  5
731
 10
-35.5
 20
-55.2
 30
0.0
 11
35.5
 21
-55.2
 31
0.0
  0
LINE
  8
0
  6
CONTINUOUS
 62
     3
  5
732
 10
-35.0
 20
-52.7
 30
0.0
 11
35.0
 21
-52.7
 31
0.0
  0
LINE
  8
0
  6
CONTINUOUS
 62
     3
  5
733
 10
-35.5
 20
-53.2
 30
0.0
 11
35.5
 21
-53.2
 31
0.0
  0
LINE
  8
0
  6
CONTINUOUS
 62
     3
  5
734
 10
35.0
 20
-52.7
 30
0.0
 11
35.0
 21
-25.95
 31
0.0
  0
LINE
  8
0
  6
CONTINUOUS
 62
     3
  5
735
 10
34.7
 20
-53.2
 30
0.0
 11
34.7
 21
-52.7
 31
0.0
  0
LINE
  8
0
  6
CONTINUOUS
 62
     3
  5
736
 10
-35.0
 20
-52.7
 30
0.0
 11
-35.0
 21
-25.95
 31
0.0
  0
LINE
  8
0
  6
CONTINUOUS
 62
     3
  5
737
 10
-34.7
 20
-53.2
 30
0.0
 11
-34.7
 21
-52.7
 31
0.0
  0
LINE
  8
0
  6
CONTINUOUS
 62
     3
  5
738
 10
-35.0
 20
-25.95
 30
0.0
 11
35.0
 21
-25.95
 31
0.0
  0
LINE
  8
0
  6
CONTINUOUS
 62
     3
  5
739
 10
-35.0
 20
-23.95
 30
0.0
 11
35.0
 21
-23.95
 31
0.0
  0
LINE
  8
0
  6
CONTINUOUS
 62
     3
  5
73A
 10
-35.0
 20
-0.3
 30
0.0
 11
35.0
 21
-0.3
 31
0.0
  0
LINE
  8
0
  6
CONTINUOUS
 62
     3
  5
73B
 10
34.5
 20
-25.45
 30
0.0
 11
-34.5
 21
-25.45
 31
0.0
  0
LINE
  8
0
  6
CONTINUOUS
 62
     3
  5
73C
 10
34.5
 20
-24.45
 30
0.0
 11
-34.5
 21
-24.45
 31
0.0
  0
LINE
  8
0
  6
CONTINUOUS
 62
     3
  5
73D
 10
-34.5
 20
-25.45
 30
0.0
 11
-34.5
 21
-24.45
 31
0.0
  0
LINE
  8
0
  6
CONTINUOUS
 62
     3
  5
73E
 10
-35.0
 20
-23.95
 30
0.0
 11
-34.5
 21
-24.45
 31
0.0
  0
LINE
  8
0
  6
CONTINUOUS
 62
     3
  5
73F
 10
-34.5
 20
-25.45
 30
0.0
 11
-35.0
 21
-25.95
 31
0.0
  0
LINE
  8
0
  6
CONTINUOUS
 62
     3
  5
740
 10
34.5
 20
-25.45
 30
0.0
 11
35.0
 21
-25.95
 31
0.0
  0
LINE
  8
0
  6
CONTINUOUS
 62
     3
  5
741
 10
35.0
 20
-23.95
 30
0.0
 11
34.5
 21
-24.45
 31
0.0
  0
LINE
  8
0
  6
CONTINUOUS
 62
     3
  5
742
 10
34.5
 20
-25.45
 30
0.0
 11
34.5
 21
-24.45
 31
0.0
  0
LINE
  8
0
  6
CONTINUOUS
 62
     3
  5
743
 10
-35.0
 20
-23.95
 30
0.0
 11
-35.0
 21
-0.3
 31
0.0
  0
LINE
  8
0
  6
CONTINUOUS
 62
     3
  5
744
 10
-35.0
 20
-0.3
 30
0.0
 11
-34.7
 21
0.0
 31
0.0
  0
LINE
  8
0
  6
CONTINUOUS
 62
     3
  5
745
 10
35.0
 20
-23.95
 30
0.0
 11
35.0
 21
-0.3
 31
0.0
  0
LINE
  8
0
  6
CONTINUOUS
 62
     3
  5
746
 10
35.0
 20
-0.3
 30
0.0
 11
34.7
 21
0.0
 31
0.0
  0
LINE
  8
0
  6
CONTINUOUS
 62
     3
  5
747
 10
34.7
 20
0.0
 30
0.0
 11
-34.7
 21
0.0
 31
0.0
  0
ENDBLK
  8
0
  5
748
  0
BLOCK
  8
0
  5
749
  2
MS_10
 70
     0
 10
0.0
 20
0.0
 30
0.0
  3
MS_10
  0
CIRCLE
  8
0
  6
PHANTOM
 62
    80
  5
74A
 10
0.0
 20
0.0
 30
0.0
 40
47.601581
  0
ARC
  8
0
  6
CONTINUOUS
 62
    10
  5
74B
 10
-13.054232
 20
-9.894995
 30
0.0
 40
0.92
 50
90.000003
 51
180.000005
  0
ARC
  8
0
  6
CONTINUOUS
 62
    10
  5
74C
 10
-16.044222
 20
-9.894995
 30
0.0
 40
0.92
 50
0.0
 51
90.000003
  0
ARC
  8
0
  6
CONTINUOUS
 62
    10
  5
74D
 10
-13.054232
 20
-6.905005
 30
0.0
 40
0.92
 50
179.999995
 51
269.999997
  0
ARC
  8
0
  6
CONTINUOUS
 62
    10
  5
74E
 10
-16.044222
 20
-6.905005
 30
0.0
 40
0.92
 50
269.999997
 51
0.0
  0
LINE
  8
0
  6
CONTINUOUS
 62
    10
  5
74F
 10
-13.054232
 20
-8.975012
 30
0.0
 11
-12.249239
 21
-8.975012
 31
0.0
  0
LINE
  8
0
  6
CONTINUOUS
 62
    10
  5
750
 10
-13.974215
 20
-9.894995
 30
0.0
 11
-13.974215
 21
-10.699988
 31
0.0
  0
LINE
  8
0
  6
CONTINUOUS
 62
    10
  5
751
 10
-15.124239
 20
-9.894995
 30
0.0
 11
-15.124239
 21
-10.699988
 31
0.0
  0
LINE
  8
0
  6
CONTINUOUS
 62
    10
  5
752
 10
-16.849215
 20
-8.975012
 30
0.0
 11
-16.044222
 21
-8.975012
 31
0.0
  0
LINE
  8
0
  6
CONTINUOUS
 62
    10
  5
753
 10
-15.124239
 20
-10.699988
 30
0.0
 11
-13.974215
 21
-10.699988
 31
0.0
  0
LINE
  8
0
  6
CONTINUOUS
 62
    10
  5
754
 10
-16.849215
 20
-7.824988
 30
0.0
 11
-16.849215
 21
-8.975012
 31
0.0
  0
LINE
  8
0
  6
CONTINUOUS
 62
    10
  5
755
 10
-15.124239
 20
-6.100012
 30
0.0
 11
-15.124239
 21
-6.905005
 31
0.0
  0
LINE
  8
0
  6
CONTINUOUS
 62
    10
  5
756
 10
-13.054232
 20
-7.824988
 30
0.0
 11
-12.249239
 21
-7.824988
 31
0.0
  0
LINE
  8
0
  6
CONTINUOUS
 62
    10
  5
757
 10
-13.974215
 20
-6.100012
 30
0.0
 11
-13.974215
 21
-6.905005
 31
0.0
  0
LINE
  8
0
  6
CONTINUOUS
 62
    10
  5
758
 10
-15.124239
 20
-6.100012
 30
0.0
 11
-13.974215
 21
-6.100012
 31
0.0
  0
LINE
  8
0
  6
CONTINUOUS
 62
    10
  5
759
 10
-12.249239
 20
-7.824988
 30
0.0
 11
-12.249239
 21
-8.975012
 31
0.0
  0
LINE
  8
0
  6
CONTINUOUS
 62
    10
  5
75A
 10
-16.849215
 20
-7.824988
 30
0.0
 11
-16.044222
 21
-7.824988
 31
0.0
  0
CIRCLE
  8
0
  6
CONTINUOUS
 62
    10
  5
75B
 10
-14.549227
 20
-8.4
 30
0.0
 40
3.5
  0
ARC
  8
0
  6
CONTINUOUS
 62
    10
  5
75C
 10
1.494995
 20
15.305005
 30
0.0
 40
0.92
 50
90.000003
 51
180.000005
  0
ARC
  8
0
  6
CONTINUOUS
 62
    10
  5
75D
 10
-1.494995
 20
15.305005
 30
0.0
 40
0.92
 50
0.0
 51
90.000003
  0
ARC
  8
0
  6
CONTINUOUS
 62
    10
  5
75E
 10
1.494995
 20
18.294995
 30
0.0
 40
0.92
 50
179.999995
 51
269.999997
  0
ARC
  8
0
  6
CONTINUOUS
 62
    10
  5
75F
 10
-1.494995
 20
18.294995
 30
0.0
 40
0.92
 50
269.999997
 51
0.0
  0
LINE
  8
0
  6
CONTINUOUS
 62
    10
  5
760
 10
1.494995
 20
16.224988
 30
0.0
 11
2.299988
 21
16.224988
 31
0.0
  0
LINE
  8
0
  6
CONTINUOUS
 62
    10
  5
761
 10
0.575012
 20
15.305005
 30
0.0
 11
0.575012
 21
14.500012
 31
0.0
  0
LINE
  8
0
  6
CONTINUOUS
 62
    10
  5
762
 10
-0.575012
 20
15.305005
 30
0.0
 11
-0.575012
 21
14.500012
 31
0.0
  0
LINE
  8
0
  6
CONTINUOUS
 62
    10
  5
763
 10
-2.299988
 20
16.224988
 30
0.0
 11
-1.494995
 21
16.224988
 31
0.0
  0
LINE
  8
0
  6
CONTINUOUS
 62
    10
  5
764
 10
-0.575012
 20
14.500012
 30
0.0
 11
0.575012
 21
14.500012
 31
0.0
  0
LINE
  8
0
  6
CONTINUOUS
 62
    10
  5
765
 10
-2.299988
 20
17.375012
 30
0.0
 11
-2.299988
 21
16.224988
 31
0.0
  0
LINE
  8
0
  6
CONTINUOUS
 62
    10
  5
766
 10
-0.575012
 20
19.099988
 30
0.0
 11
-0.575012
 21
18.294995
 31
0.0
  0
LINE
  8
0
  6
CONTINUOUS
 62
    10
  5
767
 10
1.494995
 20
17.375012
 30
0.0
 11
2.299988
 21
17.375012
 31
0.0
  0
LINE
  8
0
  6
CONTINUOUS
 62
    10
  5
768
 10
0.575012
 20
19.099988
 30
0.0
 11
0.575012
 21
18.294995
 31
0.0
  0
LINE
  8
0
  6
CONTINUOUS
 62
    10
  5
769
 10
-0.575012
 20
19.099988
 30
0.0
 11
0.575012
 21
19.099988
 31
0.0
  0
LINE
  8
0
  6
CONTINUOUS
 62
    10
  5
76A
 10
2.299988
 20
17.375012
 30
0.0
 11
2.299988
 21
16.224988
 31
0.0
  0
LINE
  8
0
  6
CONTINUOUS
 62
    10
  5
76B
 10
-2.299988
 20
17.375012
 30
0.0
 11
-1.494995
 21
17.375012
 31
0.0
  0
CIRCLE
  8
0
  6
CONTINUOUS
 62
    10
  5
76C
 10
0.0
 20
16.8
 30
0.0
 40
3.5
  0
LINE
  8
0
  6
CONTINUOUS
 62
    10
  5
76D
 10
12.249239
 20
-7.824988
 30
0.0
 11
13.054231
 21
-7.824988
 31
0.0
  0
LINE
  8
0
  6
CONTINUOUS
 62
    10
  5
76E
 10
16.849214
 20
-7.824988
 30
0.0
 11
16.849214
 21
-8.975012
 31
0.0
  0
LINE
  8
0
  6
CONTINUOUS
 62
    10
  5
76F
 10
13.974214
 20
-6.100012
 30
0.0
 11
15.124239
 21
-6.100012
 31
0.0
  0
LINE
  8
0
  6
CONTINUOUS
 62
    10
  5
770
 10
15.124239
 20
-6.100012
 30
0.0
 11
15.124239
 21
-6.905005
 31
0.0
  0
LINE
  8
0
  6
CONTINUOUS
 62
    10
  5
771
 10
16.044222
 20
-7.824988
 30
0.0
 11
16.849214
 21
-7.824988
 31
0.0
  0
LINE
  8
0
  6
CONTINUOUS
 62
    10
  5
772
 10
13.974214
 20
-6.100012
 30
0.0
 11
13.974214
 21
-6.905005
 31
0.0
  0
LINE
  8
0
  6
CONTINUOUS
 62
    10
  5
773
 10
12.249239
 20
-7.824988
 30
0.0
 11
12.249239
 21
-8.975012
 31
0.0
  0
LINE
  8
0
  6
CONTINUOUS
 62
    10
  5
774
 10
13.974214
 20
-10.699988
 30
0.0
 11
15.124239
 21
-10.699988
 31
0.0
  0
LINE
  8
0
  6
CONTINUOUS
 62
    10
  5
775
 10
12.249239
 20
-8.975012
 30
0.0
 11
13.054231
 21
-8.975012
 31
0.0
  0
LINE
  8
0
  6
CONTINUOUS
 62
    10
  5
776
 10
13.974214
 20
-9.894995
 30
0.0
 11
13.974214
 21
-10.699988
 31
0.0
  0
LINE
  8
0
  6
CONTINUOUS
 62
    10
  5
777
 10
15.124239
 20
-9.894995
 30
0.0
 11
15.124239
 21
-10.699988
 31
0.0
  0
LINE
  8
0
  6
CONTINUOUS
 62
    10
  5
778
 10
16.044222
 20
-8.975012
 30
0.0
 11
16.849214
 21
-8.975012
 31
0.0
  0
ARC
  8
0
  6
CONTINUOUS
 62
    10
  5
779
 10
13.054231
 20
-6.905005
 30
0.0
 40
0.92
 50
269.999997
 51
0.0
  0
CIRCLE
  8
0
  6
CONTINUOUS
 62
    10
  5
77A
 10
14.549227
 20
-8.4
 30
0.0
 40
3.5
  0
ARC
  8
0
  6
CONTINUOUS
 62
    10
  5
77B
 10
16.044222
 20
-6.905005
 30
0.0
 40
0.92
 50
179.999995
 51
269.999997
  0
ARC
  8
0
  6
CONTINUOUS
 62
    10
  5
77C
 10
13.054231
 20
-9.894995
 30
0.0
 40
0.92
 50
0.0
 51
90.000003
  0
ARC
  8
0
  6
CONTINUOUS
 62
    10
  5
77D
 10
16.044222
 20
-9.894995
 30
0.0
 40
0.92
 50
90.000003
 51
180.000005
  0
ARC
  8
0
  6
CONTINUOUS
 62
   140
  5
77E
 10
0.0
 20
0.0
 30
0.0
 40
28.5
 50
249.840004
 51
290.159996
  0
LINE
  8
0
  6
CONTINUOUS
 62
   140
  5
77F
 10
-11.491281
 20
0.447744
 30
0.0
 11
-17.615926
 21
-3.088321
 31
0.0
  0
LINE
  8
0
  6
CONTINUOUS
 62
   140
  5
780
 10
-11.445074
 20
-1.122629
 30
0.0
 11
-16.924383
 21
-4.28611
 31
0.0
  0
LINE
  8
0
  6
CONTINUOUS
 62
   140
  5
781
 10
-11.482528
 20
-13.711679
 30
0.0
 11
-5.357882
 21
-10.175613
 31
0.0
  0
LINE
  8
0
  6
CONTINUOUS
 62
   140
  5
782
 10
-12.174072
 20
-12.51389
 30
0.0
 11
-6.694762
 21
-9.35041
 31
0.0
  0
ARC
  8
0
  6
CONTINUOUS
 62
   140
  5
783
 10
-14.549227
 20
-8.4
 30
0.0
 40
4.750311
 50
120.0
 51
299.999999
  0
ARC
  8
0
  6
CONTINUOUS
 62
   140
  5
784
 10
-14.549227
 20
-8.4
 30
0.0
 40
6.133398
 50
120.0
 51
299.999999
  0
LINE
  8
0
  6
CONTINUOUS
 62
   140
  5
785
 10
-6.133398
 20
16.8
 30
0.0
 11
-6.133398
 21
9.727869
 31
0.0
  0
LINE
  8
0
  6
CONTINUOUS
 62
   140
  5
786
 10
-4.750312
 20
16.8
 30
0.0
 11
-4.750312
 21
10.473039
 31
0.0
  0
ARC
  8
0
  6
CONTINUOUS
 62
   140
  5
787
 10
0.0
 20
16.8
 30
0.0
 40
4.750311
 50
360.0
 51
179.999999
  0
ARC
  8
0
  6
CONTINUOUS
 62
   140
  5
788
 10
0.0
 20
16.8
 30
0.0
 40
6.133398
 50
360.0
 51
179.999999
  0
LINE
  8
0
  6
CONTINUOUS
 62
   140
  5
789
 10
6.133398
 20
9.727869
 30
0.0
 11
6.133398
 21
16.8
 31
0.0
  0
LINE
  8
0
  6
CONTINUOUS
 62
   140
  5
78A
 10
4.750311
 20
10.473039
 30
0.0
 11
4.750311
 21
16.8
 31
0.0
  0
LINE
  8
0
  6
CONTINUOUS
 62
   140
  5
78B
 10
17.615926
 20
-3.088321
 30
0.0
 11
11.49128
 21
0.447744
 31
0.0
  0
LINE
  8
0
  6
CONTINUOUS
 62
   140
  5
78C
 10
16.924382
 20
-4.28611
 30
0.0
 11
11.445073
 21
-1.122629
 31
0.0
  0
ARC
  8
0
  6
CONTINUOUS
 62
   140
  5
78D
 10
14.549227
 20
-8.4
 30
0.0
 40
4.750311
 50
240.0
 51
59.999999
  0
ARC
  8
0
  6
CONTINUOUS
 62
   140
  5
78E
 10
14.549227
 20
-8.4
 30
0.0
 40
6.133398
 50
240.0
 51
59.999999
  0
LINE
  8
0
  6
CONTINUOUS
 62
   140
  5
78F
 10
5.357882
 20
-10.175613
 30
0.0
 11
11.482527
 21
-13.711679
 31
0.0
  0
LINE
  8
0
  6
CONTINUOUS
 62
   140
  5
790
 10
6.694762
 20
-9.35041
 30
0.0
 11
12.174071
 21
-12.51389
 31
0.0
  0
CIRCLE
  8
0
  6
CONTINUOUS
 62
   140
  5
791
 10
0.0
 20
0.0
 30
0.0
 40
11.5
  0
CIRCLE
  8
0
  6
CONTINUOUS
 62
   140
  5
792
 10
0.0
 20
-18.9
 30
0.0
 40
3.4
  0
CIRCLE
  8
0
  6
CONTINUOUS
 62
   140
  5
793
 10
0.0
 20
-18.9
 30
0.0
 40
4.150555
  0
CIRCLE
  8
0
  6
CONTINUOUS
 62
   140
  5
794
 10
-16.36788
 20
9.45
 30
0.0
 40
3.4
  0
CIRCLE
  8
0
  6
CONTINUOUS
 62
   140
  5
795
 10
-16.36788
 20
9.45
 30
0.0
 40
4.150555
  0
CIRCLE
  8
0
  6
CONTINUOUS
 62
   140
  5
796
 10
16.36788
 20
9.45
 30
0.0
 40
3.4
  0
CIRCLE
  8
0
  6
CONTINUOUS
 62
   140
  5
797
 10
16.36788
 20
9.45
 30
0.0
 40
4.150555
  0
LINE
  8
0
  6
CONTINUOUS
 62
   140
  5
798
 10
10.15
 20
-22.020445
 30
0.0
 11
10.15
 21
-26.284549
 31
0.0
  0
LINE
  8
0
  6
CONTINUOUS
 62
   140
  5
799
 10
-10.15
 20
-22.020445
 30
0.0
 11
-10.15
 21
-26.284549
 31
0.0
  0
ARC
  8
0
  6
CONTINUOUS
 62
   140
  5
79A
 10
9.65
 20
-26.284549
 30
0.0
 40
0.5
 50
290.159996
 51
0.0
  0
ARC
  8
0
  6
CONTINUOUS
 62
   140
  5
79B
 10
-9.65
 20
-26.284549
 30
0.0
 40
0.5
 50
180.0
 51
249.840004
  0
LINE
  8
0
  6
CONTINUOUS
 62
   140
  5
79C
 10
-8.65718
 20
-21.84897
 30
0.0
 11
-8.65718
 21
-27.153328
 31
0.0
  0
ARC
  8
0
  6
CONTINUOUS
 62
   140
  5
79D
 10
-12.15
 20
-21.84897
 30
0.0
 40
3.49282
 50
0.0
 51
112.638311
  0
ARC
  8
0
  6
CONTINUOUS
 62
   140
  5
79E
 10
0.0
 20
0.0
 30
0.0
 40
23.15
 50
298.888155
 51
1.111845
  0
ARC
  8
0
  6
CONTINUOUS
 62
   140
  5
79F
 10
-12.15
 20
-22.020445
 30
0.0
 40
2.0
 50
0.0
 51
61.111845
  0
ARC
  8
0
  6
CONTINUOUS
 62
   140
  5
7A0
 10
12.15
 20
-22.020445
 30
0.0
 40
2.0
 50
118.888155
 51
180.0
  0
ARC
  8
0
  6
CONTINUOUS
 62
   140
  5
7A1
 10
0.0
 20
0.0
 30
0.0
 40
23.15
 50
178.888155
 51
241.111845
  0
LINE
  8
0
  6
CONTINUOUS
 62
   140
  5
7A2
 10
13.995265
 20
19.80038
 30
0.0
 11
17.688087
 21
21.932432
 31
0.0
  0
ARC
  8
0
  6
CONTINUOUS
 62
   140
  5
7A3
 10
0.0
 20
0.0
 30
0.0
 40
28.5
 50
9.840004
 51
50.159996
  0
ARC
  8
0
  6
CONTINUOUS
 62
   140
  5
7A4
 10
12.995265
 20
21.532431
 30
0.0
 40
2.0
 50
238.888155
 51
300.0
  0
ARC
  8
0
  6
CONTINUOUS
 62
   140
  5
7A5
 10
17.938087
 20
21.499419
 30
0.0
 40
0.5
 50
50.159996
 51
120.0
  0
LINE
  8
0
  6
CONTINUOUS
 62
   140
  5
7A6
 10
24.145265
 20
2.220065
 30
0.0
 11
27.838087
 21
4.352116
 31
0.0
  0
LINE
  8
0
  6
CONTINUOUS
 62
   140
  5
7A7
 10
23.250353
 20
3.427148
 30
0.0
 11
27.844062
 21
6.079327
 31
0.0
  0
ARC
  8
0
  6
CONTINUOUS
 62
   140
  5
7A8
 10
27.588087
 20
4.785129
 30
0.0
 40
0.5
 50
300.0
 51
9.840004
  0
ARC
  8
0
  6
CONTINUOUS
 62
   140
  5
7A9
 10
24.996763
 20
0.402276
 30
0.0
 40
3.49282
 50
120.0
 51
232.638311
  0
ARC
  8
0
  6
CONTINUOUS
 62
   140
  5
7AA
 10
25.145265
 20
0.488014
 30
0.0
 40
2.0
 50
120.0
 51
181.111845
  0
LINE
  8
0
  6
CONTINUOUS
 62
   140
  5
7AB
 10
-24.145265
 20
2.220065
 30
0.0
 11
-27.838087
 21
4.352116
 31
0.0
  0
ARC
  8
0
  6
CONTINUOUS
 62
   140
  5
7AC
 10
0.0
 20
0.0
 30
0.0
 40
28.5
 50
129.840004
 51
170.159996
  0
ARC
  8
0
  6
CONTINUOUS
 62
   140
  5
7AD
 10
-25.145265
 20
0.488014
 30
0.0
 40
2.0
 50
358.888155
 51
60.0
  0
ARC
  8
0
  6
CONTINUOUS
 62
   140
  5
7AE
 10
-27.588087
 20
4.785129
 30
0.0
 40
0.5
 50
170.159996
 51
240.0
  0
LINE
  8
0
  6
CONTINUOUS
 62
   140
  5
7AF
 10
-13.995265
 20
19.80038
 30
0.0
 11
-17.688087
 21
21.932432
 31
0.0
  0
LINE
  8
0
  6
CONTINUOUS
 62
   140
  5
7B0
 10
-14.593174
 20
18.421823
 30
0.0
 11
-19.186883
 21
21.074002
 31
0.0
  0
ARC
  8
0
  6
CONTINUOUS
 62
   140
  5
7B1
 10
-17.938087
 20
21.499419
 30
0.0
 40
0.5
 50
60.0
 51
129.840004
  0
ARC
  8
0
  6
CONTINUOUS
 62
   140
  5
7B2
 10
-12.846763
 20
21.446694
 30
0.0
 40
3.49282
 50
240.0
 51
352.638311
  0
ARC
  8
0
  6
CONTINUOUS
 62
   140
  5
7B3
 10
-12.995265
 20
21.532431
 30
0.0
 40
2.0
 50
240.0
 51
301.111845
  0
ARC
  8
0
  6
CONTINUOUS
 62
   140
  5
7B4
 10
0.0
 20
0.0
 30
0.0
 40
23.15
 50
58.888155
 51
121.111845
  0
ARC
  8
0
  6
CONTINUOUS
 62
     3
  5
7B5
 10
-27.514706
 20
6.410233
 30
0.0
 40
34.79035
 50
28.371081
 51
35.666017
  0
ARC
  8
0
  6
CONTINUOUS
 62
     3
  5
7B6
 10
-23.797139
 20
-23.797138
 30
0.0
 40
10.0
 50
185.787275
 51
264.212725
  0
ARC
  8
0
  6
CONTINUOUS
 62
     3
  5
7B7
 10
211.0
 20
0.0
 30
0.0
 40
246.0
 50
174.212725
 51
185.787275
  0
ARC
  8
0
  6
CONTINUOUS
 62
     3
  5
7B8
 10
-211.0
 20
0.0
 30
0.0
 40
246.0
 50
354.212725
 51
5.787275
  0
ARC
  8
0
  6
CONTINUOUS
 62
     3
  5
7B9
 10
0.0
 20
211.0
 30
0.0
 40
246.0
 50
264.212725
 51
275.787275
  0
ARC
  8
0
  6
CONTINUOUS
 62
     3
  5
7BA
 10
23.797138
 20
-23.797138
 30
0.0
 40
10.0
 50
275.787275
 51
354.212725
  0
ARC
  8
0
  6
CONTINUOUS
 62
     3
  5
7BB
 10
0.0
 20
211.0
 30
0.0
 40
243.0
 50
264.212725
 51
275.787275
  0
ARC
  8
0
  6
CONTINUOUS
 62
     3
  5
7BC
 10
23.797138
 20
-23.797138
 30
0.0
 40
7.0
 50
275.787275
 51
354.212725
  0
ARC
  8
0
  6
CONTINUOUS
 62
     3
  5
7BD
 10
-211.0
 20
0.0
 30
0.0
 40
243.0
 50
354.212725
 51
5.787275
  0
ARC
  8
0
  6
CONTINUOUS
 62
     3
  5
7BE
 10
-23.797139
 20
-23.797138
 30
0.0
 40
7.0
 50
185.787275
 51
264.212725
  0
ARC
  8
0
  6
CONTINUOUS
 62
     3
  5
7BF
 10
211.0
 20
0.0
 30
0.0
 40
243.0
 50
174.212725
 51
185.787275
  0
ARC
  8
0
  6
CONTINUOUS
 62
     3
  5
7C0
 10
0.0
 20
-211.0
 30
0.0
 40
246.0
 50
84.212725
 51
95.787275
  0
ARC
  8
0
  6
CONTINUOUS
 62
     3
  5
7C1
 10
23.797138
 20
23.797138
 30
0.0
 40
10.0
 50
5.787275
 51
84.212725
  0
ARC
  8
0
  6
CONTINUOUS
 62
     3
  5
7C2
 10
0.0
 20
-211.0
 30
0.0
 40
243.0
 50
84.212725
 51
95.787275
  0
ARC
  8
0
  6
CONTINUOUS
 62
     3
  5
7C3
 10
23.797138
 20
23.797138
 30
0.0
 40
7.0
 50
5.787275
 51
84.212725
  0
ARC
  8
0
  6
CONTINUOUS
 62
     3
  5
7C4
 10
-23.797139
 20
23.797138
 30
0.0
 40
10.0
 50
95.787275
 51
174.212725
  0
ARC
  8
0
  6
CONTINUOUS
 62
     3
  5
7C5
 10
-23.797139
 20
23.797138
 30
0.0
 40
7.0
 50
95.787275
 51
174.212725
  0
LINE
  8
0
  6
CONTINUOUS
 62
     3
  5
7C6
 10
33.471341
 20
33.424939
 30
0.0
 11
26.5
 21
33.424939
 31
0.0
  0
LINE
  8
0
  6
CONTINUOUS
 62
     3
  5
7C7
 10
34.962533
 20
4.293292
 30
0.0
 11
34.471189
 21
32.442391
 31
0.0
  0
ARC
  8
0
  6
CONTINUOUS
 62
     3
  5
7C8
 10
33.471341
 20
32.424939
 30
0.0
 40
1.0
 50
1.0
 51
90.0
  0
LINE
  8
0
  6
CONTINUOUS
 62
     3
  5
7C9
 10
-19.766094
 20
20.53172
 30
0.0
 11
-19.766094
 21
28.289405
 31
0.0
  0
LINE
  8
0
  6
CONTINUOUS
 62
     3
  5
7CA
 10
-7.633906
 20
21.855113
 30
0.0
 11
-7.633906
 21
28.289405
 31
0.0
  0
LINE
  8
0
  6
CONTINUOUS
 62
     3
  5
7CB
 10
-19.766094
 20
28.289405
 30
0.0
 11
-7.633906
 21
28.289405
 31
0.0
  0
LINE
  8
0
  6
CONTINUOUS
 62
     3
  5
7CC
 10
-7.633906
 20
28.289405
 30
0.0
 11
-4.285823
 21
31.637487
 31
0.0
  0
LINE
  8
0
  6
CONTINUOUS
 62
     3
  5
7CD
 10
-22.139969
 20
30.663279
 30
0.0
 11
-19.766094
 21
28.289405
 31
0.0
  0
ARC
  8
0
  6
CONTINUOUS
 62
     3
  5
7CE
 10
0.0
 20
0.0
 30
0.0
 40
32.0
 50
71.948678
 51
108.051322
  0
LINE
  8
0
  6
CONTINUOUS
 62
     3
  5
7CF
 10
26.049307
 20
30.424939
 30
0.0
 11
9.915801
 21
30.424939
 31
0.0
  0
LINE
  8
0
  6
CONTINUOUS
 62
     3
  5
7D0
 10
-9.915801
 20
30.424939
 30
0.0
 11
-26.049307
 21
30.424939
 31
0.0
  0
CIRCLE
  8
0
  6
CONTINUOUS
 62
     3
  5
7D1
 10
0.0
 20
0.0
 30
0.0
 40
7.5
  0
CIRCLE
  8
0
  6
CONTINUOUS
 62
     3
  5
7D2
 10
10.0
 20
0.0
 30
0.0
 40
1.5
  0
CIRCLE
  8
0
  6
CONTINUOUS
 62
     3
  5
7D3
 10
-10.0
 20
0.0
 30
0.0
 40
1.5
  0
LINE
  8
0
  6
CONTINUOUS
 62
     3
  5
7D4
 10
0.75
 20
-31.998843
 30
0.0
 11
0.75
 21
-28.49013
 31
0.0
  0
LINE
  8
0
  6
CONTINUOUS
 62
     3
  5
7D5
 10
-0.75
 20
-31.998843
 30
0.0
 11
-0.75
 21
-28.49013
 31
0.0
  0
LINE
  8
0
  6
CONTINUOUS
 62
     3
  5
7D6
 10
31.3866
 20
-17.255036
 30
0.0
 11
20.412964
 21
-10.919405
 31
0.0
  0
LINE
  8
0
  6
CONTINUOUS
 62
     3
  5
7D7
 10
31.262672
 20
-18.915538
 30
0.0
 11
19.662964
 21
-12.218443
 31
0.0
  0
LINE
  8
0
  6
CONTINUOUS
 62
     3
  5
7D8
 10
31.262672
 20
18.915538
 30
0.0
 11
24.298176
 21
14.894584
 31
0.0
  0
LINE
  8
0
  6
CONTINUOUS
 62
     3
  5
7D9
 10
31.3866
 20
17.255036
 30
0.0
 11
25.048176
 21
13.595546
 31
0.0
  0
LINE
  8
0
  6
CONTINUOUS
 62
     3
  5
7DA
 10
-0.75
 20
31.998843
 30
0.0
 11
-0.75
 21
23.137848
 31
0.0
  0
LINE
  8
0
  6
CONTINUOUS
 62
     3
  5
7DB
 10
0.75
 20
31.998843
 30
0.0
 11
0.75
 21
23.137848
 31
0.0
  0
LINE
  8
0
  6
CONTINUOUS
 62
     3
  5
7DC
 10
-31.3866
 20
17.255037
 30
0.0
 11
-25.048176
 21
13.595546
 31
0.0
  0
LINE
  8
0
  6
CONTINUOUS
 62
     3
  5
7DD
 10
-31.262672
 20
18.915538
 30
0.0
 11
-24.298176
 21
14.894584
 31
0.0
  0
LINE
  8
0
  6
CONTINUOUS
 62
     3
  5
7DE
 10
-31.262672
 20
-18.915538
 30
0.0
 11
-19.662964
 21
-12.218443
 31
0.0
  0
LINE
  8
0
  6
CONTINUOUS
 62
     3
  5
7DF
 10
-31.3866
 20
-17.255036
 30
0.0
 11
-20.412964
 21
-10.919405
 31
0.0
  0
ARC
  8
0
  6
CONTINUOUS
 62
     3
  5
7E0
 10
53.514706
 20
6.410233
 30
0.0
 40
34.79035
 50
138.076544
 51
158.564749
  0
ARC
  8
0
  6
CONTINUOUS
 62
     3
  5
7E1
 10
-27.514706
 20
6.410233
 30
0.0
 40
34.79035
 50
39.707666
 51
46.112081
  0
LINE
  8
0
  6
CONTINUOUS
 62
     3
  5
7E2
 10
0.75
 20
-11.475517
 30
0.0
 11
0.75
 21
-10.840923
 31
0.0
  0
LINE
  8
0
  6
CONTINUOUS
 62
     3
  5
7E3
 10
-0.75
 20
-11.475517
 30
0.0
 11
-0.75
 21
-10.840923
 31
0.0
  0
LINE
  8
0
  6
CONTINUOUS
 62
     3
  5
7E4
 10
9.352376
 20
3.038771
 30
0.0
 11
10.842044
 21
3.522794
 31
0.0
  0
LINE
  8
0
  6
CONTINUOUS
 62
     3
  5
7E5
 10
-9.352377
 20
3.038771
 30
0.0
 11
-10.842045
 21
3.522794
 31
0.0
  0
ARC
  8
0
  6
CONTINUOUS
 62
     3
  5
7E6
 10
0.0
 20
0.0
 30
0.0
 40
11.4
 50
18.0
 51
37.070369
  0
ARC
  8
0
  6
CONTINUOUS
 62
     3
  5
7E7
 10
0.0
 20
0.0
 30
0.0
 40
10.866835
 50
18.0
 51
38.214868
  0
ARC
  8
0
  6
CONTINUOUS
 62
     3
  5
7E8
 10
0.0
 20
0.0
 30
0.0
 40
9.833671
 50
17.999999
 51
40.823133
  0
LINE
  8
0
  6
CONTINUOUS
 62
     3
  5
7E9
 10
9.352376
 20
-3.038771
 30
0.0
 11
10.842044
 21
-3.522794
 31
0.0
  0
ARC
  8
0
  6
CONTINUOUS
 62
     3
  5
7EA
 10
0.0
 20
0.0
 30
0.0
 40
9.833671
 50
198.0
 51
342.000001
  0
ARC
  8
0
  6
CONTINUOUS
 62
     3
  5
7EB
 10
0.0
 20
0.0
 30
0.0
 40
11.4
 50
273.772184
 51
342.0
  0
LINE
  8
0
  6
CONTINUOUS
 62
     3
  5
7EC
 10
-9.352377
 20
-3.038771
 30
0.0
 11
-10.842045
 21
-3.522794
 31
0.0
  0
ARC
  8
0
  6
CONTINUOUS
 62
     3
  5
7ED
 10
0.0
 20
0.0
 30
0.0
 40
10.866835
 50
273.957549
 51
342.0
  0
ARC
  8
0
  6
CONTINUOUS
 62
     3
  5
7EE
 10
0.0
 20
0.0
 30
0.0
 40
11.4
 50
198.0
 51
266.227817
  0
ARC
  8
0
  6
CONTINUOUS
 62
     3
  5
7EF
 10
0.0
 20
0.0
 30
0.0
 40
10.866835
 50
198.0
 51
266.042453
  0
LINE
  8
0
  6
CONTINUOUS
 62
     3
  5
7F0
 10
6.187184
 20
6.540738
 30
0.0
 11
6.428528
 21
7.441445
 31
0.0
  0
ARC
  8
0
  6
CONTINUOUS
 62
     3
  5
7F1
 10
0.0
 20
0.0
 30
0.0
 40
9.833671
 50
49.176865
 51
162.0
  0
ARC
  8
0
  6
CONTINUOUS
 62
     3
  5
7F2
 10
0.0
 20
0.0
 30
0.0
 40
10.866835
 50
51.785131
 51
162.0
  0
ARC
  8
0
  6
CONTINUOUS
 62
     3
  5
7F3
 10
0.0
 20
0.0
 30
0.0
 40
11.4
 50
52.92963
 51
162.0
  0
LINE
  8
0
  6
CONTINUOUS
 62
     3
  5
7F4
 10
6.722358
 20
8.538033
 30
0.0
 11
6.899776
 21
9.200168
 31
0.0
  0
LINE
  8
0
  6
CONTINUOUS
 62
     3
  5
7F5
 10
6.540738
 20
6.187184
 30
0.0
 11
7.441445
 21
6.428528
 31
0.0
  0
LINE
  8
0
  6
CONTINUOUS
 62
     3
  5
7F6
 10
8.538033
 20
6.722358
 30
0.0
 11
9.200167
 21
6.899776
 31
0.0
  0
LINE
  8
0
  6
CONTINUOUS
 62
     3
  5
7F7
 10
6.187184
 20
6.540738
 30
0.0
 11
6.540738
 21
6.187184
 31
0.0
  0
ENDBLK
  8
0
  5
7F8
  0
BLOCK
  8
0
  6
BYBLOCK
 62
     0
  5
152
  2
*X10
 70
     1
 10
0.0
 20
0.0
 30
0.0
  3
*X10
  0
LINE
  8
0
  6
CONTINUOUS
 62
     0
  5
153
 10
10.156147
 20
-186.0
 30
0.0
 11
15.843853
 21
-186.0
 31
0.0
  0
LINE
  8
0
  6
CONTINUOUS
 62
     0
  5
154
 10
8.112516
 20
-185.5
 30
0.0
 11
17.887484
 21
-185.5
 31
0.0
  0
LINE
  8
0
  6
CONTINUOUS
 62
     0
  5
155
 10
6.740008
 20
-185.0
 30
0.0
 11
9.292238
 21
-185.0
 31
0.0
  0
LINE
  8
0
  6
CONTINUOUS
 62
     0
  5
156
 10
16.707762
 20
-185.0
 30
0.0
 11
19.259992
 21
-185.0
 31
0.0
  0
LINE
  8
0
  6
CONTINUOUS
 62
     0
  5
157
 10
5.652381
 20
-184.5
 30
0.0
 11
7.657014
 21
-184.5
 31
0.0
  0
LINE
  8
0
  6
CONTINUOUS
 62
     0
  5
158
 10
18.342986
 20
-184.5
 30
0.0
 11
20.347619
 21
-184.5
 31
0.0
  0
LINE
  8
0
  6
CONTINUOUS
 62
     0
  5
159
 10
4.708832
 20
-184.0
 30
0.0
 11
6.4542
 21
-184.0
 31
0.0
  0
LINE
  8
0
  6
CONTINUOUS
 62
     0
  5
15A
 10
19.5458
 20
-184.0
 30
0.0
 11
21.263625
 21
-184.0
 31
0.0
  0
LINE
  8
0
  6
CONTINUOUS
 62
     0
  5
15B
 10
3.775298
 20
-183.5
 30
0.0
 11
5.469702
 21
-183.5
 31
0.0
  0
LINE
  8
0
  6
CONTINUOUS
 62
     0
  5
15C
 10
20.526453
 20
-183.5
 30
0.0
 11
22.060215
 21
-183.5
 31
0.0
  0
LINE
  8
0
  6
CONTINUOUS
 62
     0
  5
15D
 10
2.841763
 20
-183.0
 30
0.0
 11
4.536167
 21
-183.0
 31
0.0
  0
LINE
  8
0
  6
CONTINUOUS
 62
     0
  5
15E
 10
21.363462
 20
-183.0
 30
0.0
 11
22.766652
 21
-183.0
 31
0.0
  0
LINE
  8
0
  6
CONTINUOUS
 62
     0
  5
15F
 10
1.908229
 20
-182.5
 30
0.0
 11
3.602633
 21
-182.5
 31
0.0
  0
LINE
  8
0
  6
CONTINUOUS
 62
     0
  5
160
 10
22.096565
 20
-182.5
 30
0.0
 11
23.401322
 21
-182.5
 31
0.0
  0
LINE
  8
0
  6
CONTINUOUS
 62
     0
  5
161
 10
0.974694
 20
-182.0
 30
0.0
 11
2.669098
 21
-182.0
 31
0.0
  0
LINE
  8
0
  6
CONTINUOUS
 62
     0
  5
162
 10
22.749231
 20
-182.0
 30
0.0
 11
23.97668
 21
-182.0
 31
0.0
  0
LINE
  8
0
  6
CONTINUOUS
 62
     0
  5
163
 10
0.041159
 20
-181.5
 30
0.0
 11
1.735564
 21
-181.5
 31
0.0
  0
LINE
  8
0
  6
CONTINUOUS
 62
     0
  5
164
 10
23.336706
 20
-181.5
 30
0.0
 11
24.50163
 21
-181.5
 31
0.0
  0
LINE
  8
0
  6
CONTINUOUS
 62
     0
  5
165
 10
-0.892375
 20
-181.0
 30
0.0
 11
0.802029
 21
-181.0
 31
0.0
  0
LINE
  8
0
  6
CONTINUOUS
 62
     0
  5
166
 10
23.869568
 20
-181.0
 30
0.0
 11
24.9828
 21
-181.0
 31
0.0
  0
LINE
  8
0
  6
CONTINUOUS
 62
     0
  5
167
 10
-1.82591
 20
-180.5
 30
0.0
 11
-0.131505
 21
-180.5
 31
0.0
  0
LINE
  8
0
  6
CONTINUOUS
 62
     0
  5
168
 10
24.355505
 20
-180.5
 30
0.0
 11
25.425277
 21
-180.5
 31
0.0
  0
LINE
  8
0
  6
CONTINUOUS
 62
     0
  5
169
 10
-2.759444
 20
-180.0
 30
0.0
 11
-1.06504
 21
-180.0
 31
0.0
  0
LINE
  8
0
  6
CONTINUOUS
 62
     0
  5
16A
 10
24.800318
 20
-180.0
 30
0.0
 11
25.833063
 21
-180.0
 31
0.0
  0
LINE
  8
0
  6
CONTINUOUS
 62
     0
  5
16B
 10
-3.692979
 20
-179.5
 30
0.0
 11
-1.998575
 21
-179.5
 31
0.0
  0
LINE
  8
0
  6
CONTINUOUS
 62
     0
  5
16C
 10
25.208501
 20
-179.5
 30
0.0
 11
26.209372
 21
-179.5
 31
0.0
  0
LINE
  8
0
  6
CONTINUOUS
 62
     0
  5
16D
 10
-4.626513
 20
-179.0
 30
0.0
 11
-2.932109
 21
-179.0
 31
0.0
  0
LINE
  8
0
  6
CONTINUOUS
 62
     0
  5
16E
 10
25.58362
 20
-179.0
 30
0.0
 11
26.556825
 21
-179.0
 31
0.0
  0
LINE
  8
0
  6
CONTINUOUS
 62
     0
  5
16F
 10
-5.560048
 20
-178.5
 30
0.0
 11
-3.865644
 21
-178.5
 31
0.0
  0
LINE
  8
0
  6
CONTINUOUS
 62
     0
  5
170
 10
25.928554
 20
-178.5
 30
0.0
 11
26.87759
 21
-178.5
 31
0.0
  0
LINE
  8
0
  6
CONTINUOUS
 62
     0
  5
171
 10
-6.493583
 20
-178.0
 30
0.0
 11
-4.799178
 21
-178.0
 31
0.0
  0
LINE
  8
0
  6
CONTINUOUS
 62
     0
  5
172
 10
26.24566
 20
-178.0
 30
0.0
 11
27.173479
 21
-178.0
 31
0.0
  0
LINE
  8
0
  6
CONTINUOUS
 62
     0
  5
173
 10
-7.427117
 20
-177.5
 30
0.0
 11
-5.732713
 21
-177.5
 31
0.0
  0
LINE
  8
0
  6
CONTINUOUS
 62
     0
  5
174
 10
26.536894
 20
-177.5
 30
0.0
 11
27.44602
 21
-177.5
 31
0.0
  0
LINE
  8
0
  6
CONTINUOUS
 62
     0
  5
175
 10
-8.360652
 20
-177.0
 30
0.0
 11
-6.666247
 21
-177.0
 31
0.0
  0
LINE
  8
0
  6
CONTINUOUS
 62
     0
  5
176
 10
26.803894
 20
-177.0
 30
0.0
 11
27.696513
 21
-177.0
 31
0.0
  0
LINE
  8
0
  6
CONTINUOUS
 62
     0
  5
177
 10
-9.294186
 20
-176.5
 30
0.0
 11
-7.599782
 21
-176.5
 31
0.0
  0
LINE
  8
0
  6
CONTINUOUS
 62
     0
  5
178
 10
27.048043
 20
-176.5
 30
0.0
 11
27.926068
 21
-176.5
 31
0.0
  0
LINE
  8
0
  6
CONTINUOUS
 62
     0
  5
179
 10
-10.227721
 20
-176.0
 30
0.0
 11
-8.533317
 21
-176.0
 31
0.0
  0
LINE
  8
0
  6
CONTINUOUS
 62
     0
  5
17A
 10
27.270512
 20
-176.0
 30
0.0
 11
28.135637
 21
-176.0
 31
0.0
  0
LINE
  8
0
  6
CONTINUOUS
 62
     0
  5
17B
 10
-11.161256
 20
-175.5
 30
0.0
 11
-9.466851
 21
-175.5
 31
0.0
  0
LINE
  8
0
  6
CONTINUOUS
 62
     0
  5
17C
 10
-12.09479
 20
-175.0
 30
0.0
 11
-10.400386
 21
-175.0
 31
0.0
  0
LINE
  8
0
  6
CONTINUOUS
 62
     0
  5
17D
 10
-13.028325
 20
-174.5
 30
0.0
 11
-11.33392
 21
-174.5
 31
0.0
  0
LINE
  8
0
  6
CONTINUOUS
 62
     0
  5
17E
 10
-13.961859
 20
-174.0
 30
0.0
 11
-12.267455
 21
-174.0
 31
0.0
  0
LINE
  8
0
  6
CONTINUOUS
 62
     0
  5
17F
 10
-14.895394
 20
-173.5
 30
0.0
 11
-13.200989
 21
-173.5
 31
0.0
  0
LINE
  8
0
  6
CONTINUOUS
 62
     0
  5
180
 10
-15.828928
 20
-173.0
 30
0.0
 11
-14.134524
 21
-173.0
 31
0.0
  0
LINE
  8
0
  6
CONTINUOUS
 62
     0
  5
181
 10
-16.762463
 20
-172.5
 30
0.0
 11
-15.068059
 21
-172.5
 31
0.0
  0
LINE
  8
0
  6
CONTINUOUS
 62
     0
  5
182
 10
-17.695998
 20
-172.0
 30
0.0
 11
-16.001593
 21
-172.0
 31
0.0
  0
LINE
  8
0
  6
CONTINUOUS
 62
     0
  5
183
 10
-18.60892
 20
-171.5
 30
0.0
 11
-16.935128
 21
-171.5
 31
0.0
  0
LINE
  8
0
  6
CONTINUOUS
 62
     0
  5
184
 10
-19.365466
 20
-171.0
 30
0.0
 11
-17.868633
 21
-171.0
 31
0.0
  0
LINE
  8
0
  6
CONTINUOUS
 62
     0
  5
185
 10
-19.992654
 20
-170.5
 30
0.0
 11
-18.687735
 21
-170.5
 31
0.0
  0
LINE
  8
0
  6
CONTINUOUS
 62
     0
  5
186
 10
-20.526236
 20
-170.0
 30
0.0
 11
-19.346016
 21
-170.0
 31
0.0
  0
LINE
  8
0
  6
CONTINUOUS
 62
     0
  5
187
 10
-20.986803
 20
-169.5
 30
0.0
 11
-19.894958
 21
-169.5
 31
0.0
  0
LINE
  8
0
  6
CONTINUOUS
 62
     0
  5
188
 10
-21.38749
 20
-169.0
 30
0.0
 11
-20.361644
 21
-169.0
 31
0.0
  0
LINE
  8
0
  6
CONTINUOUS
 62
     0
  5
189
 10
-21.737257
 20
-168.5
 30
0.0
 11
-20.7624
 21
-168.5
 31
0.0
  0
LINE
  8
0
  6
CONTINUOUS
 62
     0
  5
18A
 10
-22.042512
 20
-168.0
 30
0.0
 11
-21.107935
 21
-168.0
 31
0.0
  0
LINE
  8
0
  6
CONTINUOUS
 62
     0
  5
18B
 10
-22.30799
 20
-167.5
 30
0.0
 11
-21.40568
 21
-167.5
 31
0.0
  0
LINE
  8
0
  6
CONTINUOUS
 62
     0
  5
18C
 10
-22.537279
 20
-167.0
 30
0.0
 11
-21.660999
 21
-167.0
 31
0.0
  0
LINE
  8
0
  6
CONTINUOUS
 62
     0
  5
18D
 10
-22.733133
 20
-166.5
 30
0.0
 11
-21.877866
 21
-166.5
 31
0.0
  0
LINE
  8
0
  6
CONTINUOUS
 62
     0
  5
18E
 10
-22.89769
 20
-166.0
 30
0.0
 11
-22.059276
 21
-166.0
 31
0.0
  0
LINE
  8
0
  6
CONTINUOUS
 62
     0
  5
18F
 10
-23.032604
 20
-165.5
 30
0.0
 11
-22.207497
 21
-165.5
 31
0.0
  0
LINE
  8
0
  6
CONTINUOUS
 62
     0
  5
190
 10
-23.139147
 20
-165.0
 30
0.0
 11
-22.324239
 21
-165.0
 31
0.0
  0
LINE
  8
0
  6
CONTINUOUS
 62
     0
  5
191
 10
-23.218272
 20
-164.5
 30
0.0
 11
-22.410769
 21
-164.5
 31
0.0
  0
LINE
  8
0
  6
CONTINUOUS
 62
     0
  5
192
 10
-23.270658
 20
-164.0
 30
0.0
 11
-22.467982
 21
-164.0
 31
0.0
  0
LINE
  8
0
  6
CONTINUOUS
 62
     0
  5
193
 10
-23.296744
 20
-163.5
 30
0.0
 11
-22.496448
 21
-163.5
 31
0.0
  0
LINE
  8
0
  6
CONTINUOUS
 62
     0
  5
194
 10
27.094236
 20
-163.5
 30
0.0
 11
27.969552
 21
-163.5
 31
0.0
  0
LINE
  8
0
  6
CONTINUOUS
 62
     0
  5
195
 10
-23.296744
 20
-163.0
 30
0.0
 11
-22.496448
 21
-163.0
 31
0.0
  0
LINE
  8
0
  6
CONTINUOUS
 62
     0
  5
196
 10
26.854512
 20
-163.0
 30
0.0
 11
27.744067
 21
-163.0
 31
0.0
  0
LINE
  8
0
  6
CONTINUOUS
 62
     0
  5
197
 10
-23.270658
 20
-162.5
 30
0.0
 11
-22.467982
 21
-162.5
 31
0.0
  0
LINE
  8
0
  6
CONTINUOUS
 62
     0
  5
198
 10
26.592185
 20
-162.5
 30
0.0
 11
27.497845
 21
-162.5
 31
0.0
  0
LINE
  8
0
  6
CONTINUOUS
 62
     0
  5
199
 10
-23.218272
 20
-162.0
 30
0.0
 11
-22.410769
 21
-162.0
 31
0.0
  0
LINE
  8
0
  6
CONTINUOUS
 62
     0
  5
19A
 10
26.30592
 20
-162.0
 30
0.0
 11
27.22981
 21
-162.0
 31
0.0
  0
LINE
  8
0
  6
CONTINUOUS
 62
     0
  5
19B
 10
-23.139147
 20
-161.5
 30
0.0
 11
-22.324239
 21
-161.5
 31
0.0
  0
LINE
  8
0
  6
CONTINUOUS
 62
     0
  5
19C
 10
25.994133
 20
-161.5
 30
0.0
 11
26.938705
 21
-161.5
 31
0.0
  0
LINE
  8
0
  6
CONTINUOUS
 62
     0
  5
19D
 10
-23.032604
 20
-161.0
 30
0.0
 11
-22.207497
 21
-161.0
 31
0.0
  0
LINE
  8
0
  6
CONTINUOUS
 62
     0
  5
19E
 10
25.65494
 20
-161.0
 30
0.0
 11
26.62305
 21
-161.0
 31
0.0
  0
LINE
  8
0
  6
CONTINUOUS
 62
     0
  5
19F
 10
-22.89769
 20
-160.5
 30
0.0
 11
-22.059276
 21
-160.5
 31
0.0
  0
LINE
  8
0
  6
CONTINUOUS
 62
     0
  5
1A0
 10
25.286069
 20
-160.5
 30
0.0
 11
26.281096
 21
-160.5
 31
0.0
  0
LINE
  8
0
  6
CONTINUOUS
 62
     0
  5
1A1
 10
-22.733133
 20
-160.0
 30
0.0
 11
-21.877866
 21
-160.0
 31
0.0
  0
LINE
  8
0
  6
CONTINUOUS
 62
     0
  5
1A2
 10
24.884759
 20
-160.0
 30
0.0
 11
25.910751
 21
-160.0
 31
0.0
  0
LINE
  8
0
  6
CONTINUOUS
 62
     0
  5
1A3
 10
-22.537279
 20
-159.5
 30
0.0
 11
-21.660999
 21
-159.5
 31
0.0
  0
LINE
  8
0
  6
CONTINUOUS
 62
     0
  5
1A4
 10
24.447598
 20
-159.5
 30
0.0
 11
25.509496
 21
-159.5
 31
0.0
  0
LINE
  8
0
  6
CONTINUOUS
 62
     0
  5
1A5
 10
-22.30799
 20
-159.0
 30
0.0
 11
-21.40568
 21
-159.0
 31
0.0
  0
LINE
  8
0
  6
CONTINUOUS
 62
     0
  5
1A6
 10
23.970301
 20
-159.0
 30
0.0
 11
25.074249
 21
-159.0
 31
0.0
  0
LINE
  8
0
  6
CONTINUOUS
 62
     0
  5
1A7
 10
-22.042512
 20
-158.5
 30
0.0
 11
-21.107935
 21
-158.5
 31
0.0
  0
LINE
  8
0
  6
CONTINUOUS
 62
     0
  5
1A8
 10
23.447368
 20
-158.5
 30
0.0
 11
24.601185
 21
-158.5
 31
0.0
  0
LINE
  8
0
  6
CONTINUOUS
 62
     0
  5
1A9
 10
-21.737257
 20
-158.0
 30
0.0
 11
-20.7624
 21
-158.0
 31
0.0
  0
LINE
  8
0
  6
CONTINUOUS
 62
     0
  5
1AA
 10
22.87155
 20
-158.0
 30
0.0
 11
24.085463
 21
-158.0
 31
0.0
  0
LINE
  8
0
  6
CONTINUOUS
 62
     0
  5
1AB
 10
-21.38749
 20
-157.5
 30
0.0
 11
-20.361644
 21
-157.5
 31
0.0
  0
LINE
  8
0
  6
CONTINUOUS
 62
     0
  5
1AC
 10
22.232957
 20
-157.5
 30
0.0
 11
23.520813
 21
-157.5
 31
0.0
  0
LINE
  8
0
  6
CONTINUOUS
 62
     0
  5
1AD
 10
-20.986803
 20
-157.0
 30
0.0
 11
-19.894958
 21
-157.0
 31
0.0
  0
LINE
  8
0
  6
CONTINUOUS
 62
     0
  5
1AE
 10
21.517482
 20
-157.0
 30
0.0
 11
22.898864
 21
-157.0
 31
0.0
  0
LINE
  8
0
  6
CONTINUOUS
 62
     0
  5
1AF
 10
-20.526236
 20
-156.5
 30
0.0
 11
-19.346016
 21
-156.5
 31
0.0
  0
LINE
  8
0
  6
CONTINUOUS
 62
     0
  5
1B0
 10
20.703733
 20
-156.5
 30
0.0
 11
22.208013
 21
-156.5
 31
0.0
  0
LINE
  8
0
  6
CONTINUOUS
 62
     0
  5
1B1
 10
-19.992654
 20
-156.0
 30
0.0
 11
-18.687735
 21
-156.0
 31
0.0
  0
LINE
  8
0
  6
CONTINUOUS
 62
     0
  5
1B2
 10
19.756293
 20
-156.0
 30
0.0
 11
21.43134
 21
-156.0
 31
0.0
  0
LINE
  8
0
  6
CONTINUOUS
 62
     0
  5
1B3
 10
-19.365466
 20
-155.5
 30
0.0
 11
-17.868633
 21
-155.5
 31
0.0
  0
LINE
  8
0
  6
CONTINUOUS
 62
     0
  5
1B4
 10
18.607807
 20
-155.5
 30
0.0
 11
20.54238
 21
-155.5
 31
0.0
  0
LINE
  8
0
  6
CONTINUOUS
 62
     0
  5
1B5
 10
-18.60892
 20
-155.0
 30
0.0
 11
-16.76227
 21
-155.0
 31
0.0
  0
LINE
  8
0
  6
CONTINUOUS
 62
     0
  5
1B6
 10
17.092371
 20
-155.0
 30
0.0
 11
19.495191
 21
-155.0
 31
0.0
  0
LINE
  8
0
  6
CONTINUOUS
 62
     0
  5
1B7
 10
-17.649367
 20
-154.5
 30
0.0
 11
-14.63675
 21
-154.5
 31
0.0
  0
LINE
  8
0
  6
CONTINUOUS
 62
     0
  5
1B8
 10
14.243986
 20
-154.5
 30
0.0
 11
18.194949
 21
-154.5
 31
0.0
  0
LINE
  8
0
  6
CONTINUOUS
 62
     0
  5
1B9
 10
-16.26856
 20
-154.0
 30
0.0
 11
16.359687
 21
-154.0
 31
0.0
  0
LINE
  8
0
  6
CONTINUOUS
 62
     0
  5
1BA
 10
-23.0
 20
-165.631176
 30
0.0
 11
-23.0
 21
-160.868824
 31
0.0
  0
LINE
  8
0
  6
CONTINUOUS
 62
     0
  5
1BB
 10
-22.5
 20
-167.086665
 30
0.0
 11
-22.5
 21
-159.413335
 31
0.0
  0
LINE
  8
0
  6
CONTINUOUS
 62
     0
  5
1BC
 10
-22.0
 20
-168.073899
 30
0.0
 11
-22.0
 21
-166.174038
 31
0.0
  0
LINE
  8
0
  6
CONTINUOUS
 62
     0
  5
1BD
 10
-22.0
 20
-160.325962
 30
0.0
 11
-22.0
 21
-158.426101
 31
0.0
  0
LINE
  8
0
  6
CONTINUOUS
 62
     0
  5
1BE
 10
-21.5
 20
-168.846427
 30
0.0
 11
-21.5
 21
-167.32431
 31
0.0
  0
LINE
  8
0
  6
CONTINUOUS
 62
     0
  5
1BF
 10
-21.5
 20
-159.17569
 30
0.0
 11
-21.5
 21
-157.653573
 31
0.0
  0
LINE
  8
0
  6
CONTINUOUS
 62
     0
  5
1C0
 10
-21.0
 20
-169.484581
 30
0.0
 11
-21.0
 21
-168.164265
 31
0.0
  0
LINE
  8
0
  6
CONTINUOUS
 62
     0
  5
1C1
 10
-21.0
 20
-158.335735
 30
0.0
 11
-21.0
 21
-157.015419
 31
0.0
  0
LINE
  8
0
  6
CONTINUOUS
 62
     0
  5
1C2
 10
-20.5
 20
-170.02643
 30
0.0
 11
-20.5
 21
-168.835696
 31
0.0
  0
LINE
  8
0
  6
CONTINUOUS
 62
     0
  5
1C3
 10
-20.5
 20
-157.664304
 30
0.0
 11
-20.5
 21
-156.47357
 31
0.0
  0
LINE
  8
0
  6
CONTINUOUS
 62
     0
  5
1C4
 10
-20.0
 20
-170.493618
 30
0.0
 11
-20.0
 21
-169.394103
 31
0.0
  0
LINE
  8
0
  6
CONTINUOUS
 62
     0
  5
1C5
 10
-20.0
 20
-157.105897
 30
0.0
 11
-20.0
 21
-156.006382
 31
0.0
  0
LINE
  8
0
  6
CONTINUOUS
 62
     0
  5
1C6
 10
-19.5
 20
-170.899837
 30
0.0
 11
-19.5
 21
-169.868157
 31
0.0
  0
LINE
  8
0
  6
CONTINUOUS
 62
     0
  5
1C7
 10
-19.5
 20
-156.631843
 30
0.0
 11
-19.5
 21
-155.600163
 31
0.0
  0
LINE
  8
0
  6
CONTINUOUS
 62
     0
  5
1C8
 10
-19.0
 20
-171.254374
 30
0.0
 11
-19.0
 21
-170.274956
 31
0.0
  0
LINE
  8
0
  6
CONTINUOUS
 62
     0
  5
1C9
 10
-19.0
 20
-156.225044
 30
0.0
 11
-19.0
 21
-155.245626
 31
0.0
  0
LINE
  8
0
  6
CONTINUOUS
 62
     0
  5
1CA
 10
-18.5
 20
-171.563844
 30
0.0
 11
-18.5
 21
-170.625636
 31
0.0
  0
LINE
  8
0
  6
CONTINUOUS
 62
     0
  5
1CB
 10
-18.5
 20
-155.874364
 30
0.0
 11
-18.5
 21
-154.936156
 31
0.0
  0
LINE
  8
0
  6
CONTINUOUS
 62
     0
  5
1CC
 10
-18.0
 20
-171.837177
 30
0.0
 11
-18.0
 21
-170.92789
 31
0.0
  0
LINE
  8
0
  6
CONTINUOUS
 62
     0
  5
1CD
 10
-18.0
 20
-155.57211
 30
0.0
 11
-18.0
 21
-154.666877
 31
0.0
  0
LINE
  8
0
  6
CONTINUOUS
 62
     0
  5
1CE
 10
-17.5
 20
-172.104976
 30
0.0
 11
-17.5
 21
-171.197455
 31
0.0
  0
LINE
  8
0
  6
CONTINUOUS
 62
     0
  5
1CF
 10
-17.5
 20
-155.312746
 30
0.0
 11
-17.5
 21
-154.434105
 31
0.0
  0
LINE
  8
0
  6
CONTINUOUS
 62
     0
  5
1D0
 10
-17.0
 20
-172.372775
 30
0.0
 11
-17.0
 21
-171.465254
 31
0.0
  0
LINE
  8
0
  6
CONTINUOUS
 62
     0
  5
1D1
 10
-17.0
 20
-155.092182
 30
0.0
 11
-17.0
 21
-154.235012
 31
0.0
  0
LINE
  8
0
  6
CONTINUOUS
 62
     0
  5
1D2
 10
-16.5
 20
-172.640575
 30
0.0
 11
-16.5
 21
-171.733054
 31
0.0
  0
LINE
  8
0
  6
CONTINUOUS
 62
     0
  5
1D3
 10
-16.5
 20
-154.907339
 30
0.0
 11
-16.5
 21
-154.067408
 31
0.0
  0
LINE
  8
0
  6
CONTINUOUS
 62
     0
  5
1D4
 10
-16.0
 20
-172.908374
 30
0.0
 11
-16.0
 21
-172.000853
 31
0.0
  0
LINE
  8
0
  6
CONTINUOUS
 62
     0
  5
1D5
 10
-16.0
 20
-154.755884
 30
0.0
 11
-16.0
 21
-153.929592
 31
0.0
  0
LINE
  8
0
  6
CONTINUOUS
 62
     0
  5
1D6
 10
-15.5
 20
-173.176174
 30
0.0
 11
-15.5
 21
-172.268653
 31
0.0
  0
LINE
  8
0
  6
CONTINUOUS
 62
     0
  5
1D7
 10
-15.5
 20
-154.636058
 30
0.0
 11
-15.5
 21
-153.82026
 31
0.0
  0
LINE
  8
0
  6
CONTINUOUS
 62
     0
  5
1D8
 10
-15.0
 20
-173.443973
 30
0.0
 11
-15.0
 21
-172.536452
 31
0.0
  0
LINE
  8
0
  6
CONTINUOUS
 62
     0
  5
1D9
 10
-15.0
 20
-154.546552
 30
0.0
 11
-15.0
 21
-153.738428
 31
0.0
  0
LINE
  8
0
  6
CONTINUOUS
 62
     0
  5
1DA
 10
-14.5
 20
-173.711772
 30
0.0
 11
-14.5
 21
-172.804251
 31
0.0
  0
LINE
  8
0
  6
CONTINUOUS
 62
     0
  5
1DB
 10
-14.5
 20
-154.486439
 30
0.0
 11
-14.5
 21
-153.683391
 31
0.0
  0
LINE
  8
0
  6
CONTINUOUS
 62
     0
  5
1DC
 10
-14.0
 20
-173.979572
 30
0.0
 11
-14.0
 21
-173.072051
 31
0.0
  0
LINE
  8
0
  6
CONTINUOUS
 62
     0
  5
1DD
 10
-14.0
 20
-154.455115
 30
0.0
 11
-14.0
 21
-153.654689
 31
0.0
  0
LINE
  8
0
  6
CONTINUOUS
 62
     0
  5
1DE
 10
-13.5
 20
-174.247371
 30
0.0
 11
-13.5
 21
-173.33985
 31
0.0
  0
LINE
  8
0
  6
CONTINUOUS
 62
     0
  5
1DF
 10
-13.5
 20
-154.45
 30
0.0
 11
-13.5
 21
-153.65
 31
0.0
  0
LINE
  8
0
  6
CONTINUOUS
 62
     0
  5
1E0
 10
-13.0
 20
-174.515171
 30
0.0
 11
-13.0
 21
-173.60765
 31
0.0
  0
LINE
  8
0
  6
CONTINUOUS
 62
     0
  5
1E1
 10
-13.0
 20
-154.45
 30
0.0
 11
-13.0
 21
-153.65
 31
0.0
  0
LINE
  8
0
  6
CONTINUOUS
 62
     0
  5
1E2
 10
-12.5
 20
-174.78297
 30
0.0
 11
-12.5
 21
-173.875449
 31
0.0
  0
LINE
  8
0
  6
CONTINUOUS
 62
     0
  5
1E3
 10
-12.5
 20
-154.45
 30
0.0
 11
-12.5
 21
-153.65
 31
0.0
  0
LINE
  8
0
  6
CONTINUOUS
 62
     0
  5
1E4
 10
-12.0
 20
-175.050769
 30
0.0
 11
-12.0
 21
-174.143248
 31
0.0
  0
LINE
  8
0
  6
CONTINUOUS
 62
     0
  5
1E5
 10
-12.0
 20
-154.45
 30
0.0
 11
-12.0
 21
-153.65
 31
0.0
  0
LINE
  8
0
  6
CONTINUOUS
 62
     0
  5
1E6
 10
-11.5
 20
-175.318569
 30
0.0
 11
-11.5
 21
-174.411048
 31
0.0
  0
LINE
  8
0
  6
CONTINUOUS
 62
     0
  5
1E7
 10
-11.5
 20
-154.45
 30
0.0
 11
-11.5
 21
-153.65
 31
0.0
  0
LINE
  8
0
  6
CONTINUOUS
 62
     0
  5
1E8
 10
-11.0
 20
-175.586368
 30
0.0
 11
-11.0
 21
-174.678847
 31
0.0
  0
LINE
  8
0
  6
CONTINUOUS
 62
     0
  5
1E9
 10
-11.0
 20
-154.45
 30
0.0
 11
-11.0
 21
-153.65
 31
0.0
  0
LINE
  8
0
  6
CONTINUOUS
 62
     0
  5
1EA
 10
-10.5
 20
-175.854168
 30
0.0
 11
-10.5
 21
-174.946647
 31
0.0
  0
LINE
  8
0
  6
CONTINUOUS
 62
     0
  5
1EB
 10
-10.5
 20
-154.45
 30
0.0
 11
-10.5
 21
-153.65
 31
0.0
  0
LINE
  8
0
  6
CONTINUOUS
 62
     0
  5
1EC
 10
-10.0
 20
-176.121967
 30
0.0
 11
-10.0
 21
-175.214446
 31
0.0
  0
LINE
  8
0
  6
CONTINUOUS
 62
     0
  5
1ED
 10
-10.0
 20
-154.45
 30
0.0
 11
-10.0
 21
-153.65
 31
0.0
  0
LINE
  8
0
  6
CONTINUOUS
 62
     0
  5
1EE
 10
-9.5
 20
-176.389766
 30
0.0
 11
-9.5
 21
-175.482246
 31
0.0
  0
LINE
  8
0
  6
CONTINUOUS
 62
     0
  5
1EF
 10
-9.5
 20
-154.45
 30
0.0
 11
-9.5
 21
-153.65
 31
0.0
  0
LINE
  8
0
  6
CONTINUOUS
 62
     0
  5
1F0
 10
-9.0
 20
-176.657566
 30
0.0
 11
-9.0
 21
-175.750045
 31
0.0
  0
LINE
  8
0
  6
CONTINUOUS
 62
     0
  5
1F1
 10
-9.0
 20
-154.45
 30
0.0
 11
-9.0
 21
-153.65
 31
0.0
  0
LINE
  8
0
  6
CONTINUOUS
 62
     0
  5
1F2
 10
-8.5
 20
-176.925365
 30
0.0
 11
-8.5
 21
-176.017844
 31
0.0
  0
LINE
  8
0
  6
CONTINUOUS
 62
     0
  5
1F3
 10
-8.5
 20
-154.45
 30
0.0
 11
-8.5
 21
-153.65
 31
0.0
  0
LINE
  8
0
  6
CONTINUOUS
 62
     0
  5
1F4
 10
-8.0
 20
-177.193165
 30
0.0
 11
-8.0
 21
-176.285644
 31
0.0
  0
LINE
  8
0
  6
CONTINUOUS
 62
     0
  5
1F5
 10
-8.0
 20
-154.45
 30
0.0
 11
-8.0
 21
-153.65
 31
0.0
  0
LINE
  8
0
  6
CONTINUOUS
 62
     0
  5
1F6
 10
-7.5
 20
-177.460964
 30
0.0
 11
-7.5
 21
-176.553443
 31
0.0
  0
LINE
  8
0
  6
CONTINUOUS
 62
     0
  5
1F7
 10
-7.5
 20
-154.45
 30
0.0
 11
-7.5
 21
-153.65
 31
0.0
  0
LINE
  8
0
  6
CONTINUOUS
 62
     0
  5
1F8
 10
-7.0
 20
-177.728763
 30
0.0
 11
-7.0
 21
-176.821243
 31
0.0
  0
LINE
  8
0
  6
CONTINUOUS
 62
     0
  5
1F9
 10
-7.0
 20
-154.45
 30
0.0
 11
-7.0
 21
-153.65
 31
0.0
  0
LINE
  8
0
  6
CONTINUOUS
 62
     0
  5
1FA
 10
-6.5
 20
-177.996563
 30
0.0
 11
-6.5
 21
-177.089042
 31
0.0
  0
LINE
  8
0
  6
CONTINUOUS
 62
     0
  5
1FB
 10
-6.5
 20
-154.45
 30
0.0
 11
-6.5
 21
-153.65
 31
0.0
  0
LINE
  8
0
  6
CONTINUOUS
 62
     0
  5
1FC
 10
-6.0
 20
-178.264362
 30
0.0
 11
-6.0
 21
-177.356841
 31
0.0
  0
LINE
  8
0
  6
CONTINUOUS
 62
     0
  5
1FD
 10
-6.0
 20
-154.45
 30
0.0
 11
-6.0
 21
-153.65
 31
0.0
  0
LINE
  8
0
  6
CONTINUOUS
 62
     0
  5
1FE
 10
-5.5
 20
-178.532162
 30
0.0
 11
-5.5
 21
-177.624641
 31
0.0
  0
LINE
  8
0
  6
CONTINUOUS
 62
     0
  5
1FF
 10
-5.5
 20
-154.45
 30
0.0
 11
-5.5
 21
-153.65
 31
0.0
  0
LINE
  8
0
  6
CONTINUOUS
 62
     0
  5
200
 10
-5.0
 20
-178.799961
 30
0.0
 11
-5.0
 21
-177.89244
 31
0.0
  0
LINE
  8
0
  6
CONTINUOUS
 62
     0
  5
201
 10
-5.0
 20
-154.45
 30
0.0
 11
-5.0
 21
-153.65
 31
0.0
  0
LINE
  8
0
  6
CONTINUOUS
 62
     0
  5
202
 10
-4.5
 20
-179.06776
 30
0.0
 11
-4.5
 21
-178.16024
 31
0.0
  0
LINE
  8
0
  6
CONTINUOUS
 62
     0
  5
203
 10
-4.5
 20
-154.45
 30
0.0
 11
-4.5
 21
-153.65
 31
0.0
  0
LINE
  8
0
  6
CONTINUOUS
 62
     0
  5
204
 10
-4.0
 20
-179.33556
 30
0.0
 11
-4.0
 21
-178.428039
 31
0.0
  0
LINE
  8
0
  6
CONTINUOUS
 62
     0
  5
205
 10
-4.0
 20
-154.45
 30
0.0
 11
-4.0
 21
-153.65
 31
0.0
  0
LINE
  8
0
  6
CONTINUOUS
 62
     0
  5
206
 10
-3.5
 20
-179.603359
 30
0.0
 11
-3.5
 21
-178.695838
 31
0.0
  0
LINE
  8
0
  6
CONTINUOUS
 62
     0
  5
207
 10
-3.5
 20
-154.45
 30
0.0
 11
-3.5
 21
-153.65
 31
0.0
  0
LINE
  8
0
  6
CONTINUOUS
 62
     0
  5
208
 10
-3.0
 20
-179.871159
 30
0.0
 11
-3.0
 21
-178.963638
 31
0.0
  0
LINE
  8
0
  6
CONTINUOUS
 62
     0
  5
209
 10
-3.0
 20
-154.45
 30
0.0
 11
-3.0
 21
-153.65
 31
0.0
  0
LINE
  8
0
  6
CONTINUOUS
 62
     0
  5
20A
 10
-2.5
 20
-180.138958
 30
0.0
 11
-2.5
 21
-179.231437
 31
0.0
  0
LINE
  8
0
  6
CONTINUOUS
 62
     0
  5
20B
 10
-2.5
 20
-154.45
 30
0.0
 11
-2.5
 21
-153.65
 31
0.0
  0
LINE
  8
0
  6
CONTINUOUS
 62
     0
  5
20C
 10
-2.0
 20
-180.406757
 30
0.0
 11
-2.0
 21
-179.499237
 31
0.0
  0
LINE
  8
0
  6
CONTINUOUS
 62
     0
  5
20D
 10
-2.0
 20
-154.45
 30
0.0
 11
-2.0
 21
-153.65
 31
0.0
  0
LINE
  8
0
  6
CONTINUOUS
 62
     0
  5
20E
 10
-1.5
 20
-180.674557
 30
0.0
 11
-1.5
 21
-179.767036
 31
0.0
  0
LINE
  8
0
  6
CONTINUOUS
 62
     0
  5
20F
 10
-1.5
 20
-154.45
 30
0.0
 11
-1.5
 21
-153.65
 31
0.0
  0
LINE
  8
0
  6
CONTINUOUS
 62
     0
  5
210
 10
-1.0
 20
-180.942356
 30
0.0
 11
-1.0
 21
-180.034835
 31
0.0
  0
LINE
  8
0
  6
CONTINUOUS
 62
     0
  5
211
 10
-1.0
 20
-154.45
 30
0.0
 11
-1.0
 21
-153.65
 31
0.0
  0
LINE
  8
0
  6
CONTINUOUS
 62
     0
  5
212
 10
-0.5
 20
-181.210156
 30
0.0
 11
-0.5
 21
-180.302635
 31
0.0
  0
LINE
  8
0
  6
CONTINUOUS
 62
     0
  5
213
 10
-0.5
 20
-154.45
 30
0.0
 11
-0.5
 21
-153.65
 31
0.0
  0
LINE
  8
0
  6
CONTINUOUS
 62
     0
  5
214
 10
0.0
 20
-181.477955
 30
0.0
 11
0.0
 21
-180.570434
 31
0.0
  0
LINE
  8
0
  6
CONTINUOUS
 62
     0
  5
215
 10
0.0
 20
-154.45
 30
0.0
 11
0.0
 21
-153.65
 31
0.0
  0
LINE
  8
0
  6
CONTINUOUS
 62
     0
  5
216
 10
0.5
 20
-181.745754
 30
0.0
 11
0.5
 21
-180.838234
 31
0.0
  0
LINE
  8
0
  6
CONTINUOUS
 62
     0
  5
217
 10
0.5
 20
-154.45
 30
0.0
 11
0.5
 21
-153.65
 31
0.0
  0
LINE
  8
0
  6
CONTINUOUS
 62
     0
  5
218
 10
1.0
 20
-182.013554
 30
0.0
 11
1.0
 21
-181.106033
 31
0.0
  0
LINE
  8
0
  6
CONTINUOUS
 62
     0
  5
219
 10
1.0
 20
-154.45
 30
0.0
 11
1.0
 21
-153.65
 31
0.0
  0
LINE
  8
0
  6
CONTINUOUS
 62
     0
  5
21A
 10
1.5
 20
-182.281353
 30
0.0
 11
1.5
 21
-181.373832
 31
0.0
  0
LINE
  8
0
  6
CONTINUOUS
 62
     0
  5
21B
 10
1.5
 20
-154.45
 30
0.0
 11
1.5
 21
-153.65
 31
0.0
  0
LINE
  8
0
  6
CONTINUOUS
 62
     0
  5
21C
 10
2.0
 20
-182.549153
 30
0.0
 11
2.0
 21
-181.641632
 31
0.0
  0
LINE
  8
0
  6
CONTINUOUS
 62
     0
  5
21D
 10
2.0
 20
-154.45
 30
0.0
 11
2.0
 21
-153.65
 31
0.0
  0
LINE
  8
0
  6
CONTINUOUS
 62
     0
  5
21E
 10
2.5
 20
-182.816952
 30
0.0
 11
2.5
 21
-181.909431
 31
0.0
  0
LINE
  8
0
  6
CONTINUOUS
 62
     0
  5
21F
 10
2.5
 20
-154.45
 30
0.0
 11
2.5
 21
-153.65
 31
0.0
  0
LINE
  8
0
  6
CONTINUOUS
 62
     0
  5
220
 10
3.0
 20
-183.084751
 30
0.0
 11
3.0
 21
-182.177231
 31
0.0
  0
LINE
  8
0
  6
CONTINUOUS
 62
     0
  5
221
 10
3.0
 20
-154.45
 30
0.0
 11
3.0
 21
-153.65
 31
0.0
  0
LINE
  8
0
  6
CONTINUOUS
 62
     0
  5
222
 10
3.5
 20
-183.352551
 30
0.0
 11
3.5
 21
-182.44503
 31
0.0
  0
LINE
  8
0
  6
CONTINUOUS
 62
     0
  5
223
 10
3.5
 20
-154.45
 30
0.0
 11
3.5
 21
-153.65
 31
0.0
  0
LINE
  8
0
  6
CONTINUOUS
 62
     0
  5
224
 10
4.0
 20
-183.62035
 30
0.0
 11
4.0
 21
-182.712829
 31
0.0
  0
LINE
  8
0
  6
CONTINUOUS
 62
     0
  5
225
 10
4.0
 20
-154.45
 30
0.0
 11
4.0
 21
-153.65
 31
0.0
  0
LINE
  8
0
  6
CONTINUOUS
 62
     0
  5
226
 10
4.5
 20
-183.88815
 30
0.0
 11
4.5
 21
-182.980629
 31
0.0
  0
LINE
  8
0
  6
CONTINUOUS
 62
     0
  5
227
 10
4.5
 20
-154.45
 30
0.0
 11
4.5
 21
-153.65
 31
0.0
  0
LINE
  8
0
  6
CONTINUOUS
 62
     0
  5
228
 10
5.0
 20
-184.155949
 30
0.0
 11
5.0
 21
-183.248428
 31
0.0
  0
LINE
  8
0
  6
CONTINUOUS
 62
     0
  5
229
 10
5.0
 20
-154.45
 30
0.0
 11
5.0
 21
-153.65
 31
0.0
  0
LINE
  8
0
  6
CONTINUOUS
 62
     0
  5
22A
 10
5.5
 20
-184.422042
 30
0.0
 11
5.5
 21
-183.516228
 31
0.0
  0
LINE
  8
0
  6
CONTINUOUS
 62
     0
  5
22B
 10
5.5
 20
-154.45
 30
0.0
 11
5.5
 21
-153.65
 31
0.0
  0
LINE
  8
0
  6
CONTINUOUS
 62
     0
  5
22C
 10
6.0
 20
-184.670394
 30
0.0
 11
6.0
 21
-183.779317
 31
0.0
  0
LINE
  8
0
  6
CONTINUOUS
 62
     0
  5
22D
 10
6.0
 20
-154.45
 30
0.0
 11
6.0
 21
-153.65
 31
0.0
  0
LINE
  8
0
  6
CONTINUOUS
 62
     0
  5
22E
 10
6.5
 20
-184.89791
 30
0.0
 11
6.5
 21
-184.021247
 31
0.0
  0
LINE
  8
0
  6
CONTINUOUS
 62
     0
  5
22F
 10
6.5
 20
-154.45
 30
0.0
 11
6.5
 21
-153.65
 31
0.0
  0
LINE
  8
0
  6
CONTINUOUS
 62
     0
  5
230
 10
7.0
 20
-185.105527
 30
0.0
 11
7.0
 21
-184.241606
 31
0.0
  0
LINE
  8
0
  6
CONTINUOUS
 62
     0
  5
231
 10
7.0
 20
-154.45
 30
0.0
 11
7.0
 21
-153.65
 31
0.0
  0
LINE
  8
0
  6
CONTINUOUS
 62
     0
  5
232
 10
7.5
 20
-185.294054
 30
0.0
 11
7.5
 21
-184.441377
 31
0.0
  0
LINE
  8
0
  6
CONTINUOUS
 62
     0
  5
233
 10
7.5
 20
-154.45
 30
0.0
 11
7.5
 21
-153.65
 31
0.0
  0
LINE
  8
0
  6
CONTINUOUS
 62
     0
  5
234
 10
8.0
 20
-185.464187
 30
0.0
 11
8.0
 21
-184.621401
 31
0.0
  0
LINE
  8
0
  6
CONTINUOUS
 62
     0
  5
235
 10
8.0
 20
-154.45
 30
0.0
 11
8.0
 21
-153.65
 31
0.0
  0
LINE
  8
0
  6
CONTINUOUS
 62
     0
  5
236
 10
8.5
 20
-185.616525
 30
0.0
 11
8.5
 21
-184.782397
 31
0.0
  0
LINE
  8
0
  6
CONTINUOUS
 62
     0
  5
237
 10
8.5
 20
-154.45
 30
0.0
 11
8.5
 21
-153.65
 31
0.0
  0
LINE
  8
0
  6
CONTINUOUS
 62
     0
  5
238
 10
9.0
 20
-185.751582
 30
0.0
 11
9.0
 21
-184.924979
 31
0.0
  0
LINE
  8
0
  6
CONTINUOUS
 62
     0
  5
239
 10
9.0
 20
-154.45
 30
0.0
 11
9.0
 21
-153.65
 31
0.0
  0
LINE
  8
0
  6
CONTINUOUS
 62
     0
  5
23A
 10
9.5
 20
-185.869799
 30
0.0
 11
9.5
 21
-185.049669
 31
0.0
  0
LINE
  8
0
  6
CONTINUOUS
 62
     0
  5
23B
 10
9.5
 20
-154.45
 30
0.0
 11
9.5
 21
-153.65
 31
0.0
  0
LINE
  8
0
  6
CONTINUOUS
 62
     0
  5
23C
 10
10.0
 20
-185.971548
 30
0.0
 11
10.0
 21
-185.156906
 31
0.0
  0
LINE
  8
0
  6
CONTINUOUS
 62
     0
  5
23D
 10
10.0
 20
-154.45
 30
0.0
 11
10.0
 21
-153.65
 31
0.0
  0
LINE
  8
0
  6
CONTINUOUS
 62
     0
  5
23E
 10
10.5
 20
-186.057141
 30
0.0
 11
10.5
 21
-185.247059
 31
0.0
  0
LINE
  8
0
  6
CONTINUOUS
 62
     0
  5
23F
 10
10.5
 20
-154.45
 30
0.0
 11
10.5
 21
-153.65
 31
0.0
  0
LINE
  8
0
  6
CONTINUOUS
 62
     0
  5
240
 10
11.0
 20
-186.126835
 30
0.0
 11
11.0
 21
-185.320426
 31
0.0
  0
LINE
  8
0
  6
CONTINUOUS
 62
     0
  5
241
 10
11.0
 20
-154.45
 30
0.0
 11
11.0
 21
-153.65
 31
0.0
  0
LINE
  8
0
  6
CONTINUOUS
 62
     0
  5
242
 10
11.5
 20
-186.180835
 30
0.0
 11
11.5
 21
-185.377249
 31
0.0
  0
LINE
  8
0
  6
CONTINUOUS
 62
     0
  5
243
 10
11.5
 20
-154.45
 30
0.0
 11
11.5
 21
-153.65
 31
0.0
  0
LINE
  8
0
  6
CONTINUOUS
 62
     0
  5
244
 10
12.0
 20
-186.219296
 30
0.0
 11
12.0
 21
-185.417708
 31
0.0
  0
LINE
  8
0
  6
CONTINUOUS
 62
     0
  5
245
 10
12.0
 20
-154.45
 30
0.0
 11
12.0
 21
-153.65
 31
0.0
  0
LINE
  8
0
  6
CONTINUOUS
 62
     0
  5
246
 10
12.5
 20
-186.242329
 30
0.0
 11
12.5
 21
-185.441933
 31
0.0
  0
LINE
  8
0
  6
CONTINUOUS
 62
     0
  5
247
 10
12.5
 20
-154.45
 30
0.0
 11
12.5
 21
-153.65
 31
0.0
  0
LINE
  8
0
  6
CONTINUOUS
 62
     0
  5
248
 10
13.0
 20
-186.25
 30
0.0
 11
13.0
 21
-185.45
 31
0.0
  0
LINE
  8
0
  6
CONTINUOUS
 62
     0
  5
249
 10
13.0
 20
-154.45
 30
0.0
 11
13.0
 21
-153.65
 31
0.0
  0
LINE
  8
0
  6
CONTINUOUS
 62
     0
  5
24A
 10
13.5
 20
-186.242329
 30
0.0
 11
13.5
 21
-185.441933
 31
0.0
  0
LINE
  8
0
  6
CONTINUOUS
 62
     0
  5
24B
 10
13.5
 20
-154.458067
 30
0.0
 11
13.5
 21
-153.657671
 31
0.0
  0
LINE
  8
0
  6
CONTINUOUS
 62
     0
  5
24C
 10
14.0
 20
-186.219296
 30
0.0
 11
14.0
 21
-185.417708
 31
0.0
  0
LINE
  8
0
  6
CONTINUOUS
 62
     0
  5
24D
 10
14.0
 20
-154.482292
 30
0.0
 11
14.0
 21
-153.680704
 31
0.0
  0
LINE
  8
0
  6
CONTINUOUS
 62
     0
  5
24E
 10
14.5
 20
-186.180835
 30
0.0
 11
14.5
 21
-185.377249
 31
0.0
  0
LINE
  8
0
  6
CONTINUOUS
 62
     0
  5
24F
 10
14.5
 20
-154.522751
 30
0.0
 11
14.5
 21
-153.719165
 31
0.0
  0
LINE
  8
0
  6
CONTINUOUS
 62
     0
  5
250
 10
15.0
 20
-186.126835
 30
0.0
 11
15.0
 21
-185.320426
 31
0.0
  0
LINE
  8
0
  6
CONTINUOUS
 62
     0
  5
251
 10
15.0
 20
-154.579574
 30
0.0
 11
15.0
 21
-153.773165
 31
0.0
  0
LINE
  8
0
  6
CONTINUOUS
 62
     0
  5
252
 10
15.5
 20
-186.057141
 30
0.0
 11
15.5
 21
-185.247059
 31
0.0
  0
LINE
  8
0
  6
CONTINUOUS
 62
     0
  5
253
 10
15.5
 20
-154.652941
 30
0.0
 11
15.5
 21
-153.842859
 31
0.0
  0
LINE
  8
0
  6
CONTINUOUS
 62
     0
  5
254
 10
16.0
 20
-185.971548
 30
0.0
 11
16.0
 21
-185.156906
 31
0.0
  0
LINE
  8
0
  6
CONTINUOUS
 62
     0
  5
255
 10
16.0
 20
-154.743094
 30
0.0
 11
16.0
 21
-153.928452
 31
0.0
  0
LINE
  8
0
  6
CONTINUOUS
 62
     0
  5
256
 10
16.5
 20
-185.869799
 30
0.0
 11
16.5
 21
-185.049669
 31
0.0
  0
LINE
  8
0
  6
CONTINUOUS
 62
     0
  5
257
 10
16.5
 20
-154.850331
 30
0.0
 11
16.5
 21
-154.030201
 31
0.0
  0
LINE
  8
0
  6
CONTINUOUS
 62
     0
  5
258
 10
17.0
 20
-185.751582
 30
0.0
 11
17.0
 21
-184.924979
 31
0.0
  0
LINE
  8
0
  6
CONTINUOUS
 62
     0
  5
259
 10
17.0
 20
-154.975021
 30
0.0
 11
17.0
 21
-154.148418
 31
0.0
  0
LINE
  8
0
  6
CONTINUOUS
 62
     0
  5
25A
 10
17.5
 20
-185.616525
 30
0.0
 11
17.5
 21
-184.782397
 31
0.0
  0
LINE
  8
0
  6
CONTINUOUS
 62
     0
  5
25B
 10
17.5
 20
-155.117603
 30
0.0
 11
17.5
 21
-154.283475
 31
0.0
  0
LINE
  8
0
  6
CONTINUOUS
 62
     0
  5
25C
 10
18.0
 20
-185.464187
 30
0.0
 11
18.0
 21
-184.621401
 31
0.0
  0
LINE
  8
0
  6
CONTINUOUS
 62
     0
  5
25D
 10
18.0
 20
-155.278599
 30
0.0
 11
18.0
 21
-154.435813
 31
0.0
  0
LINE
  8
0
  6
CONTINUOUS
 62
     0
  5
25E
 10
18.5
 20
-185.294054
 30
0.0
 11
18.5
 21
-184.441377
 31
0.0
  0
LINE
  8
0
  6
CONTINUOUS
 62
     0
  5
25F
 10
18.5
 20
-155.458623
 30
0.0
 11
18.5
 21
-154.605946
 31
0.0
  0
LINE
  8
0
  6
CONTINUOUS
 62
     0
  5
260
 10
19.0
 20
-185.105527
 30
0.0
 11
19.0
 21
-184.241606
 31
0.0
  0
LINE
  8
0
  6
CONTINUOUS
 62
     0
  5
261
 10
19.0
 20
-155.658394
 30
0.0
 11
19.0
 21
-154.794473
 31
0.0
  0
LINE
  8
0
  6
CONTINUOUS
 62
     0
  5
262
 10
19.5
 20
-184.89791
 30
0.0
 11
19.5
 21
-184.021247
 31
0.0
  0
LINE
  8
0
  6
CONTINUOUS
 62
     0
  5
263
 10
19.5
 20
-155.878753
 30
0.0
 11
19.5
 21
-155.00209
 31
0.0
  0
LINE
  8
0
  6
CONTINUOUS
 62
     0
  5
264
 10
20.0
 20
-184.670394
 30
0.0
 11
20.0
 21
-183.779317
 31
0.0
  0
LINE
  8
0
  6
CONTINUOUS
 62
     0
  5
265
 10
20.0
 20
-156.120683
 30
0.0
 11
20.0
 21
-155.229606
 31
0.0
  0
LINE
  8
0
  6
CONTINUOUS
 62
     0
  5
266
 10
20.5
 20
-184.422042
 30
0.0
 11
20.5
 21
-183.51466
 31
0.0
  0
LINE
  8
0
  6
CONTINUOUS
 62
     0
  5
267
 10
20.5
 20
-156.38534
 30
0.0
 11
20.5
 21
-155.477958
 31
0.0
  0
LINE
  8
0
  6
CONTINUOUS
 62
     0
  5
268
 10
21.0
 20
-184.15176
 30
0.0
 11
21.0
 21
-183.225918
 31
0.0
  0
LINE
  8
0
  6
CONTINUOUS
 62
     0
  5
269
 10
21.0
 20
-156.674082
 30
0.0
 11
21.0
 21
-155.74824
 31
0.0
  0
LINE
  8
0
  6
CONTINUOUS
 62
     0
  5
26A
 10
21.5
 20
-183.858271
 30
0.0
 11
21.5
 21
-182.911481
 31
0.0
  0
LINE
  8
0
  6
CONTINUOUS
 62
     0
  5
26B
 10
21.5
 20
-156.988519
 30
0.0
 11
21.5
 21
-156.041729
 31
0.0
  0
LINE
  8
0
  6
CONTINUOUS
 62
     0
  5
26C
 10
22.0
 20
-183.54007
 30
0.0
 11
22.0
 21
-182.569429
 31
0.0
  0
LINE
  8
0
  6
CONTINUOUS
 62
     0
  5
26D
 10
22.0
 20
-157.330571
 30
0.0
 11
22.0
 21
-156.35993
 31
0.0
  0
LINE
  8
0
  6
CONTINUOUS
 62
     0
  5
26E
 10
22.5
 20
-183.195377
 30
0.0
 11
22.5
 21
-182.197449
 31
0.0
  0
LINE
  8
0
  6
CONTINUOUS
 62
     0
  5
26F
 10
22.5
 20
-157.702551
 30
0.0
 11
22.5
 21
-156.704623
 31
0.0
  0
LINE
  8
0
  6
CONTINUOUS
 62
     0
  5
270
 10
23.0
 20
-182.822063
 30
0.0
 11
23.0
 21
-181.792719
 31
0.0
  0
LINE
  8
0
  6
CONTINUOUS
 62
     0
  5
271
 10
23.0
 20
-158.107281
 30
0.0
 11
23.0
 21
-157.077937
 31
0.0
  0
LINE
  8
0
  6
CONTINUOUS
 62
     0
  5
272
 10
23.5
 20
-182.417558
 30
0.0
 11
23.5
 21
-181.351754
 31
0.0
  0
LINE
  8
0
  6
CONTINUOUS
 62
     0
  5
273
 10
23.5
 20
-158.548246
 30
0.0
 11
23.5
 21
-157.482442
 31
0.0
  0
LINE
  8
0
  6
CONTINUOUS
 62
     0
  5
274
 10
24.0
 20
-181.978716
 30
0.0
 11
24.0
 21
-180.870165
 31
0.0
  0
LINE
  8
0
  6
CONTINUOUS
 62
     0
  5
275
 10
24.0
 20
-159.029835
 30
0.0
 11
24.0
 21
-157.921284
 31
0.0
  0
LINE
  8
0
  6
CONTINUOUS
 62
     0
  5
276
 10
24.5
 20
-181.501623
 30
0.0
 11
24.5
 21
-180.342305
 31
0.0
  0
LINE
  8
0
  6
CONTINUOUS
 62
     0
  5
277
 10
24.5
 20
-159.557695
 30
0.0
 11
24.5
 21
-158.398377
 31
0.0
  0
LINE
  8
0
  6
CONTINUOUS
 62
     0
  5
278
 10
25.0
 20
-180.981319
 30
0.0
 11
25.0
 21
-179.760708
 31
0.0
  0
LINE
  8
0
  6
CONTINUOUS
 62
     0
  5
279
 10
25.0
 20
-160.139292
 30
0.0
 11
25.0
 21
-158.918681
 31
0.0
  0
LINE
  8
0
  6
CONTINUOUS
 62
     0
  5
27A
 10
25.5
 20
-180.411357
 30
0.0
 11
25.5
 21
-179.115151
 31
0.0
  0
LINE
  8
0
  6
CONTINUOUS
 62
     0
  5
27B
 10
25.5
 20
-160.784849
 30
0.0
 11
25.5
 21
-159.488643
 31
0.0
  0
LINE
  8
0
  6
CONTINUOUS
 62
     0
  5
27C
 10
26.0
 20
-179.783107
 30
0.0
 11
26.0
 21
-178.390972
 31
0.0
  0
LINE
  8
0
  6
CONTINUOUS
 62
     0
  5
27D
 10
26.0
 20
-161.509028
 30
0.0
 11
26.0
 21
-160.116893
 31
0.0
  0
LINE
  8
0
  6
CONTINUOUS
 62
     0
  5
27E
 10
26.5
 20
-179.08455
 30
0.0
 11
26.5
 21
-177.565773
 31
0.0
  0
LINE
  8
0
  6
CONTINUOUS
 62
     0
  5
27F
 10
26.5
 20
-162.334227
 30
0.0
 11
26.5
 21
-160.81545
 31
0.0
  0
LINE
  8
0
  6
CONTINUOUS
 62
     0
  5
280
 10
27.0
 20
-178.298054
 30
0.0
 11
27.0
 21
-176.602067
 31
0.0
  0
LINE
  8
0
  6
CONTINUOUS
 62
     0
  5
281
 10
27.0
 20
-163.297933
 30
0.0
 11
27.0
 21
-161.601946
 31
0.0
  0
LINE
  8
0
  6
CONTINUOUS
 62
     0
  5
282
 10
27.5
 20
-177.395804
 30
0.0
 11
27.5
 21
-175.95
 31
0.0
  0
LINE
  8
0
  6
CONTINUOUS
 62
     0
  5
283
 10
27.5
 20
-163.95
 30
0.0
 11
27.5
 21
-162.504196
 31
0.0
  0
LINE
  8
0
  6
CONTINUOUS
 62
     0
  5
284
 10
28.0
 20
-176.328871
 30
0.0
 11
28.0
 21
-175.95
 31
0.0
  0
LINE
  8
0
  6
CONTINUOUS
 62
     0
  5
285
 10
28.0
 20
-163.95
 30
0.0
 11
28.0
 21
-163.571129
 31
0.0
  0
ENDBLK
  8
0
  6
BYBLOCK
 62
     0
  5
286
  0
BLOCK
  8
0
  6
BYBLOCK
 62
     0
  5
289
  2
*X11
 70
     1
 10
0.0
 20
0.0
 30
0.0
  3
*X11
  0
LINE
  8
0
  6
CONTINUOUS
 62
     0
  5
28A
 10
12.690001
 20
-31.5
 30
0.0
 11
13.857135
 21
-31.5
 31
0.0
  0
LINE
  8
0
  6
CONTINUOUS
 62
     0
  5
28B
 10
17.212866
 20
-31.5
 30
0.0
 11
18.380001
 21
-31.5
 31
0.0
  0
LINE
  8
0
  6
CONTINUOUS
 62
     0
  5
28C
 10
12.460001
 20
-31.0
 30
0.0
 11
14.087135
 21
-31.0
 31
0.0
  0
LINE
  8
0
  6
CONTINUOUS
 62
     0
  5
28D
 10
16.982866
 20
-31.0
 30
0.0
 11
18.610001
 21
-31.0
 31
0.0
  0
LINE
  8
0
  6
CONTINUOUS
 62
     0
  5
28E
 10
12.230001
 20
-30.5
 30
0.0
 11
14.317135
 21
-30.5
 31
0.0
  0
LINE
  8
0
  6
CONTINUOUS
 62
     0
  5
28F
 10
16.752866
 20
-30.5
 30
0.0
 11
18.840001
 21
-30.5
 31
0.0
  0
LINE
  8
0
  6
CONTINUOUS
 62
     0
  5
290
 10
12.000001
 20
-30.0
 30
0.0
 11
14.547135
 21
-30.0
 31
0.0
  0
LINE
  8
0
  6
CONTINUOUS
 62
     0
  5
291
 10
16.522866
 20
-30.0
 30
0.0
 11
19.070001
 21
-30.0
 31
0.0
  0
LINE
  8
0
  6
CONTINUOUS
 62
     0
  5
292
 10
11.770001
 20
-29.5
 30
0.0
 11
14.777135
 21
-29.5
 31
0.0
  0
LINE
  8
0
  6
CONTINUOUS
 62
     0
  5
293
 10
16.292866
 20
-29.5
 30
0.0
 11
19.300001
 21
-29.5
 31
0.0
  0
LINE
  8
0
  6
CONTINUOUS
 62
     0
  5
294
 10
11.540001
 20
-29.0
 30
0.0
 11
13.257135
 21
-29.0
 31
0.0
  0
LINE
  8
0
  6
CONTINUOUS
 62
     0
  5
295
 10
13.290001
 20
-29.0
 30
0.0
 11
15.007135
 21
-29.0
 31
0.0
  0
LINE
  8
0
  6
CONTINUOUS
 62
     0
  5
296
 10
16.062866
 20
-29.0
 30
0.0
 11
17.78
 21
-29.0
 31
0.0
  0
LINE
  8
0
  6
CONTINUOUS
 62
     0
  5
297
 10
17.812866
 20
-29.0
 30
0.0
 11
19.530001
 21
-29.0
 31
0.0
  0
LINE
  8
0
  6
CONTINUOUS
 62
     0
  5
298
 10
11.310001
 20
-28.5
 30
0.0
 11
13.027135
 21
-28.5
 31
0.0
  0
LINE
  8
0
  6
CONTINUOUS
 62
     0
  5
299
 10
13.520001
 20
-28.5
 30
0.0
 11
15.237135
 21
-28.5
 31
0.0
  0
LINE
  8
0
  6
CONTINUOUS
 62
     0
  5
29A
 10
15.832866
 20
-28.5
 30
0.0
 11
17.550001
 21
-28.5
 31
0.0
  0
LINE
  8
0
  6
CONTINUOUS
 62
     0
  5
29B
 10
18.042866
 20
-28.5
 30
0.0
 11
19.760001
 21
-28.5
 31
0.0
  0
LINE
  8
0
  6
CONTINUOUS
 62
     0
  5
29C
 10
11.080001
 20
-28.0
 30
0.0
 11
12.797135
 21
-28.0
 31
0.0
  0
LINE
  8
0
  6
CONTINUOUS
 62
     0
  5
29D
 10
13.750001
 20
-28.0
 30
0.0
 11
15.467135
 21
-28.0
 31
0.0
  0
LINE
  8
0
  6
CONTINUOUS
 62
     0
  5
29E
 10
15.602866
 20
-28.0
 30
0.0
 11
17.320001
 21
-28.0
 31
0.0
  0
LINE
  8
0
  6
CONTINUOUS
 62
     0
  5
29F
 10
18.272866
 20
-28.0
 30
0.0
 11
19.990001
 21
-28.0
 31
0.0
  0
LINE
  8
0
  6
CONTINUOUS
 62
     0
  5
2A0
 10
10.850001
 20
-27.5
 30
0.0
 11
12.567135
 21
-27.5
 31
0.0
  0
LINE
  8
0
  6
CONTINUOUS
 62
     0
  5
2A1
 10
13.980001
 20
-27.5
 30
0.0
 11
17.090001
 21
-27.5
 31
0.0
  0
LINE
  8
0
  6
CONTINUOUS
 62
     0
  5
2A2
 10
18.502866
 20
-27.5
 30
0.0
 11
20.220001
 21
-27.5
 31
0.0
  0
LINE
  8
0
  6
CONTINUOUS
 62
     0
  5
2A3
 10
10.620001
 20
-27.0
 30
0.0
 11
12.337135
 21
-27.0
 31
0.0
  0
LINE
  8
0
  6
CONTINUOUS
 62
     0
  5
2A4
 10
14.210001
 20
-27.0
 30
0.0
 11
16.860001
 21
-27.0
 31
0.0
  0
LINE
  8
0
  6
CONTINUOUS
 62
     0
  5
2A5
 10
18.732866
 20
-27.0
 30
0.0
 11
20.450001
 21
-27.0
 31
0.0
  0
LINE
  8
0
  6
CONTINUOUS
 62
     0
  5
2A6
 10
10.390001
 20
-26.5
 30
0.0
 11
12.107135
 21
-26.5
 31
0.0
  0
LINE
  8
0
  6
CONTINUOUS
 62
     0
  5
2A7
 10
14.440001
 20
-26.5
 30
0.0
 11
16.630001
 21
-26.5
 31
0.0
  0
LINE
  8
0
  6
CONTINUOUS
 62
     0
  5
2A8
 10
18.962866
 20
-26.5
 30
0.0
 11
20.680001
 21
-26.5
 31
0.0
  0
LINE
  8
0
  6
CONTINUOUS
 62
     0
  5
2A9
 10
10.160001
 20
-26.0
 30
0.0
 11
11.877135
 21
-26.0
 31
0.0
  0
LINE
  8
0
  6
CONTINUOUS
 62
     0
  5
2AA
 10
14.670001
 20
-26.0
 30
0.0
 11
16.400001
 21
-26.0
 31
0.0
  0
LINE
  8
0
  6
CONTINUOUS
 62
     0
  5
2AB
 10
19.192866
 20
-26.0
 30
0.0
 11
20.910001
 21
-26.0
 31
0.0
  0
LINE
  8
0
  6
CONTINUOUS
 62
     0
  5
2AC
 10
9.930001
 20
-25.5
 30
0.0
 11
11.647135
 21
-25.5
 31
0.0
  0
LINE
  8
0
  6
CONTINUOUS
 62
     0
  5
2AD
 10
14.900001
 20
-25.5
 30
0.0
 11
16.170001
 21
-25.5
 31
0.0
  0
LINE
  8
0
  6
CONTINUOUS
 62
     0
  5
2AE
 10
19.422866
 20
-25.5
 30
0.0
 11
21.140001
 21
-25.5
 31
0.0
  0
LINE
  8
0
  6
CONTINUOUS
 62
     0
  5
2AF
 10
10.0
 20
-25.652173
 30
0.0
 11
10.0
 21
-25.25
 31
0.0
  0
LINE
  8
0
  6
CONTINUOUS
 62
     0
  5
2B0
 10
10.5
 20
-26.739129
 30
0.0
 11
10.5
 21
-25.25
 31
0.0
  0
LINE
  8
0
  6
CONTINUOUS
 62
     0
  5
2B1
 10
11.0
 20
-27.826086
 30
0.0
 11
11.0
 21
-25.25
 31
0.0
  0
LINE
  8
0
  6
CONTINUOUS
 62
     0
  5
2B2
 10
11.5
 20
-28.913042
 30
0.0
 11
11.5
 21
-25.25
 31
0.0
  0
LINE
  8
0
  6
CONTINUOUS
 62
     0
  5
2B3
 10
12.0
 20
-29.999999
 30
0.0
 11
12.0
 21
-26.267098
 31
0.0
  0
LINE
  8
0
  6
CONTINUOUS
 62
     0
  5
2B4
 10
12.5
 20
-31.086955
 30
0.0
 11
12.5
 21
-27.354055
 31
0.0
  0
LINE
  8
0
  6
CONTINUOUS
 62
     0
  5
2B5
 10
13.0
 20
-31.75
 30
0.0
 11
13.0
 21
-28.441011
 31
0.0
  0
LINE
  8
0
  6
CONTINUOUS
 62
     0
  5
2B6
 10
13.5
 20
-31.75
 30
0.0
 11
13.5
 21
-28.54348
 31
0.0
  0
LINE
  8
0
  6
CONTINUOUS
 62
     0
  5
2B7
 10
14.0
 20
-31.189423
 30
0.0
 11
14.0
 21
-27.456523
 31
0.0
  0
LINE
  8
0
  6
CONTINUOUS
 62
     0
  5
2B8
 10
14.5
 20
-30.102467
 30
0.0
 11
14.5
 21
-26.369567
 31
0.0
  0
LINE
  8
0
  6
CONTINUOUS
 62
     0
  5
2B9
 10
15.0
 20
-29.01551
 30
0.0
 11
15.0
 21
-25.28261
 31
0.0
  0
LINE
  8
0
  6
CONTINUOUS
 62
     0
  5
2BA
 10
15.5
 20
-27.928554
 30
0.0
 11
15.5
 21
-25.25
 31
0.0
  0
LINE
  8
0
  6
CONTINUOUS
 62
     0
  5
2BB
 10
16.0
 20
-28.863334
 30
0.0
 11
16.0
 21
-25.25
 31
0.0
  0
LINE
  8
0
  6
CONTINUOUS
 62
     0
  5
2BC
 10
16.5
 20
-29.950291
 30
0.0
 11
16.5
 21
-26.21739
 31
0.0
  0
LINE
  8
0
  6
CONTINUOUS
 62
     0
  5
2BD
 10
17.0
 20
-31.037247
 30
0.0
 11
17.0
 21
-27.304347
 31
0.0
  0
LINE
  8
0
  6
CONTINUOUS
 62
     0
  5
2BE
 10
17.5
 20
-31.75
 30
0.0
 11
17.5
 21
-28.391303
 31
0.0
  0
LINE
  8
0
  6
CONTINUOUS
 62
     0
  5
2BF
 10
18.0
 20
-31.75
 30
0.0
 11
18.0
 21
-28.593188
 31
0.0
  0
LINE
  8
0
  6
CONTINUOUS
 62
     0
  5
2C0
 10
18.5
 20
-31.239132
 30
0.0
 11
18.5
 21
-27.506231
 31
0.0
  0
LINE
  8
0
  6
CONTINUOUS
 62
     0
  5
2C1
 10
19.0
 20
-30.152175
 30
0.0
 11
19.0
 21
-26.419275
 31
0.0
  0
LINE
  8
0
  6
CONTINUOUS
 62
     0
  5
2C2
 10
19.5
 20
-29.065219
 30
0.0
 11
19.5
 21
-25.332318
 31
0.0
  0
LINE
  8
0
  6
CONTINUOUS
 62
     0
  5
2C3
 10
20.0
 20
-27.978262
 30
0.0
 11
20.0
 21
-25.25
 31
0.0
  0
LINE
  8
0
  6
CONTINUOUS
 62
     0
  5
2C4
 10
20.5
 20
-26.891306
 30
0.0
 11
20.5
 21
-25.25
 31
0.0
  0
LINE
  8
0
  6
CONTINUOUS
 62
     0
  5
2C5
 10
21.0
 20
-25.804349
 30
0.0
 11
21.0
 21
-25.25
 31
0.0
  0
ENDBLK
  8
0
  6
BYBLOCK
 62
     0
  5
2C6
  0
BLOCK
  8
0
  6
BYBLOCK
 62
     0
  5
2C9
  2
*X12
 70
     1
 10
0.0
 20
0.0
 30
0.0
  3
*X12
  0
LINE
  8
0
  6
CONTINUOUS
 62
     0
  5
2CA
 10
-5.914999
 20
-31.5
 30
0.0
 11
-4.354999
 21
-31.5
 31
0.0
  0
LINE
  8
0
  6
CONTINUOUS
 62
     0
  5
2CB
 10
-1.777284
 20
-31.5
 30
0.0
 11
0.145001
 21
-31.5
 31
0.0
  0
LINE
  8
0
  6
CONTINUOUS
 62
     0
  5
2CC
 10
-5.914999
 20
-31.0
 30
0.0
 11
-4.354999
 21
-31.0
 31
0.0
  0
LINE
  8
0
  6
CONTINUOUS
 62
     0
  5
2CD
 10
-2.137284
 20
-31.0
 30
0.0
 11
-0.214999
 21
-31.0
 31
0.0
  0
LINE
  8
0
  6
CONTINUOUS
 62
     0
  5
2CE
 10
-5.914999
 20
-30.5
 30
0.0
 11
-4.354999
 21
-30.5
 31
0.0
  0
LINE
  8
0
  6
CONTINUOUS
 62
     0
  5
2CF
 10
-2.497284
 20
-30.5
 30
0.0
 11
-0.574999
 21
-30.5
 31
0.0
  0
LINE
  8
0
  6
CONTINUOUS
 62
     0
  5
2D0
 10
-5.914999
 20
-30.0
 30
0.0
 11
-4.354999
 21
-30.0
 31
0.0
  0
LINE
  8
0
  6
CONTINUOUS
 62
     0
  5
2D1
 10
-2.857284
 20
-30.0
 30
0.0
 11
-0.934999
 21
-30.0
 31
0.0
  0
LINE
  8
0
  6
CONTINUOUS
 62
     0
  5
2D2
 10
-5.914999
 20
-29.5
 30
0.0
 11
-1.034999
 21
-29.5
 31
0.0
  0
LINE
  8
0
  6
CONTINUOUS
 62
     0
  5
2D3
 10
-5.914999
 20
-29.0
 30
0.0
 11
-0.299913
 21
-29.0
 31
0.0
  0
LINE
  8
0
  6
CONTINUOUS
 62
     0
  5
2D4
 10
-5.914999
 20
-28.5
 30
0.0
 11
0.065001
 21
-28.5
 31
0.0
  0
LINE
  8
0
  6
CONTINUOUS
 62
     0
  5
2D5
 10
-1.523198
 20
-28.0
 30
0.0
 11
0.258012
 21
-28.0
 31
0.0
  0
LINE
  8
0
  6
CONTINUOUS
 62
     0
  5
2D6
 10
-1.236231
 20
-27.5
 30
0.0
 11
0.324639
 21
-27.5
 31
0.0
  0
LINE
  8
0
  6
CONTINUOUS
 62
     0
  5
2D7
 10
-1.425761
 20
-27.0
 30
0.0
 11
0.276597
 21
-27.0
 31
0.0
  0
LINE
  8
0
  6
CONTINUOUS
 62
     0
  5
2D8
 10
-5.914999
 20
-26.5
 30
0.0
 11
0.105604
 21
-26.5
 31
0.0
  0
LINE
  8
0
  6
CONTINUOUS
 62
     0
  5
2D9
 10
-5.914999
 20
-26.0
 30
0.0
 11
-0.225933
 21
-26.0
 31
0.0
  0
LINE
  8
0
  6
CONTINUOUS
 62
     0
  5
2DA
 10
-5.914999
 20
-25.5
 30
0.0
 11
-0.863971
 21
-25.5
 31
0.0
  0
LINE
  8
0
  6
CONTINUOUS
 62
     0
  5
2DB
 10
-5.5
 20
-31.75
 30
0.0
 11
-5.5
 21
-28.11
 31
0.0
  0
LINE
  8
0
  6
CONTINUOUS
 62
     0
  5
2DC
 10
-5.5
 20
-26.81
 30
0.0
 11
-5.5
 21
-25.25
 31
0.0
  0
LINE
  8
0
  6
CONTINUOUS
 62
     0
  5
2DD
 10
-5.0
 20
-31.75
 30
0.0
 11
-5.0
 21
-28.11
 31
0.0
  0
LINE
  8
0
  6
CONTINUOUS
 62
     0
  5
2DE
 10
-5.0
 20
-26.81
 30
0.0
 11
-5.0
 21
-25.25
 31
0.0
  0
LINE
  8
0
  6
CONTINUOUS
 62
     0
  5
2DF
 10
-4.5
 20
-31.75
 30
0.0
 11
-4.5
 21
-28.11
 31
0.0
  0
LINE
  8
0
  6
CONTINUOUS
 62
     0
  5
2E0
 10
-4.5
 20
-26.81
 30
0.0
 11
-4.5
 21
-25.25
 31
0.0
  0
LINE
  8
0
  6
CONTINUOUS
 62
     0
  5
2E1
 10
-4.0
 20
-29.67
 30
0.0
 11
-4.0
 21
-28.11
 31
0.0
  0
LINE
  8
0
  6
CONTINUOUS
 62
     0
  5
2E2
 10
-4.0
 20
-26.81
 30
0.0
 11
-4.0
 21
-25.25
 31
0.0
  0
LINE
  8
0
  6
CONTINUOUS
 62
     0
  5
2E3
 10
-3.5
 20
-29.67
 30
0.0
 11
-3.5
 21
-28.11
 31
0.0
  0
LINE
  8
0
  6
CONTINUOUS
 62
     0
  5
2E4
 10
-3.5
 20
-26.81
 30
0.0
 11
-3.5
 21
-25.25
 31
0.0
  0
LINE
  8
0
  6
CONTINUOUS
 62
     0
  5
2E5
 10
-3.0
 20
-29.801784
 30
0.0
 11
-3.0
 21
-28.11
 31
0.0
  0
LINE
  8
0
  6
CONTINUOUS
 62
     0
  5
2E6
 10
-3.0
 20
-26.81
 30
0.0
 11
-3.0
 21
-25.25
 31
0.0
  0
LINE
  8
0
  6
CONTINUOUS
 62
     0
  5
2E7
 10
-2.5
 20
-30.496228
 30
0.0
 11
-2.5
 21
-28.11
 31
0.0
  0
LINE
  8
0
  6
CONTINUOUS
 62
     0
  5
2E8
 10
-2.5
 20
-26.81
 30
0.0
 11
-2.5
 21
-25.25
 31
0.0
  0
LINE
  8
0
  6
CONTINUOUS
 62
     0
  5
2E9
 10
-2.0
 20
-31.190672
 30
0.0
 11
-2.0
 21
-28.11
 31
0.0
  0
LINE
  8
0
  6
CONTINUOUS
 62
     0
  5
2EA
 10
-2.0
 20
-26.81
 30
0.0
 11
-2.0
 21
-25.25
 31
0.0
  0
LINE
  8
0
  6
CONTINUOUS
 62
     0
  5
2EB
 10
-1.5
 20
-31.75
 30
0.0
 11
-1.5
 21
-27.983713
 31
0.0
  0
LINE
  8
0
  6
CONTINUOUS
 62
     0
  5
2EC
 10
-1.5
 20
-26.936287
 30
0.0
 11
-1.5
 21
-25.283793
 31
0.0
  0
LINE
  8
0
  6
CONTINUOUS
 62
     0
  5
2ED
 10
-1.0
 20
-31.75
 30
0.0
 11
-1.0
 21
-29.909721
 31
0.0
  0
LINE
  8
0
  6
CONTINUOUS
 62
     0
  5
2EE
 10
-1.0
 20
-29.485062
 30
0.0
 11
-1.0
 21
-25.434938
 31
0.0
  0
LINE
  8
0
  6
CONTINUOUS
 62
     0
  5
2EF
 10
-0.5
 20
-31.75
 30
0.0
 11
-0.5
 21
-30.604166
 31
0.0
  0
LINE
  8
0
  6
CONTINUOUS
 62
     0
  5
2F0
 10
-0.5
 20
-29.182172
 30
0.0
 11
-0.5
 21
-25.737828
 31
0.0
  0
LINE
  8
0
  6
CONTINUOUS
 62
     0
  5
2F1
 10
0.0
 20
-31.75
 30
0.0
 11
0.0
 21
-31.29861
 31
0.0
  0
LINE
  8
0
  6
CONTINUOUS
 62
     0
  5
2F2
 10
0.0
 20
-28.613636
 30
0.0
 11
0.0
 21
-26.306363
 31
0.0
  0
ENDBLK
  8
0
  6
BYBLOCK
 62
     0
  5
2F3
  0
BLOCK
  8
0
  6
BYBLOCK
 62
     0
  5
2F6
  2
*X13
 70
     1
 10
0.0
 20
0.0
 30
0.0
  3
*X13
  0
LINE
  8
0
  6
CONTINUOUS
 62
     0
  5
2F7
 10
-12.674999
 20
-31.5
 30
0.0
 11
-11.114999
 21
-31.5
 31
0.0
  0
LINE
  8
0
  6
CONTINUOUS
 62
     0
  5
2F8
 10
-8.537284
 20
-31.5
 30
0.0
 11
-6.614999
 21
-31.5
 31
0.0
  0
LINE
  8
0
  6
CONTINUOUS
 62
     0
  5
2F9
 10
-12.674999
 20
-31.0
 30
0.0
 11
-11.114999
 21
-31.0
 31
0.0
  0
LINE
  8
0
  6
CONTINUOUS
 62
     0
  5
2FA
 10
-8.897283
 20
-31.0
 30
0.0
 11
-6.974999
 21
-31.0
 31
0.0
  0
LINE
  8
0
  6
CONTINUOUS
 62
     0
  5
2FB
 10
-12.674999
 20
-30.5
 30
0.0
 11
-11.114999
 21
-30.5
 31
0.0
  0
LINE
  8
0
  6
CONTINUOUS
 62
     0
  5
2FC
 10
-9.257283
 20
-30.5
 30
0.0
 11
-7.334999
 21
-30.5
 31
0.0
  0
LINE
  8
0
  6
CONTINUOUS
 62
     0
  5
2FD
 10
-12.674999
 20
-30.0
 30
0.0
 11
-11.114999
 21
-30.0
 31
0.0
  0
LINE
  8
0
  6
CONTINUOUS
 62
     0
  5
2FE
 10
-9.617283
 20
-30.0
 30
0.0
 11
-7.694999
 21
-30.0
 31
0.0
  0
LINE
  8
0
  6
CONTINUOUS
 62
     0
  5
2FF
 10
-12.674999
 20
-29.5
 30
0.0
 11
-7.794999
 21
-29.5
 31
0.0
  0
LINE
  8
0
  6
CONTINUOUS
 62
     0
  5
300
 10
-12.674999
 20
-29.0
 30
0.0
 11
-7.059913
 21
-29.0
 31
0.0
  0
LINE
  8
0
  6
CONTINUOUS
 62
     0
  5
301
 10
-12.674999
 20
-28.5
 30
0.0
 11
-6.694999
 21
-28.5
 31
0.0
  0
LINE
  8
0
  6
CONTINUOUS
 62
     0
  5
302
 10
-8.283198
 20
-28.0
 30
0.0
 11
-6.501988
 21
-28.0
 31
0.0
  0
LINE
  8
0
  6
CONTINUOUS
 62
     0
  5
303
 10
-7.996231
 20
-27.5
 30
0.0
 11
-6.435361
 21
-27.5
 31
0.0
  0
LINE
  8
0
  6
CONTINUOUS
 62
     0
  5
304
 10
-8.185761
 20
-27.0
 30
0.0
 11
-6.483403
 21
-27.0
 31
0.0
  0
LINE
  8
0
  6
CONTINUOUS
 62
     0
  5
305
 10
-12.674999
 20
-26.5
 30
0.0
 11
-6.654396
 21
-26.5
 31
0.0
  0
LINE
  8
0
  6
CONTINUOUS
 62
     0
  5
306
 10
-12.674999
 20
-26.0
 30
0.0
 11
-6.985933
 21
-26.0
 31
0.0
  0
LINE
  8
0
  6
CONTINUOUS
 62
     0
  5
307
 10
-12.674999
 20
-25.5
 30
0.0
 11
-7.623971
 21
-25.5
 31
0.0
  0
LINE
  8
0
  6
CONTINUOUS
 62
     0
  5
308
 10
-12.5
 20
-31.75
 30
0.0
 11
-12.5
 21
-28.11
 31
0.0
  0
LINE
  8
0
  6
CONTINUOUS
 62
     0
  5
309
 10
-12.5
 20
-26.81
 30
0.0
 11
-12.5
 21
-25.25
 31
0.0
  0
LINE
  8
0
  6
CONTINUOUS
 62
     0
  5
30A
 10
-12.0
 20
-31.75
 30
0.0
 11
-12.0
 21
-28.11
 31
0.0
  0
LINE
  8
0
  6
CONTINUOUS
 62
     0
  5
30B
 10
-12.0
 20
-26.81
 30
0.0
 11
-12.0
 21
-25.25
 31
0.0
  0
LINE
  8
0
  6
CONTINUOUS
 62
     0
  5
30C
 10
-11.5
 20
-31.75
 30
0.0
 11
-11.5
 21
-28.11
 31
0.0
  0
LINE
  8
0
  6
CONTINUOUS
 62
     0
  5
30D
 10
-11.5
 20
-26.81
 30
0.0
 11
-11.5
 21
-25.25
 31
0.0
  0
LINE
  8
0
  6
CONTINUOUS
 62
     0
  5
30E
 10
-11.0
 20
-29.67
 30
0.0
 11
-11.0
 21
-28.11
 31
0.0
  0
LINE
  8
0
  6
CONTINUOUS
 62
     0
  5
30F
 10
-11.0
 20
-26.81
 30
0.0
 11
-11.0
 21
-25.25
 31
0.0
  0
LINE
  8
0
  6
CONTINUOUS
 62
     0
  5
310
 10
-10.5
 20
-29.67
 30
0.0
 11
-10.5
 21
-28.11
 31
0.0
  0
LINE
  8
0
  6
CONTINUOUS
 62
     0
  5
311
 10
-10.5
 20
-26.81
 30
0.0
 11
-10.5
 21
-25.25
 31
0.0
  0
LINE
  8
0
  6
CONTINUOUS
 62
     0
  5
312
 10
-10.0
 20
-29.67
 30
0.0
 11
-10.0
 21
-28.11
 31
0.0
  0
LINE
  8
0
  6
CONTINUOUS
 62
     0
  5
313
 10
-10.0
 20
-26.81
 30
0.0
 11
-10.0
 21
-25.25
 31
0.0
  0
LINE
  8
0
  6
CONTINUOUS
 62
     0
  5
314
 10
-9.5
 20
-30.162893
 30
0.0
 11
-9.5
 21
-28.11
 31
0.0
  0
LINE
  8
0
  6
CONTINUOUS
 62
     0
  5
315
 10
-9.5
 20
-26.81
 30
0.0
 11
-9.5
 21
-25.25
 31
0.0
  0
LINE
  8
0
  6
CONTINUOUS
 62
     0
  5
316
 10
-9.0
 20
-30.857338
 30
0.0
 11
-9.0
 21
-28.11
 31
0.0
  0
LINE
  8
0
  6
CONTINUOUS
 62
     0
  5
317
 10
-9.0
 20
-26.81
 30
0.0
 11
-9.0
 21
-25.25
 31
0.0
  0
LINE
  8
0
  6
CONTINUOUS
 62
     0
  5
318
 10
-8.5
 20
-31.551783
 30
0.0
 11
-8.5
 21
-28.093621
 31
0.0
  0
LINE
  8
0
  6
CONTINUOUS
 62
     0
  5
319
 10
-8.5
 20
-26.826379
 30
0.0
 11
-8.5
 21
-25.254762
 31
0.0
  0
LINE
  8
0
  6
CONTINUOUS
 62
     0
  5
31A
 10
-8.0
 20
-31.75
 30
0.0
 11
-8.0
 21
-29.576388
 31
0.0
  0
LINE
  8
0
  6
CONTINUOUS
 62
     0
  5
31B
 10
-8.0
 20
-29.573782
 30
0.0
 11
-8.0
 21
-27.540472
 31
0.0
  0
LINE
  8
0
  6
CONTINUOUS
 62
     0
  5
31C
 10
-8.0
 20
-27.379528
 30
0.0
 11
-8.0
 21
-25.346218
 31
0.0
  0
LINE
  8
0
  6
CONTINUOUS
 62
     0
  5
31D
 10
-7.5
 20
-31.75
 30
0.0
 11
-7.5
 21
-30.270832
 31
0.0
  0
LINE
  8
0
  6
CONTINUOUS
 62
     0
  5
31E
 10
-7.5
 20
-29.350258
 30
0.0
 11
-7.5
 21
-25.569742
 31
0.0
  0
LINE
  8
0
  6
CONTINUOUS
 62
     0
  5
31F
 10
-7.0
 20
-31.75
 30
0.0
 11
-7.0
 21
-30.965277
 31
0.0
  0
LINE
  8
0
  6
CONTINUOUS
 62
     0
  5
320
 10
-7.0
 20
-28.935831
 30
0.0
 11
-7.0
 21
-25.984169
 31
0.0
  0
LINE
  8
0
  6
CONTINUOUS
 62
     0
  5
321
 10
-6.5
 20
-31.75
 30
0.0
 11
-6.5
 21
-31.659721
 31
0.0
  0
LINE
  8
0
  6
CONTINUOUS
 62
     0
  5
322
 10
-6.5
 20
-27.99205
 30
0.0
 11
-6.5
 21
-26.92795
 31
0.0
  0
ENDBLK
  8
0
  6
BYBLOCK
 62
     0
  5
323
  0
BLOCK
  8
0
  6
BYBLOCK
 62
     0
  5
326
  2
*X14
 70
     1
 10
0.0
 20
0.0
 30
0.0
  3
*X14
  0
LINE
  8
0
  6
CONTINUOUS
 62
     0
  5
327
 10
-21.119999
 20
-31.5
 30
0.0
 11
-19.347083
 21
-31.5
 31
0.0
  0
LINE
  8
0
  6
CONTINUOUS
 62
     0
  5
328
 10
-15.102916
 20
-31.5
 30
0.0
 11
-13.329999
 21
-31.5
 31
0.0
  0
LINE
  8
0
  6
CONTINUOUS
 62
     0
  5
329
 10
-20.849999
 20
-31.0
 30
0.0
 11
-19.077083
 21
-31.0
 31
0.0
  0
LINE
  8
0
  6
CONTINUOUS
 62
     0
  5
32A
 10
-15.372916
 20
-31.0
 30
0.0
 11
-13.599999
 21
-31.0
 31
0.0
  0
LINE
  8
0
  6
CONTINUOUS
 62
     0
  5
32B
 10
-20.579999
 20
-30.5
 30
0.0
 11
-18.807083
 21
-30.5
 31
0.0
  0
LINE
  8
0
  6
CONTINUOUS
 62
     0
  5
32C
 10
-15.642916
 20
-30.5
 30
0.0
 11
-13.869999
 21
-30.5
 31
0.0
  0
LINE
  8
0
  6
CONTINUOUS
 62
     0
  5
32D
 10
-20.309999
 20
-30.0
 30
0.0
 11
-18.537083
 21
-30.0
 31
0.0
  0
LINE
  8
0
  6
CONTINUOUS
 62
     0
  5
32E
 10
-15.912916
 20
-30.0
 30
0.0
 11
-14.139999
 21
-30.0
 31
0.0
  0
LINE
  8
0
  6
CONTINUOUS
 62
     0
  5
32F
 10
-20.039999
 20
-29.5
 30
0.0
 11
-18.267082
 21
-29.5
 31
0.0
  0
LINE
  8
0
  6
CONTINUOUS
 62
     0
  5
330
 10
-16.182917
 20
-29.5
 30
0.0
 11
-14.409999
 21
-29.5
 31
0.0
  0
LINE
  8
0
  6
CONTINUOUS
 62
     0
  5
331
 10
-19.769999
 20
-29.0
 30
0.0
 11
-17.997082
 21
-29.0
 31
0.0
  0
LINE
  8
0
  6
CONTINUOUS
 62
     0
  5
332
 10
-16.452917
 20
-29.0
 30
0.0
 11
-14.679999
 21
-29.0
 31
0.0
  0
LINE
  8
0
  6
CONTINUOUS
 62
     0
  5
333
 10
-19.499999
 20
-28.5
 30
0.0
 11
-17.727082
 21
-28.5
 31
0.0
  0
LINE
  8
0
  6
CONTINUOUS
 62
     0
  5
334
 10
-16.722917
 20
-28.5
 30
0.0
 11
-14.949999
 21
-28.5
 31
0.0
  0
LINE
  8
0
  6
CONTINUOUS
 62
     0
  5
335
 10
-19.229999
 20
-28.0
 30
0.0
 11
-17.457082
 21
-28.0
 31
0.0
  0
LINE
  8
0
  6
CONTINUOUS
 62
     0
  5
336
 10
-16.992917
 20
-28.0
 30
0.0
 11
-15.219999
 21
-28.0
 31
0.0
  0
LINE
  8
0
  6
CONTINUOUS
 62
     0
  5
337
 10
-18.959999
 20
-27.5
 30
0.0
 11
-15.489999
 21
-27.5
 31
0.0
  0
LINE
  8
0
  6
CONTINUOUS
 62
     0
  5
338
 10
-18.689999
 20
-27.0
 30
0.0
 11
-15.759999
 21
-27.0
 31
0.0
  0
LINE
  8
0
  6
CONTINUOUS
 62
     0
  5
339
 10
-18.419999
 20
-26.5
 30
0.0
 11
-16.029999
 21
-26.5
 31
0.0
  0
LINE
  8
0
  6
CONTINUOUS
 62
     0
  5
33A
 10
-18.149999
 20
-26.0
 30
0.0
 11
-16.299999
 21
-26.0
 31
0.0
  0
LINE
  8
0
  6
CONTINUOUS
 62
     0
  5
33B
 10
-17.879999
 20
-25.5
 30
0.0
 11
-16.569999
 21
-25.5
 31
0.0
  0
LINE
  8
0
  6
CONTINUOUS
 62
     0
  5
33C
 10
-21.0
 20
-31.75
 30
0.0
 11
-21.0
 21
-31.277779
 31
0.0
  0
LINE
  8
0
  6
CONTINUOUS
 62
     0
  5
33D
 10
-20.5
 20
-31.75
 30
0.0
 11
-20.5
 21
-30.351853
 31
0.0
  0
LINE
  8
0
  6
CONTINUOUS
 62
     0
  5
33E
 10
-20.0
 20
-31.75
 30
0.0
 11
-20.0
 21
-29.425927
 31
0.0
  0
LINE
  8
0
  6
CONTINUOUS
 62
     0
  5
33F
 10
-19.5
 20
-31.75
 30
0.0
 11
-19.5
 21
-28.500001
 31
0.0
  0
LINE
  8
0
  6
CONTINUOUS
 62
     0
  5
340
 10
-19.0
 20
-30.857254
 30
0.0
 11
-19.0
 21
-27.574075
 31
0.0
  0
LINE
  8
0
  6
CONTINUOUS
 62
     0
  5
341
 10
-18.5
 20
-29.931329
 30
0.0
 11
-18.5
 21
-26.648149
 31
0.0
  0
LINE
  8
0
  6
CONTINUOUS
 62
     0
  5
342
 10
-18.0
 20
-29.005403
 30
0.0
 11
-18.0
 21
-25.722223
 31
0.0
  0
LINE
  8
0
  6
CONTINUOUS
 62
     0
  5
343
 10
-17.5
 20
-28.079478
 30
0.0
 11
-17.5
 21
-25.25
 31
0.0
  0
LINE
  8
0
  6
CONTINUOUS
 62
     0
  5
344
 10
-17.0
 20
-27.986883
 30
0.0
 11
-17.0
 21
-25.25
 31
0.0
  0
LINE
  8
0
  6
CONTINUOUS
 62
     0
  5
345
 10
-16.5
 20
-28.912809
 30
0.0
 11
-16.5
 21
-25.629629
 31
0.0
  0
LINE
  8
0
  6
CONTINUOUS
 62
     0
  5
346
 10
-16.0
 20
-29.838734
 30
0.0
 11
-16.0
 21
-26.555554
 31
0.0
  0
LINE
  8
0
  6
CONTINUOUS
 62
     0
  5
347
 10
-15.5
 20
-30.764659
 30
0.0
 11
-15.5
 21
-27.48148
 31
0.0
  0
LINE
  8
0
  6
CONTINUOUS
 62
     0
  5
348
 10
-15.0
 20
-31.690585
 30
0.0
 11
-15.0
 21
-28.407406
 31
0.0
  0
LINE
  8
0
  6
CONTINUOUS
 62
     0
  5
349
 10
-14.5
 20
-31.75
 30
0.0
 11
-14.5
 21
-29.333332
 31
0.0
  0
LINE
  8
0
  6
CONTINUOUS
 62
     0
  5
34A
 10
-14.0
 20
-31.75
 30
0.0
 11
-14.0
 21
-30.259258
 31
0.0
  0
LINE
  8
0
  6
CONTINUOUS
 62
     0
  5
34B
 10
-13.5
 20
-31.75
 30
0.0
 11
-13.5
 21
-31.185184
 31
0.0
  0
ENDBLK
  8
0
  6
BYBLOCK
 62
     0
  5
34C
  0
BLOCK
  8
0
  6
BYBLOCK
 62
     0
  5
34F
  2
*X15
 70
     1
 10
0.0
 20
0.0
 30
0.0
  3
*X15
  0
LINE
  8
0
  6
CONTINUOUS
 62
     0
  5
350
 10
4.203836
 20
-32.0
 30
0.0
 11
6.846165
 21
-32.0
 31
0.0
  0
LINE
  8
0
  6
CONTINUOUS
 62
     0
  5
351
 10
2.800934
 20
-31.5
 30
0.0
 11
8.249067
 21
-31.5
 31
0.0
  0
LINE
  8
0
  6
CONTINUOUS
 62
     0
  5
352
 10
2.028929
 20
-31.0
 30
0.0
 11
9.021072
 21
-31.0
 31
0.0
  0
LINE
  8
0
  6
CONTINUOUS
 62
     0
  5
353
 10
1.506119
 20
-30.5
 30
0.0
 11
3.734523
 21
-30.5
 31
0.0
  0
LINE
  8
0
  6
CONTINUOUS
 62
     0
  5
354
 10
7.315478
 20
-30.5
 30
0.0
 11
9.543882
 21
-30.5
 31
0.0
  0
LINE
  8
0
  6
CONTINUOUS
 62
     0
  5
355
 10
1.142398
 20
-30.0
 30
0.0
 11
2.863521
 21
-30.0
 31
0.0
  0
LINE
  8
0
  6
CONTINUOUS
 62
     0
  5
356
 10
8.18648
 20
-30.0
 30
0.0
 11
9.907604
 21
-30.0
 31
0.0
  0
LINE
  8
0
  6
CONTINUOUS
 62
     0
  5
357
 10
0.900076
 20
-29.5
 30
0.0
 11
2.371352
 21
-29.5
 31
0.0
  0
LINE
  8
0
  6
CONTINUOUS
 62
     0
  5
358
 10
8.678649
 20
-29.5
 30
0.0
 11
10.149925
 21
-29.5
 31
0.0
  0
LINE
  8
0
  6
CONTINUOUS
 62
     0
  5
359
 10
0.760595
 20
-29.0
 30
0.0
 11
2.104899
 21
-29.0
 31
0.0
  0
LINE
  8
0
  6
CONTINUOUS
 62
     0
  5
35A
 10
8.945102
 20
-29.0
 30
0.0
 11
10.289406
 21
-29.0
 31
0.0
  0
LINE
  8
0
  6
CONTINUOUS
 62
     0
  5
35B
 10
0.715001
 20
-28.5
 30
0.0
 11
2.015001
 21
-28.5
 31
0.0
  0
LINE
  8
0
  6
CONTINUOUS
 62
     0
  5
35C
 10
9.035001
 20
-28.5
 30
0.0
 11
10.335001
 21
-28.5
 31
0.0
  0
LINE
  8
0
  6
CONTINUOUS
 62
     0
  5
35D
 10
0.760595
 20
-28.0
 30
0.0
 11
2.104899
 21
-28.0
 31
0.0
  0
LINE
  8
0
  6
CONTINUOUS
 62
     0
  5
35E
 10
8.945102
 20
-28.0
 30
0.0
 11
10.289406
 21
-28.0
 31
0.0
  0
LINE
  8
0
  6
CONTINUOUS
 62
     0
  5
35F
 10
0.900076
 20
-27.5
 30
0.0
 11
2.371352
 21
-27.5
 31
0.0
  0
LINE
  8
0
  6
CONTINUOUS
 62
     0
  5
360
 10
8.678649
 20
-27.5
 30
0.0
 11
10.149925
 21
-27.5
 31
0.0
  0
LINE
  8
0
  6
CONTINUOUS
 62
     0
  5
361
 10
1.142397
 20
-27.0
 30
0.0
 11
2.863521
 21
-27.0
 31
0.0
  0
LINE
  8
0
  6
CONTINUOUS
 62
     0
  5
362
 10
8.18648
 20
-27.0
 30
0.0
 11
9.907604
 21
-27.0
 31
0.0
  0
LINE
  8
0
  6
CONTINUOUS
 62
     0
  5
363
 10
1.506119
 20
-26.5
 30
0.0
 11
3.734523
 21
-26.5
 31
0.0
  0
LINE
  8
0
  6
CONTINUOUS
 62
     0
  5
364
 10
7.315478
 20
-26.5
 30
0.0
 11
9.543882
 21
-26.5
 31
0.0
  0
LINE
  8
0
  6
CONTINUOUS
 62
     0
  5
365
 10
2.028929
 20
-26.0
 30
0.0
 11
9.021072
 21
-26.0
 31
0.0
  0
LINE
  8
0
  6
CONTINUOUS
 62
     0
  5
366
 10
2.800934
 20
-25.5
 30
0.0
 11
8.249067
 21
-25.5
 31
0.0
  0
LINE
  8
0
  6
CONTINUOUS
 62
     0
  5
367
 10
4.203836
 20
-25.0
 30
0.0
 11
6.846165
 21
-25.0
 31
0.0
  0
LINE
  8
0
  6
CONTINUOUS
 62
     0
  5
368
 10
1.0
 20
-29.734342
 30
0.0
 11
1.0
 21
-27.265658
 31
0.0
  0
LINE
  8
0
  6
CONTINUOUS
 62
     0
  5
369
 10
1.5
 20
-30.49294
 30
0.0
 11
1.5
 21
-26.50706
 31
0.0
  0
LINE
  8
0
  6
CONTINUOUS
 62
     0
  5
36A
 10
2.0
 20
-30.976627
 30
0.0
 11
2.0
 21
-26.023373
 31
0.0
  0
LINE
  8
0
  6
CONTINUOUS
 62
     0
  5
36B
 10
2.5
 20
-31.330055
 30
0.0
 11
2.5
 21
-29.661674
 31
0.0
  0
LINE
  8
0
  6
CONTINUOUS
 62
     0
  5
36C
 10
2.5
 20
-27.338326
 30
0.0
 11
2.5
 21
-25.669945
 31
0.0
  0
LINE
  8
0
  6
CONTINUOUS
 62
     0
  5
36D
 10
3.0
 20
-31.598129
 30
0.0
 11
3.0
 21
-30.099948
 31
0.0
  0
LINE
  8
0
  6
CONTINUOUS
 62
     0
  5
36E
 10
3.0
 20
-26.900052
 30
0.0
 11
3.0
 21
-25.401871
 31
0.0
  0
LINE
  8
0
  6
CONTINUOUS
 62
     0
  5
36F
 10
3.5
 20
-31.801704
 30
0.0
 11
3.5
 21
-30.393883
 31
0.0
  0
LINE
  8
0
  6
CONTINUOUS
 62
     0
  5
370
 10
3.5
 20
-26.606117
 30
0.0
 11
3.5
 21
-25.198296
 31
0.0
  0
LINE
  8
0
  6
CONTINUOUS
 62
     0
  5
371
 10
4.0
 20
-31.952211
 30
0.0
 11
4.0
 21
-30.596331
 31
0.0
  0
LINE
  8
0
  6
CONTINUOUS
 62
     0
  5
372
 10
4.0
 20
-26.403669
 30
0.0
 11
4.0
 21
-25.047789
 31
0.0
  0
LINE
  8
0
  6
CONTINUOUS
 62
     0
  5
373
 10
4.5
 20
-32.056392
 30
0.0
 11
4.5
 21
-30.731578
 31
0.0
  0
LINE
  8
0
  6
CONTINUOUS
 62
     0
  5
374
 10
4.5
 20
-26.268422
 30
0.0
 11
4.5
 21
-24.943608
 31
0.0
  0
LINE
  8
0
  6
CONTINUOUS
 62
     0
  5
375
 10
5.0
 20
-32.118253
 30
0.0
 11
5.0
 21
-30.809185
 31
0.0
  0
LINE
  8
0
  6
CONTINUOUS
 62
     0
  5
376
 10
5.0
 20
-26.190815
 30
0.0
 11
5.0
 21
-24.881747
 31
0.0
  0
LINE
  8
0
  6
CONTINUOUS
 62
     0
  5
377
 10
5.5
 20
-32.139951
 30
0.0
 11
5.5
 21
-30.839074
 31
0.0
  0
LINE
  8
0
  6
CONTINUOUS
 62
     0
  5
378
 10
5.5
 20
-26.160926
 30
0.0
 11
5.5
 21
-24.860049
 31
0.0
  0
LINE
  8
0
  6
CONTINUOUS
 62
     0
  5
379
 10
6.0
 20
-32.122208
 30
0.0
 11
6.0
 21
-30.81479
 31
0.0
  0
LINE
  8
0
  6
CONTINUOUS
 62
     0
  5
37A
 10
6.0
 20
-26.18521
 30
0.0
 11
6.0
 21
-24.877792
 31
0.0
  0
LINE
  8
0
  6
CONTINUOUS
 62
     0
  5
37B
 10
6.5
 20
-32.064435
 30
0.0
 11
6.5
 21
-30.741032
 31
0.0
  0
LINE
  8
0
  6
CONTINUOUS
 62
     0
  5
37C
 10
6.5
 20
-26.258968
 30
0.0
 11
6.5
 21
-24.935565
 31
0.0
  0
LINE
  8
0
  6
CONTINUOUS
 62
     0
  5
37D
 10
7.0
 20
-31.96463
 30
0.0
 11
7.0
 21
-30.614179
 31
0.0
  0
LINE
  8
0
  6
CONTINUOUS
 62
     0
  5
37E
 10
7.0
 20
-26.385821
 30
0.0
 11
7.0
 21
-25.03537
 31
0.0
  0
LINE
  8
0
  6
CONTINUOUS
 62
     0
  5
37F
 10
7.5
 20
-31.819004
 30
0.0
 11
7.5
 21
-30.416507
 31
0.0
  0
LINE
  8
0
  6
CONTINUOUS
 62
     0
  5
380
 10
7.5
 20
-26.583493
 30
0.0
 11
7.5
 21
-25.180996
 31
0.0
  0
LINE
  8
0
  6
CONTINUOUS
 62
     0
  5
381
 10
8.0
 20
-31.621149
 30
0.0
 11
8.0
 21
-30.134138
 31
0.0
  0
LINE
  8
0
  6
CONTINUOUS
 62
     0
  5
382
 10
8.0
 20
-26.865862
 30
0.0
 11
8.0
 21
-25.378851
 31
0.0
  0
LINE
  8
0
  6
CONTINUOUS
 62
     0
  5
383
 10
8.5
 20
-31.360248
 30
0.0
 11
8.5
 21
-29.712515
 31
0.0
  0
LINE
  8
0
  6
CONTINUOUS
 62
     0
  5
384
 10
8.5
 20
-27.287485
 30
0.0
 11
8.5
 21
-25.639752
 31
0.0
  0
LINE
  8
0
  6
CONTINUOUS
 62
     0
  5
385
 10
9.0
 20
-31.016769
 30
0.0
 11
9.0
 21
-28.804833
 31
0.0
  0
LINE
  8
0
  6
CONTINUOUS
 62
     0
  5
386
 10
9.0
 20
-28.195167
 30
0.0
 11
9.0
 21
-25.983231
 31
0.0
  0
LINE
  8
0
  6
CONTINUOUS
 62
     0
  5
387
 10
9.5
 20
-30.549607
 30
0.0
 11
9.5
 21
-26.450393
 31
0.0
  0
LINE
  8
0
  6
CONTINUOUS
 62
     0
  5
388
 10
10.0
 20
-29.834658
 30
0.0
 11
10.0
 21
-27.165342
 31
0.0
  0
ENDBLK
  8
0
  6
BYBLOCK
 62
     0
  5
389
  0
BLOCK
  8
0
  6
BYBLOCK
 62
     0
  5
3AE
  2
*X16
 70
     1
 10
0.0
 20
0.0
 30
0.0
  3
*X16
  0
LINE
  8
0
  6
CONTINUOUS
 62
     0
  5
3AF
 10
-13.122797
 20
-152.5
 30
0.0
 11
-12.724914
 21
-152.5
 31
0.0
  0
LINE
  8
0
  6
CONTINUOUS
 62
     0
  5
3B0
 10
-13.0
 20
-152.718012
 30
0.0
 11
-13.0
 21
-152.270243
 31
0.0
  0
ENDBLK
  8
0
  6
BYBLOCK
 62
     0
  5
3B1
  0
BLOCK
  8
0
  6
BYBLOCK
 62
     0
  5
3B4
  2
*X17
 70
     1
 10
0.0
 20
0.0
 30
0.0
  3
*X17
  0
LINE
  8
0
  6
CONTINUOUS
 62
     0
  5
3B5
 10
-16.493669
 20
-174.0
 30
0.0
 11
-11.259002
 21
-174.0
 31
0.0
  0
LINE
  8
0
  6
CONTINUOUS
 62
     0
  5
3B6
 10
-18.070753
 20
-173.5
 30
0.0
 11
-14.713657
 21
-173.5
 31
0.0
  0
LINE
  8
0
  6
CONTINUOUS
 62
     0
  5
3B7
 10
-12.686343
 20
-173.5
 30
0.0
 11
-9.681918
 21
-173.5
 31
0.0
  0
LINE
  8
0
  6
CONTINUOUS
 62
     0
  5
3B8
 10
-19.152304
 20
-173.0
 30
0.0
 11
-17.020768
 21
-173.0
 31
0.0
  0
LINE
  8
0
  6
CONTINUOUS
 62
     0
  5
3B9
 10
-10.379232
 20
-173.0
 30
0.0
 11
-8.600367
 21
-173.0
 31
0.0
  0
LINE
  8
0
  6
CONTINUOUS
 62
     0
  5
3BA
 10
-20.00647
 20
-172.5
 30
0.0
 11
-18.230728
 21
-172.5
 31
0.0
  0
LINE
  8
0
  6
CONTINUOUS
 62
     0
  5
3BB
 10
-9.169272
 20
-172.5
 30
0.0
 11
-7.902787
 21
-172.5
 31
0.0
  0
LINE
  8
0
  6
CONTINUOUS
 62
     0
  5
3BC
 10
-20.718941
 20
-172.0
 30
0.0
 11
-19.133921
 21
-172.0
 31
0.0
  0
LINE
  8
0
  6
CONTINUOUS
 62
     0
  5
3BD
 10
-8.041346
 20
-172.0
 30
0.0
 11
-7.537864
 21
-172.0
 31
0.0
  0
LINE
  8
0
  6
CONTINUOUS
 62
     0
  5
3BE
 10
-21.330459
 20
-171.5
 30
0.0
 11
-19.866644
 21
-171.5
 31
0.0
  0
LINE
  8
0
  6
CONTINUOUS
 62
     0
  5
3BF
 10
-21.864243
 20
-171.0
 30
0.0
 11
-20.484357
 21
-171.0
 31
0.0
  0
LINE
  8
0
  6
CONTINUOUS
 62
     0
  5
3C0
 10
-22.335022
 20
-170.5
 30
0.0
 11
-21.016249
 21
-170.5
 31
0.0
  0
LINE
  8
0
  6
CONTINUOUS
 62
     0
  5
3C1
 10
-22.752826
 20
-170.0
 30
0.0
 11
-21.479942
 21
-170.0
 31
0.0
  0
LINE
  8
0
  6
CONTINUOUS
 62
     0
  5
3C2
 10
-23.124837
 20
-169.5
 30
0.0
 11
-21.887032
 21
-169.5
 31
0.0
  0
LINE
  8
0
  6
CONTINUOUS
 62
     0
  5
3C3
 10
-23.456392
 20
-169.0
 30
0.0
 11
-22.245613
 21
-169.0
 31
0.0
  0
LINE
  8
0
  6
CONTINUOUS
 62
     0
  5
3C4
 10
-23.751567
 20
-168.5
 30
0.0
 11
-22.561574
 21
-168.5
 31
0.0
  0
LINE
  8
0
  6
CONTINUOUS
 62
     0
  5
3C5
 10
-24.013539
 20
-168.0
 30
0.0
 11
-22.839338
 21
-168.0
 31
0.0
  0
LINE
  8
0
  6
CONTINUOUS
 62
     0
  5
3C6
 10
-24.244826
 20
-167.5
 30
0.0
 11
-23.082297
 21
-167.5
 31
0.0
  0
LINE
  8
0
  6
CONTINUOUS
 62
     0
  5
3C7
 10
-24.447443
 20
-167.0
 30
0.0
 11
-23.293096
 21
-167.0
 31
0.0
  0
LINE
  8
0
  6
CONTINUOUS
 62
     0
  5
3C8
 10
-24.62301
 20
-166.5
 30
0.0
 11
-23.473817
 21
-166.5
 31
0.0
  0
LINE
  8
0
  6
CONTINUOUS
 62
     0
  5
3C9
 10
-24.772836
 20
-166.0
 30
0.0
 11
-23.626102
 21
-166.0
 31
0.0
  0
LINE
  8
0
  6
CONTINUOUS
 62
     0
  5
3CA
 10
-24.89797
 20
-165.5
 30
0.0
 11
-23.751244
 21
-165.5
 31
0.0
  0
LINE
  8
0
  6
CONTINUOUS
 62
     0
  5
3CB
 10
-24.999246
 20
-165.0
 30
0.0
 11
-23.850246
 21
-165.0
 31
0.0
  0
LINE
  8
0
  6
CONTINUOUS
 62
     0
  5
3CC
 10
-25.07731
 20
-164.5
 30
0.0
 11
-23.923869
 21
-164.5
 31
0.0
  0
LINE
  8
0
  6
CONTINUOUS
 62
     0
  5
3CD
 10
-25.132647
 20
-164.0
 30
0.0
 11
-23.972658
 21
-164.0
 31
0.0
  0
LINE
  8
0
  6
CONTINUOUS
 62
     0
  5
3CE
 10
-25.165589
 20
-163.5
 30
0.0
 11
-23.996966
 21
-163.5
 31
0.0
  0
LINE
  8
0
  6
CONTINUOUS
 62
     0
  5
3CF
 10
-25.176333
 20
-163.0
 30
0.0
 11
-23.996966
 21
-163.0
 31
0.0
  0
LINE
  8
0
  6
CONTINUOUS
 62
     0
  5
3D0
 10
-25.164943
 20
-162.5
 30
0.0
 11
-23.972658
 21
-162.5
 31
0.0
  0
LINE
  8
0
  6
CONTINUOUS
 62
     0
  5
3D1
 10
-25.13135
 20
-162.0
 30
0.0
 11
-23.923869
 21
-162.0
 31
0.0
  0
LINE
  8
0
  6
CONTINUOUS
 62
     0
  5
3D2
 10
-25.075356
 20
-161.5
 30
0.0
 11
-23.850246
 21
-161.5
 31
0.0
  0
LINE
  8
0
  6
CONTINUOUS
 62
     0
  5
3D3
 10
-24.996622
 20
-161.0
 30
0.0
 11
-23.751244
 21
-161.0
 31
0.0
  0
LINE
  8
0
  6
CONTINUOUS
 62
     0
  5
3D4
 10
-24.89466
 20
-160.5
 30
0.0
 11
-23.626102
 21
-160.5
 31
0.0
  0
LINE
  8
0
  6
CONTINUOUS
 62
     0
  5
3D5
 10
-24.768818
 20
-160.0
 30
0.0
 11
-23.473817
 21
-160.0
 31
0.0
  0
LINE
  8
0
  6
CONTINUOUS
 62
     0
  5
3D6
 10
-24.618257
 20
-159.5
 30
0.0
 11
-23.293096
 21
-159.5
 31
0.0
  0
LINE
  8
0
  6
CONTINUOUS
 62
     0
  5
3D7
 10
-24.441921
 20
-159.0
 30
0.0
 11
-23.082297
 21
-159.0
 31
0.0
  0
LINE
  8
0
  6
CONTINUOUS
 62
     0
  5
3D8
 10
-24.238492
 20
-158.5
 30
0.0
 11
-22.839338
 21
-158.5
 31
0.0
  0
LINE
  8
0
  6
CONTINUOUS
 62
     0
  5
3D9
 10
-24.00634
 20
-158.0
 30
0.0
 11
-22.561574
 21
-158.0
 31
0.0
  0
LINE
  8
0
  6
CONTINUOUS
 62
     0
  5
3DA
 10
-3.705033
 20
-158.0
 30
0.0
 11
-3.332873
 21
-158.0
 31
0.0
  0
LINE
  8
0
  6
CONTINUOUS
 62
     0
  5
3DB
 10
-23.743438
 20
-157.5
 30
0.0
 11
-22.245613
 21
-157.5
 31
0.0
  0
LINE
  8
0
  6
CONTINUOUS
 62
     0
  5
3DC
 10
-4.738431
 20
-157.5
 30
0.0
 11
-3.370195
 21
-157.5
 31
0.0
  0
LINE
  8
0
  6
CONTINUOUS
 62
     0
  5
3DD
 10
-23.44725
 20
-157.0
 30
0.0
 11
-21.887032
 21
-157.0
 31
0.0
  0
LINE
  8
0
  6
CONTINUOUS
 62
     0
  5
3DE
 10
-5.512968
 20
-157.0
 30
0.0
 11
-3.407516
 21
-157.0
 31
0.0
  0
LINE
  8
0
  6
CONTINUOUS
 62
     0
  5
3DF
 10
-23.114577
 20
-156.5
 30
0.0
 11
-21.479942
 21
-156.5
 31
0.0
  0
LINE
  8
0
  6
CONTINUOUS
 62
     0
  5
3E0
 10
-5.920058
 20
-156.5
 30
0.0
 11
-3.444838
 21
-156.5
 31
0.0
  0
LINE
  8
0
  6
CONTINUOUS
 62
     0
  5
3E1
 10
-22.741313
 20
-156.0
 30
0.0
 11
-21.016249
 21
-156.0
 31
0.0
  0
LINE
  8
0
  6
CONTINUOUS
 62
     0
  5
3E2
 10
-6.383751
 20
-156.0
 30
0.0
 11
-3.48216
 21
-156.0
 31
0.0
  0
LINE
  8
0
  6
CONTINUOUS
 62
     0
  5
3E3
 10
-22.322076
 20
-155.5
 30
0.0
 11
-20.484357
 21
-155.5
 31
0.0
  0
LINE
  8
0
  6
CONTINUOUS
 62
     0
  5
3E4
 10
-6.915643
 20
-155.5
 30
0.0
 11
-3.794379
 21
-155.5
 31
0.0
  0
LINE
  8
0
  6
CONTINUOUS
 62
     0
  5
3E5
 10
-21.849618
 20
-155.0
 30
0.0
 11
-19.866644
 21
-155.0
 31
0.0
  0
LINE
  8
0
  6
CONTINUOUS
 62
     0
  5
3E6
 10
-7.533356
 20
-155.0
 30
0.0
 11
-4.284352
 21
-155.0
 31
0.0
  0
LINE
  8
0
  6
CONTINUOUS
 62
     0
  5
3E7
 10
-21.313804
 20
-154.5
 30
0.0
 11
-19.133921
 21
-154.5
 31
0.0
  0
LINE
  8
0
  6
CONTINUOUS
 62
     0
  5
3E8
 10
-8.266079
 20
-154.5
 30
0.0
 11
-4.833559
 21
-154.5
 31
0.0
  0
LINE
  8
0
  6
CONTINUOUS
 62
     0
  5
3E9
 10
-20.699725
 20
-154.0
 30
0.0
 11
-18.230728
 21
-154.0
 31
0.0
  0
LINE
  8
0
  6
CONTINUOUS
 62
     0
  5
3EA
 10
-9.169272
 20
-154.0
 30
0.0
 11
-5.454794
 21
-154.0
 31
0.0
  0
LINE
  8
0
  6
CONTINUOUS
 62
     0
  5
3EB
 10
-19.987467
 20
-153.5
 30
0.0
 11
-17.020768
 21
-153.5
 31
0.0
  0
LINE
  8
0
  6
CONTINUOUS
 62
     0
  5
3EC
 10
-10.379232
 20
-153.5
 30
0.0
 11
-9.800012
 21
-153.5
 31
0.0
  0
LINE
  8
0
  6
CONTINUOUS
 62
     0
  5
3ED
 10
-9.696243
 20
-153.5
 30
0.0
 11
-9.588615
 21
-153.5
 31
0.0
  0
LINE
  8
0
  6
CONTINUOUS
 62
     0
  5
3EE
 10
-9.495988
 20
-153.5
 30
0.0
 11
-9.104718
 21
-153.5
 31
0.0
  0
LINE
  8
0
  6
CONTINUOUS
 62
     0
  5
3EF
 10
-9.057341
 20
-153.5
 30
0.0
 11
-6.167453
 21
-153.5
 31
0.0
  0
LINE
  8
0
  6
CONTINUOUS
 62
     0
  5
3F0
 10
-19.151285
 20
-153.0
 30
0.0
 11
-14.713657
 21
-153.0
 31
0.0
  0
LINE
  8
0
  6
CONTINUOUS
 62
     0
  5
3F1
 10
-12.686343
 20
-153.0
 30
0.0
 11
-11.340169
 21
-153.0
 31
0.0
  0
LINE
  8
0
  6
CONTINUOUS
 62
     0
  5
3F2
 10
-11.201304
 20
-153.0
 30
0.0
 11
-11.006396
 21
-153.0
 31
0.0
  0
LINE
  8
0
  6
CONTINUOUS
 62
     0
  5
3F3
 10
-10.839669
 20
-153.0
 30
0.0
 11
-10.448185
 21
-153.0
 31
0.0
  0
LINE
  8
0
  6
CONTINUOUS
 62
     0
  5
3F4
 10
-10.344415
 20
-153.0
 30
0.0
 11
-10.043483
 21
-153.0
 31
0.0
  0
LINE
  8
0
  6
CONTINUOUS
 62
     0
  5
3F5
 10
-9.928286
 20
-153.0
 30
0.0
 11
-9.666893
 21
-153.0
 31
0.0
  0
LINE
  8
0
  6
CONTINUOUS
 62
     0
  5
3F6
 10
-9.565683
 20
-153.0
 30
0.0
 11
-7.003636
 21
-153.0
 31
0.0
  0
LINE
  8
0
  6
CONTINUOUS
 62
     0
  5
3F7
 10
-18.130627
 20
-152.5
 30
0.0
 11
-13.924969
 21
-152.5
 31
0.0
  0
LINE
  8
0
  6
CONTINUOUS
 62
     0
  5
3F8
 10
-13.821511
 20
-152.5
 30
0.0
 11
-13.756693
 21
-152.5
 31
0.0
  0
LINE
  8
0
  6
CONTINUOUS
 62
     0
  5
3F9
 10
-13.653235
 20
-152.5
 30
0.0
 11
-13.211216
 21
-152.5
 31
0.0
  0
LINE
  8
0
  6
CONTINUOUS
 62
     0
  5
3FA
 10
-12.636496
 20
-152.5
 30
0.0
 11
-12.261427
 21
-152.5
 31
0.0
  0
LINE
  8
0
  6
CONTINUOUS
 62
     0
  5
3FB
 10
-12.166265
 20
-152.5
 30
0.0
 11
-11.28542
 21
-152.5
 31
0.0
  0
LINE
  8
0
  6
CONTINUOUS
 62
     0
  5
3FC
 10
-11.183714
 20
-152.5
 30
0.0
 11
-8.024294
 21
-152.5
 31
0.0
  0
LINE
  8
0
  6
CONTINUOUS
 62
     0
  5
3FD
 10
-16.77579
 20
-152.0
 30
0.0
 11
-14.091636
 21
-152.0
 31
0.0
  0
LINE
  8
0
  6
CONTINUOUS
 62
     0
  5
3FE
 10
-13.988178
 20
-152.0
 30
0.0
 11
-13.590026
 21
-152.0
 31
0.0
  0
LINE
  8
0
  6
CONTINUOUS
 62
     0
  5
3FF
 10
-13.486569
 20
-152.0
 30
0.0
 11
-9.379131
 21
-152.0
 31
0.0
  0
LINE
  8
0
  6
CONTINUOUS
 62
     0
  5
400
 10
-14.226716
 20
-151.5
 30
0.0
 11
-11.928205
 21
-151.5
 31
0.0
  0
LINE
  8
0
  6
CONTINUOUS
 62
     0
  5
401
 10
-25.0
 20
-164.995784
 30
0.0
 11
-25.0
 21
-161.018806
 31
0.0
  0
LINE
  8
0
  6
CONTINUOUS
 62
     0
  5
402
 10
-24.5
 20
-166.857977
 30
0.0
 11
-24.5
 21
-159.156613
 31
0.0
  0
LINE
  8
0
  6
CONTINUOUS
 62
     0
  5
403
 10
-24.0
 20
-168.027396
 30
0.0
 11
-24.0
 21
-157.987193
 31
0.0
  0
LINE
  8
0
  6
CONTINUOUS
 62
     0
  5
404
 10
-23.5
 20
-168.929717
 30
0.0
 11
-23.5
 21
-166.420173
 31
0.0
  0
LINE
  8
0
  6
CONTINUOUS
 62
     0
  5
405
 10
-23.5
 20
-160.079827
 30
0.0
 11
-23.5
 21
-157.084873
 31
0.0
  0
LINE
  8
0
  6
CONTINUOUS
 62
     0
  5
406
 10
-23.0
 20
-169.674284
 30
0.0
 11
-23.0
 21
-167.677189
 31
0.0
  0
LINE
  8
0
  6
CONTINUOUS
 62
     0
  5
407
 10
-23.0
 20
-158.822811
 30
0.0
 11
-23.0
 21
-156.340306
 31
0.0
  0
LINE
  8
0
  6
CONTINUOUS
 62
     0
  5
408
 10
-22.5
 20
-170.309515
 30
0.0
 11
-22.5
 21
-168.602569
 31
0.0
  0
LINE
  8
0
  6
CONTINUOUS
 62
     0
  5
409
 10
-22.5
 20
-157.897431
 30
0.0
 11
-22.5
 21
-155.705075
 31
0.0
  0
LINE
  8
0
  6
CONTINUOUS
 62
     0
  5
40A
 10
-22.0
 20
-170.86198
 30
0.0
 11
-22.0
 21
-169.34918
 31
0.0
  0
LINE
  8
0
  6
CONTINUOUS
 62
     0
  5
40B
 10
-22.0
 20
-157.15082
 30
0.0
 11
-22.0
 21
-155.15261
 31
0.0
  0
LINE
  8
0
  6
CONTINUOUS
 62
     0
  5
40C
 10
-21.5
 20
-171.348143
 30
0.0
 11
-21.5
 21
-169.976812
 31
0.0
  0
LINE
  8
0
  6
CONTINUOUS
 62
     0
  5
40D
 10
-21.5
 20
-156.523188
 30
0.0
 11
-21.5
 21
-154.666447
 31
0.0
  0
LINE
  8
0
  6
CONTINUOUS
 62
     0
  5
40E
 10
-21.0
 20
-171.779034
 30
0.0
 11
-21.0
 21
-170.516361
 31
0.0
  0
LINE
  8
0
  6
CONTINUOUS
 62
     0
  5
40F
 10
-21.0
 20
-155.983639
 30
0.0
 11
-21.0
 21
-154.235556
 31
0.0
  0
LINE
  8
0
  6
CONTINUOUS
 62
     0
  5
410
 10
-20.5
 20
-172.162461
 30
0.0
 11
-20.5
 21
-170.986278
 31
0.0
  0
LINE
  8
0
  6
CONTINUOUS
 62
     0
  5
411
 10
-20.5
 20
-155.513722
 30
0.0
 11
-20.5
 21
-153.852126
 31
0.0
  0
LINE
  8
0
  6
CONTINUOUS
 62
     0
  5
412
 10
-20.0
 20
-172.504175
 30
0.0
 11
-20.0
 21
-171.39862
 31
0.0
  0
LINE
  8
0
  6
CONTINUOUS
 62
     0
  5
413
 10
-20.0
 20
-155.10138
 30
0.0
 11
-20.0
 21
-153.508175
 31
0.0
  0
LINE
  8
0
  6
CONTINUOUS
 62
     0
  5
414
 10
-19.5
 20
-172.80854
 30
0.0
 11
-19.5
 21
-171.761757
 31
0.0
  0
LINE
  8
0
  6
CONTINUOUS
 62
     0
  5
415
 10
-19.5
 20
-154.738243
 30
0.0
 11
-19.5
 21
-153.197934
 31
0.0
  0
LINE
  8
0
  6
CONTINUOUS
 62
     0
  5
416
 10
-19.0
 20
-173.078941
 30
0.0
 11
-19.0
 21
-172.081761
 31
0.0
  0
LINE
  8
0
  6
CONTINUOUS
 62
     0
  5
417
 10
-19.0
 20
-154.418239
 30
0.0
 11
-19.0
 21
-152.918598
 31
0.0
  0
LINE
  8
0
  6
CONTINUOUS
 62
     0
  5
418
 10
-18.5
 20
-173.318053
 30
0.0
 11
-18.5
 21
-172.363177
 31
0.0
  0
LINE
  8
0
  6
CONTINUOUS
 62
     0
  5
419
 10
-18.5
 20
-154.136823
 30
0.0
 11
-18.5
 21
-152.667902
 31
0.0
  0
LINE
  8
0
  6
CONTINUOUS
 62
     0
  5
41A
 10
-18.0
 20
-173.528007
 30
0.0
 11
-18.0
 21
-172.609487
 31
0.0
  0
LINE
  8
0
  6
CONTINUOUS
 62
     0
  5
41B
 10
-18.0
 20
-153.890513
 30
0.0
 11
-18.0
 21
-152.444
 31
0.0
  0
LINE
  8
0
  6
CONTINUOUS
 62
     0
  5
41C
 10
-17.5
 20
-173.710521
 30
0.0
 11
-17.5
 21
-172.823401
 31
0.0
  0
LINE
  8
0
  6
CONTINUOUS
 62
     0
  5
41D
 10
-17.5
 20
-153.676599
 30
0.0
 11
-17.5
 21
-152.245374
 31
0.0
  0
LINE
  8
0
  6
CONTINUOUS
 62
     0
  5
41E
 10
-17.0
 20
-173.866978
 30
0.0
 11
-17.0
 21
-173.007049
 31
0.0
  0
LINE
  8
0
  6
CONTINUOUS
 62
     0
  5
41F
 10
-17.0
 20
-153.492951
 30
0.0
 11
-17.0
 21
-152.070773
 31
0.0
  0
LINE
  8
0
  6
CONTINUOUS
 62
     0
  5
420
 10
-16.5
 20
-173.998491
 30
0.0
 11
-16.5
 21
-173.162114
 31
0.0
  0
LINE
  8
0
  6
CONTINUOUS
 62
     0
  5
421
 10
-16.5
 20
-153.337886
 30
0.0
 11
-16.5
 21
-151.919164
 31
0.0
  0
LINE
  8
0
  6
CONTINUOUS
 62
     0
  5
422
 10
-16.0
 20
-174.105946
 30
0.0
 11
-16.0
 21
-173.28992
 31
0.0
  0
LINE
  8
0
  6
CONTINUOUS
 62
     0
  5
423
 10
-16.0
 20
-153.21008
 30
0.0
 11
-16.0
 21
-151.789699
 31
0.0
  0
LINE
  8
0
  6
CONTINUOUS
 62
     0
  5
424
 10
-15.5
 20
-174.190037
 30
0.0
 11
-15.5
 21
-173.391499
 31
0.0
  0
LINE
  8
0
  6
CONTINUOUS
 62
     0
  5
425
 10
-15.5
 20
-153.108501
 30
0.0
 11
-15.5
 21
-151.681684
 31
0.0
  0
LINE
  8
0
  6
CONTINUOUS
 62
     0
  5
426
 10
-15.0
 20
-174.251288
 30
0.0
 11
-15.0
 21
-173.467632
 31
0.0
  0
LINE
  8
0
  6
CONTINUOUS
 62
     0
  5
427
 10
-15.0
 20
-153.032368
 30
0.0
 11
-15.0
 21
-151.594564
 31
0.0
  0
LINE
  8
0
  6
CONTINUOUS
 62
     0
  5
428
 10
-14.5
 20
-174.290071
 30
0.0
 11
-14.5
 21
-173.518885
 31
0.0
  0
LINE
  8
0
  6
CONTINUOUS
 62
     0
  5
429
 10
-14.5
 20
-152.981115
 30
0.0
 11
-14.5
 21
-151.527906
 31
0.0
  0
LINE
  8
0
  6
CONTINUOUS
 62
     0
  5
42A
 10
-14.0
 20
-174.306618
 30
0.0
 11
-14.0
 21
-173.54563
 31
0.0
  0
LINE
  8
0
  6
CONTINUOUS
 62
     0
  5
42B
 10
-14.0
 20
-152.95437
 30
0.0
 11
-14.0
 21
-152.274908
 31
0.0
  0
LINE
  8
0
  6
CONTINUOUS
 62
     0
  5
42C
 10
-14.0
 20
-151.964534
 30
0.0
 11
-14.0
 21
-151.481385
 31
0.0
  0
LINE
  8
0
  6
CONTINUOUS
 62
     0
  5
42D
 10
-13.5
 20
-174.301026
 30
0.0
 11
-13.5
 21
-173.548058
 31
0.0
  0
LINE
  8
0
  6
CONTINUOUS
 62
     0
  5
42E
 10
-13.5
 20
-152.951942
 30
0.0
 11
-13.5
 21
-152.040294
 31
0.0
  0
LINE
  8
0
  6
CONTINUOUS
 62
     0
  5
42F
 10
-13.5
 20
-151.824908
 30
0.0
 11
-13.5
 21
-151.454778
 31
0.0
  0
LINE
  8
0
  6
CONTINUOUS
 62
     0
  5
430
 10
-13.0
 20
-174.273263
 30
0.0
 11
-13.0
 21
-173.526186
 31
0.0
  0
LINE
  8
0
  6
CONTINUOUS
 62
     0
  5
431
 10
-13.0
 20
-152.973814
 30
0.0
 11
-13.0
 21
-152.812326
 31
0.0
  0
LINE
  8
0
  6
CONTINUOUS
 62
     0
  5
432
 10
-13.0
 20
-152.175569
 30
0.0
 11
-13.0
 21
-151.447962
 31
0.0
  0
LINE
  8
0
  6
CONTINUOUS
 62
     0
  5
433
 10
-12.5
 20
-174.223163
 30
0.0
 11
-12.5
 21
-173.479858
 31
0.0
  0
LINE
  8
0
  6
CONTINUOUS
 62
     0
  5
434
 10
-12.5
 20
-153.020142
 30
0.0
 11
-12.5
 21
-151.460902
 31
0.0
  0
LINE
  8
0
  6
CONTINUOUS
 62
     0
  5
435
 10
-12.0
 20
-174.150426
 30
0.0
 11
-12.0
 21
-173.40874
 31
0.0
  0
LINE
  8
0
  6
CONTINUOUS
 62
     0
  5
436
 10
-12.0
 20
-153.09126
 30
0.0
 11
-12.0
 21
-151.493661
 31
0.0
  0
LINE
  8
0
  6
CONTINUOUS
 62
     0
  5
437
 10
-11.5
 20
-174.054604
 30
0.0
 11
-11.5
 21
-173.312306
 31
0.0
  0
LINE
  8
0
  6
CONTINUOUS
 62
     0
  5
438
 10
-11.5
 20
-153.187694
 30
0.0
 11
-11.5
 21
-151.546393
 31
0.0
  0
LINE
  8
0
  6
CONTINUOUS
 62
     0
  5
439
 10
-11.0
 20
-173.935089
 30
0.0
 11
-11.0
 21
-173.189819
 31
0.0
  0
LINE
  8
0
  6
CONTINUOUS
 62
     0
  5
43A
 10
-11.0
 20
-153.310181
 30
0.0
 11
-11.0
 21
-153.107293
 31
0.0
  0
LINE
  8
0
  6
CONTINUOUS
 62
     0
  5
43B
 10
-11.0
 20
-152.994379
 30
0.0
 11
-11.0
 21
-151.619352
 31
0.0
  0
LINE
  8
0
  6
CONTINUOUS
 62
     0
  5
43C
 10
-10.5
 20
-173.791096
 30
0.0
 11
-10.5
 21
-173.040301
 31
0.0
  0
LINE
  8
0
  6
CONTINUOUS
 62
     0
  5
43D
 10
-10.5
 20
-153.459699
 30
0.0
 11
-10.5
 21
-153.290237
 31
0.0
  0
LINE
  8
0
  6
CONTINUOUS
 62
     0
  5
43E
 10
-10.5
 20
-153.14236
 30
0.0
 11
-10.5
 21
-151.712894
 31
0.0
  0
LINE
  8
0
  6
CONTINUOUS
 62
     0
  5
43F
 10
-10.0
 20
-173.621626
 30
0.0
 11
-10.0
 21
-172.862492
 31
0.0
  0
LINE
  8
0
  6
CONTINUOUS
 62
     0
  5
440
 10
-10.0
 20
-153.637508
 30
0.0
 11
-10.0
 21
-153.165636
 31
0.0
  0
LINE
  8
0
  6
CONTINUOUS
 62
     0
  5
441
 10
-10.0
 20
-152.767344
 30
0.0
 11
-10.0
 21
-151.827489
 31
0.0
  0
LINE
  8
0
  6
CONTINUOUS
 62
     0
  5
442
 10
-9.5
 20
-173.425437
 30
0.0
 11
-9.5
 21
-172.654786
 31
0.0
  0
LINE
  8
0
  6
CONTINUOUS
 62
     0
  5
443
 10
-9.5
 20
-153.845214
 30
0.0
 11
-9.5
 21
-153.670994
 31
0.0
  0
LINE
  8
0
  6
CONTINUOUS
 62
     0
  5
444
 10
-9.5
 20
-153.188374
 30
0.0
 11
-9.5
 21
-151.963735
 31
0.0
  0
LINE
  8
0
  6
CONTINUOUS
 62
     0
  5
445
 10
-9.0
 20
-173.200987
 30
0.0
 11
-9.0
 21
-172.415151
 31
0.0
  0
LINE
  8
0
  6
CONTINUOUS
 62
     0
  5
446
 10
-9.0
 20
-154.084849
 30
0.0
 11
-9.0
 21
-152.122369
 31
0.0
  0
LINE
  8
0
  6
CONTINUOUS
 62
     0
  5
447
 10
-8.5
 20
-172.94636
 30
0.0
 11
-8.5
 21
-172.141007
 31
0.0
  0
LINE
  8
0
  6
CONTINUOUS
 62
     0
  5
448
 10
-8.5
 20
-154.358993
 30
0.0
 11
-8.5
 21
-152.304295
 31
0.0
  0
LINE
  8
0
  6
CONTINUOUS
 62
     0
  5
449
 10
-8.0
 20
-172.633196
 30
0.0
 11
-8.0
 21
-171.990788
 31
0.0
  0
LINE
  8
0
  6
CONTINUOUS
 62
     0
  5
44A
 10
-8.0
 20
-154.670956
 30
0.0
 11
-8.0
 21
-152.510607
 31
0.0
  0
LINE
  8
0
  6
CONTINUOUS
 62
     0
  5
44B
 10
-7.5
 20
-171.948121
 30
0.0
 11
-7.5
 21
-171.87938
 31
0.0
  0
LINE
  8
0
  6
CONTINUOUS
 62
     0
  5
44C
 10
-7.5
 20
-155.025038
 30
0.0
 11
-7.5
 21
-152.742634
 31
0.0
  0
LINE
  8
0
  6
CONTINUOUS
 62
     0
  5
44D
 10
-7.0
 20
-155.426957
 30
0.0
 11
-7.0
 21
-153.001989
 31
0.0
  0
LINE
  8
0
  6
CONTINUOUS
 62
     0
  5
44E
 10
-6.5
 20
-155.88454
 30
0.0
 11
-6.5
 21
-153.290636
 31
0.0
  0
LINE
  8
0
  6
CONTINUOUS
 62
     0
  5
44F
 10
-6.0
 20
-156.408947
 30
0.0
 11
-6.0
 21
-153.610993
 31
0.0
  0
LINE
  8
0
  6
CONTINUOUS
 62
     0
  5
450
 10
-5.5
 20
-157.017023
 30
0.0
 11
-5.5
 21
-153.966063
 31
0.0
  0
LINE
  8
0
  6
CONTINUOUS
 62
     0
  5
451
 10
-5.0
 20
-157.373442
 30
0.0
 11
-5.0
 21
-154.35964
 31
0.0
  0
LINE
  8
0
  6
CONTINUOUS
 62
     0
  5
452
 10
-4.5
 20
-157.615363
 30
0.0
 11
-4.5
 21
-154.796606
 31
0.0
  0
LINE
  8
0
  6
CONTINUOUS
 62
     0
  5
453
 10
-4.0
 20
-157.857283
 30
0.0
 11
-4.0
 21
-155.283405
 31
0.0
  0
LINE
  8
0
  6
CONTINUOUS
 62
     0
  5
454
 10
-3.5
 20
-158.099204
 30
0.0
 11
-3.5
 21
-155.828823
 31
0.0
  0
ENDBLK
  8
0
  6
BYBLOCK
 62
     0
  5
455
  0
BLOCK
  8
0
  6
BYBLOCK
 62
     0
  5
4B6
  2
*X18
 70
     1
 10
0.0
 20
0.0
 30
0.0
  3
*X18
  0
LINE
  8
0
  6
CONTINUOUS
 62
     0
  5
4B7
 10
4.069854
 20
-185.0
 30
0.0
 11
4.310878
 21
-185.0
 31
0.0
  0
LINE
  8
0
  6
CONTINUOUS
 62
     0
  5
4B8
 10
21.689122
 20
-185.0
 30
0.0
 11
21.930146
 21
-185.0
 31
0.0
  0
LINE
  8
0
  6
CONTINUOUS
 62
     0
  5
4B9
 10
3.276446
 20
-184.5
 30
0.0
 11
4.599554
 21
-184.5
 31
0.0
  0
LINE
  8
0
  6
CONTINUOUS
 62
     0
  5
4BA
 10
21.400446
 20
-184.5
 30
0.0
 11
22.723554
 21
-184.5
 31
0.0
  0
LINE
  8
0
  6
CONTINUOUS
 62
     0
  5
4BB
 10
2.566999
 20
-184.0
 30
0.0
 11
4.348555
 21
-184.0
 31
0.0
  0
LINE
  8
0
  6
CONTINUOUS
 62
     0
  5
4BC
 10
21.651445
 20
-184.0
 30
0.0
 11
23.433001
 21
-184.0
 31
0.0
  0
LINE
  8
0
  6
CONTINUOUS
 62
     0
  5
4BD
 10
1.925367
 20
-183.5
 30
0.0
 11
3.58472
 21
-183.5
 31
0.0
  0
LINE
  8
0
  6
CONTINUOUS
 62
     0
  5
4BE
 10
22.41528
 20
-183.5
 30
0.0
 11
24.074633
 21
-183.5
 31
0.0
  0
LINE
  8
0
  6
CONTINUOUS
 62
     0
  5
4BF
 10
1.340347
 20
-183.0
 30
0.0
 11
2.903095
 21
-183.0
 31
0.0
  0
LINE
  8
0
  6
CONTINUOUS
 62
     0
  5
4C0
 10
23.096905
 20
-183.0
 30
0.0
 11
24.659653
 21
-183.0
 31
0.0
  0
LINE
  8
0
  6
CONTINUOUS
 62
     0
  5
4C1
 10
0.803792
 20
-182.5
 30
0.0
 11
2.287974
 21
-182.5
 31
0.0
  0
LINE
  8
0
  6
CONTINUOUS
 62
     0
  5
4C2
 10
23.712026
 20
-182.5
 30
0.0
 11
25.196208
 21
-182.5
 31
0.0
  0
LINE
  8
0
  6
CONTINUOUS
 62
     0
  5
4C3
 10
0.309551
 20
-182.0
 30
0.0
 11
1.728465
 21
-182.0
 31
0.0
  0
LINE
  8
0
  6
CONTINUOUS
 62
     0
  5
4C4
 10
24.271535
 20
-182.0
 30
0.0
 11
25.690449
 21
-182.0
 31
0.0
  0
LINE
  8
0
  6
CONTINUOUS
 62
     0
  5
4C5
 10
-0.147148
 20
-181.5
 30
0.0
 11
1.216643
 21
-181.5
 31
0.0
  0
LINE
  8
0
  6
CONTINUOUS
 62
     0
  5
4C6
 10
24.783357
 20
-181.5
 30
0.0
 11
26.147148
 21
-181.5
 31
0.0
  0
LINE
  8
0
  6
CONTINUOUS
 62
     0
  5
4C7
 10
-0.570096
 20
-181.0
 30
0.0
 11
0.746531
 21
-181.0
 31
0.0
  0
LINE
  8
0
  6
CONTINUOUS
 62
     0
  5
4C8
 10
25.253469
 20
-181.0
 30
0.0
 11
26.570096
 21
-181.0
 31
0.0
  0
LINE
  8
0
  6
CONTINUOUS
 62
     0
  5
4C9
 10
-0.96236
 20
-180.5
 30
0.0
 11
0.313491
 21
-180.5
 31
0.0
  0
LINE
  8
0
  6
CONTINUOUS
 62
     0
  5
4CA
 10
25.686509
 20
-180.5
 30
0.0
 11
26.96236
 21
-180.5
 31
0.0
  0
LINE
  8
0
  6
CONTINUOUS
 62
     0
  5
4CB
 10
-1.326462
 20
-180.0
 30
0.0
 11
-0.086157
 21
-180.0
 31
0.0
  0
LINE
  8
0
  6
CONTINUOUS
 62
     0
  5
4CC
 10
26.086157
 20
-180.0
 30
0.0
 11
27.326462
 21
-180.0
 31
0.0
  0
LINE
  8
0
  6
CONTINUOUS
 62
     0
  5
4CD
 10
-1.664498
 20
-179.5
 30
0.0
 11
-0.455389
 21
-179.5
 31
0.0
  0
LINE
  8
0
  6
CONTINUOUS
 62
     0
  5
4CE
 10
26.455389
 20
-179.5
 30
0.0
 11
27.664498
 21
-179.5
 31
0.0
  0
LINE
  8
0
  6
CONTINUOUS
 62
     0
  5
4CF
 10
-1.978234
 20
-179.0
 30
0.0
 11
-0.796648
 21
-179.0
 31
0.0
  0
LINE
  8
0
  6
CONTINUOUS
 62
     0
  5
4D0
 10
26.796648
 20
-179.0
 30
0.0
 11
27.978234
 21
-179.0
 31
0.0
  0
LINE
  8
0
  6
CONTINUOUS
 62
     0
  5
4D1
 10
-2.269168
 20
-178.5
 30
0.0
 11
-1.111963
 21
-178.5
 31
0.0
  0
LINE
  8
0
  6
CONTINUOUS
 62
     0
  5
4D2
 10
27.111963
 20
-178.5
 30
0.0
 11
28.269168
 21
-178.5
 31
0.0
  0
LINE
  8
0
  6
CONTINUOUS
 62
     0
  5
4D3
 10
-2.538581
 20
-178.0
 30
0.0
 11
-1.403038
 21
-178.0
 31
0.0
  0
LINE
  8
0
  6
CONTINUOUS
 62
     0
  5
4D4
 10
27.403038
 20
-178.0
 30
0.0
 11
28.538581
 21
-178.0
 31
0.0
  0
LINE
  8
0
  6
CONTINUOUS
 62
     0
  5
4D5
 10
-2.787574
 20
-177.5
 30
0.0
 11
-1.671316
 21
-177.5
 31
0.0
  0
LINE
  8
0
  6
CONTINUOUS
 62
     0
  5
4D6
 10
27.671316
 20
-177.5
 30
0.0
 11
28.787574
 21
-177.5
 31
0.0
  0
LINE
  8
0
  6
CONTINUOUS
 62
     0
  5
4D7
 10
-3.0171
 20
-177.0
 30
0.0
 11
-1.918026
 21
-177.0
 31
0.0
  0
LINE
  8
0
  6
CONTINUOUS
 62
     0
  5
4D8
 10
27.918026
 20
-177.0
 30
0.0
 11
29.0171
 21
-177.0
 31
0.0
  0
LINE
  8
0
  6
CONTINUOUS
 62
     0
  5
4D9
 10
-3.227985
 20
-176.5
 30
0.0
 11
-2.144223
 21
-176.5
 31
0.0
  0
LINE
  8
0
  6
CONTINUOUS
 62
     0
  5
4DA
 10
28.144223
 20
-176.5
 30
0.0
 11
29.227985
 21
-176.5
 31
0.0
  0
LINE
  8
0
  6
CONTINUOUS
 62
     0
  5
4DB
 10
-3.420947
 20
-176.0
 30
0.0
 11
-2.350814
 21
-176.0
 31
0.0
  0
LINE
  8
0
  6
CONTINUOUS
 62
     0
  5
4DC
 10
28.350814
 20
-176.0
 30
0.0
 11
29.420947
 21
-176.0
 31
0.0
  0
LINE
  8
0
  6
CONTINUOUS
 62
     0
  5
4DD
 10
-3.596611
 20
-175.5
 30
0.0
 11
-2.538581
 21
-175.5
 31
0.0
  0
LINE
  8
0
  6
CONTINUOUS
 62
     0
  5
4DE
 10
28.538581
 20
-175.5
 30
0.0
 11
29.596611
 21
-175.5
 31
0.0
  0
LINE
  8
0
  6
CONTINUOUS
 62
     0
  5
4DF
 10
-3.755521
 20
-175.0
 30
0.0
 11
-2.708198
 21
-175.0
 31
0.0
  0
LINE
  8
0
  6
CONTINUOUS
 62
     0
  5
4E0
 10
28.708198
 20
-175.0
 30
0.0
 11
29.755521
 21
-175.0
 31
0.0
  0
LINE
  8
0
  6
CONTINUOUS
 62
     0
  5
4E1
 10
-3.898151
 20
-174.5
 30
0.0
 11
-2.860249
 21
-174.5
 31
0.0
  0
LINE
  8
0
  6
CONTINUOUS
 62
     0
  5
4E2
 10
28.860249
 20
-174.5
 30
0.0
 11
29.898151
 21
-174.5
 31
0.0
  0
LINE
  8
0
  6
CONTINUOUS
 62
     0
  5
4E3
 10
-4.024908
 20
-174.0
 30
0.0
 11
-2.995234
 21
-174.0
 31
0.0
  0
LINE
  8
0
  6
CONTINUOUS
 62
     0
  5
4E4
 10
28.995234
 20
-174.0
 30
0.0
 11
30.024908
 21
-174.0
 31
0.0
  0
LINE
  8
0
  6
CONTINUOUS
 62
     0
  5
4E5
 10
-4.136146
 20
-173.5
 30
0.0
 11
-3.113581
 21
-173.5
 31
0.0
  0
LINE
  8
0
  6
CONTINUOUS
 62
     0
  5
4E6
 10
29.113581
 20
-173.5
 30
0.0
 11
30.136146
 21
-173.5
 31
0.0
  0
LINE
  8
0
  6
CONTINUOUS
 62
     0
  5
4E7
 10
-4.232165
 20
-173.0
 30
0.0
 11
-3.215656
 21
-173.0
 31
0.0
  0
LINE
  8
0
  6
CONTINUOUS
 62
     0
  5
4E8
 10
29.215656
 20
-173.0
 30
0.0
 11
30.232165
 21
-173.0
 31
0.0
  0
LINE
  8
0
  6
CONTINUOUS
 62
     0
  5
4E9
 10
-4.313217
 20
-172.5
 30
0.0
 11
-3.301764
 21
-172.5
 31
0.0
  0
LINE
  8
0
  6
CONTINUOUS
 62
     0
  5
4EA
 10
29.301764
 20
-172.5
 30
0.0
 11
30.313217
 21
-172.5
 31
0.0
  0
LINE
  8
0
  6
CONTINUOUS
 62
     0
  5
4EB
 10
-4.379514
 20
-172.0
 30
0.0
 11
-3.372156
 21
-172.0
 31
0.0
  0
LINE
  8
0
  6
CONTINUOUS
 62
     0
  5
4EC
 10
29.372156
 20
-172.0
 30
0.0
 11
30.379514
 21
-172.0
 31
0.0
  0
LINE
  8
0
  6
CONTINUOUS
 62
     0
  5
4ED
 10
-4.431222
 20
-171.5
 30
0.0
 11
-3.427036
 21
-171.5
 31
0.0
  0
LINE
  8
0
  6
CONTINUOUS
 62
     0
  5
4EE
 10
29.427036
 20
-171.5
 30
0.0
 11
30.431222
 21
-171.5
 31
0.0
  0
LINE
  8
0
  6
CONTINUOUS
 62
     0
  5
4EF
 10
-4.468472
 20
-171.0
 30
0.0
 11
-3.466557
 21
-171.0
 31
0.0
  0
LINE
  8
0
  6
CONTINUOUS
 62
     0
  5
4F0
 10
29.466557
 20
-171.0
 30
0.0
 11
30.468472
 21
-171.0
 31
0.0
  0
LINE
  8
0
  6
CONTINUOUS
 62
     0
  5
4F1
 10
-4.491355
 20
-170.5
 30
0.0
 11
-3.490831
 21
-170.5
 31
0.0
  0
LINE
  8
0
  6
CONTINUOUS
 62
     0
  5
4F2
 10
29.490831
 20
-170.5
 30
0.0
 11
30.491355
 21
-170.5
 31
0.0
  0
LINE
  8
0
  6
CONTINUOUS
 62
     0
  5
4F3
 10
-4.499929
 20
-170.0
 30
0.0
 11
-3.499924
 21
-170.0
 31
0.0
  0
LINE
  8
0
  6
CONTINUOUS
 62
     0
  5
4F4
 10
29.499924
 20
-170.0
 30
0.0
 11
30.499929
 21
-170.0
 31
0.0
  0
LINE
  8
0
  6
CONTINUOUS
 62
     0
  5
4F5
 10
-4.494213
 20
-169.5
 30
0.0
 11
-3.493862
 21
-169.5
 31
0.0
  0
LINE
  8
0
  6
CONTINUOUS
 62
     0
  5
4F6
 10
29.493862
 20
-169.5
 30
0.0
 11
30.494213
 21
-169.5
 31
0.0
  0
LINE
  8
0
  6
CONTINUOUS
 62
     0
  5
4F7
 10
-4.474195
 20
-169.0
 30
0.0
 11
-3.472629
 21
-169.0
 31
0.0
  0
LINE
  8
0
  6
CONTINUOUS
 62
     0
  5
4F8
 10
29.472629
 20
-169.0
 30
0.0
 11
30.474195
 21
-169.0
 31
0.0
  0
LINE
  8
0
  6
CONTINUOUS
 62
     0
  5
4F9
 10
-4.439825
 20
-168.5
 30
0.0
 11
-3.436164
 21
-168.5
 31
0.0
  0
LINE
  8
0
  6
CONTINUOUS
 62
     0
  5
4FA
 10
29.436164
 20
-168.5
 30
0.0
 11
30.439825
 21
-168.5
 31
0.0
  0
LINE
  8
0
  6
CONTINUOUS
 62
     0
  5
4FB
 10
-4.391018
 20
-168.0
 30
0.0
 11
-3.384368
 21
-168.0
 31
0.0
  0
LINE
  8
0
  6
CONTINUOUS
 62
     0
  5
4FC
 10
29.384368
 20
-168.0
 30
0.0
 11
30.391018
 21
-168.0
 31
0.0
  0
LINE
  8
0
  6
CONTINUOUS
 62
     0
  5
4FD
 10
-4.327651
 20
-167.5
 30
0.0
 11
-3.317092
 21
-167.5
 31
0.0
  0
LINE
  8
0
  6
CONTINUOUS
 62
     0
  5
4FE
 10
29.317092
 20
-167.5
 30
0.0
 11
30.327651
 21
-167.5
 31
0.0
  0
LINE
  8
0
  6
CONTINUOUS
 62
     0
  5
4FF
 10
-4.249565
 20
-167.0
 30
0.0
 11
-3.234146
 21
-167.0
 31
0.0
  0
LINE
  8
0
  6
CONTINUOUS
 62
     0
  5
500
 10
29.234146
 20
-167.0
 30
0.0
 11
30.249565
 21
-167.0
 31
0.0
  0
LINE
  8
0
  6
CONTINUOUS
 62
     0
  5
501
 10
-4.156559
 20
-166.5
 30
0.0
 11
-3.135287
 21
-166.5
 31
0.0
  0
LINE
  8
0
  6
CONTINUOUS
 62
     0
  5
502
 10
29.135287
 20
-166.5
 30
0.0
 11
30.156559
 21
-166.5
 31
0.0
  0
LINE
  8
0
  6
CONTINUOUS
 62
     0
  5
503
 10
-4.048387
 20
-166.0
 30
0.0
 11
-3.020222
 21
-166.0
 31
0.0
  0
LINE
  8
0
  6
CONTINUOUS
 62
     0
  5
504
 10
29.020222
 20
-166.0
 30
0.0
 11
30.048387
 21
-166.0
 31
0.0
  0
LINE
  8
0
  6
CONTINUOUS
 62
     0
  5
505
 10
-3.92476
 20
-165.5
 30
0.0
 11
-2.888597
 21
-165.5
 31
0.0
  0
LINE
  8
0
  6
CONTINUOUS
 62
     0
  5
506
 10
28.888597
 20
-165.5
 30
0.0
 11
29.92476
 21
-165.5
 31
0.0
  0
LINE
  8
0
  6
CONTINUOUS
 62
     0
  5
507
 10
-3.785336
 20
-165.0
 30
0.0
 11
-2.739997
 21
-165.0
 31
0.0
  0
LINE
  8
0
  6
CONTINUOUS
 62
     0
  5
508
 10
28.739997
 20
-165.0
 30
0.0
 11
29.785336
 21
-165.0
 31
0.0
  0
LINE
  8
0
  6
CONTINUOUS
 62
     0
  5
509
 10
-3.629717
 20
-164.5
 30
0.0
 11
-2.573937
 21
-164.5
 31
0.0
  0
LINE
  8
0
  6
CONTINUOUS
 62
     0
  5
50A
 10
28.573937
 20
-164.5
 30
0.0
 11
29.629717
 21
-164.5
 31
0.0
  0
LINE
  8
0
  6
CONTINUOUS
 62
     0
  5
50B
 10
-3.457445
 20
-164.0
 30
0.0
 11
-2.389851
 21
-164.0
 31
0.0
  0
LINE
  8
0
  6
CONTINUOUS
 62
     0
  5
50C
 10
28.389851
 20
-164.0
 30
0.0
 11
29.457445
 21
-164.0
 31
0.0
  0
LINE
  8
0
  6
CONTINUOUS
 62
     0
  5
50D
 10
-3.26799
 20
-163.5
 30
0.0
 11
-2.187083
 21
-163.5
 31
0.0
  0
LINE
  8
0
  6
CONTINUOUS
 62
     0
  5
50E
 10
28.187083
 20
-163.5
 30
0.0
 11
29.26799
 21
-163.5
 31
0.0
  0
LINE
  8
0
  6
CONTINUOUS
 62
     0
  5
50F
 10
-3.060744
 20
-163.0
 30
0.0
 11
-1.964876
 21
-163.0
 31
0.0
  0
LINE
  8
0
  6
CONTINUOUS
 62
     0
  5
510
 10
27.964876
 20
-163.0
 30
0.0
 11
29.060744
 21
-163.0
 31
0.0
  0
LINE
  8
0
  6
CONTINUOUS
 62
     0
  5
511
 10
-2.835009
 20
-162.5
 30
0.0
 11
-1.722347
 21
-162.5
 31
0.0
  0
LINE
  8
0
  6
CONTINUOUS
 62
     0
  5
512
 10
27.722347
 20
-162.5
 30
0.0
 11
28.835009
 21
-162.5
 31
0.0
  0
LINE
  8
0
  6
CONTINUOUS
 62
     0
  5
513
 10
-2.589981
 20
-162.0
 30
0.0
 11
-1.458475
 21
-162.0
 31
0.0
  0
LINE
  8
0
  6
CONTINUOUS
 62
     0
  5
514
 10
27.458475
 20
-162.0
 30
0.0
 11
28.589981
 21
-162.0
 31
0.0
  0
LINE
  8
0
  6
CONTINUOUS
 62
     0
  5
515
 10
-2.324735
 20
-161.5
 30
0.0
 11
-1.172068
 21
-161.5
 31
0.0
  0
LINE
  8
0
  6
CONTINUOUS
 62
     0
  5
516
 10
27.172068
 20
-161.5
 30
0.0
 11
28.324735
 21
-161.5
 31
0.0
  0
LINE
  8
0
  6
CONTINUOUS
 62
     0
  5
517
 10
-2.038201
 20
-161.0
 30
0.0
 11
-0.861728
 21
-161.0
 31
0.0
  0
LINE
  8
0
  6
CONTINUOUS
 62
     0
  5
518
 10
26.861728
 20
-161.0
 30
0.0
 11
28.038201
 21
-161.0
 31
0.0
  0
LINE
  8
0
  6
CONTINUOUS
 62
     0
  5
519
 10
-1.729138
 20
-160.5
 30
0.0
 11
-0.525809
 21
-160.5
 31
0.0
  0
LINE
  8
0
  6
CONTINUOUS
 62
     0
  5
51A
 10
26.525809
 20
-160.5
 30
0.0
 11
27.729138
 21
-160.5
 31
0.0
  0
LINE
  8
0
  6
CONTINUOUS
 62
     0
  5
51B
 10
-1.396093
 20
-160.0
 30
0.0
 11
-0.162352
 21
-160.0
 31
0.0
  0
LINE
  8
0
  6
CONTINUOUS
 62
     0
  5
51C
 10
26.162352
 20
-160.0
 30
0.0
 11
27.396093
 21
-160.0
 31
0.0
  0
LINE
  8
0
  6
CONTINUOUS
 62
     0
  5
51D
 10
-1.037361
 20
-159.5
 30
0.0
 11
0.230995
 21
-159.5
 31
0.0
  0
LINE
  8
0
  6
CONTINUOUS
 62
     0
  5
51E
 10
25.769005
 20
-159.5
 30
0.0
 11
27.037361
 21
-159.5
 31
0.0
  0
LINE
  8
0
  6
CONTINUOUS
 62
     0
  5
51F
 10
-0.650916
 20
-159.0
 30
0.0
 11
0.657087
 21
-159.0
 31
0.0
  0
LINE
  8
0
  6
CONTINUOUS
 62
     0
  5
520
 10
25.342913
 20
-159.0
 30
0.0
 11
26.650916
 21
-159.0
 31
0.0
  0
LINE
  8
0
  6
CONTINUOUS
 62
     0
  5
521
 10
-0.23433
 20
-158.5
 30
0.0
 11
1.119449
 21
-158.5
 31
0.0
  0
LINE
  8
0
  6
CONTINUOUS
 62
     0
  5
522
 10
24.880551
 20
-158.5
 30
0.0
 11
26.23433
 21
-158.5
 31
0.0
  0
LINE
  8
0
  6
CONTINUOUS
 62
     0
  5
523
 10
0.215341
 20
-158.0
 30
0.0
 11
1.6225
 21
-158.0
 31
0.0
  0
LINE
  8
0
  6
CONTINUOUS
 62
     0
  5
524
 10
24.3775
 20
-158.0
 30
0.0
 11
25.784659
 21
-158.0
 31
0.0
  0
LINE
  8
0
  6
CONTINUOUS
 62
     0
  5
525
 10
0.701728
 20
-157.5
 30
0.0
 11
2.171912
 21
-157.5
 31
0.0
  0
LINE
  8
0
  6
CONTINUOUS
 62
     0
  5
526
 10
23.828088
 20
-157.5
 30
0.0
 11
25.298272
 21
-157.5
 31
0.0
  0
LINE
  8
0
  6
CONTINUOUS
 62
     0
  5
527
 10
1.22938
 20
-157.0
 30
0.0
 11
2.775153
 21
-157.0
 31
0.0
  0
LINE
  8
0
  6
CONTINUOUS
 62
     0
  5
528
 10
23.224847
 20
-157.0
 30
0.0
 11
24.77062
 21
-157.0
 31
0.0
  0
LINE
  8
0
  6
CONTINUOUS
 62
     0
  5
529
 10
1.80413
 20
-156.5
 30
0.0
 11
3.442411
 21
-156.5
 31
0.0
  0
LINE
  8
0
  6
CONTINUOUS
 62
     0
  5
52A
 10
22.557589
 20
-156.5
 30
0.0
 11
24.19587
 21
-156.5
 31
0.0
  0
LINE
  8
0
  6
CONTINUOUS
 62
     0
  5
52B
 10
2.433662
 20
-156.0
 30
0.0
 11
4.188218
 21
-156.0
 31
0.0
  0
LINE
  8
0
  6
CONTINUOUS
 62
     0
  5
52C
 10
21.811782
 20
-156.0
 30
0.0
 11
23.566338
 21
-156.0
 31
0.0
  0
LINE
  8
0
  6
CONTINUOUS
 62
     0
  5
52D
 10
3.12845
 20
-155.5
 30
0.0
 11
5.034606
 21
-155.5
 31
0.0
  0
LINE
  8
0
  6
CONTINUOUS
 62
     0
  5
52E
 10
20.965394
 20
-155.5
 30
0.0
 11
22.87155
 21
-155.5
 31
0.0
  0
LINE
  8
0
  6
CONTINUOUS
 62
     0
  5
52F
 10
3.903435
 20
-155.0
 30
0.0
 11
6.018059
 21
-155.0
 31
0.0
  0
LINE
  8
0
  6
CONTINUOUS
 62
     0
  5
530
 10
19.981941
 20
-155.0
 30
0.0
 11
22.096565
 21
-155.0
 31
0.0
  0
LINE
  8
0
  6
CONTINUOUS
 62
     0
  5
531
 10
4.781271
 20
-154.5
 30
0.0
 11
7.20798
 21
-154.5
 31
0.0
  0
LINE
  8
0
  6
CONTINUOUS
 62
     0
  5
532
 10
18.79202
 20
-154.5
 30
0.0
 11
21.218729
 21
-154.5
 31
0.0
  0
LINE
  8
0
  6
CONTINUOUS
 62
     0
  5
533
 10
5.799479
 20
-154.0
 30
0.0
 11
8.77537
 21
-154.0
 31
0.0
  0
LINE
  8
0
  6
CONTINUOUS
 62
     0
  5
534
 10
17.22463
 20
-154.0
 30
0.0
 11
20.200521
 21
-154.0
 31
0.0
  0
LINE
  8
0
  6
CONTINUOUS
 62
     0
  5
535
 10
7.029447
 20
-153.5
 30
0.0
 11
11.71645
 21
-153.5
 31
0.0
  0
LINE
  8
0
  6
CONTINUOUS
 62
     0
  5
536
 10
14.28355
 20
-153.5
 30
0.0
 11
18.970553
 21
-153.5
 31
0.0
  0
LINE
  8
0
  6
CONTINUOUS
 62
     0
  5
537
 10
8.647127
 20
-153.0
 30
0.0
 11
17.352873
 21
-153.0
 31
0.0
  0
LINE
  8
0
  6
CONTINUOUS
 62
     0
  5
538
 10
11.67807
 20
-152.5
 30
0.0
 11
14.32193
 21
-152.5
 31
0.0
  0
LINE
  8
0
  6
CONTINUOUS
 62
     0
  5
539
 10
-4.0
 20
-174.103312
 30
0.0
 11
-4.0
 21
-165.796688
 31
0.0
  0
LINE
  8
0
  6
CONTINUOUS
 62
     0
  5
53A
 10
-3.5
 20
-175.780952
 30
0.0
 11
-3.5
 21
-164.119048
 31
0.0
  0
LINE
  8
0
  6
CONTINUOUS
 62
     0
  5
53B
 10
-3.0
 20
-177.038723
 30
0.0
 11
-3.0
 21
-173.981129
 31
0.0
  0
LINE
  8
0
  6
CONTINUOUS
 62
     0
  5
53C
 10
-3.0
 20
-165.918871
 30
0.0
 11
-3.0
 21
-162.861277
 31
0.0
  0
LINE
  8
0
  6
CONTINUOUS
 62
     0
  5
53D
 10
-2.5
 20
-178.074038
 30
0.0
 11
-2.5
 21
-175.606854
 31
0.0
  0
LINE
  8
0
  6
CONTINUOUS
 62
     0
  5
53E
 10
-2.5
 20
-164.293146
 30
0.0
 11
-2.5
 21
-161.825962
 31
0.0
  0
LINE
  8
0
  6
CONTINUOUS
 62
     0
  5
53F
 10
-2.0
 20
-178.963878
 30
0.0
 11
-2.0
 21
-176.823864
 31
0.0
  0
LINE
  8
0
  6
CONTINUOUS
 62
     0
  5
540
 10
-2.0
 20
-163.076136
 30
0.0
 11
-2.0
 21
-160.936122
 31
0.0
  0
LINE
  8
0
  6
CONTINUOUS
 62
     0
  5
541
 10
-1.5
 20
-179.747959
 30
0.0
 11
-1.5
 21
-177.824008
 31
0.0
  0
LINE
  8
0
  6
CONTINUOUS
 62
     0
  5
542
 10
-1.5
 20
-162.075992
 30
0.0
 11
-1.5
 21
-160.152041
 31
0.0
  0
LINE
  8
0
  6
CONTINUOUS
 62
     0
  5
543
 10
-1.0
 20
-180.45
 30
0.0
 11
-1.0
 21
-178.682125
 31
0.0
  0
LINE
  8
0
  6
CONTINUOUS
 62
     0
  5
544
 10
-1.0
 20
-161.217875
 30
0.0
 11
-1.0
 21
-159.45
 31
0.0
  0
LINE
  8
0
  6
CONTINUOUS
 62
     0
  5
545
 10
-0.5
 20
-181.085529
 30
0.0
 11
-0.5
 21
-179.436833
 31
0.0
  0
LINE
  8
0
  6
CONTINUOUS
 62
     0
  5
546
 10
-0.5
 20
-160.463167
 30
0.0
 11
-0.5
 21
-158.814471
 31
0.0
  0
LINE
  8
0
  6
CONTINUOUS
 62
     0
  5
547
 10
0.0
 20
-181.665375
 30
0.0
 11
0.0
 21
-180.111201
 31
0.0
  0
LINE
  8
0
  6
CONTINUOUS
 62
     0
  5
548
 10
0.0
 20
-159.788799
 30
0.0
 11
0.0
 21
-158.234625
 31
0.0
  0
LINE
  8
0
  6
CONTINUOUS
 62
     0
  5
549
 10
0.5
 20
-182.197449
 30
0.0
 11
0.5
 21
-180.72033
 31
0.0
  0
LINE
  8
0
  6
CONTINUOUS
 62
     0
  5
54A
 10
0.5
 20
-159.17967
 30
0.0
 11
0.5
 21
-157.702551
 31
0.0
  0
LINE
  8
0
  6
CONTINUOUS
 62
     0
  5
54B
 10
1.0
 20
-182.687739
 30
0.0
 11
1.0
 21
-181.274752
 31
0.0
  0
LINE
  8
0
  6
CONTINUOUS
 62
     0
  5
54C
 10
1.0
 20
-158.625248
 30
0.0
 11
1.0
 21
-157.212261
 31
0.0
  0
LINE
  8
0
  6
CONTINUOUS
 62
     0
  5
54D
 10
1.5
 20
-183.140906
 30
0.0
 11
1.5
 21
-181.78216
 31
0.0
  0
LINE
  8
0
  6
CONTINUOUS
 62
     0
  5
54E
 10
1.5
 20
-158.11784
 30
0.0
 11
1.5
 21
-156.759094
 31
0.0
  0
LINE
  8
0
  6
CONTINUOUS
 62
     0
  5
54F
 10
2.0
 20
-183.560658
 30
0.0
 11
2.0
 21
-182.248374
 31
0.0
  0
LINE
  8
0
  6
CONTINUOUS
 62
     0
  5
550
 10
2.0
 20
-157.651626
 30
0.0
 11
2.0
 21
-156.339342
 31
0.0
  0
LINE
  8
0
  6
CONTINUOUS
 62
     0
  5
551
 10
2.5
 20
-183.95
 30
0.0
 11
2.5
 21
-182.677922
 31
0.0
  0
LINE
  8
0
  6
CONTINUOUS
 62
     0
  5
552
 10
2.5
 20
-157.222078
 30
0.0
 11
2.5
 21
-155.95
 31
0.0
  0
LINE
  8
0
  6
CONTINUOUS
 62
     0
  5
553
 10
3.0
 20
-184.311407
 30
0.0
 11
3.0
 21
-183.074405
 31
0.0
  0
LINE
  8
0
  6
CONTINUOUS
 62
     0
  5
554
 10
3.0
 20
-156.825595
 30
0.0
 11
3.0
 21
-155.588593
 31
0.0
  0
LINE
  8
0
  6
CONTINUOUS
 62
     0
  5
555
 10
3.5
 20
-184.646938
 30
0.0
 11
3.5
 21
-183.440738
 31
0.0
  0
LINE
  8
0
  6
CONTINUOUS
 62
     0
  5
556
 10
3.5
 20
-156.459262
 30
0.0
 11
3.5
 21
-155.253062
 31
0.0
  0
LINE
  8
0
  6
CONTINUOUS
 62
     0
  5
557
 10
4.0
 20
-184.958331
 30
0.0
 11
4.0
 21
-183.779317
 31
0.0
  0
LINE
  8
0
  6
CONTINUOUS
 62
     0
  5
558
 10
4.0
 20
-156.120683
 30
0.0
 11
4.0
 21
-154.941669
 31
0.0
  0
LINE
  8
0
  6
CONTINUOUS
 62
     0
  5
559
 10
4.5
 20
-184.672432
 30
0.0
 11
4.5
 21
-184.092136
 31
0.0
  0
LINE
  8
0
  6
CONTINUOUS
 62
     0
  5
55A
 10
4.5
 20
-155.807864
 30
0.0
 11
4.5
 21
-154.652941
 31
0.0
  0
LINE
  8
0
  6
CONTINUOUS
 62
     0
  5
55B
 10
5.0
 20
-155.51913
 30
0.0
 11
5.0
 21
-154.385618
 31
0.0
  0
LINE
  8
0
  6
CONTINUOUS
 62
     0
  5
55C
 10
5.5
 20
-155.253062
 30
0.0
 11
5.5
 21
-154.138612
 31
0.0
  0
LINE
  8
0
  6
CONTINUOUS
 62
     0
  5
55D
 10
6.0
 20
-155.008447
 30
0.0
 11
6.0
 21
-153.910985
 31
0.0
  0
LINE
  8
0
  6
CONTINUOUS
 62
     0
  5
55E
 10
6.5
 20
-154.784249
 30
0.0
 11
6.5
 21
-153.701923
 31
0.0
  0
LINE
  8
0
  6
CONTINUOUS
 62
     0
  5
55F
 10
7.0
 20
-154.579574
 30
0.0
 11
7.0
 21
-153.510718
 31
0.0
  0
LINE
  8
0
  6
CONTINUOUS
 62
     0
  5
560
 10
7.5
 20
-154.393651
 30
0.0
 11
7.5
 21
-153.336752
 31
0.0
  0
LINE
  8
0
  6
CONTINUOUS
 62
     0
  5
561
 10
8.0
 20
-154.225815
 30
0.0
 11
8.0
 21
-153.17949
 31
0.0
  0
LINE
  8
0
  6
CONTINUOUS
 62
     0
  5
562
 10
8.5
 20
-154.075492
 30
0.0
 11
8.5
 21
-153.038465
 31
0.0
  0
LINE
  8
0
  6
CONTINUOUS
 62
     0
  5
563
 10
9.0
 20
-153.942189
 30
0.0
 11
9.0
 21
-152.913275
 31
0.0
  0
LINE
  8
0
  6
CONTINUOUS
 62
     0
  5
564
 10
9.5
 20
-153.825485
 30
0.0
 11
9.5
 21
-152.803572
 31
0.0
  0
LINE
  8
0
  6
CONTINUOUS
 62
     0
  5
565
 10
10.0
 20
-153.725019
 30
0.0
 11
10.0
 21
-152.70906
 31
0.0
  0
LINE
  8
0
  6
CONTINUOUS
 62
     0
  5
566
 10
10.5
 20
-153.640494
 30
0.0
 11
10.5
 21
-152.629492
 31
0.0
  0
LINE
  8
0
  6
CONTINUOUS
 62
     0
  5
567
 10
11.0
 20
-153.571661
 30
0.0
 11
11.0
 21
-152.564661
 31
0.0
  0
LINE
  8
0
  6
CONTINUOUS
 62
     0
  5
568
 10
11.5
 20
-153.518323
 30
0.0
 11
11.5
 21
-152.514404
 31
0.0
  0
LINE
  8
0
  6
CONTINUOUS
 62
     0
  5
569
 10
12.0
 20
-153.480331
 30
0.0
 11
12.0
 21
-152.478595
 31
0.0
  0
LINE
  8
0
  6
CONTINUOUS
 62
     0
  5
56A
 10
12.5
 20
-153.457577
 30
0.0
 11
12.5
 21
-152.457144
 31
0.0
  0
LINE
  8
0
  6
CONTINUOUS
 62
     0
  5
56B
 10
13.0
 20
-153.45
 30
0.0
 11
13.0
 21
-152.45
 31
0.0
  0
LINE
  8
0
  6
CONTINUOUS
 62
     0
  5
56C
 10
13.5
 20
-153.457577
 30
0.0
 11
13.5
 21
-152.457144
 31
0.0
  0
LINE
  8
0
  6
CONTINUOUS
 62
     0
  5
56D
 10
14.0
 20
-153.480331
 30
0.0
 11
14.0
 21
-152.478595
 31
0.0
  0
LINE
  8
0
  6
CONTINUOUS
 62
     0
  5
56E
 10
14.5
 20
-153.518323
 30
0.0
 11
14.5
 21
-152.514404
 31
0.0
  0
LINE
  8
0
  6
CONTINUOUS
 62
     0
  5
56F
 10
15.0
 20
-153.571661
 30
0.0
 11
15.0
 21
-152.564661
 31
0.0
  0
LINE
  8
0
  6
CONTINUOUS
 62
     0
  5
570
 10
15.5
 20
-153.640494
 30
0.0
 11
15.5
 21
-152.629492
 31
0.0
  0
LINE
  8
0
  6
CONTINUOUS
 62
     0
  5
571
 10
16.0
 20
-153.725019
 30
0.0
 11
16.0
 21
-152.70906
 31
0.0
  0
LINE
  8
0
  6
CONTINUOUS
 62
     0
  5
572
 10
16.5
 20
-153.825485
 30
0.0
 11
16.5
 21
-152.803572
 31
0.0
  0
LINE
  8
0
  6
CONTINUOUS
 62
     0
  5
573
 10
17.0
 20
-153.942189
 30
0.0
 11
17.0
 21
-152.913275
 31
0.0
  0
LINE
  8
0
  6
CONTINUOUS
 62
     0
  5
574
 10
17.5
 20
-154.075492
 30
0.0
 11
17.5
 21
-153.038465
 31
0.0
  0
LINE
  8
0
  6
CONTINUOUS
 62
     0
  5
575
 10
18.0
 20
-154.225815
 30
0.0
 11
18.0
 21
-153.17949
 31
0.0
  0
LINE
  8
0
  6
CONTINUOUS
 62
     0
  5
576
 10
18.5
 20
-154.393651
 30
0.0
 11
18.5
 21
-153.336752
 31
0.0
  0
LINE
  8
0
  6
CONTINUOUS
 62
     0
  5
577
 10
19.0
 20
-154.579574
 30
0.0
 11
19.0
 21
-153.510718
 31
0.0
  0
LINE
  8
0
  6
CONTINUOUS
 62
     0
  5
578
 10
19.5
 20
-154.784249
 30
0.0
 11
19.5
 21
-153.701923
 31
0.0
  0
LINE
  8
0
  6
CONTINUOUS
 62
     0
  5
579
 10
20.0
 20
-155.008447
 30
0.0
 11
20.0
 21
-153.910985
 31
0.0
  0
LINE
  8
0
  6
CONTINUOUS
 62
     0
  5
57A
 10
20.5
 20
-155.253062
 30
0.0
 11
20.5
 21
-154.138612
 31
0.0
  0
LINE
  8
0
  6
CONTINUOUS
 62
     0
  5
57B
 10
21.0
 20
-155.51913
 30
0.0
 11
21.0
 21
-154.385618
 31
0.0
  0
LINE
  8
0
  6
CONTINUOUS
 62
     0
  5
57C
 10
21.5
 20
-184.672432
 30
0.0
 11
21.5
 21
-184.092136
 31
0.0
  0
LINE
  8
0
  6
CONTINUOUS
 62
     0
  5
57D
 10
21.5
 20
-155.807864
 30
0.0
 11
21.5
 21
-154.652941
 31
0.0
  0
LINE
  8
0
  6
CONTINUOUS
 62
     0
  5
57E
 10
22.0
 20
-184.958331
 30
0.0
 11
22.0
 21
-183.779317
 31
0.0
  0
LINE
  8
0
  6
CONTINUOUS
 62
     0
  5
57F
 10
22.0
 20
-156.120683
 30
0.0
 11
22.0
 21
-154.941669
 31
0.0
  0
LINE
  8
0
  6
CONTINUOUS
 62
     0
  5
580
 10
22.5
 20
-184.646938
 30
0.0
 11
22.5
 21
-183.440738
 31
0.0
  0
LINE
  8
0
  6
CONTINUOUS
 62
     0
  5
581
 10
22.5
 20
-156.459262
 30
0.0
 11
22.5
 21
-155.253062
 31
0.0
  0
LINE
  8
0
  6
CONTINUOUS
 62
     0
  5
582
 10
23.0
 20
-184.311407
 30
0.0
 11
23.0
 21
-183.074405
 31
0.0
  0
LINE
  8
0
  6
CONTINUOUS
 62
     0
  5
583
 10
23.0
 20
-156.825595
 30
0.0
 11
23.0
 21
-155.588593
 31
0.0
  0
LINE
  8
0
  6
CONTINUOUS
 62
     0
  5
584
 10
23.5
 20
-183.95
 30
0.0
 11
23.5
 21
-182.677922
 31
0.0
  0
LINE
  8
0
  6
CONTINUOUS
 62
     0
  5
585
 10
23.5
 20
-157.222078
 30
0.0
 11
23.5
 21
-155.95
 31
0.0
  0
LINE
  8
0
  6
CONTINUOUS
 62
     0
  5
586
 10
24.0
 20
-183.560658
 30
0.0
 11
24.0
 21
-182.248374
 31
0.0
  0
LINE
  8
0
  6
CONTINUOUS
 62
     0
  5
587
 10
24.0
 20
-157.651626
 30
0.0
 11
24.0
 21
-156.339342
 31
0.0
  0
LINE
  8
0
  6
CONTINUOUS
 62
     0
  5
588
 10
24.5
 20
-183.140906
 30
0.0
 11
24.5
 21
-181.78216
 31
0.0
  0
LINE
  8
0
  6
CONTINUOUS
 62
     0
  5
589
 10
24.5
 20
-158.11784
 30
0.0
 11
24.5
 21
-156.759094
 31
0.0
  0
LINE
  8
0
  6
CONTINUOUS
 62
     0
  5
58A
 10
25.0
 20
-182.687739
 30
0.0
 11
25.0
 21
-181.274752
 31
0.0
  0
LINE
  8
0
  6
CONTINUOUS
 62
     0
  5
58B
 10
25.0
 20
-158.625248
 30
0.0
 11
25.0
 21
-157.212261
 31
0.0
  0
LINE
  8
0
  6
CONTINUOUS
 62
     0
  5
58C
 10
25.5
 20
-182.197449
 30
0.0
 11
25.5
 21
-180.72033
 31
0.0
  0
LINE
  8
0
  6
CONTINUOUS
 62
     0
  5
58D
 10
25.5
 20
-159.17967
 30
0.0
 11
25.5
 21
-157.702551
 31
0.0
  0
LINE
  8
0
  6
CONTINUOUS
 62
     0
  5
58E
 10
26.0
 20
-181.665375
 30
0.0
 11
26.0
 21
-180.111201
 31
0.0
  0
LINE
  8
0
  6
CONTINUOUS
 62
     0
  5
58F
 10
26.0
 20
-159.788799
 30
0.0
 11
26.0
 21
-158.234625
 31
0.0
  0
LINE
  8
0
  6
CONTINUOUS
 62
     0
  5
590
 10
26.5
 20
-181.085529
 30
0.0
 11
26.5
 21
-179.436833
 31
0.0
  0
LINE
  8
0
  6
CONTINUOUS
 62
     0
  5
591
 10
26.5
 20
-160.463167
 30
0.0
 11
26.5
 21
-158.814471
 31
0.0
  0
LINE
  8
0
  6
CONTINUOUS
 62
     0
  5
592
 10
27.0
 20
-180.45
 30
0.0
 11
27.0
 21
-178.682125
 31
0.0
  0
LINE
  8
0
  6
CONTINUOUS
 62
     0
  5
593
 10
27.0
 20
-161.217875
 30
0.0
 11
27.0
 21
-159.45
 31
0.0
  0
LINE
  8
0
  6
CONTINUOUS
 62
     0
  5
594
 10
27.5
 20
-179.747959
 30
0.0
 11
27.5
 21
-177.824008
 31
0.0
  0
LINE
  8
0
  6
CONTINUOUS
 62
     0
  5
595
 10
27.5
 20
-162.075992
 30
0.0
 11
27.5
 21
-160.152041
 31
0.0
  0
LINE
  8
0
  6
CONTINUOUS
 62
     0
  5
596
 10
28.0
 20
-178.963878
 30
0.0
 11
28.0
 21
-176.823864
 31
0.0
  0
LINE
  8
0
  6
CONTINUOUS
 62
     0
  5
597
 10
28.0
 20
-163.076136
 30
0.0
 11
28.0
 21
-160.936122
 31
0.0
  0
LINE
  8
0
  6
CONTINUOUS
 62
     0
  5
598
 10
28.5
 20
-178.074038
 30
0.0
 11
28.5
 21
-175.606854
 31
0.0
  0
LINE
  8
0
  6
CONTINUOUS
 62
     0
  5
599
 10
28.5
 20
-164.293146
 30
0.0
 11
28.5
 21
-161.825962
 31
0.0
  0
LINE
  8
0
  6
CONTINUOUS
 62
     0
  5
59A
 10
29.0
 20
-177.038723
 30
0.0
 11
29.0
 21
-173.981129
 31
0.0
  0
LINE
  8
0
  6
CONTINUOUS
 62
     0
  5
59B
 10
29.0
 20
-165.918871
 30
0.0
 11
29.0
 21
-162.861277
 31
0.0
  0
LINE
  8
0
  6
CONTINUOUS
 62
     0
  5
59C
 10
29.5
 20
-175.780952
 30
0.0
 11
29.5
 21
-164.119048
 31
0.0
  0
LINE
  8
0
  6
CONTINUOUS
 62
     0
  5
59D
 10
30.0
 20
-174.103312
 30
0.0
 11
30.0
 21
-165.796688
 31
0.0
  0
ENDBLK
  8
0
  6
BYBLOCK
 62
     0
  5
59E
  0
BLOCK
  8
0
  6
BYBLOCK
 62
     0
  5
5A9
  2
*X19
 70
     1
 10
0.0
 20
0.0
 30
0.0
  3
*X19
  0
LINE
  8
0
  6
CONTINUOUS
 62
     0
  5
5AA
 10
4.203836
 20
-32.0
 30
0.0
 11
6.846165
 21
-32.0
 31
0.0
  0
LINE
  8
0
  6
CONTINUOUS
 62
     0
  5
5AB
 10
2.800934
 20
-31.5
 30
0.0
 11
8.249067
 21
-31.5
 31
0.0
  0
LINE
  8
0
  6
CONTINUOUS
 62
     0
  5
5AC
 10
2.028929
 20
-31.0
 30
0.0
 11
9.021072
 21
-31.0
 31
0.0
  0
LINE
  8
0
  6
CONTINUOUS
 62
     0
  5
5AD
 10
1.506119
 20
-30.5
 30
0.0
 11
3.734523
 21
-30.5
 31
0.0
  0
LINE
  8
0
  6
CONTINUOUS
 62
     0
  5
5AE
 10
7.315478
 20
-30.5
 30
0.0
 11
9.543882
 21
-30.5
 31
0.0
  0
LINE
  8
0
  6
CONTINUOUS
 62
     0
  5
5AF
 10
1.142398
 20
-30.0
 30
0.0
 11
2.863521
 21
-30.0
 31
0.0
  0
LINE
  8
0
  6
CONTINUOUS
 62
     0
  5
5B0
 10
8.18648
 20
-30.0
 30
0.0
 11
9.907604
 21
-30.0
 31
0.0
  0
LINE
  8
0
  6
CONTINUOUS
 62
     0
  5
5B1
 10
0.900076
 20
-29.5
 30
0.0
 11
2.371352
 21
-29.5
 31
0.0
  0
LINE
  8
0
  6
CONTINUOUS
 62
     0
  5
5B2
 10
8.678649
 20
-29.5
 30
0.0
 11
10.149925
 21
-29.5
 31
0.0
  0
LINE
  8
0
  6
CONTINUOUS
 62
     0
  5
5B3
 10
0.760595
 20
-29.0
 30
0.0
 11
2.104899
 21
-29.0
 31
0.0
  0
LINE
  8
0
  6
CONTINUOUS
 62
     0
  5
5B4
 10
8.945102
 20
-29.0
 30
0.0
 11
10.289406
 21
-29.0
 31
0.0
  0
LINE
  8
0
  6
CONTINUOUS
 62
     0
  5
5B5
 10
0.715001
 20
-28.5
 30
0.0
 11
2.015001
 21
-28.5
 31
0.0
  0
LINE
  8
0
  6
CONTINUOUS
 62
     0
  5
5B6
 10
9.035001
 20
-28.5
 30
0.0
 11
10.335001
 21
-28.5
 31
0.0
  0
LINE
  8
0
  6
CONTINUOUS
 62
     0
  5
5B7
 10
0.760595
 20
-28.0
 30
0.0
 11
2.104899
 21
-28.0
 31
0.0
  0
LINE
  8
0
  6
CONTINUOUS
 62
     0
  5
5B8
 10
8.945102
 20
-28.0
 30
0.0
 11
10.289406
 21
-28.0
 31
0.0
  0
LINE
  8
0
  6
CONTINUOUS
 62
     0
  5
5B9
 10
0.900076
 20
-27.5
 30
0.0
 11
2.371352
 21
-27.5
 31
0.0
  0
LINE
  8
0
  6
CONTINUOUS
 62
     0
  5
5BA
 10
8.678649
 20
-27.5
 30
0.0
 11
10.149925
 21
-27.5
 31
0.0
  0
LINE
  8
0
  6
CONTINUOUS
 62
     0
  5
5BB
 10
1.142397
 20
-27.0
 30
0.0
 11
2.863521
 21
-27.0
 31
0.0
  0
LINE
  8
0
  6
CONTINUOUS
 62
     0
  5
5BC
 10
8.18648
 20
-27.0
 30
0.0
 11
9.907604
 21
-27.0
 31
0.0
  0
LINE
  8
0
  6
CONTINUOUS
 62
     0
  5
5BD
 10
1.506119
 20
-26.5
 30
0.0
 11
3.734523
 21
-26.5
 31
0.0
  0
LINE
  8
0
  6
CONTINUOUS
 62
     0
  5
5BE
 10
7.315478
 20
-26.5
 30
0.0
 11
9.543882
 21
-26.5
 31
0.0
  0
LINE
  8
0
  6
CONTINUOUS
 62
     0
  5
5BF
 10
2.028929
 20
-26.0
 30
0.0
 11
9.021072
 21
-26.0
 31
0.0
  0
LINE
  8
0
  6
CONTINUOUS
 62
     0
  5
5C0
 10
2.800934
 20
-25.5
 30
0.0
 11
8.249067
 21
-25.5
 31
0.0
  0
LINE
  8
0
  6
CONTINUOUS
 62
     0
  5
5C1
 10
4.203836
 20
-25.0
 30
0.0
 11
6.846165
 21
-25.0
 31
0.0
  0
LINE
  8
0
  6
CONTINUOUS
 62
     0
  5
5C2
 10
1.0
 20
-29.734342
 30
0.0
 11
1.0
 21
-27.265658
 31
0.0
  0
LINE
  8
0
  6
CONTINUOUS
 62
     0
  5
5C3
 10
1.5
 20
-30.49294
 30
0.0
 11
1.5
 21
-26.50706
 31
0.0
  0
LINE
  8
0
  6
CONTINUOUS
 62
     0
  5
5C4
 10
2.0
 20
-30.976627
 30
0.0
 11
2.0
 21
-26.023373
 31
0.0
  0
LINE
  8
0
  6
CONTINUOUS
 62
     0
  5
5C5
 10
2.5
 20
-31.330055
 30
0.0
 11
2.5
 21
-29.661674
 31
0.0
  0
LINE
  8
0
  6
CONTINUOUS
 62
     0
  5
5C6
 10
2.5
 20
-27.338326
 30
0.0
 11
2.5
 21
-25.669945
 31
0.0
  0
LINE
  8
0
  6
CONTINUOUS
 62
     0
  5
5C7
 10
3.0
 20
-31.598129
 30
0.0
 11
3.0
 21
-30.099948
 31
0.0
  0
LINE
  8
0
  6
CONTINUOUS
 62
     0
  5
5C8
 10
3.0
 20
-26.900052
 30
0.0
 11
3.0
 21
-25.401871
 31
0.0
  0
LINE
  8
0
  6
CONTINUOUS
 62
     0
  5
5C9
 10
3.5
 20
-31.801704
 30
0.0
 11
3.5
 21
-30.393883
 31
0.0
  0
LINE
  8
0
  6
CONTINUOUS
 62
     0
  5
5CA
 10
3.5
 20
-26.606117
 30
0.0
 11
3.5
 21
-25.198296
 31
0.0
  0
LINE
  8
0
  6
CONTINUOUS
 62
     0
  5
5CB
 10
4.0
 20
-31.952211
 30
0.0
 11
4.0
 21
-30.596331
 31
0.0
  0
LINE
  8
0
  6
CONTINUOUS
 62
     0
  5
5CC
 10
4.0
 20
-26.403669
 30
0.0
 11
4.0
 21
-25.047789
 31
0.0
  0
LINE
  8
0
  6
CONTINUOUS
 62
     0
  5
5CD
 10
4.5
 20
-32.056392
 30
0.0
 11
4.5
 21
-30.731578
 31
0.0
  0
LINE
  8
0
  6
CONTINUOUS
 62
     0
  5
5CE
 10
4.5
 20
-26.268422
 30
0.0
 11
4.5
 21
-24.943608
 31
0.0
  0
LINE
  8
0
  6
CONTINUOUS
 62
     0
  5
5CF
 10
5.0
 20
-32.118253
 30
0.0
 11
5.0
 21
-30.809185
 31
0.0
  0
LINE
  8
0
  6
CONTINUOUS
 62
     0
  5
5D0
 10
5.0
 20
-26.190815
 30
0.0
 11
5.0
 21
-24.881747
 31
0.0
  0
LINE
  8
0
  6
CONTINUOUS
 62
     0
  5
5D1
 10
5.5
 20
-32.139951
 30
0.0
 11
5.5
 21
-30.839074
 31
0.0
  0
LINE
  8
0
  6
CONTINUOUS
 62
     0
  5
5D2
 10
5.5
 20
-26.160926
 30
0.0
 11
5.5
 21
-24.860049
 31
0.0
  0
LINE
  8
0
  6
CONTINUOUS
 62
     0
  5
5D3
 10
6.0
 20
-32.122208
 30
0.0
 11
6.0
 21
-30.81479
 31
0.0
  0
LINE
  8
0
  6
CONTINUOUS
 62
     0
  5
5D4
 10
6.0
 20
-26.18521
 30
0.0
 11
6.0
 21
-24.877792
 31
0.0
  0
LINE
  8
0
  6
CONTINUOUS
 62
     0
  5
5D5
 10
6.5
 20
-32.064435
 30
0.0
 11
6.5
 21
-30.741032
 31
0.0
  0
LINE
  8
0
  6
CONTINUOUS
 62
     0
  5
5D6
 10
6.5
 20
-26.258968
 30
0.0
 11
6.5
 21
-24.935565
 31
0.0
  0
LINE
  8
0
  6
CONTINUOUS
 62
     0
  5
5D7
 10
7.0
 20
-31.96463
 30
0.0
 11
7.0
 21
-30.614179
 31
0.0
  0
LINE
  8
0
  6
CONTINUOUS
 62
     0
  5
5D8
 10
7.0
 20
-26.385821
 30
0.0
 11
7.0
 21
-25.03537
 31
0.0
  0
LINE
  8
0
  6
CONTINUOUS
 62
     0
  5
5D9
 10
7.5
 20
-31.819004
 30
0.0
 11
7.5
 21
-30.416507
 31
0.0
  0
LINE
  8
0
  6
CONTINUOUS
 62
     0
  5
5DA
 10
7.5
 20
-26.583493
 30
0.0
 11
7.5
 21
-25.180996
 31
0.0
  0
LINE
  8
0
  6
CONTINUOUS
 62
     0
  5
5DB
 10
8.0
 20
-31.621149
 30
0.0
 11
8.0
 21
-30.134138
 31
0.0
  0
LINE
  8
0
  6
CONTINUOUS
 62
     0
  5
5DC
 10
8.0
 20
-26.865862
 30
0.0
 11
8.0
 21
-25.378851
 31
0.0
  0
LINE
  8
0
  6
CONTINUOUS
 62
     0
  5
5DD
 10
8.5
 20
-31.360248
 30
0.0
 11
8.5
 21
-29.712515
 31
0.0
  0
LINE
  8
0
  6
CONTINUOUS
 62
     0
  5
5DE
 10
8.5
 20
-27.287485
 30
0.0
 11
8.5
 21
-25.639752
 31
0.0
  0
LINE
  8
0
  6
CONTINUOUS
 62
     0
  5
5DF
 10
9.0
 20
-31.016769
 30
0.0
 11
9.0
 21
-28.804833
 31
0.0
  0
LINE
  8
0
  6
CONTINUOUS
 62
     0
  5
5E0
 10
9.0
 20
-28.195167
 30
0.0
 11
9.0
 21
-25.983231
 31
0.0
  0
LINE
  8
0
  6
CONTINUOUS
 62
     0
  5
5E1
 10
9.5
 20
-30.549607
 30
0.0
 11
9.5
 21
-26.450393
 31
0.0
  0
LINE
  8
0
  6
CONTINUOUS
 62
     0
  5
5E2
 10
10.0
 20
-29.834658
 30
0.0
 11
10.0
 21
-27.165342
 31
0.0
  0
ENDBLK
  8
0
  6
BYBLOCK
 62
     0
  5
5E3
  0
BLOCK
  8
0
  6
BYBLOCK
 62
     0
  5
5E6
  2
*X20
 70
     1
 10
0.0
 20
0.0
 30
0.0
  3
*X20
  0
LINE
  8
0
  6
CONTINUOUS
 62
     0
  5
5E7
 10
-21.119999
 20
-31.5
 30
0.0
 11
-19.347083
 21
-31.5
 31
0.0
  0
LINE
  8
0
  6
CONTINUOUS
 62
     0
  5
5E8
 10
-15.102916
 20
-31.5
 30
0.0
 11
-13.329999
 21
-31.5
 31
0.0
  0
LINE
  8
0
  6
CONTINUOUS
 62
     0
  5
5E9
 10
-20.849999
 20
-31.0
 30
0.0
 11
-19.077083
 21
-31.0
 31
0.0
  0
LINE
  8
0
  6
CONTINUOUS
 62
     0
  5
5EA
 10
-15.372916
 20
-31.0
 30
0.0
 11
-13.599999
 21
-31.0
 31
0.0
  0
LINE
  8
0
  6
CONTINUOUS
 62
     0
  5
5EB
 10
-20.579999
 20
-30.5
 30
0.0
 11
-18.807083
 21
-30.5
 31
0.0
  0
LINE
  8
0
  6
CONTINUOUS
 62
     0
  5
5EC
 10
-15.642916
 20
-30.5
 30
0.0
 11
-13.869999
 21
-30.5
 31
0.0
  0
LINE
  8
0
  6
CONTINUOUS
 62
     0
  5
5ED
 10
-20.309999
 20
-30.0
 30
0.0
 11
-18.537083
 21
-30.0
 31
0.0
  0
LINE
  8
0
  6
CONTINUOUS
 62
     0
  5
5EE
 10
-15.912916
 20
-30.0
 30
0.0
 11
-14.139999
 21
-30.0
 31
0.0
  0
LINE
  8
0
  6
CONTINUOUS
 62
     0
  5
5EF
 10
-20.039999
 20
-29.5
 30
0.0
 11
-18.267082
 21
-29.5
 31
0.0
  0
LINE
  8
0
  6
CONTINUOUS
 62
     0
  5
5F0
 10
-16.182917
 20
-29.5
 30
0.0
 11
-14.409999
 21
-29.5
 31
0.0
  0
LINE
  8
0
  6
CONTINUOUS
 62
     0
  5
5F1
 10
-19.769999
 20
-29.0
 30
0.0
 11
-17.997082
 21
-29.0
 31
0.0
  0
LINE
  8
0
  6
CONTINUOUS
 62
     0
  5
5F2
 10
-16.452917
 20
-29.0
 30
0.0
 11
-14.679999
 21
-29.0
 31
0.0
  0
LINE
  8
0
  6
CONTINUOUS
 62
     0
  5
5F3
 10
-19.499999
 20
-28.5
 30
0.0
 11
-17.727082
 21
-28.5
 31
0.0
  0
LINE
  8
0
  6
CONTINUOUS
 62
     0
  5
5F4
 10
-16.722917
 20
-28.5
 30
0.0
 11
-14.949999
 21
-28.5
 31
0.0
  0
LINE
  8
0
  6
CONTINUOUS
 62
     0
  5
5F5
 10
-19.229999
 20
-28.0
 30
0.0
 11
-17.457082
 21
-28.0
 31
0.0
  0
LINE
  8
0
  6
CONTINUOUS
 62
     0
  5
5F6
 10
-16.992917
 20
-28.0
 30
0.0
 11
-15.219999
 21
-28.0
 31
0.0
  0
LINE
  8
0
  6
CONTINUOUS
 62
     0
  5
5F7
 10
-18.959999
 20
-27.5
 30
0.0
 11
-15.489999
 21
-27.5
 31
0.0
  0
LINE
  8
0
  6
CONTINUOUS
 62
     0
  5
5F8
 10
-18.689999
 20
-27.0
 30
0.0
 11
-15.759999
 21
-27.0
 31
0.0
  0
LINE
  8
0
  6
CONTINUOUS
 62
     0
  5
5F9
 10
-18.419999
 20
-26.5
 30
0.0
 11
-16.029999
 21
-26.5
 31
0.0
  0
LINE
  8
0
  6
CONTINUOUS
 62
     0
  5
5FA
 10
-18.149999
 20
-26.0
 30
0.0
 11
-16.299999
 21
-26.0
 31
0.0
  0
LINE
  8
0
  6
CONTINUOUS
 62
     0
  5
5FB
 10
-17.879999
 20
-25.5
 30
0.0
 11
-16.569999
 21
-25.5
 31
0.0
  0
LINE
  8
0
  6
CONTINUOUS
 62
     0
  5
5FC
 10
-21.0
 20
-31.75
 30
0.0
 11
-21.0
 21
-31.277779
 31
0.0
  0
LINE
  8
0
  6
CONTINUOUS
 62
     0
  5
5FD
 10
-20.5
 20
-31.75
 30
0.0
 11
-20.5
 21
-30.351853
 31
0.0
  0
LINE
  8
0
  6
CONTINUOUS
 62
     0
  5
5FE
 10
-20.0
 20
-31.75
 30
0.0
 11
-20.0
 21
-29.425927
 31
0.0
  0
LINE
  8
0
  6
CONTINUOUS
 62
     0
  5
5FF
 10
-19.5
 20
-31.75
 30
0.0
 11
-19.5
 21
-28.500001
 31
0.0
  0
LINE
  8
0
  6
CONTINUOUS
 62
     0
  5
600
 10
-19.0
 20
-30.857254
 30
0.0
 11
-19.0
 21
-27.574075
 31
0.0
  0
LINE
  8
0
  6
CONTINUOUS
 62
     0
  5
601
 10
-18.5
 20
-29.931329
 30
0.0
 11
-18.5
 21
-26.648149
 31
0.0
  0
LINE
  8
0
  6
CONTINUOUS
 62
     0
  5
602
 10
-18.0
 20
-29.005403
 30
0.0
 11
-18.0
 21
-25.722223
 31
0.0
  0
LINE
  8
0
  6
CONTINUOUS
 62
     0
  5
603
 10
-17.5
 20
-28.079478
 30
0.0
 11
-17.5
 21
-25.25
 31
0.0
  0
LINE
  8
0
  6
CONTINUOUS
 62
     0
  5
604
 10
-17.0
 20
-27.986883
 30
0.0
 11
-17.0
 21
-25.25
 31
0.0
  0
LINE
  8
0
  6
CONTINUOUS
 62
     0
  5
605
 10
-16.5
 20
-28.912809
 30
0.0
 11
-16.5
 21
-25.629629
 31
0.0
  0
LINE
  8
0
  6
CONTINUOUS
 62
     0
  5
606
 10
-16.0
 20
-29.838734
 30
0.0
 11
-16.0
 21
-26.555554
 31
0.0
  0
LINE
  8
0
  6
CONTINUOUS
 62
     0
  5
607
 10
-15.5
 20
-30.764659
 30
0.0
 11
-15.5
 21
-27.48148
 31
0.0
  0
LINE
  8
0
  6
CONTINUOUS
 62
     0
  5
608
 10
-15.0
 20
-31.690585
 30
0.0
 11
-15.0
 21
-28.407406
 31
0.0
  0
LINE
  8
0
  6
CONTINUOUS
 62
     0
  5
609
 10
-14.5
 20
-31.75
 30
0.0
 11
-14.5
 21
-29.333332
 31
0.0
  0
LINE
  8
0
  6
CONTINUOUS
 62
     0
  5
60A
 10
-14.0
 20
-31.75
 30
0.0
 11
-14.0
 21
-30.259258
 31
0.0
  0
LINE
  8
0
  6
CONTINUOUS
 62
     0
  5
60B
 10
-13.5
 20
-31.75
 30
0.0
 11
-13.5
 21
-31.185184
 31
0.0
  0
ENDBLK
  8
0
  6
BYBLOCK
 62
     0
  5
60C
  0
BLOCK
  8
0
  6
BYBLOCK
 62
     0
  5
60F
  2
*X21
 70
     1
 10
0.0
 20
0.0
 30
0.0
  3
*X21
  0
LINE
  8
0
  6
CONTINUOUS
 62
     0
  5
610
 10
-12.674999
 20
-31.5
 30
0.0
 11
-11.114999
 21
-31.5
 31
0.0
  0
LINE
  8
0
  6
CONTINUOUS
 62
     0
  5
611
 10
-8.537284
 20
-31.5
 30
0.0
 11
-6.614999
 21
-31.5
 31
0.0
  0
LINE
  8
0
  6
CONTINUOUS
 62
     0
  5
612
 10
-12.674999
 20
-31.0
 30
0.0
 11
-11.114999
 21
-31.0
 31
0.0
  0
LINE
  8
0
  6
CONTINUOUS
 62
     0
  5
613
 10
-8.897283
 20
-31.0
 30
0.0
 11
-6.974999
 21
-31.0
 31
0.0
  0
LINE
  8
0
  6
CONTINUOUS
 62
     0
  5
614
 10
-12.674999
 20
-30.5
 30
0.0
 11
-11.114999
 21
-30.5
 31
0.0
  0
LINE
  8
0
  6
CONTINUOUS
 62
     0
  5
615
 10
-9.257283
 20
-30.5
 30
0.0
 11
-7.334999
 21
-30.5
 31
0.0
  0
LINE
  8
0
  6
CONTINUOUS
 62
     0
  5
616
 10
-12.674999
 20
-30.0
 30
0.0
 11
-11.114999
 21
-30.0
 31
0.0
  0
LINE
  8
0
  6
CONTINUOUS
 62
     0
  5
617
 10
-9.617283
 20
-30.0
 30
0.0
 11
-7.694999
 21
-30.0
 31
0.0
  0
LINE
  8
0
  6
CONTINUOUS
 62
     0
  5
618
 10
-12.674999
 20
-29.5
 30
0.0
 11
-7.794999
 21
-29.5
 31
0.0
  0
LINE
  8
0
  6
CONTINUOUS
 62
     0
  5
619
 10
-12.674999
 20
-29.0
 30
0.0
 11
-7.059913
 21
-29.0
 31
0.0
  0
LINE
  8
0
  6
CONTINUOUS
 62
     0
  5
61A
 10
-12.674999
 20
-28.5
 30
0.0
 11
-6.694999
 21
-28.5
 31
0.0
  0
LINE
  8
0
  6
CONTINUOUS
 62
     0
  5
61B
 10
-8.283198
 20
-28.0
 30
0.0
 11
-6.501988
 21
-28.0
 31
0.0
  0
LINE
  8
0
  6
CONTINUOUS
 62
     0
  5
61C
 10
-7.996231
 20
-27.5
 30
0.0
 11
-6.435361
 21
-27.5
 31
0.0
  0
LINE
  8
0
  6
CONTINUOUS
 62
     0
  5
61D
 10
-8.185761
 20
-27.0
 30
0.0
 11
-6.483403
 21
-27.0
 31
0.0
  0
LINE
  8
0
  6
CONTINUOUS
 62
     0
  5
61E
 10
-12.674999
 20
-26.5
 30
0.0
 11
-6.654396
 21
-26.5
 31
0.0
  0
LINE
  8
0
  6
CONTINUOUS
 62
     0
  5
61F
 10
-12.674999
 20
-26.0
 30
0.0
 11
-6.985933
 21
-26.0
 31
0.0
  0
LINE
  8
0
  6
CONTINUOUS
 62
     0
  5
620
 10
-12.674999
 20
-25.5
 30
0.0
 11
-7.623971
 21
-25.5
 31
0.0
  0
LINE
  8
0
  6
CONTINUOUS
 62
     0
  5
621
 10
-12.5
 20
-31.75
 30
0.0
 11
-12.5
 21
-28.11
 31
0.0
  0
LINE
  8
0
  6
CONTINUOUS
 62
     0
  5
622
 10
-12.5
 20
-26.81
 30
0.0
 11
-12.5
 21
-25.25
 31
0.0
  0
LINE
  8
0
  6
CONTINUOUS
 62
     0
  5
623
 10
-12.0
 20
-31.75
 30
0.0
 11
-12.0
 21
-28.11
 31
0.0
  0
LINE
  8
0
  6
CONTINUOUS
 62
     0
  5
624
 10
-12.0
 20
-26.81
 30
0.0
 11
-12.0
 21
-25.25
 31
0.0
  0
LINE
  8
0
  6
CONTINUOUS
 62
     0
  5
625
 10
-11.5
 20
-31.75
 30
0.0
 11
-11.5
 21
-28.11
 31
0.0
  0
LINE
  8
0
  6
CONTINUOUS
 62
     0
  5
626
 10
-11.5
 20
-26.81
 30
0.0
 11
-11.5
 21
-25.25
 31
0.0
  0
LINE
  8
0
  6
CONTINUOUS
 62
     0
  5
627
 10
-11.0
 20
-29.67
 30
0.0
 11
-11.0
 21
-28.11
 31
0.0
  0
LINE
  8
0
  6
CONTINUOUS
 62
     0
  5
628
 10
-11.0
 20
-26.81
 30
0.0
 11
-11.0
 21
-25.25
 31
0.0
  0
LINE
  8
0
  6
CONTINUOUS
 62
     0
  5
629
 10
-10.5
 20
-29.67
 30
0.0
 11
-10.5
 21
-28.11
 31
0.0
  0
LINE
  8
0
  6
CONTINUOUS
 62
     0
  5
62A
 10
-10.5
 20
-26.81
 30
0.0
 11
-10.5
 21
-25.25
 31
0.0
  0
LINE
  8
0
  6
CONTINUOUS
 62
     0
  5
62B
 10
-10.0
 20
-29.67
 30
0.0
 11
-10.0
 21
-28.11
 31
0.0
  0
LINE
  8
0
  6
CONTINUOUS
 62
     0
  5
62C
 10
-10.0
 20
-26.81
 30
0.0
 11
-10.0
 21
-25.25
 31
0.0
  0
LINE
  8
0
  6
CONTINUOUS
 62
     0
  5
62D
 10
-9.5
 20
-30.162893
 30
0.0
 11
-9.5
 21
-28.11
 31
0.0
  0
LINE
  8
0
  6
CONTINUOUS
 62
     0
  5
62E
 10
-9.5
 20
-26.81
 30
0.0
 11
-9.5
 21
-25.25
 31
0.0
  0
LINE
  8
0
  6
CONTINUOUS
 62
     0
  5
62F
 10
-9.0
 20
-30.857338
 30
0.0
 11
-9.0
 21
-28.11
 31
0.0
  0
LINE
  8
0
  6
CONTINUOUS
 62
     0
  5
630
 10
-9.0
 20
-26.81
 30
0.0
 11
-9.0
 21
-25.25
 31
0.0
  0
LINE
  8
0
  6
CONTINUOUS
 62
     0
  5
631
 10
-8.5
 20
-31.551783
 30
0.0
 11
-8.5
 21
-28.093621
 31
0.0
  0
LINE
  8
0
  6
CONTINUOUS
 62
     0
  5
632
 10
-8.5
 20
-26.826379
 30
0.0
 11
-8.5
 21
-25.254762
 31
0.0
  0
LINE
  8
0
  6
CONTINUOUS
 62
     0
  5
633
 10
-8.0
 20
-31.75
 30
0.0
 11
-8.0
 21
-29.576388
 31
0.0
  0
LINE
  8
0
  6
CONTINUOUS
 62
     0
  5
634
 10
-8.0
 20
-29.573782
 30
0.0
 11
-8.0
 21
-27.540472
 31
0.0
  0
LINE
  8
0
  6
CONTINUOUS
 62
     0
  5
635
 10
-8.0
 20
-27.379528
 30
0.0
 11
-8.0
 21
-25.346218
 31
0.0
  0
LINE
  8
0
  6
CONTINUOUS
 62
     0
  5
636
 10
-7.5
 20
-31.75
 30
0.0
 11
-7.5
 21
-30.270832
 31
0.0
  0
LINE
  8
0
  6
CONTINUOUS
 62
     0
  5
637
 10
-7.5
 20
-29.350258
 30
0.0
 11
-7.5
 21
-25.569742
 31
0.0
  0
LINE
  8
0
  6
CONTINUOUS
 62
     0
  5
638
 10
-7.0
 20
-31.75
 30
0.0
 11
-7.0
 21
-30.965277
 31
0.0
  0
LINE
  8
0
  6
CONTINUOUS
 62
     0
  5
639
 10
-7.0
 20
-28.935831
 30
0.0
 11
-7.0
 21
-25.984169
 31
0.0
  0
LINE
  8
0
  6
CONTINUOUS
 62
     0
  5
63A
 10
-6.5
 20
-31.75
 30
0.0
 11
-6.5
 21
-31.659721
 31
0.0
  0
LINE
  8
0
  6
CONTINUOUS
 62
     0
  5
63B
 10
-6.5
 20
-27.99205
 30
0.0
 11
-6.5
 21
-26.92795
 31
0.0
  0
ENDBLK
  8
0
  6
BYBLOCK
 62
     0
  5
63C
  0
BLOCK
  8
0
  6
BYBLOCK
 62
     0
  5
63F
  2
*X22
 70
     1
 10
0.0
 20
0.0
 30
0.0
  3
*X22
  0
LINE
  8
0
  6
CONTINUOUS
 62
     0
  5
640
 10
-5.914999
 20
-31.5
 30
0.0
 11
-4.354999
 21
-31.5
 31
0.0
  0
LINE
  8
0
  6
CONTINUOUS
 62
     0
  5
641
 10
-1.777284
 20
-31.5
 30
0.0
 11
0.145001
 21
-31.5
 31
0.0
  0
LINE
  8
0
  6
CONTINUOUS
 62
     0
  5
642
 10
-5.914999
 20
-31.0
 30
0.0
 11
-4.354999
 21
-31.0
 31
0.0
  0
LINE
  8
0
  6
CONTINUOUS
 62
     0
  5
643
 10
-2.137284
 20
-31.0
 30
0.0
 11
-0.214999
 21
-31.0
 31
0.0
  0
LINE
  8
0
  6
CONTINUOUS
 62
     0
  5
644
 10
-5.914999
 20
-30.5
 30
0.0
 11
-4.354999
 21
-30.5
 31
0.0
  0
LINE
  8
0
  6
CONTINUOUS
 62
     0
  5
645
 10
-2.497284
 20
-30.5
 30
0.0
 11
-0.574999
 21
-30.5
 31
0.0
  0
LINE
  8
0
  6
CONTINUOUS
 62
     0
  5
646
 10
-5.914999
 20
-30.0
 30
0.0
 11
-4.354999
 21
-30.0
 31
0.0
  0
LINE
  8
0
  6
CONTINUOUS
 62
     0
  5
647
 10
-2.857284
 20
-30.0
 30
0.0
 11
-0.934999
 21
-30.0
 31
0.0
  0
LINE
  8
0
  6
CONTINUOUS
 62
     0
  5
648
 10
-5.914999
 20
-29.5
 30
0.0
 11
-1.034999
 21
-29.5
 31
0.0
  0
LINE
  8
0
  6
CONTINUOUS
 62
     0
  5
649
 10
-5.914999
 20
-29.0
 30
0.0
 11
-0.299913
 21
-29.0
 31
0.0
  0
LINE
  8
0
  6
CONTINUOUS
 62
     0
  5
64A
 10
-5.914999
 20
-28.5
 30
0.0
 11
0.065001
 21
-28.5
 31
0.0
  0
LINE
  8
0
  6
CONTINUOUS
 62
     0
  5
64B
 10
-1.523198
 20
-28.0
 30
0.0
 11
0.258012
 21
-28.0
 31
0.0
  0
LINE
  8
0
  6
CONTINUOUS
 62
     0
  5
64C
 10
-1.236231
 20
-27.5
 30
0.0
 11
0.324639
 21
-27.5
 31
0.0
  0
LINE
  8
0
  6
CONTINUOUS
 62
     0
  5
64D
 10
-1.425761
 20
-27.0
 30
0.0
 11
0.276597
 21
-27.0
 31
0.0
  0
LINE
  8
0
  6
CONTINUOUS
 62
     0
  5
64E
 10
-5.914999
 20
-26.5
 30
0.0
 11
0.105604
 21
-26.5
 31
0.0
  0
LINE
  8
0
  6
CONTINUOUS
 62
     0
  5
64F
 10
-5.914999
 20
-26.0
 30
0.0
 11
-0.225933
 21
-26.0
 31
0.0
  0
LINE
  8
0
  6
CONTINUOUS
 62
     0
  5
650
 10
-5.914999
 20
-25.5
 30
0.0
 11
-0.863971
 21
-25.5
 31
0.0
  0
LINE
  8
0
  6
CONTINUOUS
 62
     0
  5
651
 10
-5.5
 20
-31.75
 30
0.0
 11
-5.5
 21
-28.11
 31
0.0
  0
LINE
  8
0
  6
CONTINUOUS
 62
     0
  5
652
 10
-5.5
 20
-26.81
 30
0.0
 11
-5.5
 21
-25.25
 31
0.0
  0
LINE
  8
0
  6
CONTINUOUS
 62
     0
  5
653
 10
-5.0
 20
-31.75
 30
0.0
 11
-5.0
 21
-28.11
 31
0.0
  0
LINE
  8
0
  6
CONTINUOUS
 62
     0
  5
654
 10
-5.0
 20
-26.81
 30
0.0
 11
-5.0
 21
-25.25
 31
0.0
  0
LINE
  8
0
  6
CONTINUOUS
 62
     0
  5
655
 10
-4.5
 20
-31.75
 30
0.0
 11
-4.5
 21
-28.11
 31
0.0
  0
LINE
  8
0
  6
CONTINUOUS
 62
     0
  5
656
 10
-4.5
 20
-26.81
 30
0.0
 11
-4.5
 21
-25.25
 31
0.0
  0
LINE
  8
0
  6
CONTINUOUS
 62
     0
  5
657
 10
-4.0
 20
-29.67
 30
0.0
 11
-4.0
 21
-28.11
 31
0.0
  0
LINE
  8
0
  6
CONTINUOUS
 62
     0
  5
658
 10
-4.0
 20
-26.81
 30
0.0
 11
-4.0
 21
-25.25
 31
0.0
  0
LINE
  8
0
  6
CONTINUOUS
 62
     0
  5
659
 10
-3.5
 20
-29.67
 30
0.0
 11
-3.5
 21
-28.11
 31
0.0
  0
LINE
  8
0
  6
CONTINUOUS
 62
     0
  5
65A
 10
-3.5
 20
-26.81
 30
0.0
 11
-3.5
 21
-25.25
 31
0.0
  0
LINE
  8
0
  6
CONTINUOUS
 62
     0
  5
65B
 10
-3.0
 20
-29.801784
 30
0.0
 11
-3.0
 21
-28.11
 31
0.0
  0
LINE
  8
0
  6
CONTINUOUS
 62
     0
  5
65C
 10
-3.0
 20
-26.81
 30
0.0
 11
-3.0
 21
-25.25
 31
0.0
  0
LINE
  8
0
  6
CONTINUOUS
 62
     0
  5
65D
 10
-2.5
 20
-30.496228
 30
0.0
 11
-2.5
 21
-28.11
 31
0.0
  0
LINE
  8
0
  6
CONTINUOUS
 62
     0
  5
65E
 10
-2.5
 20
-26.81
 30
0.0
 11
-2.5
 21
-25.25
 31
0.0
  0
LINE
  8
0
  6
CONTINUOUS
 62
     0
  5
65F
 10
-2.0
 20
-31.190672
 30
0.0
 11
-2.0
 21
-28.11
 31
0.0
  0
LINE
  8
0
  6
CONTINUOUS
 62
     0
  5
660
 10
-2.0
 20
-26.81
 30
0.0
 11
-2.0
 21
-25.25
 31
0.0
  0
LINE
  8
0
  6
CONTINUOUS
 62
     0
  5
661
 10
-1.5
 20
-31.75
 30
0.0
 11
-1.5
 21
-27.983713
 31
0.0
  0
LINE
  8
0
  6
CONTINUOUS
 62
     0
  5
662
 10
-1.5
 20
-26.936287
 30
0.0
 11
-1.5
 21
-25.283793
 31
0.0
  0
LINE
  8
0
  6
CONTINUOUS
 62
     0
  5
663
 10
-1.0
 20
-31.75
 30
0.0
 11
-1.0
 21
-29.909721
 31
0.0
  0
LINE
  8
0
  6
CONTINUOUS
 62
     0
  5
664
 10
-1.0
 20
-29.485062
 30
0.0
 11
-1.0
 21
-25.434938
 31
0.0
  0
LINE
  8
0
  6
CONTINUOUS
 62
     0
  5
665
 10
-0.5
 20
-31.75
 30
0.0
 11
-0.5
 21
-30.604166
 31
0.0
  0
LINE
  8
0
  6
CONTINUOUS
 62
     0
  5
666
 10
-0.5
 20
-29.182172
 30
0.0
 11
-0.5
 21
-25.737828
 31
0.0
  0
LINE
  8
0
  6
CONTINUOUS
 62
     0
  5
667
 10
0.0
 20
-31.75
 30
0.0
 11
0.0
 21
-31.29861
 31
0.0
  0
LINE
  8
0
  6
CONTINUOUS
 62
     0
  5
668
 10
0.0
 20
-28.613636
 30
0.0
 11
0.0
 21
-26.306363
 31
0.0
  0
ENDBLK
  8
0
  6
BYBLOCK
 62
     0
  5
669
  0
BLOCK
  8
0
  6
BYBLOCK
 62
     0
  5
66C
  2
*X23
 70
     1
 10
0.0
 20
0.0
 30
0.0
  3
*X23
  0
LINE
  8
0
  6
CONTINUOUS
 62
     0
  5
66D
 10
12.690001
 20
-31.5
 30
0.0
 11
13.857135
 21
-31.5
 31
0.0
  0
LINE
  8
0
  6
CONTINUOUS
 62
     0
  5
66E
 10
17.212866
 20
-31.5
 30
0.0
 11
18.380001
 21
-31.5
 31
0.0
  0
LINE
  8
0
  6
CONTINUOUS
 62
     0
  5
66F
 10
12.460001
 20
-31.0
 30
0.0
 11
14.087135
 21
-31.0
 31
0.0
  0
LINE
  8
0
  6
CONTINUOUS
 62
     0
  5
670
 10
16.982866
 20
-31.0
 30
0.0
 11
18.610001
 21
-31.0
 31
0.0
  0
LINE
  8
0
  6
CONTINUOUS
 62
     0
  5
671
 10
12.230001
 20
-30.5
 30
0.0
 11
14.317135
 21
-30.5
 31
0.0
  0
LINE
  8
0
  6
CONTINUOUS
 62
     0
  5
672
 10
16.752866
 20
-30.5
 30
0.0
 11
18.840001
 21
-30.5
 31
0.0
  0
LINE
  8
0
  6
CONTINUOUS
 62
     0
  5
673
 10
12.000001
 20
-30.0
 30
0.0
 11
14.547135
 21
-30.0
 31
0.0
  0
LINE
  8
0
  6
CONTINUOUS
 62
     0
  5
674
 10
16.522866
 20
-30.0
 30
0.0
 11
19.070001
 21
-30.0
 31
0.0
  0
LINE
  8
0
  6
CONTINUOUS
 62
     0
  5
675
 10
11.770001
 20
-29.5
 30
0.0
 11
14.777135
 21
-29.5
 31
0.0
  0
LINE
  8
0
  6
CONTINUOUS
 62
     0
  5
676
 10
16.292866
 20
-29.5
 30
0.0
 11
19.300001
 21
-29.5
 31
0.0
  0
LINE
  8
0
  6
CONTINUOUS
 62
     0
  5
677
 10
11.540001
 20
-29.0
 30
0.0
 11
13.257135
 21
-29.0
 31
0.0
  0
LINE
  8
0
  6
CONTINUOUS
 62
     0
  5
678
 10
13.290001
 20
-29.0
 30
0.0
 11
15.007135
 21
-29.0
 31
0.0
  0
LINE
  8
0
  6
CONTINUOUS
 62
     0
  5
679
 10
16.062866
 20
-29.0
 30
0.0
 11
17.78
 21
-29.0
 31
0.0
  0
LINE
  8
0
  6
CONTINUOUS
 62
     0
  5
67A
 10
17.812866
 20
-29.0
 30
0.0
 11
19.530001
 21
-29.0
 31
0.0
  0
LINE
  8
0
  6
CONTINUOUS
 62
     0
  5
67B
 10
11.310001
 20
-28.5
 30
0.0
 11
13.027135
 21
-28.5
 31
0.0
  0
LINE
  8
0
  6
CONTINUOUS
 62
     0
  5
67C
 10
13.520001
 20
-28.5
 30
0.0
 11
15.237135
 21
-28.5
 31
0.0
  0
LINE
  8
0
  6
CONTINUOUS
 62
     0
  5
67D
 10
15.832866
 20
-28.5
 30
0.0
 11
17.550001
 21
-28.5
 31
0.0
  0
LINE
  8
0
  6
CONTINUOUS
 62
     0
  5
67E
 10
18.042866
 20
-28.5
 30
0.0
 11
19.760001
 21
-28.5
 31
0.0
  0
LINE
  8
0
  6
CONTINUOUS
 62
     0
  5
67F
 10
11.080001
 20
-28.0
 30
0.0
 11
12.797135
 21
-28.0
 31
0.0
  0
LINE
  8
0
  6
CONTINUOUS
 62
     0
  5
680
 10
13.750001
 20
-28.0
 30
0.0
 11
15.467135
 21
-28.0
 31
0.0
  0
LINE
  8
0
  6
CONTINUOUS
 62
     0
  5
681
 10
15.602866
 20
-28.0
 30
0.0
 11
17.320001
 21
-28.0
 31
0.0
  0
LINE
  8
0
  6
CONTINUOUS
 62
     0
  5
682
 10
18.272866
 20
-28.0
 30
0.0
 11
19.990001
 21
-28.0
 31
0.0
  0
LINE
  8
0
  6
CONTINUOUS
 62
     0
  5
683
 10
10.850001
 20
-27.5
 30
0.0
 11
12.567135
 21
-27.5
 31
0.0
  0
LINE
  8
0
  6
CONTINUOUS
 62
     0
  5
684
 10
13.980001
 20
-27.5
 30
0.0
 11
17.090001
 21
-27.5
 31
0.0
  0
LINE
  8
0
  6
CONTINUOUS
 62
     0
  5
685
 10
18.502866
 20
-27.5
 30
0.0
 11
20.220001
 21
-27.5
 31
0.0
  0
LINE
  8
0
  6
CONTINUOUS
 62
     0
  5
686
 10
10.620001
 20
-27.0
 30
0.0
 11
12.337135
 21
-27.0
 31
0.0
  0
LINE
  8
0
  6
CONTINUOUS
 62
     0
  5
687
 10
14.210001
 20
-27.0
 30
0.0
 11
16.860001
 21
-27.0
 31
0.0
  0
LINE
  8
0
  6
CONTINUOUS
 62
     0
  5
688
 10
18.732866
 20
-27.0
 30
0.0
 11
20.450001
 21
-27.0
 31
0.0
  0
LINE
  8
0
  6
CONTINUOUS
 62
     0
  5
689
 10
10.390001
 20
-26.5
 30
0.0
 11
12.107135
 21
-26.5
 31
0.0
  0
LINE
  8
0
  6
CONTINUOUS
 62
     0
  5
68A
 10
14.440001
 20
-26.5
 30
0.0
 11
16.630001
 21
-26.5
 31
0.0
  0
LINE
  8
0
  6
CONTINUOUS
 62
     0
  5
68B
 10
18.962866
 20
-26.5
 30
0.0
 11
20.680001
 21
-26.5
 31
0.0
  0
LINE
  8
0
  6
CONTINUOUS
 62
     0
  5
68C
 10
10.160001
 20
-26.0
 30
0.0
 11
11.877135
 21
-26.0
 31
0.0
  0
LINE
  8
0
  6
CONTINUOUS
 62
     0
  5
68D
 10
14.670001
 20
-26.0
 30
0.0
 11
16.400001
 21
-26.0
 31
0.0
  0
LINE
  8
0
  6
CONTINUOUS
 62
     0
  5
68E
 10
19.192866
 20
-26.0
 30
0.0
 11
20.910001
 21
-26.0
 31
0.0
  0
LINE
  8
0
  6
CONTINUOUS
 62
     0
  5
68F
 10
9.930001
 20
-25.5
 30
0.0
 11
11.647135
 21
-25.5
 31
0.0
  0
LINE
  8
0
  6
CONTINUOUS
 62
     0
  5
690
 10
14.900001
 20
-25.5
 30
0.0
 11
16.170001
 21
-25.5
 31
0.0
  0
LINE
  8
0
  6
CONTINUOUS
 62
     0
  5
691
 10
19.422866
 20
-25.5
 30
0.0
 11
21.140001
 21
-25.5
 31
0.0
  0
LINE
  8
0
  6
CONTINUOUS
 62
     0
  5
692
 10
10.0
 20
-25.652173
 30
0.0
 11
10.0
 21
-25.25
 31
0.0
  0
LINE
  8
0
  6
CONTINUOUS
 62
     0
  5
693
 10
10.5
 20
-26.739129
 30
0.0
 11
10.5
 21
-25.25
 31
0.0
  0
LINE
  8
0
  6
CONTINUOUS
 62
     0
  5
694
 10
11.0
 20
-27.826086
 30
0.0
 11
11.0
 21
-25.25
 31
0.0
  0
LINE
  8
0
  6
CONTINUOUS
 62
     0
  5
695
 10
11.5
 20
-28.913042
 30
0.0
 11
11.5
 21
-25.25
 31
0.0
  0
LINE
  8
0
  6
CONTINUOUS
 62
     0
  5
696
 10
12.0
 20
-29.999999
 30
0.0
 11
12.0
 21
-26.267098
 31
0.0
  0
LINE
  8
0
  6
CONTINUOUS
 62
     0
  5
697
 10
12.5
 20
-31.086955
 30
0.0
 11
12.5
 21
-27.354055
 31
0.0
  0
LINE
  8
0
  6
CONTINUOUS
 62
     0
  5
698
 10
13.0
 20
-31.75
 30
0.0
 11
13.0
 21
-28.441011
 31
0.0
  0
LINE
  8
0
  6
CONTINUOUS
 62
     0
  5
699
 10
13.5
 20
-31.75
 30
0.0
 11
13.5
 21
-28.54348
 31
0.0
  0
LINE
  8
0
  6
CONTINUOUS
 62
     0
  5
69A
 10
14.0
 20
-31.189423
 30
0.0
 11
14.0
 21
-27.456523
 31
0.0
  0
LINE
  8
0
  6
CONTINUOUS
 62
     0
  5
69B
 10
14.5
 20
-30.102467
 30
0.0
 11
14.5
 21
-26.369567
 31
0.0
  0
LINE
  8
0
  6
CONTINUOUS
 62
     0
  5
69C
 10
15.0
 20
-29.01551
 30
0.0
 11
15.0
 21
-25.28261
 31
0.0
  0
LINE
  8
0
  6
CONTINUOUS
 62
     0
  5
69D
 10
15.5
 20
-27.928554
 30
0.0
 11
15.5
 21
-25.25
 31
0.0
  0
LINE
  8
0
  6
CONTINUOUS
 62
     0
  5
69E
 10
16.0
 20
-28.863334
 30
0.0
 11
16.0
 21
-25.25
 31
0.0
  0
LINE
  8
0
  6
CONTINUOUS
 62
     0
  5
69F
 10
16.5
 20
-29.950291
 30
0.0
 11
16.5
 21
-26.21739
 31
0.0
  0
LINE
  8
0
  6
CONTINUOUS
 62
     0
  5
6A0
 10
17.0
 20
-31.037247
 30
0.0
 11
17.0
 21
-27.304347
 31
0.0
  0
LINE
  8
0
  6
CONTINUOUS
 62
     0
  5
6A1
 10
17.5
 20
-31.75
 30
0.0
 11
17.5
 21
-28.391303
 31
0.0
  0
LINE
  8
0
  6
CONTINUOUS
 62
     0
  5
6A2
 10
18.0
 20
-31.75
 30
0.0
 11
18.0
 21
-28.593188
 31
0.0
  0
LINE
  8
0
  6
CONTINUOUS
 62
     0
  5
6A3
 10
18.5
 20
-31.239132
 30
0.0
 11
18.5
 21
-27.506231
 31
0.0
  0
LINE
  8
0
  6
CONTINUOUS
 62
     0
  5
6A4
 10
19.0
 20
-30.152175
 30
0.0
 11
19.0
 21
-26.419275
 31
0.0
  0
LINE
  8
0
  6
CONTINUOUS
 62
     0
  5
6A5
 10
19.5
 20
-29.065219
 30
0.0
 11
19.5
 21
-25.332318
 31
0.0
  0
LINE
  8
0
  6
CONTINUOUS
 62
     0
  5
6A6
 10
20.0
 20
-27.978262
 30
0.0
 11
20.0
 21
-25.25
 31
0.0
  0
LINE
  8
0
  6
CONTINUOUS
 62
     0
  5
6A7
 10
20.5
 20
-26.891306
 30
0.0
 11
20.5
 21
-25.25
 31
0.0
  0
LINE
  8
0
  6
CONTINUOUS
 62
     0
  5
6A8
 10
21.0
 20
-25.804349
 30
0.0
 11
21.0
 21
-25.25
 31
0.0
  0
ENDBLK
  8
0
  6
BYBLOCK
 62
     0
  5
6A9
  0
ENDSEC
  0
SECTION
  2
ENTITIES
  0
TEXT
  8
LY_1
  6
CONTINUOUS
 62
   255
  5
7F9
 10
417.083013
 20
-413.410923
 30
0.0
 40
30.0
  1
LSGB / LSGWB
 41
0.975434
  7
MX_NOTE_STANDARD
 11
417.083013
 21
-398.410923
 31
0.0
 73
     2
  0
TEXT
  8
LY_1
  6
CONTINUOUS
 62
   255
  5
7FA
 10
543.455845
 20
636.589077
 30
0.0
 40
30.0
  1
LSG
 41
0.9375
  7
MX_NOTE_STANDARD
 11
543.455845
 21
651.589077
 31
0.0
 73
     2
  0
INSERT
  8
LY_1
  6
BYBLOCK
  5
7FB
  2
MS_10
 10
980.955845
 20
-1148.410923
 30
0.0
  0
INSERT
  8
LY_1
  6
BYBLOCK
  5
7FC
  2
MS_10
 10
780.955845
 20
-1148.410923
 30
0.0
  0
INSERT
  8
LY_1
  6
BYBLOCK
  5
7FD
  2
MS_10
 10
580.955845
 20
-1148.410923
 30
0.0
  0
INSERT
  8
LY_1
  6
BYBLOCK
  5
7FE
  2
MS_10
 10
380.955845
 20
-1148.410923
 30
0.0
  0
INSERT
  8
LY_1
  6
BYBLOCK
  5
7FF
  2
MS_10
 10
180.955845
 20
-1148.410923
 30
0.0
  0
INSERT
  8
LY_1
  6
BYBLOCK
  5
800
  2
MS_10
 10
180.955845
 20
-98.410923
 30
0.0
  0
INSERT
  8
LY_1
  6
BYBLOCK
  5
801
  2
MS_10
 10
380.955845
 20
-98.410923
 30
0.0
  0
INSERT
  8
LY_1
  6
BYBLOCK
  5
802
  2
MS_10
 10
580.955845
 20
-98.410923
 30
0.0
  0
INSERT
  8
LY_1
  6
BYBLOCK
  5
803
  2
MS_10
 10
780.955845
 20
-98.410923
 30
0.0
  0
INSERT
  8
LY_1
  6
BYBLOCK
  5
804
  2
MS_10
 10
980.955845
 20
-98.410923
 30
0.0
  0
INSERT
  8
LY_1
  6
BYBLOCK
  5
805
  2
MS_8
 10
1180.955845
 20
-813.180179
 30
0.0
  0
INSERT
  8
LY_1
  6
BYBLOCK
  5
806
  2
MS_1
 10
1180.955845
 20
-616.180179
 30
0.0
  0
INSERT
  8
LY_1
  6
BYBLOCK
  5
807
  2
MS_2
 10
1180.955845
 20
-816.180179
 30
0.0
  0
INSERT
  8
LY_1
  6
BYBLOCK
  5
808
  2
MS_2
 10
1180.955845
 20
-776.180179
 30
0.0
  0
INSERT
  8
LY_1
  6
BYBLOCK
  5
809
  2
MS_2
 10
1180.955845
 20
-736.180179
 30
0.0
  0
INSERT
  8
LY_1
  6
BYBLOCK
  5
80A
  2
MS_2
 10
1180.955845
 20
-696.180179
 30
0.0
  0
INSERT
  8
LY_1
  6
BYBLOCK
  5
80B
  2
MS_2
 10
1180.955845
 20
-656.180179
 30
0.0
  0
INSERT
  8
LY_1
  6
BYBLOCK
  5
80C
  2
MS_2
 10
1180.955845
 20
393.819821
 30
0.0
  0
INSERT
  8
LY_1
  6
BYBLOCK
  5
80D
  2
MS_2
 10
1180.955845
 20
353.819821
 30
0.0
  0
INSERT
  8
LY_1
  6
BYBLOCK
  5
80E
  2
MS_2
 10
1180.955845
 20
313.819821
 30
0.0
  0
INSERT
  8
LY_1
  6
BYBLOCK
  5
80F
  2
MS_2
 10
1180.955845
 20
273.819821
 30
0.0
  0
INSERT
  8
LY_1
  6
BYBLOCK
  5
810
  2
MS_2
 10
1180.955845
 20
233.819821
 30
0.0
  0
INSERT
  8
LY_1
  6
BYBLOCK
  5
811
  2
MS_1
 10
1180.955845
 20
433.819821
 30
0.0
  0
INSERT
  8
LY_1
  6
BYBLOCK
  5
812
  2
MS_8
 10
1180.955845
 20
236.819821
 30
0.0
  0
INSERT
  8
LY_1
  6
BYBLOCK
  5
813
  2
MS_7
 10
980.955845
 20
-816.180179
 30
0.0
  0
INSERT
  8
LY_1
  6
BYBLOCK
  5
814
  2
MS_7
 10
780.955845
 20
-814.180179
 30
0.0
  0
INSERT
  8
LY_1
  6
BYBLOCK
  5
815
  2
MS_7
 10
580.955845
 20
-816.180179
 30
0.0
  0
INSERT
  8
LY_1
  6
BYBLOCK
  5
816
  2
MS_7
 10
380.955845
 20
-816.180179
 30
0.0
  0
INSERT
  8
LY_1
  6
BYBLOCK
  5
817
  2
MS_7
 10
180.955845
 20
-816.180179
 30
0.0
  0
INSERT
  8
LY_1
  6
BYBLOCK
  5
818
  2
MS_2
 10
180.955845
 20
-816.180179
 30
0.0
  0
INSERT
  8
LY_1
  6
BYBLOCK
  5
819
  2
MS_2
 10
380.955845
 20
-776.180179
 30
0.0
  0
INSERT
  8
LY_1
  6
BYBLOCK
  5
81A
  2
MS_2
 10
380.955845
 20
-816.180179
 30
0.0
  0
INSERT
  8
LY_1
  6
BYBLOCK
  5
81B
  2
MS_2
 10
580.955845
 20
-736.180179
 30
0.0
  0
INSERT
  8
LY_1
  6
BYBLOCK
  5
81C
  2
MS_2
 10
580.955845
 20
-776.180179
 30
0.0
  0
INSERT
  8
LY_1
  6
BYBLOCK
  5
81D
  2
MS_2
 10
580.955845
 20
-816.180179
 30
0.0
  0
INSERT
  8
LY_1
  6
BYBLOCK
  5
81E
  2
MS_2
 10
780.955845
 20
-696.180179
 30
0.0
  0
INSERT
  8
LY_1
  6
BYBLOCK
  5
81F
  2
MS_2
 10
780.955845
 20
-736.180179
 30
0.0
  0
INSERT
  8
LY_1
  6
BYBLOCK
  5
820
  2
MS_2
 10
780.955845
 20
-776.180179
 30
0.0
  0
INSERT
  8
LY_1
  6
BYBLOCK
  5
821
  2
MS_2
 10
780.955845
 20
-816.180179
 30
0.0
  0
INSERT
  8
LY_1
  6
BYBLOCK
  5
822
  2
MS_2
 10
980.955845
 20
-656.180179
 30
0.0
  0
INSERT
  8
LY_1
  6
BYBLOCK
  5
823
  2
MS_2
 10
980.955845
 20
-696.180179
 30
0.0
  0
INSERT
  8
LY_1
  6
BYBLOCK
  5
824
  2
MS_2
 10
980.955845
 20
-736.180179
 30
0.0
  0
INSERT
  8
LY_1
  6
BYBLOCK
  5
825
  2
MS_2
 10
980.955845
 20
-776.180179
 30
0.0
  0
INSERT
  8
LY_1
  6
BYBLOCK
  5
826
  2
MS_2
 10
980.955845
 20
-816.180179
 30
0.0
  0
INSERT
  8
LY_1
  6
BYBLOCK
  5
827
  2
MS_1
 10
180.955845
 20
-776.180179
 30
0.0
  0
INSERT
  8
LY_1
  6
BYBLOCK
  5
828
  2
MS_1
 10
380.955845
 20
-736.180179
 30
0.0
  0
INSERT
  8
LY_1
  6
BYBLOCK
  5
829
  2
MS_1
 10
580.955845
 20
-696.180179
 30
0.0
  0
INSERT
  8
LY_1
  6
BYBLOCK
  5
82A
  2
MS_1
 10
780.955845
 20
-656.180179
 30
0.0
  0
INSERT
  8
LY_1
  6
BYBLOCK
  5
82B
  2
MS_1
 10
980.955845
 20
-616.180179
 30
0.0
  0
INSERT
  8
LY_1
  6
BYBLOCK
  5
82C
  2
MS_4
 10
180.955845
 20
-498.410923
 30
0.0
  0
INSERT
  8
LY_1
  6
BYBLOCK
  5
82D
  2
MS_4
 10
380.955845
 20
-498.410923
 30
0.0
  0
INSERT
  8
LY_1
  6
BYBLOCK
  5
82E
  2
MS_4
 10
580.955845
 20
-498.410923
 30
0.0
  0
INSERT
  8
LY_1
  6
BYBLOCK
  5
82F
  2
MS_4
 10
780.955845
 20
-498.410923
 30
0.0
  0
INSERT
  8
LY_1
  6
BYBLOCK
  5
830
  2
MS_4
 10
980.955845
 20
-498.410923
 30
0.0
  0
INSERT
  8
LY_1
  6
BYBLOCK
  5
831
  2
MS_5
 10
980.955845
 20
233.819821
 30
0.0
  0
INSERT
  8
LY_1
  6
BYBLOCK
  5
832
  2
MS_5
 10
780.955845
 20
233.819821
 30
0.0
  0
INSERT
  8
LY_1
  6
BYBLOCK
  5
833
  2
MS_5
 10
580.955845
 20
233.819821
 30
0.0
  0
INSERT
  8
LY_1
  6
BYBLOCK
  5
834
  2
MS_5
 10
380.955845
 20
233.819821
 30
0.0
  0
INSERT
  8
LY_1
  6
BYBLOCK
  5
835
  2
MS_5
 10
180.955845
 20
233.819821
 30
0.0
  0
INSERT
  8
LY_1
  6
BYBLOCK
  5
836
  2
MS_4
 10
980.955845
 20
551.589077
 30
0.0
  0
INSERT
  8
LY_1
  6
BYBLOCK
  5
837
  2
MS_4
 10
780.955845
 20
551.589077
 30
0.0
  0
INSERT
  8
LY_1
  6
BYBLOCK
  5
838
  2
MS_4
 10
580.955845
 20
551.589077
 30
0.0
  0
INSERT
  8
LY_1
  6
BYBLOCK
  5
839
  2
MS_4
 10
380.955845
 20
551.589077
 30
0.0
  0
INSERT
  8
LY_1
  6
BYBLOCK
  5
83A
  2
MS_4
 10
180.955845
 20
551.589077
 30
0.0
  0
INSERT
  8
LY_1
  6
BYBLOCK
  5
83B
  2
MS_1
 10
980.955845
 20
433.819821
 30
0.0
  0
INSERT
  8
LY_1
  6
BYBLOCK
  5
83C
  2
MS_1
 10
780.955845
 20
393.819821
 30
0.0
  0
INSERT
  8
LY_1
  6
BYBLOCK
  5
83D
  2
MS_1
 10
580.955845
 20
353.819821
 30
0.0
  0
INSERT
  8
LY_1
  6
BYBLOCK
  5
83E
  2
MS_1
 10
380.955845
 20
313.819821
 30
0.0
  0
INSERT
  8
LY_1
  6
BYBLOCK
  5
83F
  2
MS_1
 10
180.955845
 20
273.819821
 30
0.0
  0
INSERT
  8
LY_1
  6
BYBLOCK
  5
840
  2
MS_2
 10
980.955845
 20
233.819821
 30
0.0
  0
INSERT
  8
LY_1
  6
BYBLOCK
  5
841
  2
MS_2
 10
980.955845
 20
273.819821
 30
0.0
  0
INSERT
  8
LY_1
  6
BYBLOCK
  5
842
  2
MS_2
 10
980.955845
 20
313.819821
 30
0.0
  0
INSERT
  8
LY_1
  6
BYBLOCK
  5
843
  2
MS_2
 10
980.955845
 20
353.819821
 30
0.0
  0
INSERT
  8
LY_1
  6
BYBLOCK
  5
844
  2
MS_2
 10
980.955845
 20
393.819821
 30
0.0
  0
INSERT
  8
LY_1
  6
BYBLOCK
  5
845
  2
MS_2
 10
780.955845
 20
233.819821
 30
0.0
  0
INSERT
  8
LY_1
  6
BYBLOCK
  5
846
  2
MS_2
 10
780.955845
 20
273.819821
 30
0.0
  0
INSERT
  8
LY_1
  6
BYBLOCK
  5
847
  2
MS_2
 10
780.955845
 20
313.819821
 30
0.0
  0
INSERT
  8
LY_1
  6
BYBLOCK
  5
848
  2
MS_2
 10
780.955845
 20
353.819821
 30
0.0
  0
INSERT
  8
LY_1
  6
BYBLOCK
  5
849
  2
MS_2
 10
580.955845
 20
233.819821
 30
0.0
  0
INSERT
  8
LY_1
  6
BYBLOCK
  5
84A
  2
MS_2
 10
580.955845
 20
273.819821
 30
0.0
  0
INSERT
  8
LY_1
  6
BYBLOCK
  5
84B
  2
MS_2
 10
580.955845
 20
313.819821
 30
0.0
  0
INSERT
  8
LY_1
  6
BYBLOCK
  5
84C
  2
MS_2
 10
380.955845
 20
233.819821
 30
0.0
  0
INSERT
  8
LY_1
  6
BYBLOCK
  5
84D
  2
MS_2
 10
380.955845
 20
273.819821
 30
0.0
  0
INSERT
  8
LY_1
  6
BYBLOCK
  5
84E
  2
MS_2
 10
180.955845
 20
233.819821
 30
0.0
  0
ENDSEC
  0
EOF
