  0
SECTION
  2
HEADER
  9
$ACADVER
  1
AC1009
  9
$DWGCODEPAGE
  3
dos932
  9
$INSBASE
 10
0.0
 20
0.0
 30
0.0
  9
$EXTMIN
 10
0.0
 20
0.0
 30
0.0
  9
$EXTMAX
 10
1400.0
 20
2210.0
 30
0.0
  9
$LIMMIN
 10
0.0
 20
0.0
  9
$LIMMAX
 10
1400.0
 20
2210.0
  9
$ORTHOMODE
 70
     0
  9
$REGENMODE
 70
     1
  9
$FILLMODE
 70
     1
  9
$QTEXTMODE
 70
     0
  9
$MIRRTEXT
 70
     1
  9
$DRAGMODE
 70
     2
  9
$LTSCALE
 40
1.0
  9
$OSMODE
 70
     0
  9
$ATTMODE
 70
     1
  9
$TEXTSIZE
 40
4.1656
  9
$TRACEWID
 40
0.05
  9
$TEXTSTYLE
  7
MX_NOTE_STANDARD
  9
$CLAYER
  8
LY_1
  9
$CELTYPE
  6
CONTINUOUS
  9
$CECOLOR
 62
   256
  9
$DIMSCALE
 40
1.0
  9
$DIMASZ
 40
2.5
  9
$DIMEXO
 40
0.5
  9
$DIMDLI
 40
3.75
  9
$DIMRND
 40
0.0
  9
$DIMDLE
 40
0.0
  9
$DIMEXE
 40
1.0
  9
$DIMTP
 40
0.0
  9
$DIMTM
 40
0.0
  9
$DIMTXT
 40
2.5
  9
$DIMCEN
 40
2.5
  9
$DIMTSZ
 40
0.0
  9
$DIMTOL
 70
     0
  9
$DIMLIM
 70
     0
  9
$DIMTIH
 70
     0
  9
$DIMTOH
 70
     0
  9
$DIMSE1
 70
     0
  9
$DIMSE2
 70
     0
  9
$DIMTAD
 70
     1
  9
$DIMZIN
 70
     8
  9
$DIMBLK
  1

  9
$DIMASO
 70
     1
  9
$DIMSHO
 70
     1
  9
$DIMPOST
  1

  9
$DIMAPOST
  1

  9
$DIMALT
 70
     0
  9
$DIMALTD
 70
     4
  9
$DIMALTF
 40
0.03937
  9
$DIMLFAC
 40
1.0
  9
$DIMTOFL
 70
     1
  9
$DIMTVP
 40
0.0
  9
$DIMTIX
 70
     0
  9
$DIMSOXD
 70
     0
  9
$DIMSAH
 70
     0
  9
$DIMBLK1
  1

  9
$DIMBLK2
  1

  9
$DIMSTYLE
  2
MXDIMSTYLE
  9
$DIMCLRD
 70
     0
  9
$DIMCLRE
 70
     0
  9
$DIMCLRT
 70
     0
  9
$DIMTFAC
 40
1.0
  9
$DIMGAP
 40
1.0
  9
$LUNITS
 70
     2
  9
$LUPREC
 70
     4
  9
$AXISMODE
 70
     0
  9
$AXISUNIT
 10
0.0
 20
0.0
  9
$SKETCHINC
 40
0.1
  9
$FILLETRAD
 40
0.0
  9
$AUNITS
 70
     0
  9
$AUPREC
 70
     0
  9
$MENU
  1
acad
  9
$ELEVATION
 40
0.0
  9
$PELEVATION
 40
0.0
  9
$THICKNESS
 40
0.0
  9
$LIMCHECK
 70
     0
  9
$BLIPMODE
 70
     1
  9
$CHAMFERA
 40
0.0
  9
$CHAMFERB
 40
0.0
  9
$SKPOLY
 70
     0
  9
$TDCREATE
 40
2453664.557777778
  9
$TDUPDATE
 40
2453664.557777778
  9
$TDINDWG
 40
0.0000000000
  9
$TDUSRTIMER
 40
0.0000000000
  9
$USRTIMER
 70
     1
  9
$ANGBASE
 50
0.0
  9
$ANGDIR
 70
     0
  9
$PDMODE
 70
     0
  9
$PDSIZE
 40
0.0
  9
$PLINEWID
 40
0.0
  9
$COORDS
 70
     1
  9
$SPLFRAME
 70
     0
  9
$SPLINETYPE
 70
     6
  9
$SPLINESEGS
 70
     8
  9
$ATTDIA
 70
     0
  9
$ATTREQ
 70
     1
  9
$HANDLING
 70
     1
  9
$HANDSEED
  5
54F
  9
$SURFTAB1
 70
     6
  9
$SURFTAB2
 70
     6
  9
$SURFTYPE
 70
     6
  9
$SURFU
 70
     6
  9
$SURFV
 70
     6
  9
$UCSNAME
  2

  9
$UCSORG
 10
0.0
 20
0.0
 30
0.0
  9
$UCSXDIR
 10
1.0
 20
0.0
 30
0.0
  9
$UCSYDIR
 10
0.0
 20
1.0
 30
0.0
  9
$PUCSNAME
  2

  9
$PUCSORG
 10
0.0
 20
0.0
 30
0.0
  9
$PUCSXDIR
 10
1.0
 20
0.0
 30
0.0
  9
$PUCSYDIR
 10
0.0
 20
1.0
 30
0.0
  9
$USERI1
 70
     0
  9
$USERI2
 70
     0
  9
$USERI3
 70
     0
  9
$USERI4
 70
     0
  9
$USERI5
 70
     0
  9
$USERR1
 40
0.0
  9
$USERR2
 40
0.0
  9
$USERR3
 40
0.0
  9
$USERR4
 40
0.0
  9
$USERR5
 40
0.0
  9
$WORLDVIEW
 70
     1
  9
$SHADEDGE
 70
     3
  9
$SHADEDIF
 70
    70
  9
$TILEMODE
 70
     1
  9
$MAXACTVP
 70
    16
  9
$PINSBASE
 10
0.0
 20
0.0
 30
0.0
  9
$PLIMCHECK
 70
     0
  9
$PEXTMIN
 10
1.000000E+20
 20
1.000000E+20
 30
1.000000E+20
  9
$PEXTMAX
 10
-1.000000E+20
 20
-1.000000E+20
 30
-1.000000E+20
  9
$PLIMMIN
 10
0.0
 20
0.0
  9
$PLIMMAX
 10
12.0
 20
9.0
  9
$UNITMODE
 70
     0
  9
$VISRETAIN
 70
     0
  9
$PLINEGEN
 70
     1
  9
$PSLTSCALE
 70
     0
  9
$TREEDEPTH
 70
  3020
  9
$DWGCODEPAGE
  3
dos932
  0
ENDSEC
  0
SECTION
  2
TABLES
  0
TABLE
  2
VPORT
 70
     1
  0
VPORT
  2
*ACTIVE
 70
     0
 10
0.0
 20
0.0
 11
1.0
 21
1.0
 12
700.0
 22
1105.0
 13
0.0
 23
0.0
 14
1.0
 24
1.0
 15
0.0
 25
0.0
 16
0.0
 26
0.0
 36
1.0
 17
0.0
 27
0.0
 37
0.0
 40
2232.1
 41
1.732051
 42
50.0
 43
0.0
 44
0.0
 50
0.0
 51
0.0
 71
     0
 72
   100
 73
     1
 74
     1
 75
     0
 76
     0
 77
     0
 78
     0
  0
ENDTAB
  0
TABLE
  2
LTYPE
 70
     1
  0
LTYPE
  2
CONTINUOUS
 70
    64
  3
Solid line
 72
    65
 73
     0
 40
0.0
  0
ENDTAB
  0
TABLE
  2
LAYER
 70
     3
  0
LAYER
  2
0
 70
     0
 62
     7
  6
CONTINUOUS
  0
LAYER
  2
LY_1
 70
     0
 62
     7
  6
CONTINUOUS
  0
LAYER
  2
DEFPOINTS
 70
     0
 62
     7
  6
CONTINUOUS
  0
ENDTAB
  0
TABLE
  2
STYLE
 70
     1
  0
STYLE
  2
MX_NOTE_STANDARD
 70
     0
 40
0.0
 41
1.0
 50
0.0
 71
     0
 42
4.1656
  3
txt.shx
  4
extfont.shx
  0
ENDTAB
  0
TABLE
  2
VIEW
 70
     0
  0
ENDTAB
  0
TABLE
  2
UCS
 70
     0
  0
ENDTAB
  0
TABLE
  2
APPID
 70
     1
  0
APPID
  2
ACAD
 70
     0
  0
ENDTAB
  0
TABLE
  2
DIMSTYLE
 70
     1
  0
DIMSTYLE
  2
MXDIMSTYLE
 70
     0
  3

  4

  5

  6

  7

 40
1.0
 41
2.5
 42
0.5
 43
3.75
 44
1.0
 45
0.0
 46
0.0
 47
0.0
 48
0.0
 71
     0
 72
     0
 73
     0
 74
     0
 75
     0
 76
     0
 77
     1
 78
     8
140
2.5
141
2.5
142
0.0
143
0.03937
144
1.0
145
0.0
146
1.0
147
1.0
170
     0
171
     4
172
     1
173
     0
174
     0
175
     0
176
     0
177
     0
178
     0
  0
ENDTAB
  0
ENDSEC
  0
SECTION
  2
BLOCKS
  0
BLOCK
  8
0
  5
28
  2
MS_1
 70
     0
 10
0.0
 20
0.0
 30
0.0
  3
MS_1
  0
LINE
  8
0
  6
CONTINUOUS
 62
     3
  5
29
 10
35.0
 20
-166.0
 30
0.0
 11
-35.0
 21
-166.0
 31
0.0
  0
LINE
  8
0
  6
CONTINUOUS
 62
     3
  5
2A
 10
-35.0
 20
-168.0
 30
0.0
 11
35.0
 21
-168.0
 31
0.0
  0
LINE
  8
0
  6
CONTINUOUS
 62
     3
  5
2B
 10
13.279056
 20
-170.156693
 30
0.0
 11
13.896867
 21
-169.8
 31
0.0
  0
LINE
  8
0
  6
CONTINUOUS
 62
     3
  5
2C
 10
-20.74415
 20
-173.0
 30
0.0
 11
-13.896867
 21
-173.0
 31
0.0
  0
LINE
  8
0
  6
CONTINUOUS
 62
     3
  5
2D
 10
-21.36196
 20
-170.156693
 30
0.0
 11
-21.36196
 21
-172.643307
 31
0.0
  0
LINE
  8
0
  6
CONTINUOUS
 62
    80
  5
2E
 10
-19.341234
 20
-170.204145
 30
0.0
 11
-19.341234
 21
-172.595855
 31
0.0
  0
LINE
  8
0
  6
CONTINUOUS
 62
     3
  5
2F
 10
-21.36196
 20
-170.156693
 30
0.0
 11
-20.74415
 21
-169.8
 31
0.0
  0
LINE
  8
0
  6
CONTINUOUS
 62
     3
  5
30
 10
-21.36196
 20
-172.643307
 30
0.0
 11
-20.74415
 21
-173.0
 31
0.0
  0
LINE
  8
0
  6
CONTINUOUS
 62
     3
  5
31
 10
-13.279056
 20
-170.156693
 30
0.0
 11
-13.279056
 21
-172.643307
 31
0.0
  0
LINE
  8
0
  6
CONTINUOUS
 62
    80
  5
32
 10
-15.299782
 20
-170.204145
 30
0.0
 11
-15.299782
 21
-172.595855
 31
0.0
  0
LINE
  8
0
  6
CONTINUOUS
 62
     3
  5
33
 10
-13.279056
 20
-170.156693
 30
0.0
 11
-13.896867
 21
-169.8
 31
0.0
  0
LINE
  8
0
  6
CONTINUOUS
 62
     3
  5
34
 10
-13.279056
 20
-172.643307
 30
0.0
 11
-13.896867
 21
-173.0
 31
0.0
  0
LINE
  8
0
  6
CONTINUOUS
 62
     3
  5
35
 10
-22.320508
 20
-168.8
 30
0.0
 11
-12.320508
 21
-168.8
 31
0.0
  0
LINE
  8
0
  6
CONTINUOUS
 62
     3
  5
36
 10
-12.320508
 20
-168.0
 30
0.0
 11
-12.320508
 21
-168.8
 31
0.0
  0
LINE
  8
0
  6
CONTINUOUS
 62
     3
  5
37
 10
-22.320508
 20
-168.0
 30
0.0
 11
-22.320508
 21
-168.8
 31
0.0
  0
LINE
  8
0
  6
CONTINUOUS
 62
     3
  5
38
 10
-21.120508
 20
-169.8
 30
0.0
 11
-13.520508
 21
-169.8
 31
0.0
  0
LINE
  8
0
  6
CONTINUOUS
 62
    80
  5
39
 10
-17.820508
 20
-169.8
 30
0.0
 11
-16.820508
 21
-168.8
 31
0.0
  0
LINE
  8
0
  6
CONTINUOUS
 62
     3
  5
3A
 10
-13.520508
 20
-168.8
 30
0.0
 11
-13.520508
 21
-169.8
 31
0.0
  0
LINE
  8
0
  6
CONTINUOUS
 62
     3
  5
3B
 10
-21.120508
 20
-168.8
 30
0.0
 11
-21.120508
 21
-169.8
 31
0.0
  0
LINE
  8
0
  6
CONTINUOUS
 62
     3
  5
3C
 10
-18.820508
 20
-179.2
 30
0.0
 11
-15.820508
 21
-179.2
 31
0.0
  0
LINE
  8
0
  6
CONTINUOUS
 62
     3
  5
3D
 10
-15.320508
 20
-173.0
 30
0.0
 11
-15.320508
 21
-178.7
 31
0.0
  0
LINE
  8
0
  6
CONTINUOUS
 62
     3
  5
3E
 10
-19.320508
 20
-173.0
 30
0.0
 11
-19.320508
 21
-178.7
 31
0.0
  0
LINE
  8
0
  6
CONTINUOUS
 62
    80
  5
3F
 10
-19.320508
 20
-178.7
 30
0.0
 11
-15.320508
 21
-178.7
 31
0.0
  0
LINE
  8
0
  6
CONTINUOUS
 62
    80
  5
40
 10
-18.820508
 20
-173.0
 30
0.0
 11
-18.820508
 21
-179.2
 31
0.0
  0
LINE
  8
0
  6
CONTINUOUS
 62
    80
  5
41
 10
-15.820508
 20
-173.0
 30
0.0
 11
-15.820508
 21
-179.2
 31
0.0
  0
LINE
  8
0
  6
CONTINUOUS
 62
     3
  5
42
 10
-19.320508
 20
-178.7
 30
0.0
 11
-18.820508
 21
-179.2
 31
0.0
  0
LINE
  8
0
  6
CONTINUOUS
 62
     3
  5
43
 10
-15.320508
 20
-178.7
 30
0.0
 11
-15.820508
 21
-179.2
 31
0.0
  0
LINE
  8
0
  6
CONTINUOUS
 62
    80
  5
44
 10
15.299782
 20
-170.204145
 30
0.0
 11
15.299782
 21
-172.595855
 31
0.0
  0
LINE
  8
0
  6
CONTINUOUS
 62
     3
  5
45
 10
13.279056
 20
-170.156693
 30
0.0
 11
13.279056
 21
-172.643307
 31
0.0
  0
LINE
  8
0
  6
CONTINUOUS
 62
     3
  5
46
 10
21.36196
 20
-172.643307
 30
0.0
 11
20.74415
 21
-173.0
 31
0.0
  0
LINE
  8
0
  6
CONTINUOUS
 62
     3
  5
47
 10
21.36196
 20
-170.156693
 30
0.0
 11
20.74415
 21
-169.8
 31
0.0
  0
LINE
  8
0
  6
CONTINUOUS
 62
    80
  5
48
 10
19.341234
 20
-170.204145
 30
0.0
 11
19.341234
 21
-172.595855
 31
0.0
  0
LINE
  8
0
  6
CONTINUOUS
 62
     3
  5
49
 10
21.36196
 20
-170.156693
 30
0.0
 11
21.36196
 21
-172.643307
 31
0.0
  0
LINE
  8
0
  6
CONTINUOUS
 62
     3
  5
4A
 10
13.279056
 20
-172.643307
 30
0.0
 11
13.896867
 21
-173.0
 31
0.0
  0
LINE
  8
0
  6
CONTINUOUS
 62
     3
  5
4B
 10
22.320508
 20
-168.8
 30
0.0
 11
12.320508
 21
-168.8
 31
0.0
  0
LINE
  8
0
  6
CONTINUOUS
 62
     3
  5
4C
 10
12.320508
 20
-168.0
 30
0.0
 11
12.320508
 21
-168.8
 31
0.0
  0
LINE
  8
0
  6
CONTINUOUS
 62
     3
  5
4D
 10
22.320508
 20
-168.0
 30
0.0
 11
22.320508
 21
-168.8
 31
0.0
  0
LINE
  8
0
  6
CONTINUOUS
 62
     3
  5
4E
 10
21.120508
 20
-169.8
 30
0.0
 11
13.520508
 21
-169.8
 31
0.0
  0
LINE
  8
0
  6
CONTINUOUS
 62
    80
  5
4F
 10
17.820508
 20
-168.8
 30
0.0
 11
16.820508
 21
-169.8
 31
0.0
  0
LINE
  8
0
  6
CONTINUOUS
 62
     3
  5
50
 10
13.520508
 20
-168.8
 30
0.0
 11
13.520508
 21
-169.8
 31
0.0
  0
LINE
  8
0
  6
CONTINUOUS
 62
     3
  5
51
 10
21.120508
 20
-168.8
 30
0.0
 11
21.120508
 21
-169.8
 31
0.0
  0
LINE
  8
0
  6
CONTINUOUS
 62
     3
  5
52
 10
18.820508
 20
-179.2
 30
0.0
 11
15.820508
 21
-179.2
 31
0.0
  0
LINE
  8
0
  6
CONTINUOUS
 62
     3
  5
53
 10
15.320508
 20
-173.0
 30
0.0
 11
15.320508
 21
-178.7
 31
0.0
  0
LINE
  8
0
  6
CONTINUOUS
 62
     3
  5
54
 10
19.320508
 20
-173.0
 30
0.0
 11
19.320508
 21
-178.7
 31
0.0
  0
LINE
  8
0
  6
CONTINUOUS
 62
    80
  5
55
 10
19.320508
 20
-178.7
 30
0.0
 11
15.320508
 21
-178.7
 31
0.0
  0
LINE
  8
0
  6
CONTINUOUS
 62
    80
  5
56
 10
18.820508
 20
-173.0
 30
0.0
 11
18.820508
 21
-179.2
 31
0.0
  0
LINE
  8
0
  6
CONTINUOUS
 62
    80
  5
57
 10
15.820508
 20
-173.0
 30
0.0
 11
15.820508
 21
-179.2
 31
0.0
  0
LINE
  8
0
  6
CONTINUOUS
 62
     3
  5
58
 10
19.320508
 20
-178.7
 30
0.0
 11
18.820508
 21
-179.2
 31
0.0
  0
LINE
  8
0
  6
CONTINUOUS
 62
     3
  5
59
 10
15.320508
 20
-178.7
 30
0.0
 11
15.820508
 21
-179.2
 31
0.0
  0
LINE
  8
0
  6
CONTINUOUS
 62
     3
  5
5A
 10
20.74415
 20
-173.0
 30
0.0
 11
13.896867
 21
-173.0
 31
0.0
  0
ARC
  8
0
  6
CONTINUOUS
 62
    80
  5
5B
 10
-20.351597
 20
-171.265026
 30
0.0
 40
1.465026
 50
46.397181
 51
120.0
  0
ARC
  8
0
  6
CONTINUOUS
 62
    80
  5
5C
 10
-20.351597
 20
-171.534973
 30
0.0
 40
1.465026
 50
240.0
 51
313.602819
  0
ARC
  8
0
  6
CONTINUOUS
 62
    80
  5
5D
 10
-14.289419
 20
-171.265026
 30
0.0
 40
1.465026
 50
60.0
 51
133.602819
  0
ARC
  8
0
  6
CONTINUOUS
 62
    80
  5
5E
 10
-14.289419
 20
-171.534973
 30
0.0
 40
1.465026
 50
226.397181
 51
300.0
  0
ARC
  8
0
  6
CONTINUOUS
 62
    80
  5
5F
 10
-17.320508
 20
-175.053887
 30
0.0
 40
5.253887
 50
67.380135
 51
112.619865
  0
ARC
  8
0
  6
CONTINUOUS
 62
    80
  5
60
 10
-17.320508
 20
-167.746112
 30
0.0
 40
5.253887
 50
247.380135
 51
292.619865
  0
ARC
  8
0
  6
CONTINUOUS
 62
    80
  5
61
 10
20.351597
 20
-171.265026
 30
0.0
 40
1.465026
 50
60.0
 51
133.602819
  0
ARC
  8
0
  6
CONTINUOUS
 62
    80
  5
62
 10
20.351597
 20
-171.534973
 30
0.0
 40
1.465026
 50
226.397181
 51
300.0
  0
ARC
  8
0
  6
CONTINUOUS
 62
    80
  5
63
 10
14.289419
 20
-171.265026
 30
0.0
 40
1.465026
 50
46.397181
 51
120.0
  0
ARC
  8
0
  6
CONTINUOUS
 62
    80
  5
64
 10
14.289419
 20
-171.534973
 30
0.0
 40
1.465026
 50
240.0
 51
313.602819
  0
ARC
  8
0
  6
CONTINUOUS
 62
    80
  5
65
 10
17.320508
 20
-175.053887
 30
0.0
 40
5.253887
 50
67.380135
 51
112.619865
  0
ARC
  8
0
  6
CONTINUOUS
 62
    80
  5
66
 10
17.320508
 20
-167.746112
 30
0.0
 40
5.253887
 50
247.380135
 51
292.619865
  0
LINE
  8
0
  6
CONTINUOUS
 62
     3
  5
67
 10
-32.0
 20
-156.0
 30
0.0
 11
32.0
 21
-156.0
 31
0.0
  0
LINE
  8
0
  6
CONTINUOUS
 62
     3
  5
68
 10
-32.0
 20
-150.0
 30
0.0
 11
32.0
 21
-150.0
 31
0.0
  0
LINE
  8
0
  6
CONTINUOUS
 62
     3
  5
69
 10
-33.5
 20
-146.0
 30
0.0
 11
33.5
 21
-146.0
 31
0.0
  0
LINE
  8
0
  6
CONTINUOUS
 62
     3
  5
6A
 10
-29.5
 20
-141.0
 30
0.0
 11
29.5
 21
-141.0
 31
0.0
  0
LINE
  8
0
  6
CONTINUOUS
 62
     3
  5
6B
 10
30.0
 20
-0.5
 30
0.0
 11
30.0
 21
-140.5
 31
0.0
  0
LINE
  8
0
  6
CONTINUOUS
 62
     3
  5
6C
 10
29.999999
 20
-140.5
 30
0.0
 11
29.5
 21
-141.0
 31
0.0
  0
LINE
  8
0
  6
CONTINUOUS
 62
     3
  5
6D
 10
35.0
 20
-166.0
 30
0.0
 11
35.0
 21
-168.0
 31
0.0
  0
LINE
  8
0
  6
CONTINUOUS
 62
     3
  5
6E
 10
33.5
 20
-165.5
 30
0.0
 11
33.5
 21
-157.5
 31
0.0
  0
LINE
  8
0
  6
CONTINUOUS
 62
     3
  5
6F
 10
32.0
 20
-156.0
 30
0.0
 11
32.0
 21
-150.0
 31
0.0
  0
ARC
  8
0
  6
CONTINUOUS
 62
     3
  5
70
 10
32.0
 20
-148.5
 30
0.0
 40
1.5
 50
270.0
 51
0.0
  0
LINE
  8
0
  6
CONTINUOUS
 62
     3
  5
71
 10
29.5
 20
-141.0
 30
0.0
 11
30.0
 21
-141.5
 31
0.0
  0
ARC
  8
0
  6
CONTINUOUS
 62
     3
  5
72
 10
34.599879
 20
-141.533428
 30
0.0
 40
4.6
 50
179.583633
 51
256.166334
  0
ARC
  8
0
  6
CONTINUOUS
 62
     3
  5
73
 10
32.0
 20
-157.5
 30
0.0
 40
1.5
 50
0.0
 51
90.0
  0
LINE
  8
0
  6
CONTINUOUS
 62
     3
  5
74
 10
33.5
 20
-148.5
 30
0.0
 11
33.5
 21
-146.0
 31
0.0
  0
LINE
  8
0
  6
CONTINUOUS
 62
     3
  5
75
 10
33.499999
 20
-165.500001
 30
0.0
 11
33.0
 21
-166.0
 31
0.0
  0
LINE
  8
0
  6
CONTINUOUS
 62
     3
  5
76
 10
-30.0
 20
-0.5
 30
0.0
 11
-30.0
 21
-140.5
 31
0.0
  0
LINE
  8
0
  6
CONTINUOUS
 62
     3
  5
77
 10
-29.999999
 20
-140.5
 30
0.0
 11
-29.5
 21
-141.0
 31
0.0
  0
LINE
  8
0
  6
CONTINUOUS
 62
     3
  5
78
 10
-35.0
 20
-166.0
 30
0.0
 11
-35.0
 21
-168.0
 31
0.0
  0
LINE
  8
0
  6
CONTINUOUS
 62
     3
  5
79
 10
-33.5
 20
-148.5
 30
0.0
 11
-33.5
 21
-146.0
 31
0.0
  0
ARC
  8
0
  6
CONTINUOUS
 62
     3
  5
7A
 10
-32.0
 20
-157.5
 30
0.0
 40
1.5
 50
90.0
 51
180.0
  0
ARC
  8
0
  6
CONTINUOUS
 62
     3
  5
7B
 10
-34.599879
 20
-141.533428
 30
0.0
 40
4.6
 50
283.833666
 51
0.416367
  0
LINE
  8
0
  6
CONTINUOUS
 62
     3
  5
7C
 10
-29.5
 20
-141.0
 30
0.0
 11
-30.0
 21
-141.5
 31
0.0
  0
ARC
  8
0
  6
CONTINUOUS
 62
     3
  5
7D
 10
-32.0
 20
-148.5
 30
0.0
 40
1.5
 50
180.0
 51
270.0
  0
LINE
  8
0
  6
CONTINUOUS
 62
     3
  5
7E
 10
-32.0
 20
-156.0
 30
0.0
 11
-32.0
 21
-150.0
 31
0.0
  0
LINE
  8
0
  6
CONTINUOUS
 62
     3
  5
7F
 10
-33.5
 20
-165.500001
 30
0.0
 11
-33.5
 21
-157.5
 31
0.0
  0
LINE
  8
0
  6
CONTINUOUS
 62
     3
  5
80
 10
-33.499999
 20
-165.500001
 30
0.0
 11
-33.0
 21
-166.0
 31
0.0
  0
LINE
  8
0
  6
CONTINUOUS
 62
     3
  5
81
 10
-29.5
 20
0.0
 30
0.0
 11
-30.0
 21
-0.5
 31
0.0
  0
LINE
  8
0
  6
CONTINUOUS
 62
     3
  5
82
 10
29.5
 20
0.0
 30
0.0
 11
30.0
 21
-0.5
 31
0.0
  0
LINE
  8
0
  6
CONTINUOUS
 62
     3
  5
83
 10
10.912389
 20
-156.013845
 30
0.0
 11
10.912389
 21
-150.0
 31
0.0
  0
LINE
  8
0
  6
CONTINUOUS
 62
     3
  5
84
 10
-10.912389
 20
-156.013845
 30
0.0
 11
-10.912389
 21
-150.0
 31
0.0
  0
LINE
  8
0
  6
CONTINUOUS
 62
     3
  5
85
 10
-29.5
 20
0.0
 30
0.0
 11
29.5
 21
0.0
 31
0.0
  0
LINE
  8
0
  6
CONTINUOUS
 62
     3
  5
86
 10
9.8
 20
-150.2
 30
0.0
 11
9.76509
 21
-152.2
 31
0.0
  0
LINE
  8
0
  6
CONTINUOUS
 62
     3
  5
87
 10
-3.542398
 20
-155.5
 30
0.0
 11
3.542398
 21
-155.5
 31
0.0
  0
LINE
  8
0
  6
CONTINUOUS
 62
     3
  5
88
 10
-0.160693
 20
-150.2
 30
0.0
 11
-0.147463
 21
-152.2
 31
0.0
  0
LINE
  8
0
  6
CONTINUOUS
 62
     3
  5
89
 10
0.160693
 20
-150.2
 30
0.0
 11
0.147463
 21
-152.2
 31
0.0
  0
LINE
  8
0
  6
CONTINUOUS
 62
     3
  5
8A
 10
-9.8
 20
-150.2
 30
0.0
 11
9.8
 21
-150.2
 31
0.0
  0
LINE
  8
0
  6
CONTINUOUS
 62
     3
  5
8B
 10
7.694062
 20
-154.9
 30
0.0
 11
7.741191
 21
-152.2
 31
0.0
  0
LINE
  8
0
  6
CONTINUOUS
 62
     3
  5
8C
 10
5.78832
 20
-154.9
 30
0.0
 11
5.741191
 21
-152.2
 31
0.0
  0
LINE
  8
0
  6
CONTINUOUS
 62
     3
  5
8D
 10
5.78832
 20
-154.9
 30
0.0
 11
7.694062
 21
-154.9
 31
0.0
  0
LINE
  8
0
  6
CONTINUOUS
 62
     3
  5
8E
 10
9.706061
 20
-150.2
 30
0.0
 11
9.669823
 21
-152.2
 31
0.0
  0
LINE
  8
0
  6
CONTINUOUS
 62
     3
  5
8F
 10
9.323545
 20
-150.2
 30
0.0
 11
9.286634
 21
-152.2
 31
0.0
  0
LINE
  8
0
  6
CONTINUOUS
 62
     3
  5
90
 10
8.657737
 20
-150.2
 30
0.0
 11
8.621275
 21
-152.2
 31
0.0
  0
LINE
  8
0
  6
CONTINUOUS
 62
     3
  5
91
 10
2.04765
 20
-150.2
 30
0.0
 11
2.028637
 21
-152.2
 31
0.0
  0
LINE
  8
0
  6
CONTINUOUS
 62
     3
  5
92
 10
3.680732
 20
-150.2
 30
0.0
 11
3.656513
 21
-152.2
 31
0.0
  0
LINE
  8
0
  6
CONTINUOUS
 62
     3
  5
93
 10
5.201977
 20
-150.2
 30
0.0
 11
5.173287
 21
-152.2
 31
0.0
  0
LINE
  8
0
  6
CONTINUOUS
 62
     3
  5
94
 10
6.565162
 20
-150.2
 30
0.0
 11
6.532875
 21
-152.2
 31
0.0
  0
LINE
  8
0
  6
CONTINUOUS
 62
     3
  5
95
 10
7.728868
 20
-150.2
 30
0.0
 11
7.693964
 21
-152.2
 31
0.0
  0
LINE
  8
0
  6
CONTINUOUS
 62
     3
  5
96
 10
3.6
 20
-152.2
 30
0.0
 11
3.542398
 21
-155.5
 31
0.0
  0
LINE
  8
0
  6
CONTINUOUS
 62
     3
  5
97
 10
-7.694062
 20
-154.9
 30
0.0
 11
-7.741191
 21
-152.2
 31
0.0
  0
LINE
  8
0
  6
CONTINUOUS
 62
     3
  5
98
 10
-5.78832
 20
-154.9
 30
0.0
 11
-5.741191
 21
-152.2
 31
0.0
  0
LINE
  8
0
  6
CONTINUOUS
 62
     3
  5
99
 10
-5.78832
 20
-154.9
 30
0.0
 11
-7.694062
 21
-154.9
 31
0.0
  0
LINE
  8
0
  6
CONTINUOUS
 62
     3
  5
9A
 10
-5.201977
 20
-150.2
 30
0.0
 11
-5.173287
 21
-152.2
 31
0.0
  0
LINE
  8
0
  6
CONTINUOUS
 62
     3
  5
9B
 10
-6.565162
 20
-150.2
 30
0.0
 11
-6.532875
 21
-152.2
 31
0.0
  0
LINE
  8
0
  6
CONTINUOUS
 62
     3
  5
9C
 10
-7.728868
 20
-150.2
 30
0.0
 11
-7.693964
 21
-152.2
 31
0.0
  0
LINE
  8
0
  6
CONTINUOUS
 62
     3
  5
9D
 10
-8.657737
 20
-150.2
 30
0.0
 11
-8.621275
 21
-152.2
 31
0.0
  0
LINE
  8
0
  6
CONTINUOUS
 62
     3
  5
9E
 10
-9.323545
 20
-150.2
 30
0.0
 11
-9.286634
 21
-152.2
 31
0.0
  0
LINE
  8
0
  6
CONTINUOUS
 62
     3
  5
9F
 10
-9.706061
 20
-150.2
 30
0.0
 11
-9.669823
 21
-152.2
 31
0.0
  0
LINE
  8
0
  6
CONTINUOUS
 62
     3
  5
A0
 10
-9.8
 20
-150.2
 30
0.0
 11
-9.76509
 21
-152.2
 31
0.0
  0
LINE
  8
0
  6
CONTINUOUS
 62
     3
  5
A1
 10
-2.04765
 20
-150.2
 30
0.0
 11
-2.028637
 21
-152.2
 31
0.0
  0
LINE
  8
0
  6
CONTINUOUS
 62
     3
  5
A2
 10
-3.680732
 20
-150.2
 30
0.0
 11
-3.656513
 21
-152.2
 31
0.0
  0
LINE
  8
0
  6
CONTINUOUS
 62
     3
  5
A3
 10
-3.6
 20
-152.2
 30
0.0
 11
-3.542398
 21
-155.5
 31
0.0
  0
LINE
  8
0
  6
CONTINUOUS
 62
     3
  5
A4
 10
-9.76509
 20
-152.2
 30
0.0
 11
9.76509
 21
-152.2
 31
0.0
  0
LINE
  8
0
  6
CONTINUOUS
 62
     3
  5
A5
 10
1.0
 20
-155.5
 30
0.0
 11
1.0
 21
-156.013845
 31
0.0
  0
LINE
  8
0
  6
CONTINUOUS
 62
     3
  5
A6
 10
-1.0
 20
-155.5
 30
0.0
 11
-1.0
 21
-156.013845
 31
0.0
  0
ENDBLK
  8
0
  5
A7
  0
BLOCK
  8
0
  5
A8
  2
MS_2
 70
     0
 10
0.0
 20
0.0
 30
0.0
  3
MS_2
  0
CIRCLE
  8
0
  6
CONTINUOUS
 62
     3
  5
A9
 10
0.0
 20
0.0
 30
0.0
 40
35.0
  0
CIRCLE
  8
0
  6
CONTINUOUS
 62
     3
  5
AA
 10
0.0
 20
0.0
 30
0.0
 40
7.5
  0
CIRCLE
  8
0
  6
CONTINUOUS
 62
     3
  5
AB
 10
17.320508
 20
10.0
 30
0.0
 40
2.0
  0
CIRCLE
  8
0
  6
CONTINUOUS
 62
     3
  5
AC
 10
-17.320508
 20
10.0
 30
0.0
 40
2.0
  0
CIRCLE
  8
0
  6
CONTINUOUS
 62
     3
  5
AD
 10
0.0
 20
-20.0
 30
0.0
 40
2.0
  0
LINE
  8
0
  6
CONTINUOUS
 62
     3
  5
AE
 10
-13.279056
 20
10.0
 30
0.0
 11
-15.299782
 21
6.5
 31
0.0
  0
LINE
  8
0
  6
CONTINUOUS
 62
     3
  5
AF
 10
-15.299782
 20
13.5
 30
0.0
 11
-13.279056
 21
10.0
 31
0.0
  0
CIRCLE
  8
0
  6
CONTINUOUS
 62
     3
  5
B0
 10
-17.320508
 20
10.0
 30
0.0
 40
5.0
  0
LINE
  8
0
  6
CONTINUOUS
 62
     3
  5
B1
 10
-19.341234
 20
13.5
 30
0.0
 11
-15.299782
 21
13.5
 31
0.0
  0
LINE
  8
0
  6
CONTINUOUS
 62
     3
  5
B2
 10
-21.36196
 20
10.0
 30
0.0
 11
-19.341234
 21
6.5
 31
0.0
  0
LINE
  8
0
  6
CONTINUOUS
 62
     3
  5
B3
 10
-19.341234
 20
13.5
 30
0.0
 11
-21.36196
 21
10.0
 31
0.0
  0
LINE
  8
0
  6
CONTINUOUS
 62
     3
  5
B4
 10
-19.341234
 20
6.5
 30
0.0
 11
-15.299782
 21
6.5
 31
0.0
  0
LINE
  8
0
  6
CONTINUOUS
 62
     3
  5
B5
 10
4.041452
 20
-20.0
 30
0.0
 11
2.020726
 21
-23.5
 31
0.0
  0
LINE
  8
0
  6
CONTINUOUS
 62
     3
  5
B6
 10
2.020726
 20
-16.5
 30
0.0
 11
4.041452
 21
-20.0
 31
0.0
  0
CIRCLE
  8
0
  6
CONTINUOUS
 62
     3
  5
B7
 10
0.0
 20
-20.0
 30
0.0
 40
5.0
  0
LINE
  8
0
  6
CONTINUOUS
 62
     3
  5
B8
 10
-2.020726
 20
-16.5
 30
0.0
 11
2.020726
 21
-16.5
 31
0.0
  0
LINE
  8
0
  6
CONTINUOUS
 62
     3
  5
B9
 10
-4.041452
 20
-20.0
 30
0.0
 11
-2.020726
 21
-23.5
 31
0.0
  0
LINE
  8
0
  6
CONTINUOUS
 62
     3
  5
BA
 10
-2.020726
 20
-16.5
 30
0.0
 11
-4.041452
 21
-20.0
 31
0.0
  0
LINE
  8
0
  6
CONTINUOUS
 62
     3
  5
BB
 10
-2.020726
 20
-23.5
 30
0.0
 11
2.020726
 21
-23.5
 31
0.0
  0
LINE
  8
0
  6
CONTINUOUS
 62
     3
  5
BC
 10
21.36196
 20
10.0
 30
0.0
 11
19.341234
 21
6.5
 31
0.0
  0
LINE
  8
0
  6
CONTINUOUS
 62
     3
  5
BD
 10
19.341234
 20
13.5
 30
0.0
 11
21.36196
 21
10.0
 31
0.0
  0
CIRCLE
  8
0
  6
CONTINUOUS
 62
     3
  5
BE
 10
17.320508
 20
10.0
 30
0.0
 40
5.0
  0
LINE
  8
0
  6
CONTINUOUS
 62
     3
  5
BF
 10
15.299782
 20
13.5
 30
0.0
 11
19.341234
 21
13.5
 31
0.0
  0
LINE
  8
0
  6
CONTINUOUS
 62
     3
  5
C0
 10
13.279056
 20
10.0
 30
0.0
 11
15.299782
 21
6.5
 31
0.0
  0
LINE
  8
0
  6
CONTINUOUS
 62
     3
  5
C1
 10
15.299782
 20
13.5
 30
0.0
 11
13.279056
 21
10.0
 31
0.0
  0
LINE
  8
0
  6
CONTINUOUS
 62
     3
  5
C2
 10
15.299782
 20
6.5
 30
0.0
 11
19.341234
 21
6.5
 31
0.0
  0
ENDBLK
  8
0
  5
C3
  0
BLOCK
  8
0
  5
C4
  2
MS_3
 70
     0
 10
0.0
 20
0.0
 30
0.0
  3
MS_3
  0
LINE
  8
0
  6
CONTINUOUS
 62
     3
  5
C5
 10
16.576359
 20
-61.8
 30
0.0
 11
23.423642
 21
-61.8
 31
0.0
  0
LINE
  8
0
  6
CONTINUOUS
 62
     3
  5
C6
 10
15.958549
 20
-58.956693
 30
0.0
 11
15.958549
 21
-61.443307
 31
0.0
  0
LINE
  8
0
  6
CONTINUOUS
 62
    80
  5
C7
 10
17.979275
 20
-59.004145
 30
0.0
 11
17.979275
 21
-61.395855
 31
0.0
  0
LINE
  8
0
  6
CONTINUOUS
 62
     3
  5
C8
 10
15.958549
 20
-58.956693
 30
0.0
 11
16.576359
 21
-58.6
 31
0.0
  0
LINE
  8
0
  6
CONTINUOUS
 62
     3
  5
C9
 10
15.958549
 20
-61.443307
 30
0.0
 11
16.576359
 21
-61.8
 31
0.0
  0
LINE
  8
0
  6
CONTINUOUS
 62
     3
  5
CA
 10
24.041452
 20
-58.956693
 30
0.0
 11
24.041452
 21
-61.443307
 31
0.0
  0
LINE
  8
0
  6
CONTINUOUS
 62
    80
  5
CB
 10
22.020727
 20
-59.004145
 30
0.0
 11
22.020727
 21
-61.395855
 31
0.0
  0
LINE
  8
0
  6
CONTINUOUS
 62
     3
  5
CC
 10
24.041452
 20
-58.956693
 30
0.0
 11
23.423642
 21
-58.6
 31
0.0
  0
LINE
  8
0
  6
CONTINUOUS
 62
     3
  5
CD
 10
24.041452
 20
-61.443307
 30
0.0
 11
23.423642
 21
-61.8
 31
0.0
  0
LINE
  8
0
  6
CONTINUOUS
 62
     3
  5
CE
 10
15.000001
 20
-57.6
 30
0.0
 11
25.000001
 21
-57.6
 31
0.0
  0
LINE
  8
0
  6
CONTINUOUS
 62
     3
  5
CF
 10
16.200001
 20
-58.6
 30
0.0
 11
23.800001
 21
-58.6
 31
0.0
  0
LINE
  8
0
  6
CONTINUOUS
 62
    80
  5
D0
 10
19.500001
 20
-58.6
 30
0.0
 11
20.500001
 21
-57.6
 31
0.0
  0
LINE
  8
0
  6
CONTINUOUS
 62
     3
  5
D1
 10
23.800001
 20
-57.6
 30
0.0
 11
23.800001
 21
-58.6
 31
0.0
  0
LINE
  8
0
  6
CONTINUOUS
 62
     3
  5
D2
 10
16.200001
 20
-57.6
 30
0.0
 11
16.200001
 21
-58.6
 31
0.0
  0
LINE
  8
0
  6
CONTINUOUS
 62
     3
  5
D3
 10
18.500001
 20
-68.0
 30
0.0
 11
21.500001
 21
-68.0
 31
0.0
  0
LINE
  8
0
  6
CONTINUOUS
 62
     3
  5
D4
 10
22.000001
 20
-61.8
 30
0.0
 11
22.000001
 21
-67.5
 31
0.0
  0
LINE
  8
0
  6
CONTINUOUS
 62
     3
  5
D5
 10
18.000001
 20
-61.8
 30
0.0
 11
18.000001
 21
-67.5
 31
0.0
  0
LINE
  8
0
  6
CONTINUOUS
 62
    80
  5
D6
 10
18.000001
 20
-67.5
 30
0.0
 11
22.000001
 21
-67.5
 31
0.0
  0
LINE
  8
0
  6
CONTINUOUS
 62
    80
  5
D7
 10
18.500001
 20
-61.8
 30
0.0
 11
18.500001
 21
-68.0
 31
0.0
  0
LINE
  8
0
  6
CONTINUOUS
 62
    80
  5
D8
 10
21.500001
 20
-61.8
 30
0.0
 11
21.500001
 21
-68.0
 31
0.0
  0
LINE
  8
0
  6
CONTINUOUS
 62
     3
  5
D9
 10
18.000001
 20
-67.5
 30
0.0
 11
18.500001
 21
-68.0
 31
0.0
  0
LINE
  8
0
  6
CONTINUOUS
 62
     3
  5
DA
 10
22.000001
 20
-67.5
 30
0.0
 11
21.500001
 21
-68.0
 31
0.0
  0
ARC
  8
0
  6
CONTINUOUS
 62
    80
  5
DB
 10
16.968912
 20
-60.065026
 30
0.0
 40
1.465026
 50
46.397181
 51
120.0
  0
ARC
  8
0
  6
CONTINUOUS
 62
    80
  5
DC
 10
16.968912
 20
-60.334974
 30
0.0
 40
1.465026
 50
240.0
 51
313.602819
  0
ARC
  8
0
  6
CONTINUOUS
 62
    80
  5
DD
 10
23.031089
 20
-60.065026
 30
0.0
 40
1.465026
 50
60.0
 51
133.602819
  0
ARC
  8
0
  6
CONTINUOUS
 62
    80
  5
DE
 10
23.031089
 20
-60.334974
 30
0.0
 40
1.465026
 50
226.397181
 51
300.0
  0
ARC
  8
0
  6
CONTINUOUS
 62
    80
  5
DF
 10
20.000001
 20
-63.853887
 30
0.0
 40
5.253887
 50
67.380135
 51
112.619865
  0
ARC
  8
0
  6
CONTINUOUS
 62
    80
  5
E0
 10
20.000001
 20
-56.546113
 30
0.0
 40
5.253887
 50
247.380135
 51
292.619865
  0
LINE
  8
0
  6
CONTINUOUS
 62
     3
  5
E1
 10
15.000001
 20
-56.8
 30
0.0
 11
15.000001
 21
-57.6
 31
0.0
  0
LINE
  8
0
  6
CONTINUOUS
 62
     3
  5
E2
 10
25.000001
 20
-56.8
 30
0.0
 11
25.000001
 21
-57.6
 31
0.0
  0
ARC
  8
0
  6
CONTINUOUS
 62
    80
  5
E3
 10
-9.999999
 20
-56.546113
 30
0.0
 40
5.253887
 50
247.380135
 51
292.619865
  0
ARC
  8
0
  6
CONTINUOUS
 62
    80
  5
E4
 10
-9.999999
 20
-63.853887
 30
0.0
 40
5.253887
 50
67.380135
 51
112.619865
  0
ARC
  8
0
  6
CONTINUOUS
 62
    80
  5
E5
 10
-6.968911
 20
-60.334974
 30
0.0
 40
1.465026
 50
226.397181
 51
300.0
  0
ARC
  8
0
  6
CONTINUOUS
 62
    80
  5
E6
 10
-6.968911
 20
-60.065026
 30
0.0
 40
1.465026
 50
60.0
 51
133.602819
  0
ARC
  8
0
  6
CONTINUOUS
 62
    80
  5
E7
 10
-13.031088
 20
-60.334974
 30
0.0
 40
1.465026
 50
240.0
 51
313.602819
  0
ARC
  8
0
  6
CONTINUOUS
 62
    80
  5
E8
 10
-13.031088
 20
-60.065026
 30
0.0
 40
1.465026
 50
46.397181
 51
120.0
  0
ARC
  8
0
  6
CONTINUOUS
 62
     3
  5
E9
 10
-28.999999
 20
-41.99981
 30
0.0
 40
1.0
 50
180.0
 51
269.5
  0
ARC
  8
0
  6
CONTINUOUS
 62
     3
  5
EA
 10
-28.999999
 20
-50.013617
 30
0.0
 40
1.0
 50
90.5
 51
180.0
  0
ARC
  8
0
  6
CONTINUOUS
 62
     3
  5
EB
 10
29.000001
 20
-41.99981
 30
0.0
 40
1.0
 50
270.5
 51
0.0
  0
ARC
  8
0
  6
CONTINUOUS
 62
     3
  5
EC
 10
29.000001
 20
-50.013617
 30
0.0
 40
1.0
 50
0.0
 51
89.5
  0
LINE
  8
0
  6
CONTINUOUS
 62
     3
  5
ED
 10
-7.999999
 20
-67.5
 30
0.0
 11
-8.499999
 21
-68.0
 31
0.0
  0
LINE
  8
0
  6
CONTINUOUS
 62
     3
  5
EE
 10
-11.999999
 20
-67.5
 30
0.0
 11
-11.499999
 21
-68.0
 31
0.0
  0
LINE
  8
0
  6
CONTINUOUS
 62
    80
  5
EF
 10
-8.499999
 20
-61.8
 30
0.0
 11
-8.499999
 21
-68.0
 31
0.0
  0
LINE
  8
0
  6
CONTINUOUS
 62
    80
  5
F0
 10
-11.499999
 20
-61.8
 30
0.0
 11
-11.499999
 21
-68.0
 31
0.0
  0
LINE
  8
0
  6
CONTINUOUS
 62
    80
  5
F1
 10
-11.999999
 20
-67.5
 30
0.0
 11
-7.999999
 21
-67.5
 31
0.0
  0
LINE
  8
0
  6
CONTINUOUS
 62
     3
  5
F2
 10
-11.999999
 20
-61.8
 30
0.0
 11
-11.999999
 21
-67.5
 31
0.0
  0
LINE
  8
0
  6
CONTINUOUS
 62
     3
  5
F3
 10
-7.999999
 20
-61.8
 30
0.0
 11
-7.999999
 21
-67.5
 31
0.0
  0
LINE
  8
0
  6
CONTINUOUS
 62
     3
  5
F4
 10
-11.499999
 20
-68.0
 30
0.0
 11
-8.499999
 21
-68.0
 31
0.0
  0
LINE
  8
0
  6
CONTINUOUS
 62
     3
  5
F5
 10
-13.799999
 20
-57.6
 30
0.0
 11
-13.799999
 21
-58.6
 31
0.0
  0
LINE
  8
0
  6
CONTINUOUS
 62
     3
  5
F6
 10
-6.199999
 20
-57.6
 30
0.0
 11
-6.199999
 21
-58.6
 31
0.0
  0
LINE
  8
0
  6
CONTINUOUS
 62
    80
  5
F7
 10
-10.499999
 20
-58.6
 30
0.0
 11
-9.499999
 21
-57.6
 31
0.0
  0
LINE
  8
0
  6
CONTINUOUS
 62
     3
  5
F8
 10
-13.799999
 20
-58.6
 30
0.0
 11
-6.199999
 21
-58.6
 31
0.0
  0
LINE
  8
0
  6
CONTINUOUS
 62
     3
  5
F9
 10
-14.999999
 20
-56.8
 30
0.0
 11
-14.999999
 21
-57.6
 31
0.0
  0
LINE
  8
0
  6
CONTINUOUS
 62
     3
  5
FA
 10
-4.999999
 20
-56.8
 30
0.0
 11
-4.999999
 21
-57.6
 31
0.0
  0
LINE
  8
0
  6
CONTINUOUS
 62
     3
  5
FB
 10
-14.999999
 20
-57.6
 30
0.0
 11
-4.999999
 21
-57.6
 31
0.0
  0
LINE
  8
0
  6
CONTINUOUS
 62
     3
  5
FC
 10
-5.958548
 20
-61.443307
 30
0.0
 11
-6.576358
 21
-61.8
 31
0.0
  0
LINE
  8
0
  6
CONTINUOUS
 62
     3
  5
FD
 10
-5.958548
 20
-58.956693
 30
0.0
 11
-6.576358
 21
-58.6
 31
0.0
  0
LINE
  8
0
  6
CONTINUOUS
 62
    80
  5
FE
 10
-7.979273
 20
-59.004145
 30
0.0
 11
-7.979273
 21
-61.395855
 31
0.0
  0
LINE
  8
0
  6
CONTINUOUS
 62
     3
  5
FF
 10
-5.958548
 20
-58.956693
 30
0.0
 11
-5.958548
 21
-61.443307
 31
0.0
  0
LINE
  8
0
  6
CONTINUOUS
 62
     3
  5
100
 10
-14.041451
 20
-61.443307
 30
0.0
 11
-13.423641
 21
-61.8
 31
0.0
  0
LINE
  8
0
  6
CONTINUOUS
 62
     3
  5
101
 10
-14.041451
 20
-58.956693
 30
0.0
 11
-13.423641
 21
-58.6
 31
0.0
  0
LINE
  8
0
  6
CONTINUOUS
 62
    80
  5
102
 10
-12.020725
 20
-59.004145
 30
0.0
 11
-12.020725
 21
-61.395855
 31
0.0
  0
LINE
  8
0
  6
CONTINUOUS
 62
     3
  5
103
 10
-14.041451
 20
-58.956693
 30
0.0
 11
-14.041451
 21
-61.443307
 31
0.0
  0
LINE
  8
0
  6
CONTINUOUS
 62
     3
  5
104
 10
-13.423641
 20
-61.8
 30
0.0
 11
-6.576358
 21
-61.8
 31
0.0
  0
LINE
  8
0
  6
CONTINUOUS
 62
     3
  5
105
 10
-31.999999
 20
-56.8
 30
0.0
 11
32.000001
 21
-56.8
 31
0.0
  0
LINE
  8
0
  6
CONTINUOUS
 62
     3
  5
106
 10
32.000001
 20
-54.8
 30
0.0
 11
32.000001
 21
-56.8
 31
0.0
  0
LINE
  8
0
  6
CONTINUOUS
 62
     3
  5
107
 10
-31.999999
 20
-54.8
 30
0.0
 11
-31.999999
 21
-56.8
 31
0.0
  0
LINE
  8
0
  6
CONTINUOUS
 62
     3
  5
108
 10
29.5
 20
0.0
 30
0.0
 11
30.0
 21
-0.5
 31
0.0
  0
LINE
  8
0
  6
CONTINUOUS
 62
     3
  5
109
 10
30.0
 20
-39.500001
 30
0.0
 11
29.500001
 21
-40.0
 31
0.0
  0
LINE
  8
0
  6
CONTINUOUS
 62
     3
  5
10A
 10
30.0
 20
-0.5
 30
0.0
 11
30.0
 21
-39.5
 31
0.0
  0
LINE
  8
0
  6
CONTINUOUS
 62
     3
  5
10B
 10
29.5
 20
-40.0
 30
0.0
 11
-29.5
 21
-40.0
 31
0.0
  0
LINE
  8
0
  6
CONTINUOUS
 62
     3
  5
10C
 10
-29.5
 20
0.0
 30
0.0
 11
-30.0
 21
-0.5
 31
0.0
  0
LINE
  8
0
  6
CONTINUOUS
 62
     3
  5
10D
 10
-30.0
 20
-39.500001
 30
0.0
 11
-29.5
 21
-40.0
 31
0.0
  0
LINE
  8
0
  6
CONTINUOUS
 62
     3
  5
10E
 10
-30.0
 20
-0.5
 30
0.0
 11
-30.0
 21
-39.5
 31
0.0
  0
LINE
  8
0
  6
CONTINUOUS
 62
     3
  5
10F
 10
29.5
 20
0.0
 30
0.0
 11
-29.5
 21
0.0
 31
0.0
  0
LINE
  8
0
  6
CONTINUOUS
 62
     3
  5
110
 10
30.000001
 20
-54.3
 30
0.0
 11
29.5
 21
-54.8
 31
0.0
  0
LINE
  8
0
  6
CONTINUOUS
 62
     3
  5
111
 10
-29.499999
 20
-54.8
 30
0.0
 11
-30.0
 21
-54.299999
 31
0.0
  0
LINE
  8
0
  6
CONTINUOUS
 62
     3
  5
112
 10
-29.999999
 20
-41.99981
 30
0.0
 11
-29.999999
 21
-40.5
 31
0.0
  0
LINE
  8
0
  6
CONTINUOUS
 62
     3
  5
113
 10
-28.7
 20
-49.013655
 30
0.0
 11
-28.7
 21
-42.99981
 31
0.0
  0
LINE
  8
0
  6
CONTINUOUS
 62
     3
  5
114
 10
-29.999999
 20
-54.3
 30
0.0
 11
-29.999999
 21
-50.013617
 31
0.0
  0
LINE
  8
0
  6
CONTINUOUS
 62
     3
  5
115
 10
-28.7
 20
-49.013655
 30
0.0
 11
-28.999999
 21
-49.013655
 31
0.0
  0
LINE
  8
0
  6
CONTINUOUS
 62
     3
  5
116
 10
30.000001
 20
-41.99981
 30
0.0
 11
30.000001
 21
-40.5
 31
0.0
  0
LINE
  8
0
  6
CONTINUOUS
 62
     3
  5
117
 10
-28.7
 20
-49.013655
 30
0.0
 11
29.000001
 21
-49.013655
 31
0.0
  0
LINE
  8
0
  6
CONTINUOUS
 62
     3
  5
118
 10
-28.7
 20
-42.99981
 30
0.0
 11
-28.999999
 21
-42.99981
 31
0.0
  0
LINE
  8
0
  6
CONTINUOUS
 62
     3
  5
119
 10
30.000001
 20
-54.3
 30
0.0
 11
30.000001
 21
-50.013617
 31
0.0
  0
LINE
  8
0
  6
CONTINUOUS
 62
     3
  5
11A
 10
-28.7
 20
-42.99981
 30
0.0
 11
29.000001
 21
-42.99981
 31
0.0
  0
LINE
  8
0
  6
CONTINUOUS
 62
     3
  5
11B
 10
29.500001
 20
-40.0
 30
0.0
 11
30.000001
 21
-40.5
 31
0.0
  0
LINE
  8
0
  6
CONTINUOUS
 62
     3
  5
11C
 10
28.700001
 20
-49.013655
 30
0.0
 11
28.700001
 21
-42.99981
 31
0.0
  0
LINE
  8
0
  6
CONTINUOUS
 62
     3
  5
11D
 10
-29.499999
 20
-40.0
 30
0.0
 11
-29.999999
 21
-40.5
 31
0.0
  0
LINE
  8
0
  6
CONTINUOUS
 62
     3
  5
11E
 10
32.000001
 20
-54.8
 30
0.0
 11
-31.999999
 21
-54.8
 31
0.0
  0
ENDBLK
  8
0
  5
11F
  0
BLOCK
  8
0
  5
120
  2
MS_4
 70
     0
 10
0.0
 20
0.0
 30
0.0
  3
MS_4
  0
LINE
  8
0
  6
CONTINUOUS
 62
     3
  5
121
 10
-13.423642
 20
-173.0
 30
0.0
 11
-6.576358
 21
-173.0
 31
0.0
  0
LINE
  8
0
  6
CONTINUOUS
 62
     3
  5
122
 10
-14.041452
 20
-170.156693
 30
0.0
 11
-14.041452
 21
-172.643307
 31
0.0
  0
LINE
  8
0
  6
CONTINUOUS
 62
    80
  5
123
 10
-12.020726
 20
-170.204145
 30
0.0
 11
-12.020726
 21
-172.595855
 31
0.0
  0
LINE
  8
0
  6
CONTINUOUS
 62
     3
  5
124
 10
-14.041452
 20
-170.156693
 30
0.0
 11
-13.423642
 21
-169.8
 31
0.0
  0
LINE
  8
0
  6
CONTINUOUS
 62
     3
  5
125
 10
-14.041452
 20
-172.643307
 30
0.0
 11
-13.423642
 21
-173.0
 31
0.0
  0
LINE
  8
0
  6
CONTINUOUS
 62
     3
  5
126
 10
-5.958548
 20
-170.156693
 30
0.0
 11
-5.958548
 21
-172.643307
 31
0.0
  0
LINE
  8
0
  6
CONTINUOUS
 62
    80
  5
127
 10
-7.979274
 20
-170.204145
 30
0.0
 11
-7.979274
 21
-172.595855
 31
0.0
  0
LINE
  8
0
  6
CONTINUOUS
 62
     3
  5
128
 10
-5.958548
 20
-170.156693
 30
0.0
 11
-6.576358
 21
-169.8
 31
0.0
  0
LINE
  8
0
  6
CONTINUOUS
 62
     3
  5
129
 10
-5.958548
 20
-172.643307
 30
0.0
 11
-6.576358
 21
-173.0
 31
0.0
  0
LINE
  8
0
  6
CONTINUOUS
 62
     3
  5
12A
 10
-15.0
 20
-168.8
 30
0.0
 11
-5.0
 21
-168.8
 31
0.0
  0
LINE
  8
0
  6
CONTINUOUS
 62
     3
  5
12B
 10
-5.0
 20
-168.0
 30
0.0
 11
-5.0
 21
-168.8
 31
0.0
  0
LINE
  8
0
  6
CONTINUOUS
 62
     3
  5
12C
 10
-15.0
 20
-168.0
 30
0.0
 11
-15.0
 21
-168.8
 31
0.0
  0
LINE
  8
0
  6
CONTINUOUS
 62
     3
  5
12D
 10
-13.8
 20
-169.8
 30
0.0
 11
-6.2
 21
-169.8
 31
0.0
  0
LINE
  8
0
  6
CONTINUOUS
 62
    80
  5
12E
 10
-10.5
 20
-169.8
 30
0.0
 11
-9.5
 21
-168.8
 31
0.0
  0
LINE
  8
0
  6
CONTINUOUS
 62
     3
  5
12F
 10
-6.2
 20
-168.8
 30
0.0
 11
-6.2
 21
-169.8
 31
0.0
  0
LINE
  8
0
  6
CONTINUOUS
 62
     3
  5
130
 10
-13.8
 20
-168.8
 30
0.0
 11
-13.8
 21
-169.8
 31
0.0
  0
LINE
  8
0
  6
CONTINUOUS
 62
     3
  5
131
 10
-11.5
 20
-179.2
 30
0.0
 11
-8.5
 21
-179.2
 31
0.0
  0
LINE
  8
0
  6
CONTINUOUS
 62
     3
  5
132
 10
-8.0
 20
-173.0
 30
0.0
 11
-8.0
 21
-178.7
 31
0.0
  0
LINE
  8
0
  6
CONTINUOUS
 62
     3
  5
133
 10
-12.0
 20
-173.0
 30
0.0
 11
-12.0
 21
-178.7
 31
0.0
  0
LINE
  8
0
  6
CONTINUOUS
 62
    80
  5
134
 10
-12.0
 20
-178.7
 30
0.0
 11
-8.0
 21
-178.7
 31
0.0
  0
LINE
  8
0
  6
CONTINUOUS
 62
    80
  5
135
 10
-11.5
 20
-173.0
 30
0.0
 11
-11.5
 21
-179.2
 31
0.0
  0
LINE
  8
0
  6
CONTINUOUS
 62
    80
  5
136
 10
-8.5
 20
-173.0
 30
0.0
 11
-8.5
 21
-179.2
 31
0.0
  0
LINE
  8
0
  6
CONTINUOUS
 62
     3
  5
137
 10
-12.0
 20
-178.7
 30
0.0
 11
-11.5
 21
-179.2
 31
0.0
  0
LINE
  8
0
  6
CONTINUOUS
 62
     3
  5
138
 10
-8.0
 20
-178.7
 30
0.0
 11
-8.5
 21
-179.2
 31
0.0
  0
ARC
  8
0
  6
CONTINUOUS
 62
    80
  5
139
 10
-13.031089
 20
-171.265026
 30
0.0
 40
1.465026
 50
46.397181
 51
120.0
  0
ARC
  8
0
  6
CONTINUOUS
 62
    80
  5
13A
 10
-13.031089
 20
-171.534973
 30
0.0
 40
1.465026
 50
240.0
 51
313.602819
  0
ARC
  8
0
  6
CONTINUOUS
 62
    80
  5
13B
 10
-6.968911
 20
-171.265026
 30
0.0
 40
1.465026
 50
60.0
 51
133.602819
  0
ARC
  8
0
  6
CONTINUOUS
 62
    80
  5
13C
 10
-6.968911
 20
-171.534973
 30
0.0
 40
1.465026
 50
226.397181
 51
300.0
  0
ARC
  8
0
  6
CONTINUOUS
 62
    80
  5
13D
 10
-10.0
 20
-175.053887
 30
0.0
 40
5.253887
 50
67.380135
 51
112.619865
  0
ARC
  8
0
  6
CONTINUOUS
 62
    80
  5
13E
 10
-10.0
 20
-167.746112
 30
0.0
 40
5.253887
 50
247.380135
 51
292.619865
  0
LINE
  8
0
  6
CONTINUOUS
 62
     3
  5
13F
 10
25.0
 20
-168.0
 30
0.0
 11
25.0
 21
-168.8
 31
0.0
  0
LINE
  8
0
  6
CONTINUOUS
 62
     3
  5
140
 10
15.0
 20
-168.0
 30
0.0
 11
15.0
 21
-168.8
 31
0.0
  0
ARC
  8
0
  6
CONTINUOUS
 62
    80
  5
141
 10
20.0
 20
-167.746112
 30
0.0
 40
5.253887
 50
247.380135
 51
292.619865
  0
ARC
  8
0
  6
CONTINUOUS
 62
    80
  5
142
 10
20.0
 20
-175.053887
 30
0.0
 40
5.253887
 50
67.380135
 51
112.619865
  0
ARC
  8
0
  6
CONTINUOUS
 62
    80
  5
143
 10
23.031089
 20
-171.534973
 30
0.0
 40
1.465026
 50
226.397181
 51
300.0
  0
ARC
  8
0
  6
CONTINUOUS
 62
    80
  5
144
 10
23.031089
 20
-171.265026
 30
0.0
 40
1.465026
 50
60.0
 51
133.602819
  0
ARC
  8
0
  6
CONTINUOUS
 62
    80
  5
145
 10
16.968911
 20
-171.534973
 30
0.0
 40
1.465026
 50
240.0
 51
313.602819
  0
ARC
  8
0
  6
CONTINUOUS
 62
    80
  5
146
 10
16.968911
 20
-171.265026
 30
0.0
 40
1.465026
 50
46.397181
 51
120.0
  0
LINE
  8
0
  6
CONTINUOUS
 62
     3
  5
147
 10
22.0
 20
-178.7
 30
0.0
 11
21.5
 21
-179.2
 31
0.0
  0
LINE
  8
0
  6
CONTINUOUS
 62
     3
  5
148
 10
18.0
 20
-178.7
 30
0.0
 11
18.5
 21
-179.2
 31
0.0
  0
LINE
  8
0
  6
CONTINUOUS
 62
    80
  5
149
 10
21.5
 20
-173.0
 30
0.0
 11
21.5
 21
-179.2
 31
0.0
  0
LINE
  8
0
  6
CONTINUOUS
 62
    80
  5
14A
 10
18.5
 20
-173.0
 30
0.0
 11
18.5
 21
-179.2
 31
0.0
  0
LINE
  8
0
  6
CONTINUOUS
 62
    80
  5
14B
 10
18.0
 20
-178.7
 30
0.0
 11
22.0
 21
-178.7
 31
0.0
  0
LINE
  8
0
  6
CONTINUOUS
 62
     3
  5
14C
 10
18.0
 20
-173.0
 30
0.0
 11
18.0
 21
-178.7
 31
0.0
  0
LINE
  8
0
  6
CONTINUOUS
 62
     3
  5
14D
 10
22.0
 20
-173.0
 30
0.0
 11
22.0
 21
-178.7
 31
0.0
  0
LINE
  8
0
  6
CONTINUOUS
 62
     3
  5
14E
 10
18.5
 20
-179.2
 30
0.0
 11
21.5
 21
-179.2
 31
0.0
  0
LINE
  8
0
  6
CONTINUOUS
 62
     3
  5
14F
 10
16.2
 20
-168.8
 30
0.0
 11
16.2
 21
-169.8
 31
0.0
  0
LINE
  8
0
  6
CONTINUOUS
 62
     3
  5
150
 10
23.8
 20
-168.8
 30
0.0
 11
23.8
 21
-169.8
 31
0.0
  0
LINE
  8
0
  6
CONTINUOUS
 62
    80
  5
151
 10
19.5
 20
-169.8
 30
0.0
 11
20.5
 21
-168.8
 31
0.0
  0
LINE
  8
0
  6
CONTINUOUS
 62
     3
  5
152
 10
16.2
 20
-169.8
 30
0.0
 11
23.8
 21
-169.8
 31
0.0
  0
LINE
  8
0
  6
CONTINUOUS
 62
     3
  5
153
 10
15.0
 20
-168.8
 30
0.0
 11
25.0
 21
-168.8
 31
0.0
  0
LINE
  8
0
  6
CONTINUOUS
 62
     3
  5
154
 10
24.041452
 20
-172.643307
 30
0.0
 11
23.423642
 21
-173.0
 31
0.0
  0
LINE
  8
0
  6
CONTINUOUS
 62
     3
  5
155
 10
24.041452
 20
-170.156693
 30
0.0
 11
23.423642
 21
-169.8
 31
0.0
  0
LINE
  8
0
  6
CONTINUOUS
 62
    80
  5
156
 10
22.020726
 20
-170.204145
 30
0.0
 11
22.020726
 21
-172.595855
 31
0.0
  0
LINE
  8
0
  6
CONTINUOUS
 62
     3
  5
157
 10
24.041452
 20
-170.156693
 30
0.0
 11
24.041452
 21
-172.643307
 31
0.0
  0
LINE
  8
0
  6
CONTINUOUS
 62
     3
  5
158
 10
15.958548
 20
-172.643307
 30
0.0
 11
16.576358
 21
-173.0
 31
0.0
  0
LINE
  8
0
  6
CONTINUOUS
 62
     3
  5
159
 10
15.958548
 20
-170.156693
 30
0.0
 11
16.576358
 21
-169.8
 31
0.0
  0
LINE
  8
0
  6
CONTINUOUS
 62
    80
  5
15A
 10
17.979274
 20
-170.204145
 30
0.0
 11
17.979274
 21
-172.595855
 31
0.0
  0
LINE
  8
0
  6
CONTINUOUS
 62
     3
  5
15B
 10
15.958548
 20
-170.156693
 30
0.0
 11
15.958548
 21
-172.643307
 31
0.0
  0
LINE
  8
0
  6
CONTINUOUS
 62
     3
  5
15C
 10
16.576358
 20
-173.0
 30
0.0
 11
23.423642
 21
-173.0
 31
0.0
  0
LINE
  8
0
  6
CONTINUOUS
 62
     3
  5
15D
 10
-29.5
 20
0.0
 30
0.0
 11
29.5
 21
0.0
 31
0.0
  0
LINE
  8
0
  6
CONTINUOUS
 62
     3
  5
15E
 10
29.5
 20
0.0
 30
0.0
 11
30.0
 21
-0.5
 31
0.0
  0
LINE
  8
0
  6
CONTINUOUS
 62
     3
  5
15F
 10
-29.5
 20
0.0
 30
0.0
 11
-30.0
 21
-0.5
 31
0.0
  0
LINE
  8
0
  6
CONTINUOUS
 62
     3
  5
160
 10
-33.499999
 20
-165.500001
 30
0.0
 11
-33.0
 21
-166.0
 31
0.0
  0
LINE
  8
0
  6
CONTINUOUS
 62
     3
  5
161
 10
-33.5
 20
-165.500001
 30
0.0
 11
-33.5
 21
-157.5
 31
0.0
  0
LINE
  8
0
  6
CONTINUOUS
 62
     3
  5
162
 10
-32.0
 20
-156.0
 30
0.0
 11
-32.0
 21
-150.0
 31
0.0
  0
ARC
  8
0
  6
CONTINUOUS
 62
     3
  5
163
 10
-32.0
 20
-148.5
 30
0.0
 40
1.5
 50
180.0
 51
270.0
  0
LINE
  8
0
  6
CONTINUOUS
 62
     3
  5
164
 10
-29.5
 20
-141.0
 30
0.0
 11
-30.0
 21
-141.5
 31
0.0
  0
ARC
  8
0
  6
CONTINUOUS
 62
     3
  5
165
 10
-34.599879
 20
-141.533428
 30
0.0
 40
4.6
 50
283.833666
 51
0.416367
  0
ARC
  8
0
  6
CONTINUOUS
 62
     3
  5
166
 10
-32.0
 20
-157.5
 30
0.0
 40
1.5
 50
90.0
 51
180.0
  0
LINE
  8
0
  6
CONTINUOUS
 62
     3
  5
167
 10
-33.5
 20
-148.5
 30
0.0
 11
-33.5
 21
-146.0
 31
0.0
  0
LINE
  8
0
  6
CONTINUOUS
 62
     3
  5
168
 10
-35.0
 20
-166.0
 30
0.0
 11
-35.0
 21
-168.0
 31
0.0
  0
LINE
  8
0
  6
CONTINUOUS
 62
     3
  5
169
 10
-29.999999
 20
-140.5
 30
0.0
 11
-29.5
 21
-141.0
 31
0.0
  0
LINE
  8
0
  6
CONTINUOUS
 62
     3
  5
16A
 10
-30.0
 20
-0.5
 30
0.0
 11
-30.0
 21
-140.5
 31
0.0
  0
LINE
  8
0
  6
CONTINUOUS
 62
     3
  5
16B
 10
33.499999
 20
-165.500001
 30
0.0
 11
33.0
 21
-166.0
 31
0.0
  0
LINE
  8
0
  6
CONTINUOUS
 62
     3
  5
16C
 10
33.5
 20
-148.5
 30
0.0
 11
33.5
 21
-146.0
 31
0.0
  0
ARC
  8
0
  6
CONTINUOUS
 62
     3
  5
16D
 10
32.0
 20
-157.5
 30
0.0
 40
1.5
 50
0.0
 51
90.0
  0
ARC
  8
0
  6
CONTINUOUS
 62
     3
  5
16E
 10
34.599879
 20
-141.533428
 30
0.0
 40
4.6
 50
179.583633
 51
256.166334
  0
LINE
  8
0
  6
CONTINUOUS
 62
     3
  5
16F
 10
29.5
 20
-141.0
 30
0.0
 11
30.0
 21
-141.5
 31
0.0
  0
ARC
  8
0
  6
CONTINUOUS
 62
     3
  5
170
 10
32.0
 20
-148.5
 30
0.0
 40
1.5
 50
270.0
 51
0.0
  0
LINE
  8
0
  6
CONTINUOUS
 62
     3
  5
171
 10
32.0
 20
-156.0
 30
0.0
 11
32.0
 21
-150.0
 31
0.0
  0
LINE
  8
0
  6
CONTINUOUS
 62
     3
  5
172
 10
33.5
 20
-165.5
 30
0.0
 11
33.5
 21
-157.5
 31
0.0
  0
LINE
  8
0
  6
CONTINUOUS
 62
     3
  5
173
 10
35.0
 20
-166.0
 30
0.0
 11
35.0
 21
-168.0
 31
0.0
  0
LINE
  8
0
  6
CONTINUOUS
 62
     3
  5
174
 10
29.999999
 20
-140.5
 30
0.0
 11
29.5
 21
-141.0
 31
0.0
  0
LINE
  8
0
  6
CONTINUOUS
 62
     3
  5
175
 10
30.0
 20
-0.5
 30
0.0
 11
30.0
 21
-140.5
 31
0.0
  0
LINE
  8
0
  6
CONTINUOUS
 62
     3
  5
176
 10
-29.5
 20
-141.0
 30
0.0
 11
29.5
 21
-141.0
 31
0.0
  0
LINE
  8
0
  6
CONTINUOUS
 62
     3
  5
177
 10
-33.5
 20
-146.0
 30
0.0
 11
33.5
 21
-146.0
 31
0.0
  0
LINE
  8
0
  6
CONTINUOUS
 62
     3
  5
178
 10
-32.0
 20
-150.0
 30
0.0
 11
32.0
 21
-150.0
 31
0.0
  0
LINE
  8
0
  6
CONTINUOUS
 62
     3
  5
179
 10
-32.0
 20
-156.0
 30
0.0
 11
32.0
 21
-156.0
 31
0.0
  0
LINE
  8
0
  6
CONTINUOUS
 62
     3
  5
17A
 10
-35.0
 20
-168.0
 30
0.0
 11
35.0
 21
-168.0
 31
0.0
  0
LINE
  8
0
  6
CONTINUOUS
 62
     3
  5
17B
 10
35.0
 20
-166.0
 30
0.0
 11
-35.0
 21
-166.0
 31
0.0
  0
ENDBLK
  8
0
  5
17C
  0
BLOCK
  8
0
  5
17D
  2
MS_5
 70
     0
 10
0.0
 20
0.0
 30
0.0
  3
MS_5
  0
LINE
  8
0
  6
CONTINUOUS
 62
     3
  5
17E
 10
29.5
 20
0.0
 30
0.0
 11
-29.5
 21
0.0
 31
0.0
  0
LINE
  8
0
  6
CONTINUOUS
 62
     3
  5
17F
 10
29.5
 20
40.0
 30
0.0
 11
30.0
 21
39.5
 31
0.0
  0
LINE
  8
0
  6
CONTINUOUS
 62
     3
  5
180
 10
-29.5
 20
40.0
 30
0.0
 11
-30.0
 21
39.5
 31
0.0
  0
LINE
  8
0
  6
CONTINUOUS
 62
     3
  5
181
 10
-30.0
 20
39.5
 30
0.0
 11
-30.0
 21
37.65
 31
0.0
  0
ARC
  8
0
  6
CONTINUOUS
 62
     3
  5
182
 10
-29.5
 20
12.99039
 30
0.0
 40
0.5
 50
145.370441
 51
180.0
  0
ARC
  8
0
  6
CONTINUOUS
 62
     3
  5
183
 10
-29.5
 20
19.80961
 30
0.0
 40
0.5
 50
180.0
 51
214.629559
  0
ARC
  8
0
  6
CONTINUOUS
 62
     3
  5
184
 10
-29.5
 20
19.99039
 30
0.0
 40
0.5
 50
145.370441
 51
180.0
  0
ARC
  8
0
  6
CONTINUOUS
 62
     3
  5
185
 10
-29.5
 20
26.80961
 30
0.0
 40
0.5
 50
180.0
 51
214.629559
  0
LINE
  8
0
  6
CONTINUOUS
 62
     3
  5
186
 10
-30.0
 20
7.448054
 30
0.0
 11
-30.0
 21
7.351946
 31
0.0
  0
LINE
  8
0
  6
CONTINUOUS
 62
     3
  5
187
 10
-30.0
 20
32.351946
 30
0.0
 11
-30.0
 21
32.448054
 31
0.0
  0
LINE
  8
0
  6
CONTINUOUS
 62
     3
  5
188
 10
-30.0
 20
26.948054
 30
0.0
 11
-30.0
 21
26.80961
 31
0.0
  0
LINE
  8
0
  6
CONTINUOUS
 62
     3
  5
189
 10
-30.0
 20
19.99039
 30
0.0
 11
-30.0
 21
19.80961
 31
0.0
  0
LINE
  8
0
  6
CONTINUOUS
 62
     3
  5
18A
 10
-30.0
 20
12.99039
 30
0.0
 11
-30.0
 21
12.851946
 31
0.0
  0
LINE
  8
0
  6
CONTINUOUS
 62
     3
  5
18B
 10
-30.0
 20
2.15
 30
0.0
 11
-30.0
 21
0.5
 31
0.0
  0
ARC
  8
0
  6
CONTINUOUS
 62
     3
  5
18C
 10
-29.5
 20
32.448054
 30
0.0
 40
0.5
 50
137.508066
 51
180.0
  0
ARC
  8
0
  6
CONTINUOUS
 62
     3
  5
18D
 10
-29.5
 20
32.351946
 30
0.0
 40
0.5
 50
180.0
 51
222.491934
  0
ARC
  8
0
  6
CONTINUOUS
 62
     3
  5
18E
 10
-29.5
 20
26.948054
 30
0.0
 40
0.5
 50
137.508066
 51
180.0
  0
ARC
  8
0
  6
CONTINUOUS
 62
     3
  5
18F
 10
-29.5
 20
12.851946
 30
0.0
 40
0.5
 50
180.0
 51
222.491934
  0
ARC
  8
0
  6
CONTINUOUS
 62
     3
  5
190
 10
-29.5
 20
7.448054
 30
0.0
 40
0.5
 50
137.508066
 51
180.0
  0
ARC
  8
0
  6
CONTINUOUS
 62
     3
  5
191
 10
-29.5
 20
7.351946
 30
0.0
 40
0.5
 50
180.0
 51
222.491934
  0
ARC
  8
0
  6
CONTINUOUS
 62
     3
  5
192
 10
-32.44949
 20
35.15
 30
0.0
 40
3.5
 50
317.508066
 51
45.584691
  0
ARC
  8
0
  6
CONTINUOUS
 62
     3
  5
193
 10
-34.43706
 20
16.4
 30
0.0
 40
5.5
 50
325.370441
 51
34.629559
  0
ARC
  8
0
  6
CONTINUOUS
 62
     3
  5
194
 10
-34.43706
 20
23.4
 30
0.0
 40
5.5
 50
325.370441
 51
34.629559
  0
ARC
  8
0
  6
CONTINUOUS
 62
     3
  5
195
 10
-32.44949
 20
29.65
 30
0.0
 40
3.5
 50
317.508066
 51
42.491934
  0
ARC
  8
0
  6
CONTINUOUS
 62
     3
  5
196
 10
-32.44949
 20
10.15
 30
0.0
 40
3.5
 50
317.508066
 51
42.491934
  0
ARC
  8
0
  6
CONTINUOUS
 62
     3
  5
197
 10
-32.44949
 20
4.65
 30
0.0
 40
3.5
 50
314.415309
 51
42.491934
  0
ARC
  8
0
  6
CONTINUOUS
 62
     3
  5
198
 10
29.5
 20
7.351946
 30
0.0
 40
0.5
 50
317.508066
 51
0.0
  0
ARC
  8
0
  6
CONTINUOUS
 62
     3
  5
199
 10
29.5
 20
7.448054
 30
0.0
 40
0.5
 50
0.0
 51
42.491934
  0
ARC
  8
0
  6
CONTINUOUS
 62
     3
  5
19A
 10
29.5
 20
12.851946
 30
0.0
 40
0.5
 50
317.508066
 51
0.0
  0
ARC
  8
0
  6
CONTINUOUS
 62
     3
  5
19B
 10
29.5
 20
12.99039
 30
0.0
 40
0.5
 50
0.0
 51
34.629559
  0
ARC
  8
0
  6
CONTINUOUS
 62
     3
  5
19C
 10
29.5
 20
19.80961
 30
0.0
 40
0.5
 50
325.370441
 51
0.0
  0
ARC
  8
0
  6
CONTINUOUS
 62
     3
  5
19D
 10
29.5
 20
19.99039
 30
0.0
 40
0.5
 50
0.0
 51
34.629559
  0
ARC
  8
0
  6
CONTINUOUS
 62
     3
  5
19E
 10
29.5
 20
26.80961
 30
0.0
 40
0.5
 50
325.370441
 51
0.0
  0
ARC
  8
0
  6
CONTINUOUS
 62
     3
  5
19F
 10
29.5
 20
26.948054
 30
0.0
 40
0.5
 50
0.0
 51
42.491934
  0
ARC
  8
0
  6
CONTINUOUS
 62
     3
  5
1A0
 10
29.5
 20
32.351946
 30
0.0
 40
0.5
 50
317.508066
 51
0.0
  0
ARC
  8
0
  6
CONTINUOUS
 62
     3
  5
1A1
 10
29.5
 20
32.448054
 30
0.0
 40
0.5
 50
0.0
 51
42.491934
  0
LINE
  8
0
  6
CONTINUOUS
 62
     3
  5
1A2
 10
30.0
 20
12.99039
 30
0.0
 11
30.0
 21
12.851946
 31
0.0
  0
LINE
  8
0
  6
CONTINUOUS
 62
     3
  5
1A3
 10
30.0
 20
19.99039
 30
0.0
 11
30.0
 21
19.80961
 31
0.0
  0
LINE
  8
0
  6
CONTINUOUS
 62
     3
  5
1A4
 10
30.0
 20
26.948054
 30
0.0
 11
30.0
 21
26.80961
 31
0.0
  0
LINE
  8
0
  6
CONTINUOUS
 62
     3
  5
1A5
 10
30.0
 20
32.351946
 30
0.0
 11
30.0
 21
32.448054
 31
0.0
  0
LINE
  8
0
  6
CONTINUOUS
 62
     3
  5
1A6
 10
30.0
 20
7.448054
 30
0.0
 11
30.0
 21
7.351946
 31
0.0
  0
LINE
  8
0
  6
CONTINUOUS
 62
    80
  5
1A7
 10
-30.0
 20
2.15
 30
0.0
 11
30.0
 21
2.15
 31
0.0
  0
LINE
  8
0
  6
CONTINUOUS
 62
     3
  5
1A8
 10
30.0
 20
39.5
 30
0.0
 11
30.0
 21
37.65
 31
0.0
  0
LINE
  8
0
  6
CONTINUOUS
 62
     3
  5
1A9
 10
30.0
 20
2.15
 30
0.0
 11
30.0
 21
0.5
 31
0.0
  0
ARC
  8
0
  6
CONTINUOUS
 62
     3
  5
1AA
 10
32.44949
 20
4.65
 30
0.0
 40
3.5
 50
137.508066
 51
225.584691
  0
ARC
  8
0
  6
CONTINUOUS
 62
     3
  5
1AB
 10
32.44949
 20
10.15
 30
0.0
 40
3.5
 50
137.508066
 51
222.491934
  0
ARC
  8
0
  6
CONTINUOUS
 62
     3
  5
1AC
 10
32.44949
 20
29.65
 30
0.0
 40
3.5
 50
137.508066
 51
222.491934
  0
ARC
  8
0
  6
CONTINUOUS
 62
     3
  5
1AD
 10
34.43706
 20
23.4
 30
0.0
 40
5.5
 50
145.370441
 51
214.629559
  0
ARC
  8
0
  6
CONTINUOUS
 62
     3
  5
1AE
 10
34.43706
 20
16.4
 30
0.0
 40
5.5
 50
145.370441
 51
214.629559
  0
ARC
  8
0
  6
CONTINUOUS
 62
     3
  5
1AF
 10
32.44949
 20
35.15
 30
0.0
 40
3.5
 50
134.415309
 51
222.491934
  0
LINE
  8
0
  6
CONTINUOUS
 62
     3
  5
1B0
 10
-29.5
 20
40.0
 30
0.0
 11
29.5
 21
40.0
 31
0.0
  0
LINE
  8
0
  6
CONTINUOUS
 62
    80
  5
1B1
 10
-30.0
 20
7.4
 30
0.0
 11
30.0
 21
7.4
 31
0.0
  0
LINE
  8
0
  6
CONTINUOUS
 62
    80
  5
1B2
 10
-30.0
 20
12.856692
 30
0.0
 11
30.0
 21
12.856692
 31
0.0
  0
LINE
  8
0
  6
CONTINUOUS
 62
    80
  5
1B3
 10
-30.0
 20
19.9
 30
0.0
 11
30.0
 21
19.9
 31
0.0
  0
LINE
  8
0
  6
CONTINUOUS
 62
    80
  5
1B4
 10
-30.0
 20
26.943308
 30
0.0
 11
30.0
 21
26.943308
 31
0.0
  0
LINE
  8
0
  6
CONTINUOUS
 62
    80
  5
1B5
 10
-30.0
 20
32.4
 30
0.0
 11
29.997685
 21
32.4
 31
0.0
  0
LINE
  8
0
  6
CONTINUOUS
 62
    80
  5
1B6
 10
-30.0
 20
37.65
 30
0.0
 11
29.997685
 21
37.65
 31
0.0
  0
LINE
  8
0
  6
CONTINUOUS
 62
    80
  5
1B7
 10
26.336136
 20
5.0
 30
0.0
 11
25.760119
 21
38.0
 31
0.0
  0
LINE
  8
0
  6
CONTINUOUS
 62
    80
  5
1B8
 10
23.172807
 20
38.0
 30
0.0
 11
23.172807
 21
5.0
 31
0.0
  0
LINE
  8
0
  6
CONTINUOUS
 62
    80
  5
1B9
 10
21.647396
 20
38.0
 30
0.0
 11
21.647396
 21
5.0
 31
0.0
  0
LINE
  8
0
  6
CONTINUOUS
 62
    80
  5
1BA
 10
19.884811
 20
38.0
 30
0.0
 11
19.884811
 21
5.0
 31
0.0
  0
LINE
  8
0
  6
CONTINUOUS
 62
    80
  5
1BB
 10
17.904364
 20
38.0
 30
0.0
 11
17.904364
 21
5.0
 31
0.0
  0
LINE
  8
0
  6
CONTINUOUS
 62
    80
  5
1BC
 10
15.727753
 20
38.0
 30
0.0
 11
15.727753
 21
5.0
 31
0.0
  0
LINE
  8
0
  6
CONTINUOUS
 62
    80
  5
1BD
 10
13.378826
 20
38.0
 30
0.0
 11
13.378826
 21
5.0
 31
0.0
  0
LINE
  8
0
  6
CONTINUOUS
 62
    80
  5
1BE
 10
10.883318
 20
38.0
 30
0.0
 11
10.883318
 21
5.0
 31
0.0
  0
LINE
  8
0
  6
CONTINUOUS
 62
    80
  5
1BF
 10
8.268569
 20
38.0
 30
0.0
 11
8.268569
 21
5.0
 31
0.0
  0
LINE
  8
0
  6
CONTINUOUS
 62
    80
  5
1C0
 10
5.563228
 20
38.0
 30
0.0
 11
5.563228
 21
5.0
 31
0.0
  0
LINE
  8
0
  6
CONTINUOUS
 62
    80
  5
1C1
 10
2.857888
 20
38.0
 30
0.0
 11
2.857888
 21
5.0
 31
0.0
  0
LINE
  8
0
  6
CONTINUOUS
 62
    80
  5
1C2
 10
25.44804
 20
38.0
 30
0.0
 11
25.44804
 21
5.0
 31
0.0
  0
LINE
  8
0
  6
CONTINUOUS
 62
    80
  5
1C3
 10
24.444332
 20
38.0
 30
0.0
 11
24.444332
 21
5.0
 31
0.0
  0
LINE
  8
0
  6
CONTINUOUS
 62
    80
  5
1C4
 10
-25.448041
 20
38.0
 30
0.0
 11
-25.448041
 21
5.0
 31
0.0
  0
LINE
  8
0
  6
CONTINUOUS
 62
    80
  5
1C5
 10
-24.444333
 20
38.0
 30
0.0
 11
-24.444333
 21
5.0
 31
0.0
  0
LINE
  8
0
  6
CONTINUOUS
 62
    80
  5
1C6
 10
-23.172808
 20
38.0
 30
0.0
 11
-23.172808
 21
5.0
 31
0.0
  0
LINE
  8
0
  6
CONTINUOUS
 62
    80
  5
1C7
 10
-21.647396
 20
38.0
 30
0.0
 11
-21.647396
 21
5.0
 31
0.0
  0
LINE
  8
0
  6
CONTINUOUS
 62
    80
  5
1C8
 10
-19.884812
 20
38.0
 30
0.0
 11
-19.884812
 21
5.0
 31
0.0
  0
LINE
  8
0
  6
CONTINUOUS
 62
    80
  5
1C9
 10
-17.904365
 20
38.0
 30
0.0
 11
-17.904365
 21
5.0
 31
0.0
  0
LINE
  8
0
  6
CONTINUOUS
 62
    80
  5
1CA
 10
-15.727754
 20
38.0
 30
0.0
 11
-15.727754
 21
5.0
 31
0.0
  0
LINE
  8
0
  6
CONTINUOUS
 62
    80
  5
1CB
 10
-13.378827
 20
38.0
 30
0.0
 11
-13.378827
 21
5.0
 31
0.0
  0
LINE
  8
0
  6
CONTINUOUS
 62
    80
  5
1CC
 10
-10.883318
 20
38.0
 30
0.0
 11
-10.883318
 21
5.0
 31
0.0
  0
LINE
  8
0
  6
CONTINUOUS
 62
    80
  5
1CD
 10
-8.26857
 20
38.0
 30
0.0
 11
-8.26857
 21
5.0
 31
0.0
  0
LINE
  8
0
  6
CONTINUOUS
 62
    80
  5
1CE
 10
-5.563229
 20
38.0
 30
0.0
 11
-5.563229
 21
5.0
 31
0.0
  0
LINE
  8
0
  6
CONTINUOUS
 62
    80
  5
1CF
 10
-26.336137
 20
5.0
 30
0.0
 11
-25.76012
 21
38.0
 31
0.0
  0
LINE
  8
0
  6
CONTINUOUS
 62
    80
  5
1D0
 10
-2.857889
 20
38.0
 30
0.0
 11
-2.857889
 21
5.0
 31
0.0
  0
LINE
  8
0
  6
CONTINUOUS
 62
    80
  5
1D1
 10
0.0
 20
38.0
 30
0.0
 11
0.0
 21
5.0
 31
0.0
  0
LINE
  8
0
  6
CONTINUOUS
 62
     3
  5
1D2
 10
-30.0
 20
0.499999
 30
0.0
 11
-29.500001
 21
0.0
 31
0.0
  0
LINE
  8
0
  6
CONTINUOUS
 62
     3
  5
1D3
 10
30.0
 20
0.499999
 30
0.0
 11
29.500001
 21
0.0
 31
0.0
  0
ENDBLK
  8
0
  5
1D4
  0
BLOCK
  8
0
  5
1D5
  2
MS_6
 70
     0
 10
0.0
 20
0.0
 30
0.0
  3
MS_6
  0
ARC
  8
0
  6
CONTINUOUS
 62
     3
  5
1D6
 10
-23.883081
 20
3.645922
 30
0.0
 40
6.0
 50
105.046254
 51
178.999997
  0
ARC
  8
0
  6
CONTINUOUS
 62
     3
  5
1D7
 10
23.883082
 20
3.645922
 30
0.0
 40
6.0
 50
1.0
 51
74.953745
  0
ARC
  8
0
  6
CONTINUOUS
 62
     3
  5
1D8
 10
0.0
 20
-85.200001
 30
0.0
 40
98.0
 50
74.953747
 51
105.046254
  0
LINE
  8
0
  6
CONTINUOUS
 62
     3
  5
1D9
 10
-29.991272
 20
0.499924
 30
0.0
 11
-29.882166
 21
3.750636
 31
0.0
  0
LINE
  8
0
  6
CONTINUOUS
 62
     3
  5
1DA
 10
-29.991274
 20
0.499924
 30
0.0
 11
-29.508503
 21
0.0
 31
0.0
  0
LINE
  8
0
  6
CONTINUOUS
 62
     3
  5
1DB
 10
29.991273
 20
0.499924
 30
0.0
 11
29.882167
 21
3.750636
 31
0.0
  0
LINE
  8
0
  6
CONTINUOUS
 62
     3
  5
1DC
 10
29.991275
 20
0.499924
 30
0.0
 11
29.508504
 21
0.0
 31
0.0
  0
LINE
  8
0
  6
CONTINUOUS
 62
     3
  5
1DD
 10
-29.508503
 20
0.0
 30
0.0
 11
29.508503
 21
0.0
 31
0.0
  0
ENDBLK
  8
0
  5
1DE
  0
BLOCK
  8
0
  5
1DF
  2
MS_7
 70
     0
 10
0.0
 20
0.0
 30
0.0
  3
MS_7
  0
POLYLINE
  8
0
  6
CONTINUOUS
 62
    80
  5
1E0
 66
     1
 10
0.0
 20
0.0
 30
0.0
 70
     1
  0
VERTEX
  8
0
  6
CONTINUOUS
 62
    80
  5
302
 10
9.625
 20
-10.875
 30
0.0
  0
VERTEX
  8
0
  6
CONTINUOUS
 62
    80
  5
303
 10
9.624806
 20
-10.85198
 30
0.0
  0
VERTEX
  8
0
  6
CONTINUOUS
 62
    80
  5
304
 10
9.624226
 20
-10.828948
 30
0.0
  0
VERTEX
  8
0
  6
CONTINUOUS
 62
    80
  5
305
 10
9.623262
 20
-10.805911
 30
0.0
  0
VERTEX
  8
0
  6
CONTINUOUS
 62
    80
  5
306
 10
9.621918
 20
-10.782879
 30
0.0
  0
VERTEX
  8
0
  6
CONTINUOUS
 62
    80
  5
307
 10
9.620197
 20
-10.759859
 30
0.0
  0
VERTEX
  8
0
  6
CONTINUOUS
 62
    80
  5
308
 10
9.618101
 20
-10.736861
 30
0.0
  0
VERTEX
  8
0
  6
CONTINUOUS
 62
    80
  5
309
 10
9.615633
 20
-10.713893
 30
0.0
  0
VERTEX
  8
0
  6
CONTINUOUS
 62
    80
  5
30A
 10
9.612797
 20
-10.690963
 30
0.0
  0
VERTEX
  8
0
  6
CONTINUOUS
 62
    80
  5
30B
 10
9.609596
 20
-10.668081
 30
0.0
  0
VERTEX
  8
0
  6
CONTINUOUS
 62
    80
  5
30C
 10
9.606032
 20
-10.645255
 30
0.0
  0
VERTEX
  8
0
  6
CONTINUOUS
 62
    80
  5
30D
 10
9.602108
 20
-10.622493
 30
0.0
  0
VERTEX
  8
0
  6
CONTINUOUS
 62
    80
  5
30E
 10
9.597827
 20
-10.599804
 30
0.0
  0
VERTEX
  8
0
  6
CONTINUOUS
 62
    80
  5
30F
 10
9.593193
 20
-10.577197
 30
0.0
  0
VERTEX
  8
0
  6
CONTINUOUS
 62
    80
  5
310
 10
9.588208
 20
-10.55468
 30
0.0
  0
VERTEX
  8
0
  6
CONTINUOUS
 62
    80
  5
311
 10
9.582875
 20
-10.532262
 30
0.0
  0
VERTEX
  8
0
  6
CONTINUOUS
 62
    80
  5
312
 10
9.577197
 20
-10.509951
 30
0.0
  0
VERTEX
  8
0
  6
CONTINUOUS
 62
    80
  5
313
 10
9.57058
 20
-10.485613
 30
0.0
  0
VERTEX
  8
0
  6
CONTINUOUS
 62
    80
  5
314
 10
9.563553
 20
-10.461373
 30
0.0
  0
VERTEX
  8
0
  6
CONTINUOUS
 62
    80
  5
315
 10
9.556124
 20
-10.437236
 30
0.0
  0
VERTEX
  8
0
  6
CONTINUOUS
 62
    80
  5
316
 10
9.548301
 20
-10.413209
 30
0.0
  0
VERTEX
  8
0
  6
CONTINUOUS
 62
    80
  5
317
 10
9.54009
 20
-10.389298
 30
0.0
  0
VERTEX
  8
0
  6
CONTINUOUS
 62
    80
  5
318
 10
9.531501
 20
-10.36551
 30
0.0
  0
VERTEX
  8
0
  6
CONTINUOUS
 62
    80
  5
319
 10
9.52254
 20
-10.341852
 30
0.0
  0
VERTEX
  8
0
  6
CONTINUOUS
 62
    80
  5
31A
 10
9.513215
 20
-10.318328
 30
0.0
  0
VERTEX
  8
0
  6
CONTINUOUS
 62
    80
  5
31B
 10
9.503535
 20
-10.294946
 30
0.0
  0
VERTEX
  8
0
  6
CONTINUOUS
 62
    80
  5
31C
 10
9.493506
 20
-10.271713
 30
0.0
  0
VERTEX
  8
0
  6
CONTINUOUS
 62
    80
  5
31D
 10
9.483137
 20
-10.248634
 30
0.0
  0
VERTEX
  8
0
  6
CONTINUOUS
 62
    80
  5
31E
 10
9.472434
 20
-10.225715
 30
0.0
  0
VERTEX
  8
0
  6
CONTINUOUS
 62
    80
  5
31F
 10
9.461407
 20
-10.202964
 30
0.0
  0
VERTEX
  8
0
  6
CONTINUOUS
 62
    80
  5
320
 10
9.450062
 20
-10.180386
 30
0.0
  0
VERTEX
  8
0
  6
CONTINUOUS
 62
    80
  5
321
 10
9.438407
 20
-10.157989
 30
0.0
  0
VERTEX
  8
0
  6
CONTINUOUS
 62
    80
  5
322
 10
9.42645
 20
-10.135777
 30
0.0
  0
VERTEX
  8
0
  6
CONTINUOUS
 62
    80
  5
323
 10
9.412345
 20
-10.110482
 30
0.0
  0
VERTEX
  8
0
  6
CONTINUOUS
 62
    80
  5
324
 10
9.397842
 20
-10.085395
 30
0.0
  0
VERTEX
  8
0
  6
CONTINUOUS
 62
    80
  5
325
 10
9.382951
 20
-10.060519
 30
0.0
  0
VERTEX
  8
0
  6
CONTINUOUS
 62
    80
  5
326
 10
9.367681
 20
-10.035858
 30
0.0
  0
VERTEX
  8
0
  6
CONTINUOUS
 62
    80
  5
327
 10
9.352042
 20
-10.011414
 30
0.0
  0
VERTEX
  8
0
  6
CONTINUOUS
 62
    80
  5
328
 10
9.336044
 20
-9.987192
 30
0.0
  0
VERTEX
  8
0
  6
CONTINUOUS
 62
    80
  5
329
 10
9.319698
 20
-9.963194
 30
0.0
  0
VERTEX
  8
0
  6
CONTINUOUS
 62
    80
  5
32A
 10
9.303013
 20
-9.939424
 30
0.0
  0
VERTEX
  8
0
  6
CONTINUOUS
 62
    80
  5
32B
 10
9.285999
 20
-9.915884
 30
0.0
  0
VERTEX
  8
0
  6
CONTINUOUS
 62
    80
  5
32C
 10
9.268666
 20
-9.892579
 30
0.0
  0
VERTEX
  8
0
  6
CONTINUOUS
 62
    80
  5
32D
 10
9.251024
 20
-9.869511
 30
0.0
  0
VERTEX
  8
0
  6
CONTINUOUS
 62
    80
  5
32E
 10
9.233083
 20
-9.846684
 30
0.0
  0
VERTEX
  8
0
  6
CONTINUOUS
 62
    80
  5
32F
 10
9.214853
 20
-9.8241
 30
0.0
  0
VERTEX
  8
0
  6
CONTINUOUS
 62
    80
  5
330
 10
9.196343
 20
-9.801764
 30
0.0
  0
VERTEX
  8
0
  6
CONTINUOUS
 62
    80
  5
331
 10
9.177565
 20
-9.779678
 30
0.0
  0
VERTEX
  8
0
  6
CONTINUOUS
 62
    80
  5
332
 10
9.158527
 20
-9.757846
 30
0.0
  0
VERTEX
  8
0
  6
CONTINUOUS
 62
    80
  5
333
 10
9.13629
 20
-9.733014
 30
0.0
  0
VERTEX
  8
0
  6
CONTINUOUS
 62
    80
  5
334
 10
9.113701
 20
-9.708482
 30
0.0
  0
VERTEX
  8
0
  6
CONTINUOUS
 62
    80
  5
335
 10
9.09077
 20
-9.68425
 30
0.0
  0
VERTEX
  8
0
  6
CONTINUOUS
 62
    80
  5
336
 10
9.067506
 20
-9.66032
 30
0.0
  0
VERTEX
  8
0
  6
CONTINUOUS
 62
    80
  5
337
 10
9.043921
 20
-9.636691
 30
0.0
  0
VERTEX
  8
0
  6
CONTINUOUS
 62
    80
  5
338
 10
9.020023
 20
-9.613365
 30
0.0
  0
VERTEX
  8
0
  6
CONTINUOUS
 62
    80
  5
339
 10
8.995823
 20
-9.590342
 30
0.0
  0
VERTEX
  8
0
  6
CONTINUOUS
 62
    80
  5
33A
 10
8.97133
 20
-9.567622
 30
0.0
  0
VERTEX
  8
0
  6
CONTINUOUS
 62
    80
  5
33B
 10
8.946555
 20
-9.545208
 30
0.0
  0
VERTEX
  8
0
  6
CONTINUOUS
 62
    80
  5
33C
 10
8.921508
 20
-9.523098
 30
0.0
  0
VERTEX
  8
0
  6
CONTINUOUS
 62
    80
  5
33D
 10
8.896199
 20
-9.501294
 30
0.0
  0
VERTEX
  8
0
  6
CONTINUOUS
 62
    80
  5
33E
 10
8.870637
 20
-9.479797
 30
0.0
  0
VERTEX
  8
0
  6
CONTINUOUS
 62
    80
  5
33F
 10
8.844833
 20
-9.458606
 30
0.0
  0
VERTEX
  8
0
  6
CONTINUOUS
 62
    80
  5
340
 10
8.818796
 20
-9.437724
 30
0.0
  0
VERTEX
  8
0
  6
CONTINUOUS
 62
    80
  5
341
 10
8.792537
 20
-9.417149
 30
0.0
  0
VERTEX
  8
0
  6
CONTINUOUS
 62
    80
  5
342
 10
8.766066
 20
-9.396884
 30
0.0
  0
VERTEX
  8
0
  6
CONTINUOUS
 62
    80
  5
343
 10
8.73598
 20
-9.374408
 30
0.0
  0
VERTEX
  8
0
  6
CONTINUOUS
 62
    80
  5
344
 10
8.705609
 20
-9.352295
 30
0.0
  0
VERTEX
  8
0
  6
CONTINUOUS
 62
    80
  5
345
 10
8.674962
 20
-9.330544
 30
0.0
  0
VERTEX
  8
0
  6
CONTINUOUS
 62
    80
  5
346
 10
8.644048
 20
-9.309155
 30
0.0
  0
VERTEX
  8
0
  6
CONTINUOUS
 62
    80
  5
347
 10
8.612876
 20
-9.288125
 30
0.0
  0
VERTEX
  8
0
  6
CONTINUOUS
 62
    80
  5
348
 10
8.581454
 20
-9.267456
 30
0.0
  0
VERTEX
  8
0
  6
CONTINUOUS
 62
    80
  5
349
 10
8.549791
 20
-9.247145
 30
0.0
  0
VERTEX
  8
0
  6
CONTINUOUS
 62
    80
  5
34A
 10
8.517896
 20
-9.227192
 30
0.0
  0
VERTEX
  8
0
  6
CONTINUOUS
 62
    80
  5
34B
 10
8.485779
 20
-9.207596
 30
0.0
  0
VERTEX
  8
0
  6
CONTINUOUS
 62
    80
  5
34C
 10
8.453448
 20
-9.188357
 30
0.0
  0
VERTEX
  8
0
  6
CONTINUOUS
 62
    80
  5
34D
 10
8.420911
 20
-9.169473
 30
0.0
  0
VERTEX
  8
0
  6
CONTINUOUS
 62
    80
  5
34E
 10
8.388178
 20
-9.150944
 30
0.0
  0
VERTEX
  8
0
  6
CONTINUOUS
 62
    80
  5
34F
 10
8.355258
 20
-9.132769
 30
0.0
  0
VERTEX
  8
0
  6
CONTINUOUS
 62
    80
  5
350
 10
8.322159
 20
-9.114947
 30
0.0
  0
VERTEX
  8
0
  6
CONTINUOUS
 62
    80
  5
351
 10
8.28889
 20
-9.097477
 30
0.0
  0
VERTEX
  8
0
  6
CONTINUOUS
 62
    80
  5
352
 10
8.25546
 20
-9.080359
 30
0.0
  0
VERTEX
  8
0
  6
CONTINUOUS
 62
    80
  5
353
 10
8.218692
 20
-9.062022
 30
0.0
  0
VERTEX
  8
0
  6
CONTINUOUS
 62
    80
  5
354
 10
8.181713
 20
-9.044085
 30
0.0
  0
VERTEX
  8
0
  6
CONTINUOUS
 62
    80
  5
355
 10
8.144531
 20
-9.026545
 30
0.0
  0
VERTEX
  8
0
  6
CONTINUOUS
 62
    80
  5
356
 10
8.107151
 20
-9.009403
 30
0.0
  0
VERTEX
  8
0
  6
CONTINUOUS
 62
    80
  5
357
 10
8.069583
 20
-8.992657
 30
0.0
  0
VERTEX
  8
0
  6
CONTINUOUS
 62
    80
  5
358
 10
8.031834
 20
-8.976304
 30
0.0
  0
VERTEX
  8
0
  6
CONTINUOUS
 62
    80
  5
359
 10
7.993911
 20
-8.960345
 30
0.0
  0
VERTEX
  8
0
  6
CONTINUOUS
 62
    80
  5
35A
 10
7.955822
 20
-8.944778
 30
0.0
  0
VERTEX
  8
0
  6
CONTINUOUS
 62
    80
  5
35B
 10
7.917574
 20
-8.929601
 30
0.0
  0
VERTEX
  8
0
  6
CONTINUOUS
 62
    80
  5
35C
 10
7.879174
 20
-8.914814
 30
0.0
  0
VERTEX
  8
0
  6
CONTINUOUS
 62
    80
  5
35D
 10
7.840631
 20
-8.900415
 30
0.0
  0
VERTEX
  8
0
  6
CONTINUOUS
 62
    80
  5
35E
 10
7.801952
 20
-8.886402
 30
0.0
  0
VERTEX
  8
0
  6
CONTINUOUS
 62
    80
  5
35F
 10
7.763145
 20
-8.872775
 30
0.0
  0
VERTEX
  8
0
  6
CONTINUOUS
 62
    80
  5
360
 10
7.724216
 20
-8.859533
 30
0.0
  0
VERTEX
  8
0
  6
CONTINUOUS
 62
    80
  5
361
 10
7.685174
 20
-8.846673
 30
0.0
  0
VERTEX
  8
0
  6
CONTINUOUS
 62
    80
  5
362
 10
7.646025
 20
-8.834196
 30
0.0
  0
VERTEX
  8
0
  6
CONTINUOUS
 62
    80
  5
363
 10
7.604359
 20
-8.821366
 30
0.0
  0
VERTEX
  8
0
  6
CONTINUOUS
 62
    80
  5
364
 10
7.562553
 20
-8.808953
 30
0.0
  0
VERTEX
  8
0
  6
CONTINUOUS
 62
    80
  5
365
 10
7.520614
 20
-8.796955
 30
0.0
  0
VERTEX
  8
0
  6
CONTINUOUS
 62
    80
  5
366
 10
7.478548
 20
-8.785372
 30
0.0
  0
VERTEX
  8
0
  6
CONTINUOUS
 62
    80
  5
367
 10
7.436362
 20
-8.774201
 30
0.0
  0
VERTEX
  8
0
  6
CONTINUOUS
 62
    80
  5
368
 10
7.394062
 20
-8.763444
 30
0.0
  0
VERTEX
  8
0
  6
CONTINUOUS
 62
    80
  5
369
 10
7.351655
 20
-8.753097
 30
0.0
  0
VERTEX
  8
0
  6
CONTINUOUS
 62
    80
  5
36A
 10
7.309147
 20
-8.743161
 30
0.0
  0
VERTEX
  8
0
  6
CONTINUOUS
 62
    80
  5
36B
 10
7.266544
 20
-8.733635
 30
0.0
  0
VERTEX
  8
0
  6
CONTINUOUS
 62
    80
  5
36C
 10
7.223854
 20
-8.724516
 30
0.0
  0
VERTEX
  8
0
  6
CONTINUOUS
 62
    80
  5
36D
 10
7.181082
 20
-8.715806
 30
0.0
  0
VERTEX
  8
0
  6
CONTINUOUS
 62
    80
  5
36E
 10
7.138236
 20
-8.707501
 30
0.0
  0
VERTEX
  8
0
  6
CONTINUOUS
 62
    80
  5
36F
 10
7.09532
 20
-8.699602
 30
0.0
  0
VERTEX
  8
0
  6
CONTINUOUS
 62
    80
  5
370
 10
7.052343
 20
-8.692107
 30
0.0
  0
VERTEX
  8
0
  6
CONTINUOUS
 62
    80
  5
371
 10
7.00931
 20
-8.685015
 30
0.0
  0
VERTEX
  8
0
  6
CONTINUOUS
 62
    80
  5
372
 10
6.966229
 20
-8.678326
 30
0.0
  0
VERTEX
  8
0
  6
CONTINUOUS
 62
    80
  5
373
 10
6.921802
 20
-8.671855
 30
0.0
  0
VERTEX
  8
0
  6
CONTINUOUS
 62
    80
  5
374
 10
6.877303
 20
-8.665803
 30
0.0
  0
VERTEX
  8
0
  6
CONTINUOUS
 62
    80
  5
375
 10
6.832737
 20
-8.660172
 30
0.0
  0
VERTEX
  8
0
  6
CONTINUOUS
 62
    80
  5
376
 10
6.788111
 20
-8.65496
 30
0.0
  0
VERTEX
  8
0
  6
CONTINUOUS
 62
    80
  5
377
 10
6.743429
 20
-8.650167
 30
0.0
  0
VERTEX
  8
0
  6
CONTINUOUS
 62
    80
  5
378
 10
6.698699
 20
-8.645793
 30
0.0
  0
VERTEX
  8
0
  6
CONTINUOUS
 62
    80
  5
379
 10
6.653925
 20
-8.641837
 30
0.0
  0
VERTEX
  8
0
  6
CONTINUOUS
 62
    80
  5
37A
 10
6.609114
 20
-8.6383
 30
0.0
  0
VERTEX
  8
0
  6
CONTINUOUS
 62
    80
  5
37B
 10
6.564272
 20
-8.63518
 30
0.0
  0
VERTEX
  8
0
  6
CONTINUOUS
 62
    80
  5
37C
 10
6.519405
 20
-8.632477
 30
0.0
  0
VERTEX
  8
0
  6
CONTINUOUS
 62
    80
  5
37D
 10
6.474518
 20
-8.630191
 30
0.0
  0
VERTEX
  8
0
  6
CONTINUOUS
 62
    80
  5
37E
 10
6.429618
 20
-8.628321
 30
0.0
  0
VERTEX
  8
0
  6
CONTINUOUS
 62
    80
  5
37F
 10
6.38471
 20
-8.626867
 30
0.0
  0
VERTEX
  8
0
  6
CONTINUOUS
 62
    80
  5
380
 10
6.339801
 20
-8.62583
 30
0.0
  0
VERTEX
  8
0
  6
CONTINUOUS
 62
    80
  5
381
 10
6.294895
 20
-8.625207
 30
0.0
  0
VERTEX
  8
0
  6
CONTINUOUS
 62
    80
  5
382
 10
6.25
 20
-8.625
 30
0.0
  0
VERTEX
  8
0
  6
CONTINUOUS
 62
    80
  5
383
 10
6.205105
 20
-8.625207
 30
0.0
  0
VERTEX
  8
0
  6
CONTINUOUS
 62
    80
  5
384
 10
6.160199
 20
-8.62583
 30
0.0
  0
VERTEX
  8
0
  6
CONTINUOUS
 62
    80
  5
385
 10
6.11529
 20
-8.626867
 30
0.0
  0
VERTEX
  8
0
  6
CONTINUOUS
 62
    80
  5
386
 10
6.070382
 20
-8.628321
 30
0.0
  0
VERTEX
  8
0
  6
CONTINUOUS
 62
    80
  5
387
 10
6.025482
 20
-8.630191
 30
0.0
  0
VERTEX
  8
0
  6
CONTINUOUS
 62
    80
  5
388
 10
5.980595
 20
-8.632477
 30
0.0
  0
VERTEX
  8
0
  6
CONTINUOUS
 62
    80
  5
389
 10
5.935728
 20
-8.63518
 30
0.0
  0
VERTEX
  8
0
  6
CONTINUOUS
 62
    80
  5
38A
 10
5.890886
 20
-8.6383
 30
0.0
  0
VERTEX
  8
0
  6
CONTINUOUS
 62
    80
  5
38B
 10
5.846075
 20
-8.641837
 30
0.0
  0
VERTEX
  8
0
  6
CONTINUOUS
 62
    80
  5
38C
 10
5.801301
 20
-8.645793
 30
0.0
  0
VERTEX
  8
0
  6
CONTINUOUS
 62
    80
  5
38D
 10
5.756571
 20
-8.650167
 30
0.0
  0
VERTEX
  8
0
  6
CONTINUOUS
 62
    80
  5
38E
 10
5.711889
 20
-8.65496
 30
0.0
  0
VERTEX
  8
0
  6
CONTINUOUS
 62
    80
  5
38F
 10
5.667263
 20
-8.660172
 30
0.0
  0
VERTEX
  8
0
  6
CONTINUOUS
 62
    80
  5
390
 10
5.622697
 20
-8.665803
 30
0.0
  0
VERTEX
  8
0
  6
CONTINUOUS
 62
    80
  5
391
 10
5.578198
 20
-8.671855
 30
0.0
  0
VERTEX
  8
0
  6
CONTINUOUS
 62
    80
  5
392
 10
5.533771
 20
-8.678326
 30
0.0
  0
VERTEX
  8
0
  6
CONTINUOUS
 62
    80
  5
393
 10
5.49069
 20
-8.685015
 30
0.0
  0
VERTEX
  8
0
  6
CONTINUOUS
 62
    80
  5
394
 10
5.447657
 20
-8.692107
 30
0.0
  0
VERTEX
  8
0
  6
CONTINUOUS
 62
    80
  5
395
 10
5.40468
 20
-8.699602
 30
0.0
  0
VERTEX
  8
0
  6
CONTINUOUS
 62
    80
  5
396
 10
5.361764
 20
-8.707501
 30
0.0
  0
VERTEX
  8
0
  6
CONTINUOUS
 62
    80
  5
397
 10
5.318918
 20
-8.715806
 30
0.0
  0
VERTEX
  8
0
  6
CONTINUOUS
 62
    80
  5
398
 10
5.276146
 20
-8.724516
 30
0.0
  0
VERTEX
  8
0
  6
CONTINUOUS
 62
    80
  5
399
 10
5.233456
 20
-8.733635
 30
0.0
  0
VERTEX
  8
0
  6
CONTINUOUS
 62
    80
  5
39A
 10
5.190853
 20
-8.743161
 30
0.0
  0
VERTEX
  8
0
  6
CONTINUOUS
 62
    80
  5
39B
 10
5.148345
 20
-8.753097
 30
0.0
  0
VERTEX
  8
0
  6
CONTINUOUS
 62
    80
  5
39C
 10
5.105938
 20
-8.763444
 30
0.0
  0
VERTEX
  8
0
  6
CONTINUOUS
 62
    80
  5
39D
 10
5.063638
 20
-8.774201
 30
0.0
  0
VERTEX
  8
0
  6
CONTINUOUS
 62
    80
  5
39E
 10
5.021452
 20
-8.785372
 30
0.0
  0
VERTEX
  8
0
  6
CONTINUOUS
 62
    80
  5
39F
 10
4.979386
 20
-8.796955
 30
0.0
  0
VERTEX
  8
0
  6
CONTINUOUS
 62
    80
  5
3A0
 10
4.937447
 20
-8.808953
 30
0.0
  0
VERTEX
  8
0
  6
CONTINUOUS
 62
    80
  5
3A1
 10
4.895641
 20
-8.821366
 30
0.0
  0
VERTEX
  8
0
  6
CONTINUOUS
 62
    80
  5
3A2
 10
4.853975
 20
-8.834196
 30
0.0
  0
VERTEX
  8
0
  6
CONTINUOUS
 62
    80
  5
3A3
 10
4.814826
 20
-8.846673
 30
0.0
  0
VERTEX
  8
0
  6
CONTINUOUS
 62
    80
  5
3A4
 10
4.775784
 20
-8.859533
 30
0.0
  0
VERTEX
  8
0
  6
CONTINUOUS
 62
    80
  5
3A5
 10
4.736855
 20
-8.872775
 30
0.0
  0
VERTEX
  8
0
  6
CONTINUOUS
 62
    80
  5
3A6
 10
4.698048
 20
-8.886402
 30
0.0
  0
VERTEX
  8
0
  6
CONTINUOUS
 62
    80
  5
3A7
 10
4.659369
 20
-8.900415
 30
0.0
  0
VERTEX
  8
0
  6
CONTINUOUS
 62
    80
  5
3A8
 10
4.620826
 20
-8.914814
 30
0.0
  0
VERTEX
  8
0
  6
CONTINUOUS
 62
    80
  5
3A9
 10
4.582426
 20
-8.929601
 30
0.0
  0
VERTEX
  8
0
  6
CONTINUOUS
 62
    80
  5
3AA
 10
4.544178
 20
-8.944778
 30
0.0
  0
VERTEX
  8
0
  6
CONTINUOUS
 62
    80
  5
3AB
 10
4.506089
 20
-8.960345
 30
0.0
  0
VERTEX
  8
0
  6
CONTINUOUS
 62
    80
  5
3AC
 10
4.468166
 20
-8.976304
 30
0.0
  0
VERTEX
  8
0
  6
CONTINUOUS
 62
    80
  5
3AD
 10
4.430417
 20
-8.992657
 30
0.0
  0
VERTEX
  8
0
  6
CONTINUOUS
 62
    80
  5
3AE
 10
4.392849
 20
-9.009403
 30
0.0
  0
VERTEX
  8
0
  6
CONTINUOUS
 62
    80
  5
3AF
 10
4.355469
 20
-9.026545
 30
0.0
  0
VERTEX
  8
0
  6
CONTINUOUS
 62
    80
  5
3B0
 10
4.318287
 20
-9.044085
 30
0.0
  0
VERTEX
  8
0
  6
CONTINUOUS
 62
    80
  5
3B1
 10
4.281308
 20
-9.062022
 30
0.0
  0
VERTEX
  8
0
  6
CONTINUOUS
 62
    80
  5
3B2
 10
4.24454
 20
-9.080359
 30
0.0
  0
VERTEX
  8
0
  6
CONTINUOUS
 62
    80
  5
3B3
 10
4.21111
 20
-9.097477
 30
0.0
  0
VERTEX
  8
0
  6
CONTINUOUS
 62
    80
  5
3B4
 10
4.177841
 20
-9.114947
 30
0.0
  0
VERTEX
  8
0
  6
CONTINUOUS
 62
    80
  5
3B5
 10
4.144742
 20
-9.132769
 30
0.0
  0
VERTEX
  8
0
  6
CONTINUOUS
 62
    80
  5
3B6
 10
4.111822
 20
-9.150944
 30
0.0
  0
VERTEX
  8
0
  6
CONTINUOUS
 62
    80
  5
3B7
 10
4.079089
 20
-9.169473
 30
0.0
  0
VERTEX
  8
0
  6
CONTINUOUS
 62
    80
  5
3B8
 10
4.046552
 20
-9.188357
 30
0.0
  0
VERTEX
  8
0
  6
CONTINUOUS
 62
    80
  5
3B9
 10
4.014221
 20
-9.207596
 30
0.0
  0
VERTEX
  8
0
  6
CONTINUOUS
 62
    80
  5
3BA
 10
3.982104
 20
-9.227192
 30
0.0
  0
VERTEX
  8
0
  6
CONTINUOUS
 62
    80
  5
3BB
 10
3.950209
 20
-9.247145
 30
0.0
  0
VERTEX
  8
0
  6
CONTINUOUS
 62
    80
  5
3BC
 10
3.918546
 20
-9.267456
 30
0.0
  0
VERTEX
  8
0
  6
CONTINUOUS
 62
    80
  5
3BD
 10
3.887124
 20
-9.288125
 30
0.0
  0
VERTEX
  8
0
  6
CONTINUOUS
 62
    80
  5
3BE
 10
3.855952
 20
-9.309155
 30
0.0
  0
VERTEX
  8
0
  6
CONTINUOUS
 62
    80
  5
3BF
 10
3.825038
 20
-9.330544
 30
0.0
  0
VERTEX
  8
0
  6
CONTINUOUS
 62
    80
  5
3C0
 10
3.794391
 20
-9.352295
 30
0.0
  0
VERTEX
  8
0
  6
CONTINUOUS
 62
    80
  5
3C1
 10
3.76402
 20
-9.374408
 30
0.0
  0
VERTEX
  8
0
  6
CONTINUOUS
 62
    80
  5
3C2
 10
3.733934
 20
-9.396884
 30
0.0
  0
VERTEX
  8
0
  6
CONTINUOUS
 62
    80
  5
3C3
 10
3.707463
 20
-9.417149
 30
0.0
  0
VERTEX
  8
0
  6
CONTINUOUS
 62
    80
  5
3C4
 10
3.681204
 20
-9.437724
 30
0.0
  0
VERTEX
  8
0
  6
CONTINUOUS
 62
    80
  5
3C5
 10
3.655167
 20
-9.458606
 30
0.0
  0
VERTEX
  8
0
  6
CONTINUOUS
 62
    80
  5
3C6
 10
3.629363
 20
-9.479797
 30
0.0
  0
VERTEX
  8
0
  6
CONTINUOUS
 62
    80
  5
3C7
 10
3.603801
 20
-9.501294
 30
0.0
  0
VERTEX
  8
0
  6
CONTINUOUS
 62
    80
  5
3C8
 10
3.578492
 20
-9.523098
 30
0.0
  0
VERTEX
  8
0
  6
CONTINUOUS
 62
    80
  5
3C9
 10
3.553445
 20
-9.545208
 30
0.0
  0
VERTEX
  8
0
  6
CONTINUOUS
 62
    80
  5
3CA
 10
3.52867
 20
-9.567622
 30
0.0
  0
VERTEX
  8
0
  6
CONTINUOUS
 62
    80
  5
3CB
 10
3.504177
 20
-9.590342
 30
0.0
  0
VERTEX
  8
0
  6
CONTINUOUS
 62
    80
  5
3CC
 10
3.479977
 20
-9.613365
 30
0.0
  0
VERTEX
  8
0
  6
CONTINUOUS
 62
    80
  5
3CD
 10
3.456079
 20
-9.636691
 30
0.0
  0
VERTEX
  8
0
  6
CONTINUOUS
 62
    80
  5
3CE
 10
3.432494
 20
-9.66032
 30
0.0
  0
VERTEX
  8
0
  6
CONTINUOUS
 62
    80
  5
3CF
 10
3.40923
 20
-9.68425
 30
0.0
  0
VERTEX
  8
0
  6
CONTINUOUS
 62
    80
  5
3D0
 10
3.386299
 20
-9.708482
 30
0.0
  0
VERTEX
  8
0
  6
CONTINUOUS
 62
    80
  5
3D1
 10
3.36371
 20
-9.733014
 30
0.0
  0
VERTEX
  8
0
  6
CONTINUOUS
 62
    80
  5
3D2
 10
3.341473
 20
-9.757846
 30
0.0
  0
VERTEX
  8
0
  6
CONTINUOUS
 62
    80
  5
3D3
 10
3.322435
 20
-9.779678
 30
0.0
  0
VERTEX
  8
0
  6
CONTINUOUS
 62
    80
  5
3D4
 10
3.303657
 20
-9.801764
 30
0.0
  0
VERTEX
  8
0
  6
CONTINUOUS
 62
    80
  5
3D5
 10
3.285147
 20
-9.8241
 30
0.0
  0
VERTEX
  8
0
  6
CONTINUOUS
 62
    80
  5
3D6
 10
3.266917
 20
-9.846684
 30
0.0
  0
VERTEX
  8
0
  6
CONTINUOUS
 62
    80
  5
3D7
 10
3.248976
 20
-9.869511
 30
0.0
  0
VERTEX
  8
0
  6
CONTINUOUS
 62
    80
  5
3D8
 10
3.231334
 20
-9.892579
 30
0.0
  0
VERTEX
  8
0
  6
CONTINUOUS
 62
    80
  5
3D9
 10
3.214001
 20
-9.915884
 30
0.0
  0
VERTEX
  8
0
  6
CONTINUOUS
 62
    80
  5
3DA
 10
3.196987
 20
-9.939424
 30
0.0
  0
VERTEX
  8
0
  6
CONTINUOUS
 62
    80
  5
3DB
 10
3.180302
 20
-9.963194
 30
0.0
  0
VERTEX
  8
0
  6
CONTINUOUS
 62
    80
  5
3DC
 10
3.163956
 20
-9.987192
 30
0.0
  0
VERTEX
  8
0
  6
CONTINUOUS
 62
    80
  5
3DD
 10
3.147958
 20
-10.011414
 30
0.0
  0
VERTEX
  8
0
  6
CONTINUOUS
 62
    80
  5
3DE
 10
3.132319
 20
-10.035858
 30
0.0
  0
VERTEX
  8
0
  6
CONTINUOUS
 62
    80
  5
3DF
 10
3.117049
 20
-10.060519
 30
0.0
  0
VERTEX
  8
0
  6
CONTINUOUS
 62
    80
  5
3E0
 10
3.102158
 20
-10.085395
 30
0.0
  0
VERTEX
  8
0
  6
CONTINUOUS
 62
    80
  5
3E1
 10
3.087655
 20
-10.110482
 30
0.0
  0
VERTEX
  8
0
  6
CONTINUOUS
 62
    80
  5
3E2
 10
3.07355
 20
-10.135777
 30
0.0
  0
VERTEX
  8
0
  6
CONTINUOUS
 62
    80
  5
3E3
 10
3.061593
 20
-10.157989
 30
0.0
  0
VERTEX
  8
0
  6
CONTINUOUS
 62
    80
  5
3E4
 10
3.049938
 20
-10.180386
 30
0.0
  0
VERTEX
  8
0
  6
CONTINUOUS
 62
    80
  5
3E5
 10
3.038593
 20
-10.202964
 30
0.0
  0
VERTEX
  8
0
  6
CONTINUOUS
 62
    80
  5
3E6
 10
3.027566
 20
-10.225715
 30
0.0
  0
VERTEX
  8
0
  6
CONTINUOUS
 62
    80
  5
3E7
 10
3.016863
 20
-10.248634
 30
0.0
  0
VERTEX
  8
0
  6
CONTINUOUS
 62
    80
  5
3E8
 10
3.006494
 20
-10.271713
 30
0.0
  0
VERTEX
  8
0
  6
CONTINUOUS
 62
    80
  5
3E9
 10
2.996465
 20
-10.294946
 30
0.0
  0
VERTEX
  8
0
  6
CONTINUOUS
 62
    80
  5
3EA
 10
2.986785
 20
-10.318328
 30
0.0
  0
VERTEX
  8
0
  6
CONTINUOUS
 62
    80
  5
3EB
 10
2.97746
 20
-10.341852
 30
0.0
  0
VERTEX
  8
0
  6
CONTINUOUS
 62
    80
  5
3EC
 10
2.968499
 20
-10.36551
 30
0.0
  0
VERTEX
  8
0
  6
CONTINUOUS
 62
    80
  5
3ED
 10
2.95991
 20
-10.389298
 30
0.0
  0
VERTEX
  8
0
  6
CONTINUOUS
 62
    80
  5
3EE
 10
2.951699
 20
-10.413209
 30
0.0
  0
VERTEX
  8
0
  6
CONTINUOUS
 62
    80
  5
3EF
 10
2.943876
 20
-10.437236
 30
0.0
  0
VERTEX
  8
0
  6
CONTINUOUS
 62
    80
  5
3F0
 10
2.936447
 20
-10.461373
 30
0.0
  0
VERTEX
  8
0
  6
CONTINUOUS
 62
    80
  5
3F1
 10
2.92942
 20
-10.485613
 30
0.0
  0
VERTEX
  8
0
  6
CONTINUOUS
 62
    80
  5
3F2
 10
2.922803
 20
-10.509951
 30
0.0
  0
VERTEX
  8
0
  6
CONTINUOUS
 62
    80
  5
3F3
 10
2.917125
 20
-10.532262
 30
0.0
  0
VERTEX
  8
0
  6
CONTINUOUS
 62
    80
  5
3F4
 10
2.911792
 20
-10.55468
 30
0.0
  0
VERTEX
  8
0
  6
CONTINUOUS
 62
    80
  5
3F5
 10
2.906807
 20
-10.577197
 30
0.0
  0
VERTEX
  8
0
  6
CONTINUOUS
 62
    80
  5
3F6
 10
2.902173
 20
-10.599804
 30
0.0
  0
VERTEX
  8
0
  6
CONTINUOUS
 62
    80
  5
3F7
 10
2.897892
 20
-10.622493
 30
0.0
  0
VERTEX
  8
0
  6
CONTINUOUS
 62
    80
  5
3F8
 10
2.893968
 20
-10.645255
 30
0.0
  0
VERTEX
  8
0
  6
CONTINUOUS
 62
    80
  5
3F9
 10
2.890404
 20
-10.668081
 30
0.0
  0
VERTEX
  8
0
  6
CONTINUOUS
 62
    80
  5
3FA
 10
2.887203
 20
-10.690963
 30
0.0
  0
VERTEX
  8
0
  6
CONTINUOUS
 62
    80
  5
3FB
 10
2.884367
 20
-10.713893
 30
0.0
  0
VERTEX
  8
0
  6
CONTINUOUS
 62
    80
  5
3FC
 10
2.881899
 20
-10.736861
 30
0.0
  0
VERTEX
  8
0
  6
CONTINUOUS
 62
    80
  5
3FD
 10
2.879803
 20
-10.759859
 30
0.0
  0
VERTEX
  8
0
  6
CONTINUOUS
 62
    80
  5
3FE
 10
2.878082
 20
-10.782879
 30
0.0
  0
VERTEX
  8
0
  6
CONTINUOUS
 62
    80
  5
3FF
 10
2.876738
 20
-10.805911
 30
0.0
  0
VERTEX
  8
0
  6
CONTINUOUS
 62
    80
  5
400
 10
2.875774
 20
-10.828948
 30
0.0
  0
VERTEX
  8
0
  6
CONTINUOUS
 62
    80
  5
401
 10
2.875194
 20
-10.85198
 30
0.0
  0
VERTEX
  8
0
  6
CONTINUOUS
 62
    80
  5
402
 10
2.875
 20
-10.875
 30
0.0
  0
VERTEX
  8
0
  6
CONTINUOUS
 62
    80
  5
403
 10
2.875194
 20
-10.89802
 30
0.0
  0
VERTEX
  8
0
  6
CONTINUOUS
 62
    80
  5
404
 10
2.875774
 20
-10.921052
 30
0.0
  0
VERTEX
  8
0
  6
CONTINUOUS
 62
    80
  5
405
 10
2.876738
 20
-10.944089
 30
0.0
  0
VERTEX
  8
0
  6
CONTINUOUS
 62
    80
  5
406
 10
2.878082
 20
-10.967121
 30
0.0
  0
VERTEX
  8
0
  6
CONTINUOUS
 62
    80
  5
407
 10
2.879803
 20
-10.990141
 30
0.0
  0
VERTEX
  8
0
  6
CONTINUOUS
 62
    80
  5
408
 10
2.881899
 20
-11.013139
 30
0.0
  0
VERTEX
  8
0
  6
CONTINUOUS
 62
    80
  5
409
 10
2.884367
 20
-11.036107
 30
0.0
  0
VERTEX
  8
0
  6
CONTINUOUS
 62
    80
  5
40A
 10
2.887203
 20
-11.059037
 30
0.0
  0
VERTEX
  8
0
  6
CONTINUOUS
 62
    80
  5
40B
 10
2.890404
 20
-11.081919
 30
0.0
  0
VERTEX
  8
0
  6
CONTINUOUS
 62
    80
  5
40C
 10
2.893968
 20
-11.104745
 30
0.0
  0
VERTEX
  8
0
  6
CONTINUOUS
 62
    80
  5
40D
 10
2.897892
 20
-11.127507
 30
0.0
  0
VERTEX
  8
0
  6
CONTINUOUS
 62
    80
  5
40E
 10
2.902173
 20
-11.150196
 30
0.0
  0
VERTEX
  8
0
  6
CONTINUOUS
 62
    80
  5
40F
 10
2.906807
 20
-11.172803
 30
0.0
  0
VERTEX
  8
0
  6
CONTINUOUS
 62
    80
  5
410
 10
2.911792
 20
-11.19532
 30
0.0
  0
VERTEX
  8
0
  6
CONTINUOUS
 62
    80
  5
411
 10
2.917125
 20
-11.217738
 30
0.0
  0
VERTEX
  8
0
  6
CONTINUOUS
 62
    80
  5
412
 10
2.922803
 20
-11.240049
 30
0.0
  0
VERTEX
  8
0
  6
CONTINUOUS
 62
    80
  5
413
 10
2.92942
 20
-11.264387
 30
0.0
  0
VERTEX
  8
0
  6
CONTINUOUS
 62
    80
  5
414
 10
2.936447
 20
-11.288627
 30
0.0
  0
VERTEX
  8
0
  6
CONTINUOUS
 62
    80
  5
415
 10
2.943876
 20
-11.312764
 30
0.0
  0
VERTEX
  8
0
  6
CONTINUOUS
 62
    80
  5
416
 10
2.951699
 20
-11.336791
 30
0.0
  0
VERTEX
  8
0
  6
CONTINUOUS
 62
    80
  5
417
 10
2.95991
 20
-11.360702
 30
0.0
  0
VERTEX
  8
0
  6
CONTINUOUS
 62
    80
  5
418
 10
2.968499
 20
-11.38449
 30
0.0
  0
VERTEX
  8
0
  6
CONTINUOUS
 62
    80
  5
419
 10
2.97746
 20
-11.408148
 30
0.0
  0
VERTEX
  8
0
  6
CONTINUOUS
 62
    80
  5
41A
 10
2.986785
 20
-11.431672
 30
0.0
  0
VERTEX
  8
0
  6
CONTINUOUS
 62
    80
  5
41B
 10
2.996465
 20
-11.455054
 30
0.0
  0
VERTEX
  8
0
  6
CONTINUOUS
 62
    80
  5
41C
 10
3.006494
 20
-11.478287
 30
0.0
  0
VERTEX
  8
0
  6
CONTINUOUS
 62
    80
  5
41D
 10
3.016863
 20
-11.501366
 30
0.0
  0
VERTEX
  8
0
  6
CONTINUOUS
 62
    80
  5
41E
 10
3.027566
 20
-11.524285
 30
0.0
  0
VERTEX
  8
0
  6
CONTINUOUS
 62
    80
  5
41F
 10
3.038593
 20
-11.547036
 30
0.0
  0
VERTEX
  8
0
  6
CONTINUOUS
 62
    80
  5
420
 10
3.049938
 20
-11.569614
 30
0.0
  0
VERTEX
  8
0
  6
CONTINUOUS
 62
    80
  5
421
 10
3.061593
 20
-11.592011
 30
0.0
  0
VERTEX
  8
0
  6
CONTINUOUS
 62
    80
  5
422
 10
3.07355
 20
-11.614223
 30
0.0
  0
VERTEX
  8
0
  6
CONTINUOUS
 62
    80
  5
423
 10
3.087655
 20
-11.639518
 30
0.0
  0
VERTEX
  8
0
  6
CONTINUOUS
 62
    80
  5
424
 10
3.102158
 20
-11.664605
 30
0.0
  0
VERTEX
  8
0
  6
CONTINUOUS
 62
    80
  5
425
 10
3.117049
 20
-11.689481
 30
0.0
  0
VERTEX
  8
0
  6
CONTINUOUS
 62
    80
  5
426
 10
3.132319
 20
-11.714142
 30
0.0
  0
VERTEX
  8
0
  6
CONTINUOUS
 62
    80
  5
427
 10
3.147958
 20
-11.738586
 30
0.0
  0
VERTEX
  8
0
  6
CONTINUOUS
 62
    80
  5
428
 10
3.163956
 20
-11.762808
 30
0.0
  0
VERTEX
  8
0
  6
CONTINUOUS
 62
    80
  5
429
 10
3.180302
 20
-11.786806
 30
0.0
  0
VERTEX
  8
0
  6
CONTINUOUS
 62
    80
  5
42A
 10
3.196987
 20
-11.810576
 30
0.0
  0
VERTEX
  8
0
  6
CONTINUOUS
 62
    80
  5
42B
 10
3.214001
 20
-11.834116
 30
0.0
  0
VERTEX
  8
0
  6
CONTINUOUS
 62
    80
  5
42C
 10
3.231334
 20
-11.857421
 30
0.0
  0
VERTEX
  8
0
  6
CONTINUOUS
 62
    80
  5
42D
 10
3.248976
 20
-11.880489
 30
0.0
  0
VERTEX
  8
0
  6
CONTINUOUS
 62
    80
  5
42E
 10
3.266917
 20
-11.903316
 30
0.0
  0
VERTEX
  8
0
  6
CONTINUOUS
 62
    80
  5
42F
 10
3.285147
 20
-11.9259
 30
0.0
  0
VERTEX
  8
0
  6
CONTINUOUS
 62
    80
  5
430
 10
3.303657
 20
-11.948236
 30
0.0
  0
VERTEX
  8
0
  6
CONTINUOUS
 62
    80
  5
431
 10
3.322435
 20
-11.970322
 30
0.0
  0
VERTEX
  8
0
  6
CONTINUOUS
 62
    80
  5
432
 10
3.341473
 20
-11.992154
 30
0.0
  0
VERTEX
  8
0
  6
CONTINUOUS
 62
    80
  5
433
 10
3.36371
 20
-12.016986
 30
0.0
  0
VERTEX
  8
0
  6
CONTINUOUS
 62
    80
  5
434
 10
3.386299
 20
-12.041518
 30
0.0
  0
VERTEX
  8
0
  6
CONTINUOUS
 62
    80
  5
435
 10
3.40923
 20
-12.06575
 30
0.0
  0
VERTEX
  8
0
  6
CONTINUOUS
 62
    80
  5
436
 10
3.432494
 20
-12.08968
 30
0.0
  0
VERTEX
  8
0
  6
CONTINUOUS
 62
    80
  5
437
 10
3.456079
 20
-12.113309
 30
0.0
  0
VERTEX
  8
0
  6
CONTINUOUS
 62
    80
  5
438
 10
3.479977
 20
-12.136635
 30
0.0
  0
VERTEX
  8
0
  6
CONTINUOUS
 62
    80
  5
439
 10
3.504177
 20
-12.159658
 30
0.0
  0
VERTEX
  8
0
  6
CONTINUOUS
 62
    80
  5
43A
 10
3.52867
 20
-12.182378
 30
0.0
  0
VERTEX
  8
0
  6
CONTINUOUS
 62
    80
  5
43B
 10
3.553445
 20
-12.204792
 30
0.0
  0
VERTEX
  8
0
  6
CONTINUOUS
 62
    80
  5
43C
 10
3.578492
 20
-12.226902
 30
0.0
  0
VERTEX
  8
0
  6
CONTINUOUS
 62
    80
  5
43D
 10
3.603801
 20
-12.248706
 30
0.0
  0
VERTEX
  8
0
  6
CONTINUOUS
 62
    80
  5
43E
 10
3.629363
 20
-12.270203
 30
0.0
  0
VERTEX
  8
0
  6
CONTINUOUS
 62
    80
  5
43F
 10
3.655167
 20
-12.291394
 30
0.0
  0
VERTEX
  8
0
  6
CONTINUOUS
 62
    80
  5
440
 10
3.681204
 20
-12.312276
 30
0.0
  0
VERTEX
  8
0
  6
CONTINUOUS
 62
    80
  5
441
 10
3.707463
 20
-12.332851
 30
0.0
  0
VERTEX
  8
0
  6
CONTINUOUS
 62
    80
  5
442
 10
3.733934
 20
-12.353116
 30
0.0
  0
VERTEX
  8
0
  6
CONTINUOUS
 62
    80
  5
443
 10
3.76402
 20
-12.375592
 30
0.0
  0
VERTEX
  8
0
  6
CONTINUOUS
 62
    80
  5
444
 10
3.794391
 20
-12.397705
 30
0.0
  0
VERTEX
  8
0
  6
CONTINUOUS
 62
    80
  5
445
 10
3.825038
 20
-12.419456
 30
0.0
  0
VERTEX
  8
0
  6
CONTINUOUS
 62
    80
  5
446
 10
3.855952
 20
-12.440845
 30
0.0
  0
VERTEX
  8
0
  6
CONTINUOUS
 62
    80
  5
447
 10
3.887124
 20
-12.461875
 30
0.0
  0
VERTEX
  8
0
  6
CONTINUOUS
 62
    80
  5
448
 10
3.918546
 20
-12.482544
 30
0.0
  0
VERTEX
  8
0
  6
CONTINUOUS
 62
    80
  5
449
 10
3.950209
 20
-12.502855
 30
0.0
  0
VERTEX
  8
0
  6
CONTINUOUS
 62
    80
  5
44A
 10
3.982104
 20
-12.522808
 30
0.0
  0
VERTEX
  8
0
  6
CONTINUOUS
 62
    80
  5
44B
 10
4.014221
 20
-12.542404
 30
0.0
  0
VERTEX
  8
0
  6
CONTINUOUS
 62
    80
  5
44C
 10
4.046552
 20
-12.561643
 30
0.0
  0
VERTEX
  8
0
  6
CONTINUOUS
 62
    80
  5
44D
 10
4.079089
 20
-12.580527
 30
0.0
  0
VERTEX
  8
0
  6
CONTINUOUS
 62
    80
  5
44E
 10
4.111822
 20
-12.599056
 30
0.0
  0
VERTEX
  8
0
  6
CONTINUOUS
 62
    80
  5
44F
 10
4.144742
 20
-12.617231
 30
0.0
  0
VERTEX
  8
0
  6
CONTINUOUS
 62
    80
  5
450
 10
4.177841
 20
-12.635053
 30
0.0
  0
VERTEX
  8
0
  6
CONTINUOUS
 62
    80
  5
451
 10
4.21111
 20
-12.652523
 30
0.0
  0
VERTEX
  8
0
  6
CONTINUOUS
 62
    80
  5
452
 10
4.24454
 20
-12.669641
 30
0.0
  0
VERTEX
  8
0
  6
CONTINUOUS
 62
    80
  5
453
 10
4.281308
 20
-12.687978
 30
0.0
  0
VERTEX
  8
0
  6
CONTINUOUS
 62
    80
  5
454
 10
4.318287
 20
-12.705915
 30
0.0
  0
VERTEX
  8
0
  6
CONTINUOUS
 62
    80
  5
455
 10
4.355469
 20
-12.723455
 30
0.0
  0
VERTEX
  8
0
  6
CONTINUOUS
 62
    80
  5
456
 10
4.392849
 20
-12.740597
 30
0.0
  0
VERTEX
  8
0
  6
CONTINUOUS
 62
    80
  5
457
 10
4.430417
 20
-12.757343
 30
0.0
  0
VERTEX
  8
0
  6
CONTINUOUS
 62
    80
  5
458
 10
4.468166
 20
-12.773696
 30
0.0
  0
VERTEX
  8
0
  6
CONTINUOUS
 62
    80
  5
459
 10
4.506089
 20
-12.789655
 30
0.0
  0
VERTEX
  8
0
  6
CONTINUOUS
 62
    80
  5
45A
 10
4.544178
 20
-12.805222
 30
0.0
  0
VERTEX
  8
0
  6
CONTINUOUS
 62
    80
  5
45B
 10
4.582426
 20
-12.820399
 30
0.0
  0
VERTEX
  8
0
  6
CONTINUOUS
 62
    80
  5
45C
 10
4.620826
 20
-12.835186
 30
0.0
  0
VERTEX
  8
0
  6
CONTINUOUS
 62
    80
  5
45D
 10
4.659369
 20
-12.849585
 30
0.0
  0
VERTEX
  8
0
  6
CONTINUOUS
 62
    80
  5
45E
 10
4.698048
 20
-12.863598
 30
0.0
  0
VERTEX
  8
0
  6
CONTINUOUS
 62
    80
  5
45F
 10
4.736855
 20
-12.877225
 30
0.0
  0
VERTEX
  8
0
  6
CONTINUOUS
 62
    80
  5
460
 10
4.775784
 20
-12.890467
 30
0.0
  0
VERTEX
  8
0
  6
CONTINUOUS
 62
    80
  5
461
 10
4.814826
 20
-12.903327
 30
0.0
  0
VERTEX
  8
0
  6
CONTINUOUS
 62
    80
  5
462
 10
4.853975
 20
-12.915804
 30
0.0
  0
VERTEX
  8
0
  6
CONTINUOUS
 62
    80
  5
463
 10
4.895641
 20
-12.928634
 30
0.0
  0
VERTEX
  8
0
  6
CONTINUOUS
 62
    80
  5
464
 10
4.937447
 20
-12.941047
 30
0.0
  0
VERTEX
  8
0
  6
CONTINUOUS
 62
    80
  5
465
 10
4.979386
 20
-12.953045
 30
0.0
  0
VERTEX
  8
0
  6
CONTINUOUS
 62
    80
  5
466
 10
5.021452
 20
-12.964628
 30
0.0
  0
VERTEX
  8
0
  6
CONTINUOUS
 62
    80
  5
467
 10
5.063638
 20
-12.975799
 30
0.0
  0
VERTEX
  8
0
  6
CONTINUOUS
 62
    80
  5
468
 10
5.105938
 20
-12.986556
 30
0.0
  0
VERTEX
  8
0
  6
CONTINUOUS
 62
    80
  5
469
 10
5.148345
 20
-12.996903
 30
0.0
  0
VERTEX
  8
0
  6
CONTINUOUS
 62
    80
  5
46A
 10
5.190853
 20
-13.006839
 30
0.0
  0
VERTEX
  8
0
  6
CONTINUOUS
 62
    80
  5
46B
 10
5.233456
 20
-13.016365
 30
0.0
  0
VERTEX
  8
0
  6
CONTINUOUS
 62
    80
  5
46C
 10
5.276146
 20
-13.025484
 30
0.0
  0
VERTEX
  8
0
  6
CONTINUOUS
 62
    80
  5
46D
 10
5.318918
 20
-13.034194
 30
0.0
  0
VERTEX
  8
0
  6
CONTINUOUS
 62
    80
  5
46E
 10
5.361764
 20
-13.042499
 30
0.0
  0
VERTEX
  8
0
  6
CONTINUOUS
 62
    80
  5
46F
 10
5.40468
 20
-13.050398
 30
0.0
  0
VERTEX
  8
0
  6
CONTINUOUS
 62
    80
  5
470
 10
5.447657
 20
-13.057893
 30
0.0
  0
VERTEX
  8
0
  6
CONTINUOUS
 62
    80
  5
471
 10
5.49069
 20
-13.064985
 30
0.0
  0
VERTEX
  8
0
  6
CONTINUOUS
 62
    80
  5
472
 10
5.533771
 20
-13.071674
 30
0.0
  0
VERTEX
  8
0
  6
CONTINUOUS
 62
    80
  5
473
 10
5.578198
 20
-13.078145
 30
0.0
  0
VERTEX
  8
0
  6
CONTINUOUS
 62
    80
  5
474
 10
5.622697
 20
-13.084197
 30
0.0
  0
VERTEX
  8
0
  6
CONTINUOUS
 62
    80
  5
475
 10
5.667263
 20
-13.089828
 30
0.0
  0
VERTEX
  8
0
  6
CONTINUOUS
 62
    80
  5
476
 10
5.711889
 20
-13.09504
 30
0.0
  0
VERTEX
  8
0
  6
CONTINUOUS
 62
    80
  5
477
 10
5.756571
 20
-13.099833
 30
0.0
  0
VERTEX
  8
0
  6
CONTINUOUS
 62
    80
  5
478
 10
5.801301
 20
-13.104207
 30
0.0
  0
VERTEX
  8
0
  6
CONTINUOUS
 62
    80
  5
479
 10
5.846075
 20
-13.108163
 30
0.0
  0
VERTEX
  8
0
  6
CONTINUOUS
 62
    80
  5
47A
 10
5.890886
 20
-13.1117
 30
0.0
  0
VERTEX
  8
0
  6
CONTINUOUS
 62
    80
  5
47B
 10
5.935728
 20
-13.11482
 30
0.0
  0
VERTEX
  8
0
  6
CONTINUOUS
 62
    80
  5
47C
 10
5.980595
 20
-13.117523
 30
0.0
  0
VERTEX
  8
0
  6
CONTINUOUS
 62
    80
  5
47D
 10
6.025482
 20
-13.119809
 30
0.0
  0
VERTEX
  8
0
  6
CONTINUOUS
 62
    80
  5
47E
 10
6.070382
 20
-13.121679
 30
0.0
  0
VERTEX
  8
0
  6
CONTINUOUS
 62
    80
  5
47F
 10
6.11529
 20
-13.123133
 30
0.0
  0
VERTEX
  8
0
  6
CONTINUOUS
 62
    80
  5
480
 10
6.160199
 20
-13.12417
 30
0.0
  0
VERTEX
  8
0
  6
CONTINUOUS
 62
    80
  5
481
 10
6.205105
 20
-13.124793
 30
0.0
  0
VERTEX
  8
0
  6
CONTINUOUS
 62
    80
  5
482
 10
6.25
 20
-13.125
 30
0.0
  0
VERTEX
  8
0
  6
CONTINUOUS
 62
    80
  5
483
 10
6.294895
 20
-13.124793
 30
0.0
  0
VERTEX
  8
0
  6
CONTINUOUS
 62
    80
  5
484
 10
6.339801
 20
-13.12417
 30
0.0
  0
VERTEX
  8
0
  6
CONTINUOUS
 62
    80
  5
485
 10
6.38471
 20
-13.123133
 30
0.0
  0
VERTEX
  8
0
  6
CONTINUOUS
 62
    80
  5
486
 10
6.429618
 20
-13.121679
 30
0.0
  0
VERTEX
  8
0
  6
CONTINUOUS
 62
    80
  5
487
 10
6.474518
 20
-13.119809
 30
0.0
  0
VERTEX
  8
0
  6
CONTINUOUS
 62
    80
  5
488
 10
6.519405
 20
-13.117523
 30
0.0
  0
VERTEX
  8
0
  6
CONTINUOUS
 62
    80
  5
489
 10
6.564272
 20
-13.11482
 30
0.0
  0
VERTEX
  8
0
  6
CONTINUOUS
 62
    80
  5
48A
 10
6.609114
 20
-13.1117
 30
0.0
  0
VERTEX
  8
0
  6
CONTINUOUS
 62
    80
  5
48B
 10
6.653925
 20
-13.108163
 30
0.0
  0
VERTEX
  8
0
  6
CONTINUOUS
 62
    80
  5
48C
 10
6.698699
 20
-13.104207
 30
0.0
  0
VERTEX
  8
0
  6
CONTINUOUS
 62
    80
  5
48D
 10
6.743429
 20
-13.099833
 30
0.0
  0
VERTEX
  8
0
  6
CONTINUOUS
 62
    80
  5
48E
 10
6.788111
 20
-13.09504
 30
0.0
  0
VERTEX
  8
0
  6
CONTINUOUS
 62
    80
  5
48F
 10
6.832737
 20
-13.089828
 30
0.0
  0
VERTEX
  8
0
  6
CONTINUOUS
 62
    80
  5
490
 10
6.877303
 20
-13.084197
 30
0.0
  0
VERTEX
  8
0
  6
CONTINUOUS
 62
    80
  5
491
 10
6.921802
 20
-13.078145
 30
0.0
  0
VERTEX
  8
0
  6
CONTINUOUS
 62
    80
  5
492
 10
6.966229
 20
-13.071674
 30
0.0
  0
VERTEX
  8
0
  6
CONTINUOUS
 62
    80
  5
493
 10
7.00931
 20
-13.064985
 30
0.0
  0
VERTEX
  8
0
  6
CONTINUOUS
 62
    80
  5
494
 10
7.052343
 20
-13.057893
 30
0.0
  0
VERTEX
  8
0
  6
CONTINUOUS
 62
    80
  5
495
 10
7.09532
 20
-13.050398
 30
0.0
  0
VERTEX
  8
0
  6
CONTINUOUS
 62
    80
  5
496
 10
7.138236
 20
-13.042499
 30
0.0
  0
VERTEX
  8
0
  6
CONTINUOUS
 62
    80
  5
497
 10
7.181082
 20
-13.034194
 30
0.0
  0
VERTEX
  8
0
  6
CONTINUOUS
 62
    80
  5
498
 10
7.223854
 20
-13.025484
 30
0.0
  0
VERTEX
  8
0
  6
CONTINUOUS
 62
    80
  5
499
 10
7.266544
 20
-13.016365
 30
0.0
  0
VERTEX
  8
0
  6
CONTINUOUS
 62
    80
  5
49A
 10
7.309147
 20
-13.006839
 30
0.0
  0
VERTEX
  8
0
  6
CONTINUOUS
 62
    80
  5
49B
 10
7.351655
 20
-12.996903
 30
0.0
  0
VERTEX
  8
0
  6
CONTINUOUS
 62
    80
  5
49C
 10
7.394062
 20
-12.986556
 30
0.0
  0
VERTEX
  8
0
  6
CONTINUOUS
 62
    80
  5
49D
 10
7.436362
 20
-12.975799
 30
0.0
  0
VERTEX
  8
0
  6
CONTINUOUS
 62
    80
  5
49E
 10
7.478548
 20
-12.964628
 30
0.0
  0
VERTEX
  8
0
  6
CONTINUOUS
 62
    80
  5
49F
 10
7.520614
 20
-12.953045
 30
0.0
  0
VERTEX
  8
0
  6
CONTINUOUS
 62
    80
  5
4A0
 10
7.562553
 20
-12.941047
 30
0.0
  0
VERTEX
  8
0
  6
CONTINUOUS
 62
    80
  5
4A1
 10
7.604359
 20
-12.928634
 30
0.0
  0
VERTEX
  8
0
  6
CONTINUOUS
 62
    80
  5
4A2
 10
7.646025
 20
-12.915804
 30
0.0
  0
VERTEX
  8
0
  6
CONTINUOUS
 62
    80
  5
4A3
 10
7.685174
 20
-12.903327
 30
0.0
  0
VERTEX
  8
0
  6
CONTINUOUS
 62
    80
  5
4A4
 10
7.724216
 20
-12.890467
 30
0.0
  0
VERTEX
  8
0
  6
CONTINUOUS
 62
    80
  5
4A5
 10
7.763145
 20
-12.877225
 30
0.0
  0
VERTEX
  8
0
  6
CONTINUOUS
 62
    80
  5
4A6
 10
7.801952
 20
-12.863598
 30
0.0
  0
VERTEX
  8
0
  6
CONTINUOUS
 62
    80
  5
4A7
 10
7.840631
 20
-12.849585
 30
0.0
  0
VERTEX
  8
0
  6
CONTINUOUS
 62
    80
  5
4A8
 10
7.879174
 20
-12.835186
 30
0.0
  0
VERTEX
  8
0
  6
CONTINUOUS
 62
    80
  5
4A9
 10
7.917574
 20
-12.820399
 30
0.0
  0
VERTEX
  8
0
  6
CONTINUOUS
 62
    80
  5
4AA
 10
7.955822
 20
-12.805222
 30
0.0
  0
VERTEX
  8
0
  6
CONTINUOUS
 62
    80
  5
4AB
 10
7.993911
 20
-12.789655
 30
0.0
  0
VERTEX
  8
0
  6
CONTINUOUS
 62
    80
  5
4AC
 10
8.031834
 20
-12.773696
 30
0.0
  0
VERTEX
  8
0
  6
CONTINUOUS
 62
    80
  5
4AD
 10
8.069583
 20
-12.757343
 30
0.0
  0
VERTEX
  8
0
  6
CONTINUOUS
 62
    80
  5
4AE
 10
8.107151
 20
-12.740597
 30
0.0
  0
VERTEX
  8
0
  6
CONTINUOUS
 62
    80
  5
4AF
 10
8.144531
 20
-12.723455
 30
0.0
  0
VERTEX
  8
0
  6
CONTINUOUS
 62
    80
  5
4B0
 10
8.181713
 20
-12.705915
 30
0.0
  0
VERTEX
  8
0
  6
CONTINUOUS
 62
    80
  5
4B1
 10
8.218692
 20
-12.687978
 30
0.0
  0
VERTEX
  8
0
  6
CONTINUOUS
 62
    80
  5
4B2
 10
8.25546
 20
-12.669641
 30
0.0
  0
VERTEX
  8
0
  6
CONTINUOUS
 62
    80
  5
4B3
 10
8.28889
 20
-12.652523
 30
0.0
  0
VERTEX
  8
0
  6
CONTINUOUS
 62
    80
  5
4B4
 10
8.322159
 20
-12.635053
 30
0.0
  0
VERTEX
  8
0
  6
CONTINUOUS
 62
    80
  5
4B5
 10
8.355258
 20
-12.617231
 30
0.0
  0
VERTEX
  8
0
  6
CONTINUOUS
 62
    80
  5
4B6
 10
8.388178
 20
-12.599056
 30
0.0
  0
VERTEX
  8
0
  6
CONTINUOUS
 62
    80
  5
4B7
 10
8.420911
 20
-12.580527
 30
0.0
  0
VERTEX
  8
0
  6
CONTINUOUS
 62
    80
  5
4B8
 10
8.453448
 20
-12.561643
 30
0.0
  0
VERTEX
  8
0
  6
CONTINUOUS
 62
    80
  5
4B9
 10
8.485779
 20
-12.542404
 30
0.0
  0
VERTEX
  8
0
  6
CONTINUOUS
 62
    80
  5
4BA
 10
8.517896
 20
-12.522808
 30
0.0
  0
VERTEX
  8
0
  6
CONTINUOUS
 62
    80
  5
4BB
 10
8.549791
 20
-12.502855
 30
0.0
  0
VERTEX
  8
0
  6
CONTINUOUS
 62
    80
  5
4BC
 10
8.581454
 20
-12.482544
 30
0.0
  0
VERTEX
  8
0
  6
CONTINUOUS
 62
    80
  5
4BD
 10
8.612876
 20
-12.461875
 30
0.0
  0
VERTEX
  8
0
  6
CONTINUOUS
 62
    80
  5
4BE
 10
8.644048
 20
-12.440845
 30
0.0
  0
VERTEX
  8
0
  6
CONTINUOUS
 62
    80
  5
4BF
 10
8.674962
 20
-12.419456
 30
0.0
  0
VERTEX
  8
0
  6
CONTINUOUS
 62
    80
  5
4C0
 10
8.705609
 20
-12.397705
 30
0.0
  0
VERTEX
  8
0
  6
CONTINUOUS
 62
    80
  5
4C1
 10
8.73598
 20
-12.375592
 30
0.0
  0
VERTEX
  8
0
  6
CONTINUOUS
 62
    80
  5
4C2
 10
8.766066
 20
-12.353116
 30
0.0
  0
VERTEX
  8
0
  6
CONTINUOUS
 62
    80
  5
4C3
 10
8.792537
 20
-12.332851
 30
0.0
  0
VERTEX
  8
0
  6
CONTINUOUS
 62
    80
  5
4C4
 10
8.818796
 20
-12.312276
 30
0.0
  0
VERTEX
  8
0
  6
CONTINUOUS
 62
    80
  5
4C5
 10
8.844833
 20
-12.291394
 30
0.0
  0
VERTEX
  8
0
  6
CONTINUOUS
 62
    80
  5
4C6
 10
8.870637
 20
-12.270203
 30
0.0
  0
VERTEX
  8
0
  6
CONTINUOUS
 62
    80
  5
4C7
 10
8.896199
 20
-12.248706
 30
0.0
  0
VERTEX
  8
0
  6
CONTINUOUS
 62
    80
  5
4C8
 10
8.921508
 20
-12.226902
 30
0.0
  0
VERTEX
  8
0
  6
CONTINUOUS
 62
    80
  5
4C9
 10
8.946555
 20
-12.204792
 30
0.0
  0
VERTEX
  8
0
  6
CONTINUOUS
 62
    80
  5
4CA
 10
8.97133
 20
-12.182378
 30
0.0
  0
VERTEX
  8
0
  6
CONTINUOUS
 62
    80
  5
4CB
 10
8.995823
 20
-12.159658
 30
0.0
  0
VERTEX
  8
0
  6
CONTINUOUS
 62
    80
  5
4CC
 10
9.020023
 20
-12.136635
 30
0.0
  0
VERTEX
  8
0
  6
CONTINUOUS
 62
    80
  5
4CD
 10
9.043921
 20
-12.113309
 30
0.0
  0
VERTEX
  8
0
  6
CONTINUOUS
 62
    80
  5
4CE
 10
9.067506
 20
-12.08968
 30
0.0
  0
VERTEX
  8
0
  6
CONTINUOUS
 62
    80
  5
4CF
 10
9.09077
 20
-12.06575
 30
0.0
  0
VERTEX
  8
0
  6
CONTINUOUS
 62
    80
  5
4D0
 10
9.113701
 20
-12.041518
 30
0.0
  0
VERTEX
  8
0
  6
CONTINUOUS
 62
    80
  5
4D1
 10
9.13629
 20
-12.016986
 30
0.0
  0
VERTEX
  8
0
  6
CONTINUOUS
 62
    80
  5
4D2
 10
9.158527
 20
-11.992154
 30
0.0
  0
VERTEX
  8
0
  6
CONTINUOUS
 62
    80
  5
4D3
 10
9.177565
 20
-11.970322
 30
0.0
  0
VERTEX
  8
0
  6
CONTINUOUS
 62
    80
  5
4D4
 10
9.196343
 20
-11.948236
 30
0.0
  0
VERTEX
  8
0
  6
CONTINUOUS
 62
    80
  5
4D5
 10
9.214853
 20
-11.9259
 30
0.0
  0
VERTEX
  8
0
  6
CONTINUOUS
 62
    80
  5
4D6
 10
9.233083
 20
-11.903316
 30
0.0
  0
VERTEX
  8
0
  6
CONTINUOUS
 62
    80
  5
4D7
 10
9.251024
 20
-11.880489
 30
0.0
  0
VERTEX
  8
0
  6
CONTINUOUS
 62
    80
  5
4D8
 10
9.268666
 20
-11.857421
 30
0.0
  0
VERTEX
  8
0
  6
CONTINUOUS
 62
    80
  5
4D9
 10
9.285999
 20
-11.834116
 30
0.0
  0
VERTEX
  8
0
  6
CONTINUOUS
 62
    80
  5
4DA
 10
9.303013
 20
-11.810576
 30
0.0
  0
VERTEX
  8
0
  6
CONTINUOUS
 62
    80
  5
4DB
 10
9.319698
 20
-11.786806
 30
0.0
  0
VERTEX
  8
0
  6
CONTINUOUS
 62
    80
  5
4DC
 10
9.336044
 20
-11.762808
 30
0.0
  0
VERTEX
  8
0
  6
CONTINUOUS
 62
    80
  5
4DD
 10
9.352042
 20
-11.738586
 30
0.0
  0
VERTEX
  8
0
  6
CONTINUOUS
 62
    80
  5
4DE
 10
9.367681
 20
-11.714142
 30
0.0
  0
VERTEX
  8
0
  6
CONTINUOUS
 62
    80
  5
4DF
 10
9.382951
 20
-11.689481
 30
0.0
  0
VERTEX
  8
0
  6
CONTINUOUS
 62
    80
  5
4E0
 10
9.397842
 20
-11.664605
 30
0.0
  0
VERTEX
  8
0
  6
CONTINUOUS
 62
    80
  5
4E1
 10
9.412345
 20
-11.639518
 30
0.0
  0
VERTEX
  8
0
  6
CONTINUOUS
 62
    80
  5
4E2
 10
9.42645
 20
-11.614223
 30
0.0
  0
VERTEX
  8
0
  6
CONTINUOUS
 62
    80
  5
4E3
 10
9.438407
 20
-11.592011
 30
0.0
  0
VERTEX
  8
0
  6
CONTINUOUS
 62
    80
  5
4E4
 10
9.450062
 20
-11.569614
 30
0.0
  0
VERTEX
  8
0
  6
CONTINUOUS
 62
    80
  5
4E5
 10
9.461407
 20
-11.547036
 30
0.0
  0
VERTEX
  8
0
  6
CONTINUOUS
 62
    80
  5
4E6
 10
9.472434
 20
-11.524285
 30
0.0
  0
VERTEX
  8
0
  6
CONTINUOUS
 62
    80
  5
4E7
 10
9.483137
 20
-11.501366
 30
0.0
  0
VERTEX
  8
0
  6
CONTINUOUS
 62
    80
  5
4E8
 10
9.493506
 20
-11.478287
 30
0.0
  0
VERTEX
  8
0
  6
CONTINUOUS
 62
    80
  5
4E9
 10
9.503535
 20
-11.455054
 30
0.0
  0
VERTEX
  8
0
  6
CONTINUOUS
 62
    80
  5
4EA
 10
9.513215
 20
-11.431672
 30
0.0
  0
VERTEX
  8
0
  6
CONTINUOUS
 62
    80
  5
4EB
 10
9.52254
 20
-11.408148
 30
0.0
  0
VERTEX
  8
0
  6
CONTINUOUS
 62
    80
  5
4EC
 10
9.531501
 20
-11.38449
 30
0.0
  0
VERTEX
  8
0
  6
CONTINUOUS
 62
    80
  5
4ED
 10
9.54009
 20
-11.360702
 30
0.0
  0
VERTEX
  8
0
  6
CONTINUOUS
 62
    80
  5
4EE
 10
9.548301
 20
-11.336791
 30
0.0
  0
VERTEX
  8
0
  6
CONTINUOUS
 62
    80
  5
4EF
 10
9.556124
 20
-11.312764
 30
0.0
  0
VERTEX
  8
0
  6
CONTINUOUS
 62
    80
  5
4F0
 10
9.563553
 20
-11.288627
 30
0.0
  0
VERTEX
  8
0
  6
CONTINUOUS
 62
    80
  5
4F1
 10
9.57058
 20
-11.264387
 30
0.0
  0
VERTEX
  8
0
  6
CONTINUOUS
 62
    80
  5
4F2
 10
9.577197
 20
-11.240049
 30
0.0
  0
VERTEX
  8
0
  6
CONTINUOUS
 62
    80
  5
4F3
 10
9.582875
 20
-11.217738
 30
0.0
  0
VERTEX
  8
0
  6
CONTINUOUS
 62
    80
  5
4F4
 10
9.588208
 20
-11.19532
 30
0.0
  0
VERTEX
  8
0
  6
CONTINUOUS
 62
    80
  5
4F5
 10
9.593193
 20
-11.172803
 30
0.0
  0
VERTEX
  8
0
  6
CONTINUOUS
 62
    80
  5
4F6
 10
9.597827
 20
-11.150196
 30
0.0
  0
VERTEX
  8
0
  6
CONTINUOUS
 62
    80
  5
4F7
 10
9.602108
 20
-11.127507
 30
0.0
  0
VERTEX
  8
0
  6
CONTINUOUS
 62
    80
  5
4F8
 10
9.606032
 20
-11.104745
 30
0.0
  0
VERTEX
  8
0
  6
CONTINUOUS
 62
    80
  5
4F9
 10
9.609596
 20
-11.081919
 30
0.0
  0
VERTEX
  8
0
  6
CONTINUOUS
 62
    80
  5
4FA
 10
9.612797
 20
-11.059037
 30
0.0
  0
VERTEX
  8
0
  6
CONTINUOUS
 62
    80
  5
4FB
 10
9.615633
 20
-11.036107
 30
0.0
  0
VERTEX
  8
0
  6
CONTINUOUS
 62
    80
  5
4FC
 10
9.618101
 20
-11.013139
 30
0.0
  0
VERTEX
  8
0
  6
CONTINUOUS
 62
    80
  5
4FD
 10
9.620197
 20
-10.990141
 30
0.0
  0
VERTEX
  8
0
  6
CONTINUOUS
 62
    80
  5
4FE
 10
9.621918
 20
-10.967121
 30
0.0
  0
VERTEX
  8
0
  6
CONTINUOUS
 62
    80
  5
4FF
 10
9.623262
 20
-10.944089
 30
0.0
  0
VERTEX
  8
0
  6
CONTINUOUS
 62
    80
  5
500
 10
9.624226
 20
-10.921052
 30
0.0
  0
VERTEX
  8
0
  6
CONTINUOUS
 62
    80
  5
501
 10
9.624806
 20
-10.89802
 30
0.0
  0
VERTEX
  8
0
  6
CONTINUOUS
 62
    80
  5
502
 10
9.625
 20
-10.875
 30
0.0
  0
SEQEND
  8
0
  6
CONTINUOUS
 62
    80
  5
503
  0
POLYLINE
  8
0
  6
CONTINUOUS
 62
    80
  5
1E1
 66
     1
 10
0.0
 20
0.0
 30
0.0
 70
     1
  0
VERTEX
  8
0
  6
CONTINUOUS
 62
    80
  5
504
 10
10.875
 20
-10.875
 30
0.0
  0
VERTEX
  8
0
  6
CONTINUOUS
 62
    80
  5
505
 10
10.8574
 20
-10.569955
 30
0.0
  0
VERTEX
  8
0
  6
CONTINUOUS
 62
    80
  5
506
 10
10.804736
 20
-10.267231
 30
0.0
  0
VERTEX
  8
0
  6
CONTINUOUS
 62
    80
  5
507
 10
10.717407
 20
-9.969133
 30
0.0
  0
VERTEX
  8
0
  6
CONTINUOUS
 62
    80
  5
508
 10
10.596078
 20
-9.677929
 30
0.0
  0
VERTEX
  8
0
  6
CONTINUOUS
 62
    80
  5
509
 10
10.441674
 20
-9.395836
 30
0.0
  0
VERTEX
  8
0
  6
CONTINUOUS
 62
    80
  5
50A
 10
10.255367
 20
-9.125
 30
0.0
  0
VERTEX
  8
0
  6
CONTINUOUS
 62
    80
  5
50B
 10
10.038578
 20
-8.867482
 30
0.0
  0
VERTEX
  8
0
  6
CONTINUOUS
 62
    80
  5
50C
 10
9.792956
 20
-8.625243
 30
0.0
  0
VERTEX
  8
0
  6
CONTINUOUS
 62
    80
  5
50D
 10
9.520369
 20
-8.400126
 30
0.0
  0
VERTEX
  8
0
  6
CONTINUOUS
 62
    80
  5
50E
 10
9.222893
 20
-8.193844
 30
0.0
  0
VERTEX
  8
0
  6
CONTINUOUS
 62
    80
  5
50F
 10
8.902791
 20
-8.007968
 30
0.0
  0
VERTEX
  8
0
  6
CONTINUOUS
 62
    80
  5
510
 10
8.5625
 20
-7.843911
 30
0.0
  0
VERTEX
  8
0
  6
CONTINUOUS
 62
    80
  5
511
 10
8.204609
 20
-7.702923
 30
0.0
  0
VERTEX
  8
0
  6
CONTINUOUS
 62
    80
  5
512
 10
7.831843
 20
-7.586076
 30
0.0
  0
VERTEX
  8
0
  6
CONTINUOUS
 62
    80
  5
513
 10
7.447038
 20
-7.49426
 30
0.0
  0
VERTEX
  8
0
  6
CONTINUOUS
 62
    80
  5
514
 10
7.053123
 20
-7.428173
 30
0.0
  0
VERTEX
  8
0
  6
CONTINUOUS
 62
    80
  5
515
 10
6.653095
 20
-7.388319
 30
0.0
  0
VERTEX
  8
0
  6
CONTINUOUS
 62
    80
  5
516
 10
6.25
 20
-7.375
 30
0.0
  0
VERTEX
  8
0
  6
CONTINUOUS
 62
    80
  5
517
 10
5.846905
 20
-7.388319
 30
0.0
  0
VERTEX
  8
0
  6
CONTINUOUS
 62
    80
  5
518
 10
5.446877
 20
-7.428173
 30
0.0
  0
VERTEX
  8
0
  6
CONTINUOUS
 62
    80
  5
519
 10
5.052962
 20
-7.49426
 30
0.0
  0
VERTEX
  8
0
  6
CONTINUOUS
 62
    80
  5
51A
 10
4.668157
 20
-7.586076
 30
0.0
  0
VERTEX
  8
0
  6
CONTINUOUS
 62
    80
  5
51B
 10
4.295391
 20
-7.702923
 30
0.0
  0
VERTEX
  8
0
  6
CONTINUOUS
 62
    80
  5
51C
 10
3.9375
 20
-7.843911
 30
0.0
  0
VERTEX
  8
0
  6
CONTINUOUS
 62
    80
  5
51D
 10
3.597209
 20
-8.007968
 30
0.0
  0
VERTEX
  8
0
  6
CONTINUOUS
 62
    80
  5
51E
 10
3.277107
 20
-8.193844
 30
0.0
  0
VERTEX
  8
0
  6
CONTINUOUS
 62
    80
  5
51F
 10
2.979631
 20
-8.400126
 30
0.0
  0
VERTEX
  8
0
  6
CONTINUOUS
 62
    80
  5
520
 10
2.707044
 20
-8.625243
 30
0.0
  0
VERTEX
  8
0
  6
CONTINUOUS
 62
    80
  5
521
 10
2.461422
 20
-8.867482
 30
0.0
  0
VERTEX
  8
0
  6
CONTINUOUS
 62
    80
  5
522
 10
2.244633
 20
-9.125
 30
0.0
  0
VERTEX
  8
0
  6
CONTINUOUS
 62
    80
  5
523
 10
2.058326
 20
-9.395836
 30
0.0
  0
VERTEX
  8
0
  6
CONTINUOUS
 62
    80
  5
524
 10
1.903922
 20
-9.677929
 30
0.0
  0
VERTEX
  8
0
  6
CONTINUOUS
 62
    80
  5
525
 10
1.782593
 20
-9.969133
 30
0.0
  0
VERTEX
  8
0
  6
CONTINUOUS
 62
    80
  5
526
 10
1.695264
 20
-10.267231
 30
0.0
  0
VERTEX
  8
0
  6
CONTINUOUS
 62
    80
  5
527
 10
1.6426
 20
-10.569955
 30
0.0
  0
VERTEX
  8
0
  6
CONTINUOUS
 62
    80
  5
528
 10
1.625
 20
-10.875
 30
0.0
  0
VERTEX
  8
0
  6
CONTINUOUS
 62
    80
  5
529
 10
1.6426
 20
-11.180045
 30
0.0
  0
VERTEX
  8
0
  6
CONTINUOUS
 62
    80
  5
52A
 10
1.695264
 20
-11.482769
 30
0.0
  0
VERTEX
  8
0
  6
CONTINUOUS
 62
    80
  5
52B
 10
1.782593
 20
-11.780867
 30
0.0
  0
VERTEX
  8
0
  6
CONTINUOUS
 62
    80
  5
52C
 10
1.903922
 20
-12.072071
 30
0.0
  0
VERTEX
  8
0
  6
CONTINUOUS
 62
    80
  5
52D
 10
2.058326
 20
-12.354164
 30
0.0
  0
VERTEX
  8
0
  6
CONTINUOUS
 62
    80
  5
52E
 10
2.244633
 20
-12.625
 30
0.0
  0
VERTEX
  8
0
  6
CONTINUOUS
 62
    80
  5
52F
 10
2.461422
 20
-12.882518
 30
0.0
  0
VERTEX
  8
0
  6
CONTINUOUS
 62
    80
  5
530
 10
2.707044
 20
-13.124757
 30
0.0
  0
VERTEX
  8
0
  6
CONTINUOUS
 62
    80
  5
531
 10
2.979631
 20
-13.349874
 30
0.0
  0
VERTEX
  8
0
  6
CONTINUOUS
 62
    80
  5
532
 10
3.277107
 20
-13.556156
 30
0.0
  0
VERTEX
  8
0
  6
CONTINUOUS
 62
    80
  5
533
 10
3.597209
 20
-13.742032
 30
0.0
  0
VERTEX
  8
0
  6
CONTINUOUS
 62
    80
  5
534
 10
3.9375
 20
-13.906089
 30
0.0
  0
VERTEX
  8
0
  6
CONTINUOUS
 62
    80
  5
535
 10
4.295391
 20
-14.047077
 30
0.0
  0
VERTEX
  8
0
  6
CONTINUOUS
 62
    80
  5
536
 10
4.668157
 20
-14.163924
 30
0.0
  0
VERTEX
  8
0
  6
CONTINUOUS
 62
    80
  5
537
 10
5.052962
 20
-14.25574
 30
0.0
  0
VERTEX
  8
0
  6
CONTINUOUS
 62
    80
  5
538
 10
5.446877
 20
-14.321827
 30
0.0
  0
VERTEX
  8
0
  6
CONTINUOUS
 62
    80
  5
539
 10
5.846905
 20
-14.361681
 30
0.0
  0
VERTEX
  8
0
  6
CONTINUOUS
 62
    80
  5
53A
 10
6.25
 20
-14.375
 30
0.0
  0
VERTEX
  8
0
  6
CONTINUOUS
 62
    80
  5
53B
 10
6.653095
 20
-14.361681
 30
0.0
  0
VERTEX
  8
0
  6
CONTINUOUS
 62
    80
  5
53C
 10
7.053123
 20
-14.321827
 30
0.0
  0
VERTEX
  8
0
  6
CONTINUOUS
 62
    80
  5
53D
 10
7.447038
 20
-14.25574
 30
0.0
  0
VERTEX
  8
0
  6
CONTINUOUS
 62
    80
  5
53E
 10
7.831843
 20
-14.163924
 30
0.0
  0
VERTEX
  8
0
  6
CONTINUOUS
 62
    80
  5
53F
 10
8.204609
 20
-14.047077
 30
0.0
  0
VERTEX
  8
0
  6
CONTINUOUS
 62
    80
  5
540
 10
8.5625
 20
-13.906089
 30
0.0
  0
VERTEX
  8
0
  6
CONTINUOUS
 62
    80
  5
541
 10
8.902791
 20
-13.742032
 30
0.0
  0
VERTEX
  8
0
  6
CONTINUOUS
 62
    80
  5
542
 10
9.222893
 20
-13.556156
 30
0.0
  0
VERTEX
  8
0
  6
CONTINUOUS
 62
    80
  5
543
 10
9.520369
 20
-13.349874
 30
0.0
  0
VERTEX
  8
0
  6
CONTINUOUS
 62
    80
  5
544
 10
9.792956
 20
-13.124757
 30
0.0
  0
VERTEX
  8
0
  6
CONTINUOUS
 62
    80
  5
545
 10
10.038578
 20
-12.882518
 30
0.0
  0
VERTEX
  8
0
  6
CONTINUOUS
 62
    80
  5
546
 10
10.255367
 20
-12.625
 30
0.0
  0
VERTEX
  8
0
  6
CONTINUOUS
 62
    80
  5
547
 10
10.441674
 20
-12.354164
 30
0.0
  0
VERTEX
  8
0
  6
CONTINUOUS
 62
    80
  5
548
 10
10.596078
 20
-12.072071
 30
0.0
  0
VERTEX
  8
0
  6
CONTINUOUS
 62
    80
  5
549
 10
10.717407
 20
-11.780867
 30
0.0
  0
VERTEX
  8
0
  6
CONTINUOUS
 62
    80
  5
54A
 10
10.804736
 20
-11.482769
 30
0.0
  0
VERTEX
  8
0
  6
CONTINUOUS
 62
    80
  5
54B
 10
10.8574
 20
-11.180045
 30
0.0
  0
VERTEX
  8
0
  6
CONTINUOUS
 62
    80
  5
54C
 10
10.875
 20
-10.875
 30
0.0
  0
SEQEND
  8
0
  6
CONTINUOUS
 62
    80
  5
54D
  0
ARC
  8
0
  6
CONTINUOUS
 62
    80
  5
1E2
 10
-0.875
 20
-9.875
 30
0.0
 40
2.125
 50
286.927344
 51
90.000003
  0
ARC
  8
0
  6
CONTINUOUS
 62
    80
  5
1E3
 10
-0.875
 20
-9.875
 30
0.0
 40
0.625
 50
269.999997
 51
90.000003
  0
ARC
  8
0
  6
CONTINUOUS
 62
    80
  5
1E4
 10
-7.375
 20
-9.875
 30
0.0
 40
2.125
 50
286.927344
 51
90.000003
  0
ARC
  8
0
  6
CONTINUOUS
 62
    80
  5
1E5
 10
-7.375
 20
-9.875
 30
0.0
 40
0.625
 50
269.999997
 51
90.000003
  0
ARC
  8
0
  6
CONTINUOUS
 62
    80
  5
1E6
 10
0.0
 20
0.0
 30
0.0
 40
2.9
 50
350.071809
 51
9.928191
  0
ARC
  8
0
  6
CONTINUOUS
 62
    80
  5
1E7
 10
0.0
 20
0.0
 30
0.0
 40
2.9
 50
260.071809
 51
279.928191
  0
ARC
  8
0
  6
CONTINUOUS
 62
    80
  5
1E8
 10
0.0
 20
0.0
 30
0.0
 40
2.9
 50
170.071809
 51
189.928191
  0
ARC
  8
0
  6
CONTINUOUS
 62
    80
  5
1E9
 10
0.0
 20
0.0
 30
0.0
 40
2.9
 50
80.071809
 51
99.928191
  0
CIRCLE
  8
0
  6
CONTINUOUS
 62
     3
  5
1EA
 10
0.0
 20
0.0
 30
0.0
 40
3.9
  0
CIRCLE
  8
0
  6
CONTINUOUS
 62
     3
  5
1EB
 10
0.0
 20
0.0
 30
0.0
 40
4.3
  0
LINE
  8
0
  6
CONTINUOUS
 62
    80
  5
1EC
 10
-4.75
 20
-10.5
 30
0.0
 11
-4.75
 21
-14.0
 31
0.0
  0
LINE
  8
0
  6
CONTINUOUS
 62
    80
  5
1ED
 10
-11.25
 20
-10.5
 30
0.0
 11
-11.25
 21
-14.0
 31
0.0
  0
LINE
  8
0
  6
CONTINUOUS
 62
    80
  5
1EE
 10
-11.25
 20
-7.75
 30
0.0
 11
-7.375
 21
-7.75
 31
0.0
  0
LINE
  8
0
  6
CONTINUOUS
 62
    80
  5
1EF
 10
19.723907
 20
-7.75
 30
0.0
 11
21.375
 21
-7.75
 31
0.0
  0
LINE
  8
0
  6
CONTINUOUS
 62
    80
  5
1F0
 10
15.375
 20
-7.75
 30
0.0
 11
16.375
 21
-7.75
 31
0.0
  0
LINE
  8
0
  6
CONTINUOUS
 62
    80
  5
1F1
 10
10.375
 20
-7.75
 30
0.0
 11
12.026091
 21
-7.75
 31
0.0
  0
LINE
  8
0
  6
CONTINUOUS
 62
    80
  5
1F2
 10
13.25
 20
-14.0
 30
0.0
 11
14.151093
 21
-14.0
 31
0.0
  0
LINE
  8
0
  6
CONTINUOUS
 62
    80
  5
1F3
 10
17.598907
 20
-14.0
 30
0.0
 11
18.5
 21
-14.0
 31
0.0
  0
LINE
  8
0
  6
CONTINUOUS
 62
    80
  5
1F4
 10
-0.598351
 20
-14.0
 30
0.0
 11
1.25
 21
-14.0
 31
0.0
  0
LINE
  8
0
  6
CONTINUOUS
 62
    80
  5
1F5
 10
-13.454727
 20
-14.0
 30
0.0
 11
-11.75
 21
-14.0
 31
0.0
  0
LINE
  8
0
  6
CONTINUOUS
 62
    80
  5
1F6
 10
-7.098351
 20
-14.0
 30
0.0
 11
-5.238487
 21
-14.0
 31
0.0
  0
LINE
  8
0
  6
CONTINUOUS
 62
    80
  5
1F7
 10
-11.25
 20
-14.0
 30
0.0
 11
-9.75
 21
-14.0
 31
0.0
  0
LINE
  8
0
  6
CONTINUOUS
 62
    80
  5
1F8
 10
-4.75
 20
-14.0
 30
0.0
 11
-3.25
 21
-14.0
 31
0.0
  0
LINE
  8
0
  6
CONTINUOUS
 62
    80
  5
1F9
 10
-4.75
 20
-7.75
 30
0.0
 11
-0.875
 21
-7.75
 31
0.0
  0
LINE
  8
0
  6
CONTINUOUS
 62
    80
  5
1FA
 10
-2.03835
 20
-12.000001
 30
0.0
 11
-0.59835
 21
-14.000001
 31
0.0
  0
LINE
  8
0
  6
CONTINUOUS
 62
    80
  5
1FB
 10
-7.098351
 20
-14.000001
 30
0.0
 11
-8.538351
 21
-12.000001
 31
0.0
  0
LINE
  8
0
  6
CONTINUOUS
 62
    80
  5
1FC
 10
-0.256288
 20
-11.907935
 30
0.0
 11
1.249999
 21
-14.000001
 31
0.0
  0
LINE
  8
0
  6
CONTINUOUS
 62
    80
  5
1FD
 10
-5.249999
 20
-14.000001
 30
0.0
 11
-6.756287
 21
-11.907935
 31
0.0
  0
LINE
  8
0
  6
CONTINUOUS
 62
    80
  5
1FE
 10
-3.25
 20
-12.0
 30
0.0
 11
-2.038351
 21
-12.0
 31
0.0
  0
LINE
  8
0
  6
CONTINUOUS
 62
    80
  5
1FF
 10
-9.75
 20
-12.0
 30
0.0
 11
-8.538349
 21
-12.0
 31
0.0
  0
LINE
  8
0
  6
CONTINUOUS
 62
    80
  5
200
 10
-4.75
 20
-10.5
 30
0.0
 11
-0.875
 21
-10.5
 31
0.0
  0
LINE
  8
0
  6
CONTINUOUS
 62
    80
  5
201
 10
-11.25
 20
-10.5
 30
0.0
 11
-7.375
 21
-10.5
 31
0.0
  0
LINE
  8
0
  6
CONTINUOUS
 62
    80
  5
202
 10
-4.75
 20
-9.25
 30
0.0
 11
-0.875
 21
-9.25
 31
0.0
  0
LINE
  8
0
  6
CONTINUOUS
 62
    80
  5
203
 10
-11.25
 20
-9.25
 30
0.0
 11
-7.375
 21
-9.25
 31
0.0
  0
LINE
  8
0
  6
CONTINUOUS
 62
    80
  5
204
 10
-3.25
 20
-12.0
 30
0.0
 11
-3.25
 21
-14.0
 31
0.0
  0
LINE
  8
0
  6
CONTINUOUS
 62
    80
  5
205
 10
-9.75
 20
-12.0
 30
0.0
 11
-9.75
 21
-14.0
 31
0.0
  0
LINE
  8
0
  6
CONTINUOUS
 62
    80
  5
206
 10
16.375001
 20
-7.75
 30
0.0
 11
18.049456
 21
-11.390119
 31
0.0
  0
LINE
  8
0
  6
CONTINUOUS
 62
    80
  5
207
 10
15.875001
 20
-10.252371
 30
0.0
 11
17.59891
 21
-13.999999
 31
0.0
  0
LINE
  8
0
  6
CONTINUOUS
 62
    80
  5
208
 10
15.875
 20
-10.252371
 30
0.0
 11
14.151091
 21
-13.999999
 31
0.0
  0
LINE
  8
0
  6
CONTINUOUS
 62
    80
  5
209
 10
15.375001
 20
-7.75
 30
0.0
 11
13.700545
 21
-11.39012
 31
0.0
  0
LINE
  8
0
  6
CONTINUOUS
 62
    80
  5
20A
 10
18.049457
 20
-11.39012
 30
0.0
 11
19.723912
 21
-7.750002
 31
0.0
  0
LINE
  8
0
  6
CONTINUOUS
 62
    80
  5
20B
 10
12.026091
 20
-7.749999
 30
0.0
 11
13.700546
 21
-11.390118
 31
0.0
  0
LINE
  8
0
  6
CONTINUOUS
 62
    80
  5
20C
 10
-15.624999
 20
-9.980979
 30
0.0
 11
-13.454728
 21
-14.0
 31
0.0
  0
LINE
  8
0
  6
CONTINUOUS
 62
    80
  5
20D
 10
-15.625001
 20
-9.980979
 30
0.0
 11
-17.795272
 21
-14.0
 31
0.0
  0
LINE
  8
0
  6
CONTINUOUS
 62
    80
  5
20E
 10
18.500003
 20
-14.000001
 30
0.0
 11
21.375002
 21
-7.750001
 31
0.0
  0
LINE
  8
0
  6
CONTINUOUS
 62
    80
  5
20F
 10
10.375001
 20
-7.75
 30
0.0
 11
13.250001
 21
-14.0
 31
0.0
  0
LINE
  8
0
  6
CONTINUOUS
 62
    80
  5
210
 10
-15.124999
 20
-7.749999
 30
0.0
 11
-11.749999
 21
-13.999999
 31
0.0
  0
LINE
  8
0
  6
CONTINUOUS
 62
    80
  5
211
 10
-16.125001
 20
-7.749999
 30
0.0
 11
-19.500001
 21
-14.0
 31
0.0
  0
LINE
  8
0
  6
CONTINUOUS
 62
    80
  5
212
 10
-16.125
 20
-7.75
 30
0.0
 11
-15.125
 21
-7.75
 31
0.0
  0
LINE
  8
0
  6
CONTINUOUS
 62
    80
  5
213
 10
-4.75
 20
-7.75
 30
0.0
 11
-4.75
 21
-9.25
 31
0.0
  0
LINE
  8
0
  6
CONTINUOUS
 62
    80
  5
214
 10
-11.25
 20
-7.75
 30
0.0
 11
-11.25
 21
-9.25
 31
0.0
  0
LINE
  8
0
  6
CONTINUOUS
 62
    80
  5
215
 10
-19.5
 20
-14.0
 30
0.0
 11
-17.795273
 21
-14.0
 31
0.0
  0
LINE
  8
0
  6
CONTINUOUS
 62
    80
  5
216
 10
0.5
 20
0.5
 30
0.0
 11
2.856572
 21
0.5
 31
0.0
  0
LINE
  8
0
  6
CONTINUOUS
 62
    80
  5
217
 10
0.5
 20
-0.5
 30
0.0
 11
0.5
 21
-2.856572
 31
0.0
  0
LINE
  8
0
  6
CONTINUOUS
 62
    80
  5
218
 10
0.5
 20
-0.5
 30
0.0
 11
2.856572
 21
-0.5
 31
0.0
  0
LINE
  8
0
  6
CONTINUOUS
 62
    80
  5
219
 10
-0.5
 20
-0.5
 30
0.0
 11
-0.5
 21
-2.856572
 31
0.0
  0
LINE
  8
0
  6
CONTINUOUS
 62
    80
  5
21A
 10
-2.856572
 20
-0.5
 30
0.0
 11
-0.5
 21
-0.5
 31
0.0
  0
LINE
  8
0
  6
CONTINUOUS
 62
    80
  5
21B
 10
-2.856572
 20
0.5
 30
0.0
 11
-0.5
 21
0.5
 31
0.0
  0
LINE
  8
0
  6
CONTINUOUS
 62
    80
  5
21C
 10
0.5
 20
2.856572
 30
0.0
 11
0.5
 21
0.5
 31
0.0
  0
LINE
  8
0
  6
CONTINUOUS
 62
    80
  5
21D
 10
-0.5
 20
2.856572
 30
0.0
 11
-0.5
 21
0.5
 31
0.0
  0
CIRCLE
  8
0
  6
CONTINUOUS
 62
     3
  5
21E
 10
0.0
 20
0.0
 30
0.0
 40
30.0
  0
ENDBLK
  8
0
  5
21F
  0
BLOCK
  8
0
  5
220
  2
MS_8
 70
     0
 10
0.0
 20
0.0
 30
0.0
  3
MS_8
  0
CIRCLE
  8
0
  6
CONTINUOUS
 62
     3
  5
221
 10
0.0
 20
0.0
 30
0.0
 40
32.0
  0
CIRCLE
  8
0
  6
CONTINUOUS
 62
     3
  5
222
 10
0.0
 20
0.0
 30
0.0
 40
7.5
  0
CIRCLE
  8
0
  6
CONTINUOUS
 62
     3
  5
223
 10
17.320508
 20
10.0
 30
0.0
 40
2.0
  0
CIRCLE
  8
0
  6
CONTINUOUS
 62
     3
  5
224
 10
-17.320508
 20
10.0
 30
0.0
 40
2.0
  0
CIRCLE
  8
0
  6
CONTINUOUS
 62
     3
  5
225
 10
0.0
 20
-20.0
 30
0.0
 40
2.0
  0
LINE
  8
0
  6
CONTINUOUS
 62
     3
  5
226
 10
19.341234
 20
13.5
 30
0.0
 11
21.36196
 21
10.0
 31
0.0
  0
LINE
  8
0
  6
CONTINUOUS
 62
     3
  5
227
 10
21.36196
 20
10.0
 30
0.0
 11
19.341234
 21
6.5
 31
0.0
  0
CIRCLE
  8
0
  6
CONTINUOUS
 62
     3
  5
228
 10
17.320508
 20
10.0
 30
0.0
 40
5.0
  0
LINE
  8
0
  6
CONTINUOUS
 62
     3
  5
229
 10
15.299782
 20
6.5
 30
0.0
 11
19.341234
 21
6.5
 31
0.0
  0
LINE
  8
0
  6
CONTINUOUS
 62
     3
  5
22A
 10
15.299782
 20
13.5
 30
0.0
 11
19.341234
 21
13.5
 31
0.0
  0
LINE
  8
0
  6
CONTINUOUS
 62
     3
  5
22B
 10
13.279056
 20
10.0
 30
0.0
 11
15.299782
 21
6.5
 31
0.0
  0
LINE
  8
0
  6
CONTINUOUS
 62
     3
  5
22C
 10
15.299782
 20
13.5
 30
0.0
 11
13.279056
 21
10.0
 31
0.0
  0
LINE
  8
0
  6
CONTINUOUS
 62
     3
  5
22D
 10
-15.299782
 20
6.5
 30
0.0
 11
-13.279056
 21
10.0
 31
0.0
  0
LINE
  8
0
  6
CONTINUOUS
 62
     3
  5
22E
 10
-13.279056
 20
10.0
 30
0.0
 11
-15.299782
 21
13.5
 31
0.0
  0
CIRCLE
  8
0
  6
CONTINUOUS
 62
     3
  5
22F
 10
-17.320508
 20
10.0
 30
0.0
 40
5.0
  0
LINE
  8
0
  6
CONTINUOUS
 62
     3
  5
230
 10
-21.36196
 20
10.0
 30
0.0
 11
-19.341234
 21
13.5
 31
0.0
  0
LINE
  8
0
  6
CONTINUOUS
 62
     3
  5
231
 10
-19.341234
 20
13.5
 30
0.0
 11
-15.299782
 21
13.5
 31
0.0
  0
LINE
  8
0
  6
CONTINUOUS
 62
     3
  5
232
 10
-19.341234
 20
6.5
 30
0.0
 11
-21.36196
 21
10.0
 31
0.0
  0
LINE
  8
0
  6
CONTINUOUS
 62
     3
  5
233
 10
-19.341234
 20
6.5
 30
0.0
 11
-15.299782
 21
6.5
 31
0.0
  0
LINE
  8
0
  6
CONTINUOUS
 62
     3
  5
234
 10
2.020726
 20
-16.5
 30
0.0
 11
-2.020726
 21
-16.5
 31
0.0
  0
LINE
  8
0
  6
CONTINUOUS
 62
     3
  5
235
 10
-2.020726
 20
-16.5
 30
0.0
 11
-4.041452
 21
-20.0
 31
0.0
  0
CIRCLE
  8
0
  6
CONTINUOUS
 62
     3
  5
236
 10
0.0
 20
-20.0
 30
0.0
 40
5.0
  0
LINE
  8
0
  6
CONTINUOUS
 62
     3
  5
237
 10
4.041452
 20
-20.0
 30
0.0
 11
2.020726
 21
-16.5
 31
0.0
  0
LINE
  8
0
  6
CONTINUOUS
 62
     3
  5
238
 10
4.041452
 20
-20.0
 30
0.0
 11
2.020726
 21
-23.5
 31
0.0
  0
LINE
  8
0
  6
CONTINUOUS
 62
     3
  5
239
 10
2.020726
 20
-23.5
 30
0.0
 11
-2.020726
 21
-23.5
 31
0.0
  0
LINE
  8
0
  6
CONTINUOUS
 62
     3
  5
23A
 10
-2.020726
 20
-23.5
 30
0.0
 11
-4.041452
 21
-20.0
 31
0.0
  0
ENDBLK
  8
0
  5
23B
  0
BLOCK
  8
0
  5
23C
  2
MS_9
 70
     0
 10
0.0
 20
0.0
 30
0.0
  3
MS_9
  0
LINE
  8
0
  6
CONTINUOUS
 62
     3
  5
23D
 10
32.000001
 20
-54.8
 30
0.0
 11
-31.999999
 21
-54.8
 31
0.0
  0
LINE
  8
0
  6
CONTINUOUS
 62
     3
  5
23E
 10
-29.499999
 20
-40.0
 30
0.0
 11
-29.999999
 21
-40.5
 31
0.0
  0
LINE
  8
0
  6
CONTINUOUS
 62
     3
  5
23F
 10
28.700001
 20
-49.013655
 30
0.0
 11
28.700001
 21
-42.99981
 31
0.0
  0
LINE
  8
0
  6
CONTINUOUS
 62
     3
  5
240
 10
29.500001
 20
-40.0
 30
0.0
 11
30.000001
 21
-40.5
 31
0.0
  0
LINE
  8
0
  6
CONTINUOUS
 62
     3
  5
241
 10
-28.7
 20
-42.99981
 30
0.0
 11
29.000001
 21
-42.99981
 31
0.0
  0
LINE
  8
0
  6
CONTINUOUS
 62
     3
  5
242
 10
30.000001
 20
-54.3
 30
0.0
 11
30.000001
 21
-50.013617
 31
0.0
  0
LINE
  8
0
  6
CONTINUOUS
 62
     3
  5
243
 10
-28.7
 20
-42.99981
 30
0.0
 11
-28.999999
 21
-42.99981
 31
0.0
  0
LINE
  8
0
  6
CONTINUOUS
 62
     3
  5
244
 10
-28.7
 20
-49.013655
 30
0.0
 11
29.000001
 21
-49.013655
 31
0.0
  0
LINE
  8
0
  6
CONTINUOUS
 62
     3
  5
245
 10
30.000001
 20
-41.99981
 30
0.0
 11
30.000001
 21
-40.5
 31
0.0
  0
LINE
  8
0
  6
CONTINUOUS
 62
     3
  5
246
 10
-28.7
 20
-49.013655
 30
0.0
 11
-28.999999
 21
-49.013655
 31
0.0
  0
LINE
  8
0
  6
CONTINUOUS
 62
     3
  5
247
 10
-29.999999
 20
-54.3
 30
0.0
 11
-29.999999
 21
-50.013617
 31
0.0
  0
LINE
  8
0
  6
CONTINUOUS
 62
     3
  5
248
 10
-28.7
 20
-49.013655
 30
0.0
 11
-28.7
 21
-42.99981
 31
0.0
  0
LINE
  8
0
  6
CONTINUOUS
 62
     3
  5
249
 10
-29.999999
 20
-41.99981
 30
0.0
 11
-29.999999
 21
-40.5
 31
0.0
  0
LINE
  8
0
  6
CONTINUOUS
 62
     3
  5
24A
 10
-29.499999
 20
-54.8
 30
0.0
 11
-30.0
 21
-54.299999
 31
0.0
  0
LINE
  8
0
  6
CONTINUOUS
 62
     3
  5
24B
 10
30.000001
 20
-54.3
 30
0.0
 11
29.5
 21
-54.8
 31
0.0
  0
LINE
  8
0
  6
CONTINUOUS
 62
     3
  5
24C
 10
29.5
 20
0.0
 30
0.0
 11
-29.5
 21
0.0
 31
0.0
  0
LINE
  8
0
  6
CONTINUOUS
 62
     3
  5
24D
 10
-30.0
 20
-0.5
 30
0.0
 11
-30.0
 21
-39.5
 31
0.0
  0
LINE
  8
0
  6
CONTINUOUS
 62
     3
  5
24E
 10
-30.0
 20
-39.500001
 30
0.0
 11
-29.5
 21
-40.0
 31
0.0
  0
LINE
  8
0
  6
CONTINUOUS
 62
     3
  5
24F
 10
-29.5
 20
0.0
 30
0.0
 11
-30.0
 21
-0.5
 31
0.0
  0
LINE
  8
0
  6
CONTINUOUS
 62
     3
  5
250
 10
29.5
 20
-40.0
 30
0.0
 11
-29.5
 21
-40.0
 31
0.0
  0
LINE
  8
0
  6
CONTINUOUS
 62
     3
  5
251
 10
30.0
 20
-0.5
 30
0.0
 11
30.0
 21
-39.5
 31
0.0
  0
LINE
  8
0
  6
CONTINUOUS
 62
     3
  5
252
 10
30.0
 20
-39.500001
 30
0.0
 11
29.500001
 21
-40.0
 31
0.0
  0
LINE
  8
0
  6
CONTINUOUS
 62
     3
  5
253
 10
29.5
 20
0.0
 30
0.0
 11
30.0
 21
-0.5
 31
0.0
  0
LINE
  8
0
  6
CONTINUOUS
 62
     3
  5
254
 10
-31.999999
 20
-54.8
 30
0.0
 11
-31.999999
 21
-56.8
 31
0.0
  0
LINE
  8
0
  6
CONTINUOUS
 62
     3
  5
255
 10
32.000001
 20
-54.8
 30
0.0
 11
32.000001
 21
-56.8
 31
0.0
  0
LINE
  8
0
  6
CONTINUOUS
 62
     3
  5
256
 10
-31.999999
 20
-56.8
 30
0.0
 11
32.000001
 21
-56.8
 31
0.0
  0
LINE
  8
0
  6
CONTINUOUS
 62
     3
  5
257
 10
13.279057
 20
-58.956693
 30
0.0
 11
13.896867
 21
-58.6
 31
0.0
  0
LINE
  8
0
  6
CONTINUOUS
 62
     3
  5
258
 10
-20.744149
 20
-61.8
 30
0.0
 11
-13.896866
 21
-61.8
 31
0.0
  0
LINE
  8
0
  6
CONTINUOUS
 62
     3
  5
259
 10
-21.361959
 20
-58.956693
 30
0.0
 11
-21.361959
 21
-61.443307
 31
0.0
  0
LINE
  8
0
  6
CONTINUOUS
 62
    80
  5
25A
 10
-19.341233
 20
-59.004145
 30
0.0
 11
-19.341233
 21
-61.395855
 31
0.0
  0
LINE
  8
0
  6
CONTINUOUS
 62
     3
  5
25B
 10
-21.361959
 20
-58.956693
 30
0.0
 11
-20.744149
 21
-58.6
 31
0.0
  0
LINE
  8
0
  6
CONTINUOUS
 62
     3
  5
25C
 10
-21.361959
 20
-61.443307
 30
0.0
 11
-20.744149
 21
-61.8
 31
0.0
  0
LINE
  8
0
  6
CONTINUOUS
 62
     3
  5
25D
 10
-13.279056
 20
-58.956693
 30
0.0
 11
-13.279056
 21
-61.443307
 31
0.0
  0
LINE
  8
0
  6
CONTINUOUS
 62
    80
  5
25E
 10
-15.299782
 20
-59.004145
 30
0.0
 11
-15.299782
 21
-61.395855
 31
0.0
  0
LINE
  8
0
  6
CONTINUOUS
 62
     3
  5
25F
 10
-13.279056
 20
-58.956693
 30
0.0
 11
-13.896866
 21
-58.6
 31
0.0
  0
LINE
  8
0
  6
CONTINUOUS
 62
     3
  5
260
 10
-13.279056
 20
-61.443307
 30
0.0
 11
-13.896866
 21
-61.8
 31
0.0
  0
LINE
  8
0
  6
CONTINUOUS
 62
     3
  5
261
 10
-22.320508
 20
-57.6
 30
0.0
 11
-12.320508
 21
-57.6
 31
0.0
  0
LINE
  8
0
  6
CONTINUOUS
 62
     3
  5
262
 10
-12.320508
 20
-56.8
 30
0.0
 11
-12.320508
 21
-57.6
 31
0.0
  0
LINE
  8
0
  6
CONTINUOUS
 62
     3
  5
263
 10
-22.320508
 20
-56.8
 30
0.0
 11
-22.320508
 21
-57.6
 31
0.0
  0
LINE
  8
0
  6
CONTINUOUS
 62
     3
  5
264
 10
-21.120508
 20
-58.6
 30
0.0
 11
-13.520508
 21
-58.6
 31
0.0
  0
LINE
  8
0
  6
CONTINUOUS
 62
    80
  5
265
 10
-17.820508
 20
-58.6
 30
0.0
 11
-16.820508
 21
-57.6
 31
0.0
  0
LINE
  8
0
  6
CONTINUOUS
 62
     3
  5
266
 10
-13.520508
 20
-57.6
 30
0.0
 11
-13.520508
 21
-58.6
 31
0.0
  0
LINE
  8
0
  6
CONTINUOUS
 62
     3
  5
267
 10
-21.120508
 20
-57.6
 30
0.0
 11
-21.120508
 21
-58.6
 31
0.0
  0
LINE
  8
0
  6
CONTINUOUS
 62
     3
  5
268
 10
-18.820508
 20
-68.0
 30
0.0
 11
-15.820508
 21
-68.0
 31
0.0
  0
LINE
  8
0
  6
CONTINUOUS
 62
     3
  5
269
 10
-15.320508
 20
-61.8
 30
0.0
 11
-15.320508
 21
-67.5
 31
0.0
  0
LINE
  8
0
  6
CONTINUOUS
 62
     3
  5
26A
 10
-19.320508
 20
-61.8
 30
0.0
 11
-19.320508
 21
-67.5
 31
0.0
  0
LINE
  8
0
  6
CONTINUOUS
 62
    80
  5
26B
 10
-19.320508
 20
-67.5
 30
0.0
 11
-15.320508
 21
-67.5
 31
0.0
  0
LINE
  8
0
  6
CONTINUOUS
 62
    80
  5
26C
 10
-18.820508
 20
-61.8
 30
0.0
 11
-18.820508
 21
-68.0
 31
0.0
  0
LINE
  8
0
  6
CONTINUOUS
 62
    80
  5
26D
 10
-15.820508
 20
-61.8
 30
0.0
 11
-15.820508
 21
-68.0
 31
0.0
  0
LINE
  8
0
  6
CONTINUOUS
 62
     3
  5
26E
 10
-19.320508
 20
-67.5
 30
0.0
 11
-18.820508
 21
-68.0
 31
0.0
  0
LINE
  8
0
  6
CONTINUOUS
 62
     3
  5
26F
 10
-15.320508
 20
-67.5
 30
0.0
 11
-15.820508
 21
-68.0
 31
0.0
  0
LINE
  8
0
  6
CONTINUOUS
 62
    80
  5
270
 10
15.299783
 20
-59.004145
 30
0.0
 11
15.299783
 21
-61.395855
 31
0.0
  0
LINE
  8
0
  6
CONTINUOUS
 62
     3
  5
271
 10
13.279057
 20
-58.956693
 30
0.0
 11
13.279057
 21
-61.443307
 31
0.0
  0
LINE
  8
0
  6
CONTINUOUS
 62
     3
  5
272
 10
21.361961
 20
-61.443307
 30
0.0
 11
20.74415
 21
-61.8
 31
0.0
  0
LINE
  8
0
  6
CONTINUOUS
 62
     3
  5
273
 10
21.361961
 20
-58.956693
 30
0.0
 11
20.74415
 21
-58.6
 31
0.0
  0
LINE
  8
0
  6
CONTINUOUS
 62
    80
  5
274
 10
19.341235
 20
-59.004145
 30
0.0
 11
19.341235
 21
-61.395855
 31
0.0
  0
LINE
  8
0
  6
CONTINUOUS
 62
     3
  5
275
 10
21.361961
 20
-58.956693
 30
0.0
 11
21.361961
 21
-61.443307
 31
0.0
  0
LINE
  8
0
  6
CONTINUOUS
 62
     3
  5
276
 10
13.279057
 20
-61.443307
 30
0.0
 11
13.896867
 21
-61.8
 31
0.0
  0
LINE
  8
0
  6
CONTINUOUS
 62
     3
  5
277
 10
22.320509
 20
-57.6
 30
0.0
 11
12.320509
 21
-57.6
 31
0.0
  0
LINE
  8
0
  6
CONTINUOUS
 62
     3
  5
278
 10
12.320509
 20
-56.8
 30
0.0
 11
12.320509
 21
-57.6
 31
0.0
  0
LINE
  8
0
  6
CONTINUOUS
 62
     3
  5
279
 10
22.320509
 20
-56.8
 30
0.0
 11
22.320509
 21
-57.6
 31
0.0
  0
LINE
  8
0
  6
CONTINUOUS
 62
     3
  5
27A
 10
21.120509
 20
-58.6
 30
0.0
 11
13.520509
 21
-58.6
 31
0.0
  0
LINE
  8
0
  6
CONTINUOUS
 62
    80
  5
27B
 10
17.820509
 20
-57.6
 30
0.0
 11
16.820509
 21
-58.6
 31
0.0
  0
LINE
  8
0
  6
CONTINUOUS
 62
     3
  5
27C
 10
13.520509
 20
-57.6
 30
0.0
 11
13.520509
 21
-58.6
 31
0.0
  0
LINE
  8
0
  6
CONTINUOUS
 62
     3
  5
27D
 10
21.120509
 20
-57.6
 30
0.0
 11
21.120509
 21
-58.6
 31
0.0
  0
LINE
  8
0
  6
CONTINUOUS
 62
     3
  5
27E
 10
18.820509
 20
-68.0
 30
0.0
 11
15.820509
 21
-68.0
 31
0.0
  0
LINE
  8
0
  6
CONTINUOUS
 62
     3
  5
27F
 10
15.320509
 20
-61.8
 30
0.0
 11
15.320509
 21
-67.5
 31
0.0
  0
LINE
  8
0
  6
CONTINUOUS
 62
     3
  5
280
 10
19.320509
 20
-61.8
 30
0.0
 11
19.320509
 21
-67.5
 31
0.0
  0
LINE
  8
0
  6
CONTINUOUS
 62
    80
  5
281
 10
19.320509
 20
-67.5
 30
0.0
 11
15.320509
 21
-67.5
 31
0.0
  0
LINE
  8
0
  6
CONTINUOUS
 62
    80
  5
282
 10
18.820509
 20
-61.8
 30
0.0
 11
18.820509
 21
-68.0
 31
0.0
  0
LINE
  8
0
  6
CONTINUOUS
 62
    80
  5
283
 10
15.820509
 20
-61.8
 30
0.0
 11
15.820509
 21
-68.0
 31
0.0
  0
LINE
  8
0
  6
CONTINUOUS
 62
     3
  5
284
 10
19.320509
 20
-67.5
 30
0.0
 11
18.820509
 21
-68.0
 31
0.0
  0
LINE
  8
0
  6
CONTINUOUS
 62
     3
  5
285
 10
15.320509
 20
-67.5
 30
0.0
 11
15.820509
 21
-68.0
 31
0.0
  0
LINE
  8
0
  6
CONTINUOUS
 62
     3
  5
286
 10
20.74415
 20
-61.8
 30
0.0
 11
13.896867
 21
-61.8
 31
0.0
  0
ARC
  8
0
  6
CONTINUOUS
 62
     3
  5
287
 10
29.000001
 20
-50.013617
 30
0.0
 40
1.0
 50
0.0
 51
89.5
  0
ARC
  8
0
  6
CONTINUOUS
 62
     3
  5
288
 10
29.000001
 20
-41.99981
 30
0.0
 40
1.0
 50
270.5
 51
0.0
  0
ARC
  8
0
  6
CONTINUOUS
 62
     3
  5
289
 10
-28.999999
 20
-50.013617
 30
0.0
 40
1.0
 50
90.5
 51
180.0
  0
ARC
  8
0
  6
CONTINUOUS
 62
     3
  5
28A
 10
-28.999999
 20
-41.99981
 30
0.0
 40
1.0
 50
180.0
 51
269.5
  0
ARC
  8
0
  6
CONTINUOUS
 62
    80
  5
28B
 10
-20.351596
 20
-60.065026
 30
0.0
 40
1.465026
 50
46.397181
 51
120.0
  0
ARC
  8
0
  6
CONTINUOUS
 62
    80
  5
28C
 10
-20.351596
 20
-60.334974
 30
0.0
 40
1.465026
 50
240.0
 51
313.602819
  0
ARC
  8
0
  6
CONTINUOUS
 62
    80
  5
28D
 10
-14.289419
 20
-60.065026
 30
0.0
 40
1.465026
 50
60.0
 51
133.602819
  0
ARC
  8
0
  6
CONTINUOUS
 62
    80
  5
28E
 10
-14.289419
 20
-60.334974
 30
0.0
 40
1.465026
 50
226.397181
 51
300.0
  0
ARC
  8
0
  6
CONTINUOUS
 62
    80
  5
28F
 10
-17.320508
 20
-63.853887
 30
0.0
 40
5.253887
 50
67.380135
 51
112.619865
  0
ARC
  8
0
  6
CONTINUOUS
 62
    80
  5
290
 10
-17.320508
 20
-56.546113
 30
0.0
 40
5.253887
 50
247.380135
 51
292.619865
  0
ARC
  8
0
  6
CONTINUOUS
 62
    80
  5
291
 10
20.351598
 20
-60.065026
 30
0.0
 40
1.465026
 50
60.0
 51
133.602819
  0
ARC
  8
0
  6
CONTINUOUS
 62
    80
  5
292
 10
20.351598
 20
-60.334974
 30
0.0
 40
1.465026
 50
226.397181
 51
300.0
  0
ARC
  8
0
  6
CONTINUOUS
 62
    80
  5
293
 10
14.28942
 20
-60.065026
 30
0.0
 40
1.465026
 50
46.397181
 51
120.0
  0
ARC
  8
0
  6
CONTINUOUS
 62
    80
  5
294
 10
14.28942
 20
-60.334974
 30
0.0
 40
1.465026
 50
240.0
 51
313.602819
  0
ARC
  8
0
  6
CONTINUOUS
 62
    80
  5
295
 10
17.320509
 20
-63.853887
 30
0.0
 40
5.253887
 50
67.380135
 51
112.619865
  0
ARC
  8
0
  6
CONTINUOUS
 62
    80
  5
296
 10
17.320509
 20
-56.546113
 30
0.0
 40
5.253887
 50
247.380135
 51
292.619865
  0
ENDBLK
  8
0
  5
297
  0
ENDSEC
  0
SECTION
  2
ENTITIES
  0
CIRCLE
  8
LY_1
  6
CONTINUOUS
 62
     3
  5
298
 10
1300.00008
 20
985.800012
 30
0.0
 40
35.000001
  0
INSERT
  8
LY_1
  6
BYBLOCK
  5
299
  2
MS_4
 10
1300.00008
 20
671.000013
 30
0.0
  0
INSERT
  8
LY_1
  6
BYBLOCK
  5
29A
  2
MS_3
 10
1300.00008
 20
1671.000013
 30
0.0
  0
TEXT
  8
LY_1
  6
CONTINUOUS
 62
   255
  5
29B
 10
1287.239663
 20
348.000013
 30
0.0
 40
10.0
  1
底面図
 41
0.78125
  7
MX_NOTE_STANDARD
 11
1287.239663
 21
353.000013
 31
0.0
 73
     2
  0
TEXT
  8
LY_1
  6
CONTINUOUS
 62
   255
  5
29C
 10
1287.239663
 20
468.000013
 30
0.0
 40
10.0
  1
側面図
 41
0.78125
  7
MX_NOTE_STANDARD
 11
1287.239663
 21
473.000013
 31
0.0
 73
     2
  0
TEXT
  8
LY_1
  6
CONTINUOUS
 62
   255
  5
29D
 10
1287.239664
 20
1579.200013
 30
0.0
 40
10.0
  1
側面図
 41
0.78125
  7
MX_NOTE_STANDARD
 11
1287.239664
 21
1584.200013
 31
0.0
 73
     2
  0
INSERT
  8
LY_1
  6
BYBLOCK
  5
29E
  2
MS_2
 10
1300.00008
 20
403.000013
 30
0.0
 50
90.0
  0
INSERT
  8
LY_1
  6
BYBLOCK
  5
29F
  2
MS_1
 10
1100.00008
 20
671.000013
 30
0.0
  0
INSERT
  8
LY_1
  6
BYBLOCK
  5
2A0
  2
MS_1
 10
900.00008
 20
671.000013
 30
0.0
  0
INSERT
  8
LY_1
  6
BYBLOCK
  5
2A1
  2
MS_1
 10
700.00008
 20
671.000013
 30
0.0
  0
INSERT
  8
LY_1
  6
BYBLOCK
  5
2A2
  2
MS_1
 10
500.00008
 20
671.000013
 30
0.0
  0
INSERT
  8
LY_1
  6
BYBLOCK
  5
2A3
  2
MS_1
 10
300.00008
 20
671.000013
 30
0.0
  0
CIRCLE
  8
LY_1
  6
CONTINUOUS
 62
     3
  5
2A4
 10
1300.00008
 20
1985.800012
 30
0.0
 40
32.000001
  0
INSERT
  8
LY_1
  6
BYBLOCK
  5
2A5
  2
MS_8
 10
1300.000081
 20
1514.200013
 30
0.0
 50
90.0
  0
INSERT
  8
LY_1
  6
BYBLOCK
  5
2A6
  2
MS_9
 10
1100.00008
 20
1671.000013
 30
0.0
  0
INSERT
  8
LY_1
  6
BYBLOCK
  5
2A7
  2
MS_9
 10
900.00008
 20
1671.000013
 30
0.0
  0
INSERT
  8
LY_1
  6
BYBLOCK
  5
2A8
  2
MS_9
 10
700.00008
 20
1671.000013
 30
0.0
  0
INSERT
  8
LY_1
  6
BYBLOCK
  5
2A9
  2
MS_9
 10
500.00008
 20
1671.000013
 30
0.0
  0
INSERT
  8
LY_1
  6
BYBLOCK
  5
2AA
  2
MS_9
 10
300.00008
 20
1671.000013
 30
0.0
  0
INSERT
  8
LY_1
  6
BYBLOCK
  5
2AB
  2
MS_5
 10
300.00008
 20
671.000013
 30
0.0
  0
INSERT
  8
LY_1
  6
BYBLOCK
  5
2AC
  2
MS_6
 10
300.00008
 20
711.000013
 30
0.0
  0
INSERT
  8
LY_1
  6
BYBLOCK
  5
2AD
  2
MS_6
 10
500.00008
 20
751.000013
 30
0.0
  0
INSERT
  8
LY_1
  6
BYBLOCK
  5
2AE
  2
MS_5
 10
500.00008
 20
711.000013
 30
0.0
  0
INSERT
  8
LY_1
  6
BYBLOCK
  5
2AF
  2
MS_5
 10
500.00008
 20
671.000013
 30
0.0
  0
INSERT
  8
LY_1
  6
BYBLOCK
  5
2B0
  2
MS_6
 10
700.000079
 20
791.000013
 30
0.0
  0
INSERT
  8
LY_1
  6
BYBLOCK
  5
2B1
  2
MS_5
 10
700.00008
 20
751.000013
 30
0.0
  0
INSERT
  8
LY_1
  6
BYBLOCK
  5
2B2
  2
MS_5
 10
700.00008
 20
711.000013
 30
0.0
  0
INSERT
  8
LY_1
  6
BYBLOCK
  5
2B3
  2
MS_5
 10
700.00008
 20
671.000013
 30
0.0
  0
INSERT
  8
LY_1
  6
BYBLOCK
  5
2B4
  2
MS_6
 10
900.000079
 20
831.000013
 30
0.0
  0
INSERT
  8
LY_1
  6
BYBLOCK
  5
2B5
  2
MS_5
 10
900.00008
 20
791.000013
 30
0.0
  0
INSERT
  8
LY_1
  6
BYBLOCK
  5
2B6
  2
MS_5
 10
900.00008
 20
751.000013
 30
0.0
  0
INSERT
  8
LY_1
  6
BYBLOCK
  5
2B7
  2
MS_5
 10
900.00008
 20
711.000013
 30
0.0
  0
INSERT
  8
LY_1
  6
BYBLOCK
  5
2B8
  2
MS_5
 10
900.00008
 20
671.000013
 30
0.0
  0
INSERT
  8
LY_1
  6
BYBLOCK
  5
2B9
  2
MS_6
 10
1100.000079
 20
871.000013
 30
0.0
  0
INSERT
  8
LY_1
  6
BYBLOCK
  5
2BA
  2
MS_5
 10
1100.000079
 20
831.000013
 30
0.0
  0
INSERT
  8
LY_1
  6
BYBLOCK
  5
2BB
  2
MS_5
 10
1100.00008
 20
791.000013
 30
0.0
  0
INSERT
  8
LY_1
  6
BYBLOCK
  5
2BC
  2
MS_5
 10
1100.00008
 20
751.000013
 30
0.0
  0
INSERT
  8
LY_1
  6
BYBLOCK
  5
2BD
  2
MS_5
 10
1100.00008
 20
711.000013
 30
0.0
  0
INSERT
  8
LY_1
  6
BYBLOCK
  5
2BE
  2
MS_5
 10
1100.00008
 20
671.000013
 30
0.0
  0
TEXT
  8
LY_1
  6
CONTINUOUS
 62
   255
  5
2BF
 10
1287.239663
 20
930.800012
 30
0.0
 40
10.0
  1
上面図
 41
0.78125
  7
MX_NOTE_STANDARD
 11
1287.239663
 21
935.800012
 31
0.0
 73
     2
  0
INSERT
  8
LY_1
  6
BYBLOCK
  5
2C0
  2
MS_5
 10
1300.00008
 20
671.000013
 30
0.0
  0
INSERT
  8
LY_1
  6
BYBLOCK
  5
2C1
  2
MS_5
 10
1300.00008
 20
711.000013
 30
0.0
  0
INSERT
  8
LY_1
  6
BYBLOCK
  5
2C2
  2
MS_5
 10
1300.00008
 20
751.000013
 30
0.0
  0
INSERT
  8
LY_1
  6
BYBLOCK
  5
2C3
  2
MS_5
 10
1300.00008
 20
791.000013
 30
0.0
  0
INSERT
  8
LY_1
  6
BYBLOCK
  5
2C4
  2
MS_5
 10
1300.000079
 20
831.000013
 30
0.0
  0
INSERT
  8
LY_1
  6
BYBLOCK
  5
2C5
  2
MS_6
 10
1300.000079
 20
871.000013
 30
0.0
  0
INSERT
  8
LY_1
  6
BYBLOCK
  5
2C6
  2
MS_7
 10
1300.00008
 20
985.800012
 30
0.0
 50
270.0
  0
INSERT
  8
LY_1
  6
BYBLOCK
  5
2C7
  2
MS_7
 10
1300.00008
 20
1985.800012
 30
0.0
 50
270.0
  0
INSERT
  8
LY_1
  6
BYBLOCK
  5
2C8
  2
MS_6
 10
1300.000079
 20
1871.000013
 30
0.0
  0
INSERT
  8
LY_1
  6
BYBLOCK
  5
2C9
  2
MS_5
 10
1300.000079
 20
1831.000013
 30
0.0
  0
INSERT
  8
LY_1
  6
BYBLOCK
  5
2CA
  2
MS_5
 10
1300.00008
 20
1791.000013
 30
0.0
  0
INSERT
  8
LY_1
  6
BYBLOCK
  5
2CB
  2
MS_5
 10
1300.00008
 20
1751.000013
 30
0.0
  0
INSERT
  8
LY_1
  6
BYBLOCK
  5
2CC
  2
MS_5
 10
1300.00008
 20
1711.000013
 30
0.0
  0
INSERT
  8
LY_1
  6
BYBLOCK
  5
2CD
  2
MS_5
 10
1300.00008
 20
1671.000013
 30
0.0
  0
INSERT
  8
LY_1
  6
BYBLOCK
  5
2CE
  2
MS_6
 10
300.00008
 20
1711.000013
 30
0.0
  0
INSERT
  8
LY_1
  6
BYBLOCK
  5
2CF
  2
MS_5
 10
1100.00008
 20
1671.000013
 30
0.0
  0
INSERT
  8
LY_1
  6
BYBLOCK
  5
2D0
  2
MS_5
 10
1100.00008
 20
1711.000013
 30
0.0
  0
INSERT
  8
LY_1
  6
BYBLOCK
  5
2D1
  2
MS_5
 10
1100.00008
 20
1751.000013
 30
0.0
  0
INSERT
  8
LY_1
  6
BYBLOCK
  5
2D2
  2
MS_5
 10
1100.00008
 20
1791.000013
 30
0.0
  0
INSERT
  8
LY_1
  6
BYBLOCK
  5
2D3
  2
MS_5
 10
1100.000079
 20
1831.000013
 30
0.0
  0
INSERT
  8
LY_1
  6
BYBLOCK
  5
2D4
  2
MS_6
 10
1100.000079
 20
1871.000013
 30
0.0
  0
INSERT
  8
LY_1
  6
BYBLOCK
  5
2D5
  2
MS_5
 10
900.00008
 20
1671.000013
 30
0.0
  0
INSERT
  8
LY_1
  6
BYBLOCK
  5
2D6
  2
MS_5
 10
900.00008
 20
1711.000013
 30
0.0
  0
INSERT
  8
LY_1
  6
BYBLOCK
  5
2D7
  2
MS_5
 10
900.00008
 20
1751.000013
 30
0.0
  0
INSERT
  8
LY_1
  6
BYBLOCK
  5
2D8
  2
MS_5
 10
900.00008
 20
1791.000013
 30
0.0
  0
INSERT
  8
LY_1
  6
BYBLOCK
  5
2D9
  2
MS_6
 10
900.000079
 20
1831.000013
 30
0.0
  0
INSERT
  8
LY_1
  6
BYBLOCK
  5
2DA
  2
MS_5
 10
700.00008
 20
1671.000013
 30
0.0
  0
INSERT
  8
LY_1
  6
BYBLOCK
  5
2DB
  2
MS_5
 10
700.00008
 20
1711.000013
 30
0.0
  0
INSERT
  8
LY_1
  6
BYBLOCK
  5
2DC
  2
MS_5
 10
700.00008
 20
1751.000013
 30
0.0
  0
INSERT
  8
LY_1
  6
BYBLOCK
  5
2DD
  2
MS_6
 10
700.000079
 20
1791.000013
 30
0.0
  0
INSERT
  8
LY_1
  6
BYBLOCK
  5
2DE
  2
MS_5
 10
500.00008
 20
1671.000013
 30
0.0
  0
INSERT
  8
LY_1
  6
BYBLOCK
  5
2DF
  2
MS_5
 10
500.00008
 20
1711.000013
 30
0.0
  0
INSERT
  8
LY_1
  6
BYBLOCK
  5
2E0
  2
MS_6
 10
500.00008
 20
1751.000013
 30
0.0
  0
INSERT
  8
LY_1
  6
BYBLOCK
  5
2E1
  2
MS_5
 10
300.00008
 20
1671.000013
 30
0.0
  0
TEXT
  8
LY_1
  6
CONTINUOUS
 62
   255
  5
2E2
 10
1287.239663
 20
1930.800012
 30
0.0
 40
10.0
  1
上面図
 41
0.78125
  7
MX_NOTE_STANDARD
 11
1287.239663
 21
1935.800012
 31
0.0
 73
     2
  0
TEXT
  8
LY_1
  6
CONTINUOUS
 62
   255
  5
2E3
 10
1287.239664
 20
1459.200013
 30
0.0
 40
10.0
  1
底面図
 41
0.78125
  7
MX_NOTE_STANDARD
 11
1287.239664
 21
1464.200013
 31
0.0
 73
     2
  0
LINE
  8
LY_1
  6
CONTINUOUS
 62
    80
  5
2E4
 10
200.0
 20
2135.0
 30
0.0
 11
1200.0
 21
2135.0
 31
0.0
  0
TEXT
  8
LY_1
  6
CONTINUOUS
 62
   255
  5
2E5
 10
1261.71875
 20
2165.0
 30
0.0
 40
30.0
  1
上面図
 41
0.78125
  7
MX_NOTE_STANDARD
 11
1261.71875
 21
2180.0
 31
0.0
 73
     2
  0
TEXT
  8
LY_1
  6
CONTINUOUS
 62
   255
  5
2E6
 10
1261.71875
 20
2120.0
 30
0.0
 40
30.0
  1
側面図
 41
0.78125
  7
MX_NOTE_STANDARD
 11
1261.71875
 21
2135.0
 31
0.0
 73
     2
  0
TEXT
  8
LY_1
  6
CONTINUOUS
 62
   255
  5
2E7
 10
1261.71875
 20
2075.0
 30
0.0
 40
30.0
  1
底面図
 41
0.78125
  7
MX_NOTE_STANDARD
 11
1261.71875
 21
2090.0
 31
0.0
 73
     2
  0
TEXT
  8
LY_1
  6
CONTINUOUS
 62
   255
  5
2E8
 10
1076.136364
 20
2082.5
 30
0.0
 40
30.0
  1
5層
 41
0.852273
  7
MX_NOTE_STANDARD
 11
1076.136364
 21
2097.5
 31
0.0
 73
     2
  0
TEXT
  8
LY_1
  6
CONTINUOUS
 62
   255
  5
2E9
 10
876.136364
 20
2082.5
 30
0.0
 40
30.0
  1
4層
 41
0.852273
  7
MX_NOTE_STANDARD
 11
876.136364
 21
2097.5
 31
0.0
 73
     2
  0
TEXT
  8
LY_1
  6
CONTINUOUS
 62
   255
  5
2EA
 10
676.136364
 20
2082.5
 30
0.0
 40
30.0
  1
3層
 41
0.852273
  7
MX_NOTE_STANDARD
 11
676.136364
 21
2097.5
 31
0.0
 73
     2
  0
TEXT
  8
LY_1
  6
CONTINUOUS
 62
   255
  5
2EB
 10
476.136364
 20
2082.5
 30
0.0
 40
30.0
  1
2層
 41
0.852273
  7
MX_NOTE_STANDARD
 11
476.136364
 21
2097.5
 31
0.0
 73
     2
  0
TEXT
  8
LY_1
  6
CONTINUOUS
 62
   255
  5
2EC
 10
276.897321
 20
2082.5
 30
0.0
 40
30.0
  1
1層
 41
1.004464
  7
MX_NOTE_STANDARD
 11
276.897321
 21
2097.5
 31
0.0
 73
     2
  0
TEXT
  8
LY_1
  6
CONTINUOUS
 62
   255
  5
2ED
 10
661.71875
 20
2157.5
 30
0.0
 40
30.0
  1
正面図
 41
0.78125
  7
MX_NOTE_STANDARD
 11
661.71875
 21
2172.5
 31
0.0
 73
     2
  0
TEXT
  8
LY_1
  6
CONTINUOUS
 62
   255
  5
2EE
 10
47.5
 20
368.238636
 30
0.0
 40
30.0
  1
LEUG-100/200
 50
90.0
 41
1.022727
  7
MX_NOTE_STANDARD
 11
32.5
 21
368.238636
 31
0.0
 73
     2
  0
TEXT
  8
LY_1
  6
CONTINUOUS
 62
   255
  5
2EF
 10
92.5
 20
368.046875
 30
0.0
 40
30.0
  1
LEUGWB-100/200
 50
90.0
 41
0.984375
  7
MX_NOTE_STANDARD
 11
77.5
 21
368.046875
 31
0.0
 73
     2
  0
TEXT
  8
LY_1
  6
CONTINUOUS
 62
   255
  5
2F0
 10
137.5
 20
367.8125
 30
0.0
 40
30.0
  1
LEMG-24
 50
90.0
 41
0.9375
  7
MX_NOTE_STANDARD
 11
122.5
 21
367.8125
 31
0.0
 73
     2
  0
TEXT
  8
LY_1
  6
CONTINUOUS
 62
   255
  5
2F1
 10
182.5
 20
367.645089
 30
0.0
 40
30.0
  1
LEMGWB-24
 50
90.0
 41
0.904018
  7
MX_NOTE_STANDARD
 11
167.5
 21
367.645089
 31
0.0
 73
     2
  0
TEXT
  8
LY_1
  6
CONTINUOUS
 62
   255
  5
2F2
 10
70.0
 20
1438.125
 30
0.0
 40
30.0
  1
LEUG-24
 50
90.0
 41
0.9375
  7
MX_NOTE_STANDARD
 11
55.0
 21
1438.125
 31
0.0
 73
     2
  0
TEXT
  8
LY_1
  6
CONTINUOUS
 62
   255
  5
2F3
 10
115.0
 20
1438.125
 30
0.0
 40
30.0
  1
LEUGB-24
 50
90.0
 41
0.9375
  7
MX_NOTE_STANDARD
 11
100.0
 21
1438.125
 31
0.0
 73
     2
  0
TEXT
  8
LY_1
  6
CONTINUOUS
 62
   255
  5
2F4
 10
160.0
 20
1437.957589
 30
0.0
 40
30.0
  1
LEUGWB-24
 50
90.0
 41
0.904018
  7
MX_NOTE_STANDARD
 11
145.0
 21
1437.957589
 31
0.0
 73
     2
  0
LINE
  8
LY_1
  6
CONTINUOUS
 62
    80
  5
2F5
 10
0.0
 20
2210.0
 30
0.0
 11
1400.0
 21
2210.0
 31
0.0
  0
LINE
  8
LY_1
  6
CONTINUOUS
 62
    80
  5
2F6
 10
0.0
 20
0.0
 30
0.0
 11
0.0
 21
2210.0
 31
0.0
  0
LINE
  8
LY_1
  6
CONTINUOUS
 62
    80
  5
2F7
 10
0.0
 20
0.0
 30
0.0
 11
1400.0
 21
0.0
 31
0.0
  0
LINE
  8
LY_1
  6
CONTINUOUS
 62
    80
  5
2F8
 10
0.0
 20
1060.0
 30
0.0
 11
1400.0
 21
1060.0
 31
0.0
  0
LINE
  8
LY_1
  6
CONTINUOUS
 62
    80
  5
2F9
 10
0.0
 20
2060.0
 30
0.0
 11
1400.0
 21
2060.0
 31
0.0
  0
LINE
  8
LY_1
  6
CONTINUOUS
 62
    80
  5
2FA
 10
200.0
 20
0.0
 30
0.0
 11
200.0
 21
2210.0
 31
0.0
  0
LINE
  8
LY_1
  6
CONTINUOUS
 62
    80
  5
2FB
 10
1400.0
 20
0.0
 30
0.0
 11
1400.0
 21
2210.0
 31
0.0
  0
LINE
  8
LY_1
  6
CONTINUOUS
 62
    80
  5
2FC
 10
1200.0
 20
0.0
 30
0.0
 11
1200.0
 21
2210.0
 31
0.0
  0
LINE
  8
LY_1
  6
CONTINUOUS
 62
    80
  5
2FD
 10
1000.0
 20
0.0
 30
0.0
 11
1000.0
 21
2135.0
 31
0.0
  0
LINE
  8
LY_1
  6
CONTINUOUS
 62
    80
  5
2FE
 10
800.0
 20
0.0
 30
0.0
 11
800.0
 21
2135.0
 31
0.0
  0
LINE
  8
LY_1
  6
CONTINUOUS
 62
    80
  5
2FF
 10
600.0
 20
0.0
 30
0.0
 11
600.0
 21
2135.0
 31
0.0
  0
LINE
  8
LY_1
  6
CONTINUOUS
 62
    80
  5
300
 10
400.0
 20
0.0
 30
0.0
 11
400.0
 21
2135.0
 31
0.0
  0
ENDSEC
  0
EOF
