  0
SECTION
  2
HEADER
  9
$ACADVER
  1
AC1009
  9
$DWGCODEPAGE
  3
dos932
  9
$INSBASE
 10
0.0
 20
0.0
 30
0.0
  9
$EXTMIN
 10
167.637895
 20
60.671579
 30
0.0
  9
$EXTMAX
 10
1061.137895
 20
2406.671579
 30
0.0
  9
$LIMMIN
 10
167.637895
 20
60.671579
  9
$LIMMAX
 10
1061.137895
 20
2406.671579
  9
$ORTHOMODE
 70
     0
  9
$REGENMODE
 70
     1
  9
$FILLMODE
 70
     1
  9
$QTEXTMODE
 70
     0
  9
$MIRRTEXT
 70
     1
  9
$DRAGMODE
 70
     2
  9
$LTSCALE
 40
1.0
  9
$OSMODE
 70
     0
  9
$ATTMODE
 70
     1
  9
$TEXTSIZE
 40
4.1656
  9
$TRACEWID
 40
0.05
  9
$TEXTSTYLE
  7
MX_NOTE_STANDARD
  9
$CLAYER
  8
0
  9
$CELTYPE
  6
CONTINUOUS
  9
$CECOLOR
 62
   256
  9
$DIMSCALE
 40
1.0
  9
$DIMASZ
 40
2.5
  9
$DIMEXO
 40
0.5
  9
$DIMDLI
 40
3.75
  9
$DIMRND
 40
0.0
  9
$DIMDLE
 40
0.0
  9
$DIMEXE
 40
1.0
  9
$DIMTP
 40
0.0
  9
$DIMTM
 40
0.0
  9
$DIMTXT
 40
2.5
  9
$DIMCEN
 40
2.5
  9
$DIMTSZ
 40
0.0
  9
$DIMTOL
 70
     0
  9
$DIMLIM
 70
     0
  9
$DIMTIH
 70
     0
  9
$DIMTOH
 70
     0
  9
$DIMSE1
 70
     0
  9
$DIMSE2
 70
     0
  9
$DIMTAD
 70
     1
  9
$DIMZIN
 70
     8
  9
$DIMBLK
  1

  9
$DIMASO
 70
     1
  9
$DIMSHO
 70
     1
  9
$DIMPOST
  1

  9
$DIMAPOST
  1

  9
$DIMALT
 70
     0
  9
$DIMALTD
 70
     4
  9
$DIMALTF
 40
0.03937
  9
$DIMLFAC
 40
1.0
  9
$DIMTOFL
 70
     1
  9
$DIMTVP
 40
0.0
  9
$DIMTIX
 70
     0
  9
$DIMSOXD
 70
     0
  9
$DIMSAH
 70
     0
  9
$DIMBLK1
  1

  9
$DIMBLK2
  1

  9
$DIMSTYLE
  2
MXDIMSTYLE
  9
$DIMCLRD
 70
     0
  9
$DIMCLRE
 70
     0
  9
$DIMCLRT
 70
     0
  9
$DIMTFAC
 40
1.0
  9
$DIMGAP
 40
1.0
  9
$LUNITS
 70
     2
  9
$LUPREC
 70
     4
  9
$AXISMODE
 70
     0
  9
$AXISUNIT
 10
0.0
 20
0.0
  9
$SKETCHINC
 40
0.1
  9
$FILLETRAD
 40
0.0
  9
$AUNITS
 70
     0
  9
$AUPREC
 70
     0
  9
$MENU
  1
acad
  9
$ELEVATION
 40
0.0
  9
$PELEVATION
 40
0.0
  9
$THICKNESS
 40
0.0
  9
$LIMCHECK
 70
     0
  9
$BLIPMODE
 70
     1
  9
$CHAMFERA
 40
0.0
  9
$CHAMFERB
 40
0.0
  9
$SKPOLY
 70
     0
  9
$TDCREATE
 40
2453676.660879630
  9
$TDUPDATE
 40
2453676.660879630
  9
$TDINDWG
 40
0.0000000000
  9
$TDUSRTIMER
 40
0.0000000000
  9
$USRTIMER
 70
     1
  9
$ANGBASE
 50
0.0
  9
$ANGDIR
 70
     0
  9
$PDMODE
 70
     0
  9
$PDSIZE
 40
0.0
  9
$PLINEWID
 40
0.0
  9
$COORDS
 70
     1
  9
$SPLFRAME
 70
     0
  9
$SPLINETYPE
 70
     6
  9
$SPLINESEGS
 70
     8
  9
$ATTDIA
 70
     0
  9
$ATTREQ
 70
     1
  9
$HANDLING
 70
     1
  9
$HANDSEED
  5
584
  9
$SURFTAB1
 70
     6
  9
$SURFTAB2
 70
     6
  9
$SURFTYPE
 70
     6
  9
$SURFU
 70
     6
  9
$SURFV
 70
     6
  9
$UCSNAME
  2

  9
$UCSORG
 10
0.0
 20
0.0
 30
0.0
  9
$UCSXDIR
 10
1.0
 20
0.0
 30
0.0
  9
$UCSYDIR
 10
0.0
 20
1.0
 30
0.0
  9
$PUCSNAME
  2

  9
$PUCSORG
 10
0.0
 20
0.0
 30
0.0
  9
$PUCSXDIR
 10
1.0
 20
0.0
 30
0.0
  9
$PUCSYDIR
 10
0.0
 20
1.0
 30
0.0
  9
$USERI1
 70
     0
  9
$USERI2
 70
     0
  9
$USERI3
 70
     0
  9
$USERI4
 70
     0
  9
$USERI5
 70
     0
  9
$USERR1
 40
0.0
  9
$USERR2
 40
0.0
  9
$USERR3
 40
0.0
  9
$USERR4
 40
0.0
  9
$USERR5
 40
0.0
  9
$WORLDVIEW
 70
     1
  9
$SHADEDGE
 70
     3
  9
$SHADEDIF
 70
    70
  9
$TILEMODE
 70
     1
  9
$MAXACTVP
 70
    16
  9
$PINSBASE
 10
0.0
 20
0.0
 30
0.0
  9
$PLIMCHECK
 70
     0
  9
$PEXTMIN
 10
1.000000E+20
 20
1.000000E+20
 30
1.000000E+20
  9
$PEXTMAX
 10
-1.000000E+20
 20
-1.000000E+20
 30
-1.000000E+20
  9
$PLIMMIN
 10
0.0
 20
0.0
  9
$PLIMMAX
 10
12.0
 20
9.0
  9
$UNITMODE
 70
     0
  9
$VISRETAIN
 70
     0
  9
$PLINEGEN
 70
     1
  9
$PSLTSCALE
 70
     0
  9
$TREEDEPTH
 70
  3020
  9
$DWGCODEPAGE
  3
dos932
  0
ENDSEC
  0
SECTION
  2
TABLES
  0
TABLE
  2
VPORT
 70
     1
  0
VPORT
  2
*ACTIVE
 70
     0
 10
0.0
 20
0.0
 11
1.0
 21
1.0
 12
614.387895
 22
1233.671579
 13
0.0
 23
0.0
 14
1.0
 24
1.0
 15
0.0
 25
0.0
 16
0.0
 26
0.0
 36
1.0
 17
0.0
 27
0.0
 37
0.0
 40
2369.46
 41
1.732051
 42
50.0
 43
0.0
 44
0.0
 50
0.0
 51
0.0
 71
     0
 72
   100
 73
     1
 74
     1
 75
     0
 76
     0
 77
     0
 78
     0
  0
ENDTAB
  0
TABLE
  2
LTYPE
 70
     3
  0
LTYPE
  2
CONTINUOUS
 70
    64
  3
Solid line
 72
    65
 73
     0
 40
0.0
  0
LTYPE
  2
DASHED
 70
    64
  3
Dashed __ __ __ __ __ __ __ __ __ __ __ __ __ _
 72
    65
 73
     2
 40
19.05
 49
12.7
 49
-6.35
  0
LTYPE
  2
CENTER
 70
    64
  3
Center ____ _ ____ _ ____ _ ____ _ ____ _ ____
 72
    65
 73
     4
 40
50.8
 49
31.75
 49
-6.35
 49
6.35
 49
-6.35
  0
ENDTAB
  0
TABLE
  2
LAYER
 70
     5
  0
LAYER
  2
0
 70
     0
 62
     7
  6
CONTINUOUS
  0
LAYER
  2
1
 70
     0
 62
     7
  6
CONTINUOUS
  0
LAYER
  2
30
 70
     0
 62
     7
  6
CONTINUOUS
  0
LAYER
  2
_CONSTR
 70
     0
 62
     5
  6
CONTINUOUS
  0
LAYER
  2
DEFPOINTS
 70
     0
 62
     7
  6
CONTINUOUS
  0
ENDTAB
  0
TABLE
  2
STYLE
 70
     1
  0
STYLE
  2
MX_NOTE_STANDARD
 70
     0
 40
0.0
 41
1.0
 50
0.0
 71
     0
 42
4.1656
  3
txt.shx
  4
extfont.shx
  0
ENDTAB
  0
TABLE
  2
VIEW
 70
     0
  0
ENDTAB
  0
TABLE
  2
UCS
 70
     0
  0
ENDTAB
  0
TABLE
  2
APPID
 70
     1
  0
APPID
  2
ACAD
 70
     0
  0
ENDTAB
  0
TABLE
  2
DIMSTYLE
 70
     1
  0
DIMSTYLE
  2
MXDIMSTYLE
 70
     0
  3

  4

  5

  6

  7

 40
1.0
 41
2.5
 42
0.5
 43
3.75
 44
1.0
 45
0.0
 46
0.0
 47
0.0
 48
0.0
 71
     0
 72
     0
 73
     0
 74
     0
 75
     0
 76
     0
 77
     1
 78
     8
140
2.5
141
2.5
142
0.0
143
0.03937
144
1.0
145
0.0
146
1.0
147
1.0
170
     0
171
     4
172
     1
173
     0
174
     0
175
     0
176
     0
177
     0
178
     0
  0
ENDTAB
  0
ENDSEC
  0
SECTION
  2
BLOCKS
  0
BLOCK
  8
0
  5
2A
  2
MS_1
 70
     0
 10
0.0
 20
0.0
 30
0.0
  3
MS_1
  0
LINE
  8
0
  6
CONTINUOUS
 62
     3
  5
2B
 10
-4.95
 20
0.0
 30
0.0
 11
4.95
 21
0.0
 31
0.0
  0
LINE
  8
0
  6
CONTINUOUS
 62
     3
  5
2C
 10
-3.5
 20
-4.2
 30
0.0
 11
3.5
 21
-4.2
 31
0.0
  0
LINE
  8
0
  6
CONTINUOUS
 62
     3
  5
2D
 10
-5.25
 20
-0.8
 30
0.0
 11
5.25
 21
-0.8
 31
0.0
  0
LINE
  8
0
  6
CONTINUOUS
 62
     3
  5
2E
 10
-5.25
 20
-0.8
 30
0.0
 11
-5.25
 21
-0.3
 31
0.0
  0
LINE
  8
0
  6
CONTINUOUS
 62
     3
  5
2F
 10
5.25
 20
-0.8
 30
0.0
 11
5.25
 21
-0.3
 31
0.0
  0
LINE
  8
0
  6
CONTINUOUS
 62
     3
  5
30
 10
-4.041452
 20
-3.887393
 30
0.0
 11
-4.041452
 21
-1.239876
 31
0.0
  0
LINE
  8
0
  6
CONTINUOUS
 62
     3
  5
31
 10
4.041452
 20
-3.887393
 30
0.0
 11
4.041452
 21
-1.239876
 31
0.0
  0
LINE
  8
0
  6
CONTINUOUS
 62
     3
  5
32
 10
-2.020726
 20
-3.887393
 30
0.0
 11
-2.020726
 21
-1.019938
 31
0.0
  0
LINE
  8
0
  6
CONTINUOUS
 62
     3
  5
33
 10
2.020726
 20
-3.887393
 30
0.0
 11
2.020726
 21
-1.019938
 31
0.0
  0
LINE
  8
0
  6
CONTINUOUS
 62
     3
  5
34
 10
-3.5
 20
-4.2
 30
0.0
 11
-4.041452
 21
-3.887393
 31
0.0
  0
LINE
  8
0
  6
CONTINUOUS
 62
     3
  5
35
 10
3.5
 20
-4.2
 30
0.0
 11
4.041452
 21
-3.887393
 31
0.0
  0
ARC
  8
0
  6
CONTINUOUS
 62
     3
  5
36
 10
0.0
 20
2.487393
 30
0.0
 40
6.687393
 50
252.412046
 51
287.587954
  0
ARC
  8
0
  6
CONTINUOUS
 62
     3
  5
37
 10
-3.031089
 20
-2.410924
 30
0.0
 40
1.789076
 50
244.384247
 51
304.384247
  0
ARC
  8
0
  6
CONTINUOUS
 62
     3
  5
38
 10
3.031089
 20
-2.410924
 30
0.0
 40
1.789076
 50
235.615753
 51
295.615753
  0
LINE
  8
0
  6
CONTINUOUS
 62
     3
  5
39
 10
-5.25
 20
-0.8
 30
0.0
 11
-4.041452
 21
-1.239876
 31
0.0
  0
LINE
  8
0
  6
CONTINUOUS
 62
     3
  5
3A
 10
5.25
 20
-0.8
 30
0.0
 11
4.041452
 21
-1.239876
 31
0.0
  0
POINT
  8
0
  6
CONTINUOUS
 62
    80
  5
3B
 10
-2.020726
 20
-1.019938
 30
0.0
  0
ARC
  8
0
  6
CONTINUOUS
 62
     3
  5
3C
 10
-3.411992
 20
2.369719
 30
0.0
 40
3.664068
 50
260.107932
 51
292.315422
  0
ARC
  8
0
  6
CONTINUOUS
 62
     3
  5
3D
 10
3.411992
 20
2.369719
 30
0.0
 40
3.664068
 50
247.684578
 51
279.892068
  0
ARC
  8
0
  6
CONTINUOUS
 62
     3
  5
3E
 10
0.0
 20
6.283033
 30
0.0
 40
7.577382
 50
254.533279
 51
285.466721
  0
ARC
  8
0
  6
CONTINUOUS
 62
     3
  5
3F
 10
-4.95
 20
-0.3
 30
0.0
 40
0.3
 50
90.0
 51
180.0
  0
ARC
  8
0
  6
CONTINUOUS
 62
     3
  5
40
 10
4.95
 20
-0.3
 30
0.0
 40
0.3
 50
0.0
 51
90.0
  0
ENDBLK
  8
0
  5
41
  0
BLOCK
  8
0
  5
42
  2
MS_2
 70
     0
 10
0.0
 20
0.0
 30
0.0
  3
MS_2
  0
LINE
  8
0
  6
CONTINUOUS
 62
     3
  5
43
 10
-28.0
 20
0.0
 30
0.0
 11
28.0
 21
0.0
 31
0.0
  0
LINE
  8
0
  6
CONTINUOUS
 62
     3
  5
44
 10
-24.585786
 20
10.0
 30
0.0
 11
24.585786
 21
10.0
 31
0.0
  0
ARC
  8
0
  6
CONTINUOUS
 62
     3
  5
45
 10
24.585786
 20
9.0
 30
0.0
 40
1.0
 50
45.0
 51
90.0
  0
ARC
  8
0
  6
CONTINUOUS
 62
     3
  5
46
 10
27.0
 20
6.585786
 30
0.0
 40
1.0
 50
0.0
 51
45.0
  0
LINE
  8
0
  6
CONTINUOUS
 62
     3
  5
47
 10
25.292893
 20
9.707107
 30
0.0
 11
27.707107
 21
7.292893
 31
0.0
  0
LINE
  8
0
  6
CONTINUOUS
 62
     3
  5
48
 10
-27.707107
 20
7.292893
 30
0.0
 11
-25.292893
 21
9.707107
 31
0.0
  0
ARC
  8
0
  6
CONTINUOUS
 62
     3
  5
49
 10
-27.0
 20
6.585786
 30
0.0
 40
1.0
 50
135.0
 51
180.0
  0
ARC
  8
0
  6
CONTINUOUS
 62
     3
  5
4A
 10
-24.585786
 20
9.0
 30
0.0
 40
1.0
 50
90.0
 51
135.0
  0
LINE
  8
0
  6
CONTINUOUS
 62
     3
  5
4B
 10
-28.0
 20
0.0
 30
0.0
 11
-28.0
 21
6.585786
 31
0.0
  0
LINE
  8
0
  6
CONTINUOUS
 62
     3
  5
4C
 10
28.0
 20
0.0
 30
0.0
 11
28.0
 21
6.585786
 31
0.0
  0
ENDBLK
  8
0
  5
4D
  0
BLOCK
  8
0
  5
4E
  2
MS_3
 70
     0
 10
0.0
 20
0.0
 30
0.0
  3
MS_3
  0
LINE
  8
0
  6
CONTINUOUS
 62
     3
  5
4F
 10
-28.0
 20
0.0
 30
0.0
 11
28.0
 21
0.0
 31
0.0
  0
LINE
  8
0
  6
CONTINUOUS
 62
     3
  5
50
 10
-27.5
 20
99.0
 30
0.0
 11
27.5
 21
99.0
 31
0.0
  0
LINE
  8
0
  6
CONTINUOUS
 62
     3
  5
51
 10
-28.0
 20
98.5
 30
0.0
 11
-28.0
 21
32.4
 31
0.0
  0
LINE
  8
0
  6
CONTINUOUS
 62
     3
  5
52
 10
28.0
 20
32.4
 30
0.0
 11
28.0
 21
98.5
 31
0.0
  0
LINE
  8
0
  6
CONTINUOUS
 62
     3
  5
53
 10
27.5
 20
99.0
 30
0.0
 11
28.0
 21
98.5
 31
0.0
  0
LINE
  8
0
  6
CONTINUOUS
 62
     3
  5
54
 10
-28.0
 20
98.5
 30
0.0
 11
-27.5
 21
99.0
 31
0.0
  0
LINE
  8
0
  6
DASHED
 62
    80
  5
56
 10
-28.0
 20
66.0
 30
0.0
 11
28.0
 21
66.0
 31
0.0
  0
LINE
  8
0
  6
DASHED
 62
    80
  5
57
 10
-28.0
 20
33.0
 30
0.0
 11
28.0
 21
33.0
 31
0.0
  0
LINE
  8
0
  6
CONTINUOUS
 62
     3
  5
58
 10
28.0
 20
0.0
 30
0.0
 11
28.0
 21
32.4
 31
0.0
  0
LINE
  8
0
  6
CONTINUOUS
 62
     3
  5
59
 10
-28.0
 20
32.4
 30
0.0
 11
-28.0
 21
0.0
 31
0.0
  0
LINE
  8
0
  6
CONTINUOUS
 62
    80
  5
5A
 10
-24.0
 20
0.0
 30
0.0
 11
-24.0
 21
98.5
 31
0.0
  0
LINE
  8
0
  6
CONTINUOUS
 62
    80
  5
5B
 10
-20.0
 20
0.0
 30
0.0
 11
-20.0
 21
98.5
 31
0.0
  0
LINE
  8
0
  6
CONTINUOUS
 62
    80
  5
5C
 10
-16.0
 20
0.0
 30
0.0
 11
-16.0
 21
98.5
 31
0.0
  0
LINE
  8
0
  6
CONTINUOUS
 62
    80
  5
5D
 10
-12.0
 20
0.0
 30
0.0
 11
-12.0
 21
98.5
 31
0.0
  0
LINE
  8
0
  6
CONTINUOUS
 62
    80
  5
5E
 10
-8.0
 20
0.0
 30
0.0
 11
-8.0
 21
98.5
 31
0.0
  0
LINE
  8
0
  6
CONTINUOUS
 62
    80
  5
5F
 10
-4.0
 20
0.0
 30
0.0
 11
-4.0
 21
98.5
 31
0.0
  0
LINE
  8
0
  6
CONTINUOUS
 62
    80
  5
60
 10
0.0
 20
0.0
 30
0.0
 11
0.0
 21
98.5
 31
0.0
  0
LINE
  8
0
  6
CONTINUOUS
 62
    80
  5
61
 10
4.0
 20
0.0
 30
0.0
 11
4.0
 21
98.5
 31
0.0
  0
LINE
  8
0
  6
CONTINUOUS
 62
    80
  5
62
 10
8.0
 20
0.0
 30
0.0
 11
8.0
 21
98.5
 31
0.0
  0
LINE
  8
0
  6
CONTINUOUS
 62
    80
  5
63
 10
12.0
 20
0.0
 30
0.0
 11
12.0
 21
98.5
 31
0.0
  0
LINE
  8
0
  6
CONTINUOUS
 62
    80
  5
64
 10
16.0
 20
0.0
 30
0.0
 11
16.0
 21
98.5
 31
0.0
  0
LINE
  8
0
  6
CONTINUOUS
 62
    80
  5
65
 10
20.0
 20
0.0
 30
0.0
 11
20.0
 21
98.5
 31
0.0
  0
LINE
  8
0
  6
CONTINUOUS
 62
    80
  5
66
 10
24.0
 20
0.0
 30
0.0
 11
24.0
 21
98.5
 31
0.0
  0
ENDBLK
  8
0
  5
67
  0
BLOCK
  8
0
  5
68
  2
MS_4
 70
     0
 10
0.0
 20
0.0
 30
0.0
  3
MS_4
  0
LINE
  8
0
  6
CONTINUOUS
 62
     3
  5
69
 10
28.0
 20
65.7
 30
0.0
 11
28.0
 21
0.0
 31
0.0
  0
LINE
  8
0
  6
CONTINUOUS
 62
     3
  5
6A
 10
-28.0
 20
0.0
 30
0.0
 11
28.0
 21
0.0
 31
0.0
  0
LINE
  8
0
  6
CONTINUOUS
 62
     3
  5
6B
 10
27.7
 20
66.0
 30
0.0
 11
28.0
 21
65.7
 31
0.0
  0
LINE
  8
0
  6
CONTINUOUS
 62
     3
  5
6C
 10
-27.7
 20
66.0
 30
0.0
 11
27.7
 21
66.0
 31
0.0
  0
LINE
  8
0
  6
CONTINUOUS
 62
     3
  5
6D
 10
-28.0
 20
0.0
 30
0.0
 11
-28.0
 21
65.7
 31
0.0
  0
LINE
  8
0
  6
CONTINUOUS
 62
     3
  5
6E
 10
-28.0
 20
65.7
 30
0.0
 11
-27.7
 21
66.0
 31
0.0
  0
LINE
  8
0
  6
DASHED
 62
    80
  5
6F
 10
-28.0
 20
33.0
 30
0.0
 11
28.0
 21
33.0
 31
0.0
  0
LINE
  8
0
  6
CONTINUOUS
 62
    80
  5
70
 10
-24.0
 20
0.0
 30
0.0
 11
-24.0
 21
66.0
 31
0.0
  0
LINE
  8
0
  6
CONTINUOUS
 62
    80
  5
71
 10
-20.0
 20
0.0
 30
0.0
 11
-20.0
 21
66.0
 31
0.0
  0
LINE
  8
0
  6
CONTINUOUS
 62
    80
  5
72
 10
-16.0
 20
0.0
 30
0.0
 11
-16.0
 21
66.0
 31
0.0
  0
LINE
  8
0
  6
CONTINUOUS
 62
    80
  5
73
 10
-12.0
 20
0.0
 30
0.0
 11
-12.0
 21
66.0
 31
0.0
  0
LINE
  8
0
  6
CONTINUOUS
 62
    80
  5
74
 10
-8.0
 20
0.0
 30
0.0
 11
-8.0
 21
66.0
 31
0.0
  0
LINE
  8
0
  6
CONTINUOUS
 62
    80
  5
75
 10
-4.0
 20
0.0
 30
0.0
 11
-4.0
 21
66.0
 31
0.0
  0
LINE
  8
0
  6
CONTINUOUS
 62
    80
  5
76
 10
0.0
 20
0.0
 30
0.0
 11
0.0
 21
66.0
 31
0.0
  0
LINE
  8
0
  6
CONTINUOUS
 62
    80
  5
77
 10
4.0
 20
0.0
 30
0.0
 11
4.0
 21
66.0
 31
0.0
  0
LINE
  8
0
  6
CONTINUOUS
 62
    80
  5
78
 10
8.0
 20
0.0
 30
0.0
 11
8.0
 21
66.0
 31
0.0
  0
LINE
  8
0
  6
CONTINUOUS
 62
    80
  5
79
 10
12.0
 20
0.0
 30
0.0
 11
12.0
 21
66.0
 31
0.0
  0
LINE
  8
0
  6
CONTINUOUS
 62
    80
  5
7A
 10
16.0
 20
0.0
 30
0.0
 11
16.0
 21
66.0
 31
0.0
  0
LINE
  8
0
  6
CONTINUOUS
 62
    80
  5
7B
 10
20.0
 20
0.0
 30
0.0
 11
20.0
 21
66.0
 31
0.0
  0
LINE
  8
0
  6
CONTINUOUS
 62
    80
  5
7C
 10
24.0
 20
0.0
 30
0.0
 11
24.0
 21
66.0
 31
0.0
  0
ENDBLK
  8
0
  5
7D
  0
BLOCK
  8
0
  5
7E
  2
MS_5
 70
     0
 10
0.0
 20
0.0
 30
0.0
  3
MS_5
  0
LINE
  8
0
  6
CONTINUOUS
 62
     3
  5
7F
 10
28.0
 20
33.0
 30
0.0
 11
-28.0
 21
33.0
 31
0.0
  0
LINE
  8
0
  6
CONTINUOUS
 62
     3
  5
80
 10
28.0
 20
21.999592
 30
0.0
 11
-28.0
 21
21.999592
 31
0.0
  0
LINE
  8
0
  6
CONTINUOUS
 62
     3
  5
81
 10
-18.79899
 20
24.199592
 30
0.0
 11
-10.115908
 21
24.199592
 31
0.0
  0
ARC
  8
0
  6
CONTINUOUS
 62
     3
  5
82
 10
18.79899
 20
25.199592
 30
0.0
 40
1.0
 50
270.0
 51
0.0
  0
LINE
  8
0
  6
CONTINUOUS
 62
     3
  5
83
 10
-9.115908
 20
29.499592
 30
0.0
 11
-9.115908
 21
29.799592
 31
0.0
  0
LINE
  8
0
  6
CONTINUOUS
 62
     3
  5
84
 10
-6.29863
 20
25.199592
 30
0.0
 11
-6.29863
 21
25.499592
 31
0.0
  0
LINE
  8
0
  6
CONTINUOUS
 62
     3
  5
85
 10
-10.115908
 20
30.799592
 30
0.0
 11
-18.79899
 21
30.799592
 31
0.0
  0
LINE
  8
0
  6
CONTINUOUS
 62
     3
  5
86
 10
9.115908
 20
25.199592
 30
0.0
 11
9.115908
 21
25.499592
 31
0.0
  0
LINE
  8
0
  6
CONTINUOUS
 62
     3
  5
87
 10
6.29863
 20
25.499592
 30
0.0
 11
6.29863
 21
25.199592
 31
0.0
  0
LINE
  8
0
  6
CONTINUOUS
 62
     3
  5
88
 10
-5.29863
 20
26.499592
 30
0.0
 11
5.29863
 21
26.499592
 31
0.0
  0
LINE
  8
0
  6
CONTINUOUS
 62
     3
  5
89
 10
-19.79899
 20
25.499592
 30
0.0
 11
-19.79899
 21
25.199592
 31
0.0
  0
LINE
  8
0
  6
CONTINUOUS
 62
     3
  5
8A
 10
18.79899
 20
24.199592
 30
0.0
 11
10.115908
 21
24.199592
 31
0.0
  0
LINE
  8
0
  6
CONTINUOUS
 62
     3
  5
8B
 10
-10.115908
 20
26.499592
 30
0.0
 11
-18.79899
 21
26.499592
 31
0.0
  0
LINE
  8
0
  6
CONTINUOUS
 62
     3
  5
8C
 10
5.29863
 20
24.199592
 30
0.0
 11
-5.29863
 21
24.199592
 31
0.0
  0
LINE
  8
0
  6
CONTINUOUS
 62
     3
  5
8D
 10
-9.115908
 20
25.199592
 30
0.0
 11
-9.115908
 21
25.499592
 31
0.0
  0
LINE
  8
0
  6
CONTINUOUS
 62
     3
  5
8E
 10
-18.490842
 20
25.499592
 30
0.0
 11
-18.490842
 21
25.199592
 31
0.0
  0
LINE
  8
0
  6
CONTINUOUS
 62
     3
  5
8F
 10
18.79899
 20
28.499592
 30
0.0
 11
10.115908
 21
28.499592
 31
0.0
  0
ARC
  8
0
  6
CONTINUOUS
 62
     3
  5
90
 10
18.79899
 20
25.499592
 30
0.0
 40
1.0
 50
0.0
 51
90.0
  0
LINE
  8
0
  6
CONTINUOUS
 62
     3
  5
91
 10
-18.79899
 20
28.499592
 30
0.0
 11
-10.115908
 21
28.499592
 31
0.0
  0
LINE
  8
0
  6
CONTINUOUS
 62
     3
  5
92
 10
-19.79899
 20
29.799592
 30
0.0
 11
-19.79899
 21
29.499592
 31
0.0
  0
ARC
  8
0
  6
CONTINUOUS
 62
     3
  5
93
 10
-17.490842
 20
25.499592
 30
0.0
 40
1.0
 50
90.0
 51
180.0
  0
LINE
  8
0
  6
CONTINUOUS
 62
     3
  5
94
 10
10.115908
 20
30.799592
 30
0.0
 11
18.79899
 21
30.799592
 31
0.0
  0
LINE
  8
0
  6
CONTINUOUS
 62
     3
  5
95
 10
10.115908
 20
26.499592
 30
0.0
 11
18.79899
 21
26.499592
 31
0.0
  0
ARC
  8
0
  6
CONTINUOUS
 62
     3
  5
96
 10
17.490842
 20
25.199592
 30
0.0
 40
1.0
 50
270.0
 51
0.0
  0
ARC
  8
0
  6
CONTINUOUS
 62
     3
  5
97
 10
-5.29863
 20
25.499592
 30
0.0
 40
1.0
 50
90.0
 51
180.0
  0
ARC
  8
0
  6
CONTINUOUS
 62
     3
  5
98
 10
-5.29863
 20
25.199592
 30
0.0
 40
1.0
 50
180.0
 51
270.0
  0
ARC
  8
0
  6
CONTINUOUS
 62
     3
  5
99
 10
5.29863
 20
25.499592
 30
0.0
 40
1.0
 50
0.0
 51
90.0
  0
ARC
  8
0
  6
CONTINUOUS
 62
     3
  5
9A
 10
5.29863
 20
25.199592
 30
0.0
 40
1.0
 50
270.0
 51
0.0
  0
ARC
  8
0
  6
CONTINUOUS
 62
     3
  5
9B
 10
5.29863
 20
29.799592
 30
0.0
 40
1.0
 50
0.0
 51
90.0
  0
ARC
  8
0
  6
CONTINUOUS
 62
     3
  5
9C
 10
5.29863
 20
29.499592
 30
0.0
 40
1.0
 50
270.0
 51
0.0
  0
ARC
  8
0
  6
CONTINUOUS
 62
     3
  5
9D
 10
-5.29863
 20
29.799592
 30
0.0
 40
1.0
 50
90.0
 51
180.0
  0
ARC
  8
0
  6
CONTINUOUS
 62
     3
  5
9E
 10
-5.29863
 20
29.499592
 30
0.0
 40
1.0
 50
180.0
 51
270.0
  0
ARC
  8
0
  6
CONTINUOUS
 62
     3
  5
9F
 10
-10.115908
 20
25.499592
 30
0.0
 40
1.0
 50
0.0
 51
90.0
  0
ARC
  8
0
  6
CONTINUOUS
 62
     3
  5
A0
 10
-10.115908
 20
25.199592
 30
0.0
 40
1.0
 50
270.0
 51
0.0
  0
ARC
  8
0
  6
CONTINUOUS
 62
     3
  5
A1
 10
-10.115908
 20
29.799592
 30
0.0
 40
1.0
 50
0.0
 51
90.0
  0
ARC
  8
0
  6
CONTINUOUS
 62
     3
  5
A2
 10
-10.115908
 20
29.499592
 30
0.0
 40
1.0
 50
270.0
 51
0.0
  0
ARC
  8
0
  6
CONTINUOUS
 62
     3
  5
A3
 10
10.115908
 20
29.799592
 30
0.0
 40
1.0
 50
90.0
 51
180.0
  0
ARC
  8
0
  6
CONTINUOUS
 62
     3
  5
A4
 10
10.115908
 20
29.499592
 30
0.0
 40
1.0
 50
180.0
 51
270.0
  0
ARC
  8
0
  6
CONTINUOUS
 62
     3
  5
A5
 10
10.115908
 20
25.499592
 30
0.0
 40
1.0
 50
90.0
 51
180.0
  0
ARC
  8
0
  6
CONTINUOUS
 62
     3
  5
A6
 10
10.115908
 20
25.199592
 30
0.0
 40
1.0
 50
180.0
 51
270.0
  0
ARC
  8
0
  6
CONTINUOUS
 62
     3
  5
A7
 10
-17.490842
 20
29.799592
 30
0.0
 40
1.0
 50
90.0
 51
188.626927
  0
ARC
  8
0
  6
CONTINUOUS
 62
     3
  5
A8
 10
-17.490842
 20
29.499592
 30
0.0
 40
1.0
 50
171.373073
 51
270.0
  0
ARC
  8
0
  6
CONTINUOUS
 62
     3
  5
A9
 10
-18.79899
 20
29.799592
 30
0.0
 40
1.0
 50
90.0
 51
180.0
  0
ARC
  8
0
  6
CONTINUOUS
 62
     3
  5
AA
 10
-18.79899
 20
29.499592
 30
0.0
 40
1.0
 50
180.0
 51
270.0
  0
ARC
  8
0
  6
CONTINUOUS
 62
     3
  5
AB
 10
-17.490842
 20
25.199592
 30
0.0
 40
1.0
 50
180.0
 51
270.0
  0
ARC
  8
0
  6
CONTINUOUS
 62
     3
  5
AC
 10
-18.79899
 20
25.499592
 30
0.0
 40
1.0
 50
90.0
 51
180.0
  0
ARC
  8
0
  6
CONTINUOUS
 62
     3
  5
AD
 10
-18.79899
 20
25.199592
 30
0.0
 40
1.0
 50
180.0
 51
270.0
  0
ARC
  8
0
  6
CONTINUOUS
 62
     3
  5
AE
 10
18.79899
 20
29.799592
 30
0.0
 40
1.0
 50
0.0
 51
90.0
  0
ARC
  8
0
  6
CONTINUOUS
 62
     3
  5
AF
 10
17.490842
 20
29.499592
 30
0.0
 40
1.0
 50
270.0
 51
8.626927
  0
LINE
  8
0
  6
CONTINUOUS
 62
     3
  5
B0
 10
5.29863
 20
28.499592
 30
0.0
 11
-5.29863
 21
28.499592
 31
0.0
  0
LINE
  8
0
  6
CONTINUOUS
 62
     3
  5
B1
 10
-6.29863
 20
29.499592
 30
0.0
 11
-6.29863
 21
29.799592
 31
0.0
  0
ARC
  8
0
  6
CONTINUOUS
 62
     3
  5
B2
 10
18.79899
 20
29.499592
 30
0.0
 40
1.0
 50
270.0
 51
0.0
  0
LINE
  8
0
  6
CONTINUOUS
 62
     3
  5
B3
 10
9.115908
 20
29.499592
 30
0.0
 11
9.115908
 21
29.799592
 31
0.0
  0
LINE
  8
0
  6
CONTINUOUS
 62
     3
  5
B4
 10
6.29863
 20
29.799592
 30
0.0
 11
6.29863
 21
29.499592
 31
0.0
  0
LINE
  8
0
  6
CONTINUOUS
 62
     3
  5
B5
 10
19.79899
 20
25.499592
 30
0.0
 11
19.79899
 21
25.199592
 31
0.0
  0
LINE
  8
0
  6
CONTINUOUS
 62
     3
  5
B6
 10
-5.29863
 20
30.799592
 30
0.0
 11
5.29863
 21
30.799592
 31
0.0
  0
LINE
  8
0
  6
CONTINUOUS
 62
     3
  5
B7
 10
18.490842
 20
25.499592
 30
0.0
 11
18.490842
 21
25.199592
 31
0.0
  0
LINE
  8
0
  6
CONTINUOUS
 62
     3
  5
B8
 10
19.79899
 20
29.799592
 30
0.0
 11
19.79899
 21
29.499592
 31
0.0
  0
ARC
  8
0
  6
CONTINUOUS
 62
     3
  5
B9
 10
17.490842
 20
25.499592
 30
0.0
 40
1.0
 50
0.0
 51
90.0
  0
ARC
  8
0
  6
CONTINUOUS
 62
     3
  5
BA
 10
17.490842
 20
29.799592
 30
0.0
 40
1.0
 50
351.373073
 51
90.0
  0
ARC
  8
0
  6
CONTINUOUS
 62
     3
  5
BB
 10
45.582316
 20
-0.440605
 30
0.0
 40
40.0
 50
154.150094
 51
179.368866
  0
ARC
  8
0
  6
CONTINUOUS
 62
     3
  5
BC
 10
43.39076
 20
3.934586
 30
0.0
 40
40.0
 50
160.935319
 51
185.645008
  0
LINE
  8
0
  6
CONTINUOUS
 62
     3
  5
BD
 10
-11.221501
 20
0.0
 30
0.0
 11
11.221501
 21
0.0
 31
0.0
  0
LINE
  8
0
  6
CONTINUOUS
 62
     3
  5
BE
 10
23.5
 20
18.0
 30
0.0
 11
23.5
 21
20.0
 31
0.0
  0
LINE
  8
0
  6
CONTINUOUS
 62
     3
  5
BF
 10
-22.5
 20
17.0
 30
0.0
 11
22.5
 21
17.0
 31
0.0
  0
ARC
  8
0
  6
CONTINUOUS
 62
     3
  5
C0
 10
-16.333874
 20
15.5
 30
0.0
 40
1.5
 50
6.709837
 51
23.287624
  0
LINE
  8
0
  6
CONTINUOUS
 62
     3
  5
C1
 10
-13.207802
 20
1.766318
 30
0.0
 11
-14.844148
 21
15.675262
 31
0.0
  0
ARC
  8
0
  6
CONTINUOUS
 62
     3
  5
C2
 10
-51.142085
 20
-10.921872
 30
0.0
 40
40.0
 50
18.493964
 51
44.270508
  0
ARC
  8
0
  6
CONTINUOUS
 62
     3
  5
C3
 10
-22.5
 20
18.0
 30
0.0
 40
1.0
 50
180.0
 51
270.0
  0
ARC
  8
0
  6
CONTINUOUS
 62
     3
  5
C4
 10
11.221501
 20
2.0
 30
0.0
 40
2.0
 50
270.0
 51
353.290163
  0
ARC
  8
0
  6
CONTINUOUS
 62
     3
  5
C5
 10
-11.221501
 20
2.0
 30
0.0
 40
2.0
 50
186.709837
 51
270.0
  0
ARC
  8
0
  6
CONTINUOUS
 62
     3
  5
C6
 10
22.5
 20
18.0
 30
0.0
 40
1.0
 50
270.0
 51
0.0
  0
LINE
  8
0
  6
CONTINUOUS
 62
     3
  5
C7
 10
-23.5
 20
20.0
 30
0.0
 11
-23.5
 21
18.0
 31
0.0
  0
LINE
  8
0
  6
CONTINUOUS
 62
     3
  5
C8
 10
-27.7
 20
100.5
 30
0.0
 11
27.7
 21
100.5
 31
0.0
  0
LINE
  8
0
  6
CONTINUOUS
 62
     3
  5
C9
 10
-28.0
 20
20.0
 30
0.0
 11
28.0
 21
20.0
 31
0.0
  0
LINE
  8
0
  6
CONTINUOUS
 62
     3
  5
CA
 10
-26.5
 20
22.0
 30
0.0
 11
-28.0
 21
22.0
 31
0.0
  0
LINE
  8
0
  6
CONTINUOUS
 62
     3
  5
CB
 10
28.0
 20
22.0
 30
0.0
 11
26.5
 21
22.0
 31
0.0
  0
LINE
  8
0
  6
CONTINUOUS
 62
     3
  5
CC
 10
13.207802
 20
1.766318
 30
0.0
 11
14.844148
 21
15.675262
 31
0.0
  0
LINE
  8
0
  6
CONTINUOUS
 62
     3
  5
CD
 10
-28.0
 20
42.0
 30
0.0
 11
28.0
 21
42.0
 31
0.0
  0
LINE
  8
0
  6
CONTINUOUS
 62
     3
  5
CE
 10
28.0
 20
42.0
 30
0.0
 11
28.0
 21
100.2
 31
0.0
  0
LINE
  8
0
  6
CONTINUOUS
 62
     3
  5
CF
 10
27.7
 20
100.5
 30
0.0
 11
28.0
 21
100.2
 31
0.0
  0
LINE
  8
0
  6
CONTINUOUS
 62
     3
  5
D0
 10
-27.7
 20
100.5
 30
0.0
 11
-28.0
 21
100.2
 31
0.0
  0
LINE
  8
0
  6
CONTINUOUS
 62
     3
  5
D1
 10
28.0
 20
33.0
 30
0.0
 11
28.0
 21
41.7
 31
0.0
  0
LINE
  8
0
  6
CONTINUOUS
 62
     3
  5
D2
 10
-28.0
 20
100.2
 30
0.0
 11
-28.0
 21
42.0
 31
0.0
  0
LINE
  8
0
  6
CONTINUOUS
 62
     3
  5
D3
 10
27.7
 20
42.0
 30
0.0
 11
28.0
 21
41.7
 31
0.0
  0
LINE
  8
0
  6
CONTINUOUS
 62
     3
  5
D4
 10
-28.0
 20
33.0
 30
0.0
 11
-28.0
 21
41.7
 31
0.0
  0
LINE
  8
0
  6
CONTINUOUS
 62
     3
  5
D5
 10
-27.7
 20
42.0
 30
0.0
 11
-28.0
 21
41.7
 31
0.0
  0
LINE
  8
0
  6
CONTINUOUS
 62
     3
  5
D6
 10
28.0
 20
20.0
 30
0.0
 11
28.0
 21
32.999592
 31
0.0
  0
LINE
  8
0
  6
CONTINUOUS
 62
     3
  5
D7
 10
-28.0
 20
32.999592
 30
0.0
 11
-28.0
 21
20.0
 31
0.0
  0
INSERT
  8
0
  6
BYBLOCK
  5
D8
  2
MS_1
 10
-10.0
 20
17.0
 30
0.0
  0
ARC
  8
0
  6
CONTINUOUS
 62
     3
  5
D9
 10
-16.333874
 20
15.5
 30
0.0
 40
1.5
 50
43.731856
 51
90.0
  0
ARC
  8
0
  6
CONTINUOUS
 62
     3
  5
DA
 10
16.333874
 20
15.5
 30
0.0
 40
1.5
 50
90.0
 51
173.290163
  0
ENDBLK
  8
0
  5
DB
  0
BLOCK
  8
0
  5
DC
  2
MS_6
 70
     0
 10
0.0
 20
0.0
 30
0.0
  3
MS_6
  0
LINE
  8
0
  6
CENTER
 62
    50
  5
DE
 10
-10.5
 20
-319.0
 30
0.0
 11
65.5
 21
-319.0
 31
0.0
  0
LINE
  8
0
  6
DASHED
 62
    80
  5
DF
 10
60.0
 20
-262.0
 30
0.0
 11
60.0
 21
-335.0
 31
0.0
  0
LINE
  8
0
  6
DASHED
 62
    80
  5
E0
 10
56.0
 20
-263.0
 30
0.0
 11
56.0
 21
-335.0
 31
0.0
  0
LINE
  8
0
  6
DASHED
 62
    80
  5
E1
 10
56.0
 20
-335.0
 30
0.0
 11
60.0
 21
-335.0
 31
0.0
  0
ARC
  8
0
  6
DASHED
 62
    80
  5
E2
 10
51.0
 20
-263.0
 30
0.0
 40
5.0
 50
0.0
 51
90.0
  0
ARC
  8
0
  6
DASHED
 62
    80
  5
E3
 10
52.0
 20
-262.0
 30
0.0
 40
8.0
 50
0.0
 51
90.0
  0
LINE
  8
0
  6
CENTER
 62
    50
  5
E4
 10
-10.5
 20
-284.0
 30
0.0
 11
65.5
 21
-284.0
 31
0.0
  0
LINE
  8
0
  6
DASHED
 62
    80
  5
E5
 10
51.0
 20
-258.0
 30
0.0
 11
16.0
 21
-258.0
 31
0.0
  0
LINE
  8
0
  6
DASHED
 62
    80
  5
E6
 10
52.0
 20
-254.0
 30
0.0
 11
16.0
 21
-254.0
 31
0.0
  0
LINE
  8
0
  6
CONTINUOUS
 62
     3
  5
E7
 10
-11.0
 20
0.0
 30
0.0
 11
11.0
 21
0.0
 31
0.0
  0
LINE
  8
0
  6
CONTINUOUS
 62
     3
  5
E8
 10
-16.0
 20
-274.0
 30
0.0
 11
-16.0
 21
-319.0
 31
0.0
  0
LINE
  8
0
  6
CONTINUOUS
 62
     3
  5
E9
 10
16.0
 20
-274.0
 30
0.0
 11
16.0
 21
-319.0
 31
0.0
  0
LINE
  8
0
  6
CONTINUOUS
 62
     3
  5
EA
 10
-16.0
 20
-254.0
 30
0.0
 11
-16.0
 21
-258.0
 31
0.0
  0
LINE
  8
0
  6
CONTINUOUS
 62
     3
  5
EB
 10
16.0
 20
-254.0
 30
0.0
 11
16.0
 21
-258.0
 31
0.0
  0
ARC
  8
0
  6
CONTINUOUS
 62
     3
  5
EC
 10
0.0
 20
-319.0
 30
0.0
 40
16.0
 50
180.0
 51
0.0
  0
CIRCLE
  8
0
  6
CONTINUOUS
 62
     3
  5
ED
 10
0.0
 20
-319.0
 30
0.0
 40
5.5
  0
LINE
  8
0
  6
CONTINUOUS
 62
     3
  5
EE
 10
16.0
 20
-254.0
 30
0.0
 11
-18.5
 21
-254.0
 31
0.0
  0
LINE
  8
0
  6
CONTINUOUS
 62
     3
  5
EF
 10
16.0
 20
-258.0
 30
0.0
 11
-18.5
 21
-258.0
 31
0.0
  0
LINE
  8
0
  6
CONTINUOUS
 62
     3
  5
F0
 10
-18.5
 20
-258.0
 30
0.0
 11
18.5
 21
-258.0
 31
0.0
  0
LINE
  8
0
  6
CONTINUOUS
 62
     3
  5
F1
 10
-18.5
 20
-254.0
 30
0.0
 11
18.5
 21
-254.0
 31
0.0
  0
LINE
  8
0
  6
CONTINUOUS
 62
     3
  5
F2
 10
10.0
 20
-285.0
 30
0.0
 11
10.0
 21
-284.0
 31
0.0
  0
LINE
  8
0
  6
CONTINUOUS
 62
     3
  5
F3
 10
9.0
 20
-286.0
 30
0.0
 11
9.0
 21
-287.0
 31
0.0
  0
LINE
  8
0
  6
CONTINUOUS
 62
     3
  5
F4
 10
11.85
 20
-283.0
 30
0.0
 11
11.85
 21
-283.3
 31
0.0
  0
LINE
  8
0
  6
CONTINUOUS
 62
     3
  5
F5
 10
10.0
 20
-284.0
 30
0.0
 11
11.85
 21
-283.3
 31
0.0
  0
LINE
  8
0
  6
CONTINUOUS
 62
     3
  5
F6
 10
10.0
 20
-283.0
 30
0.0
 11
10.0
 21
-282.0
 31
0.0
  0
ARC
  8
0
  6
CONTINUOUS
 62
     3
  5
F7
 10
9.0
 20
-285.0
 30
0.0
 40
1.0
 50
270.0
 51
0.0
  0
LINE
  8
0
  6
CONTINUOUS
 62
     3
  5
F8
 10
-10.0
 20
-282.0
 30
0.0
 11
10.0
 21
-282.0
 31
0.0
  0
LINE
  8
0
  6
CONTINUOUS
 62
     3
  5
F9
 10
-9.0
 20
-286.0
 30
0.0
 11
9.0
 21
-286.0
 31
0.0
  0
LINE
  8
0
  6
CONTINUOUS
 62
     3
  5
FA
 10
-11.85
 20
-283.3
 30
0.0
 11
11.85
 21
-283.3
 31
0.0
  0
ARC
  8
0
  6
CONTINUOUS
 62
     3
  5
FB
 10
-9.0
 20
-285.0
 30
0.0
 40
1.0
 50
180.0
 51
270.0
  0
LINE
  8
0
  6
CONTINUOUS
 62
     3
  5
FC
 10
-10.0
 20
-283.0
 30
0.0
 11
-10.0
 21
-282.0
 31
0.0
  0
LINE
  8
0
  6
CONTINUOUS
 62
     3
  5
FD
 10
-10.0
 20
-284.0
 30
0.0
 11
-11.85
 21
-283.3
 31
0.0
  0
LINE
  8
0
  6
CONTINUOUS
 62
     3
  5
FE
 10
-11.85
 20
-283.0
 30
0.0
 11
-11.85
 21
-283.3
 31
0.0
  0
LINE
  8
0
  6
CONTINUOUS
 62
     3
  5
FF
 10
-9.0
 20
-286.0
 30
0.0
 11
-9.0
 21
-287.0
 31
0.0
  0
LINE
  8
0
  6
CONTINUOUS
 62
     3
  5
100
 10
-11.85
 20
-283.0
 30
0.0
 11
11.85
 21
-283.0
 31
0.0
  0
LINE
  8
0
  6
CONTINUOUS
 62
     3
  5
101
 10
-10.0
 20
-285.0
 30
0.0
 11
-10.0
 21
-284.0
 31
0.0
  0
LINE
  8
0
  6
CONTINUOUS
 62
     3
  5
102
 10
-9.0
 20
-287.0
 30
0.0
 11
9.0
 21
-287.0
 31
0.0
  0
LINE
  8
0
  6
CONTINUOUS
 62
     3
  5
103
 10
-10.0
 20
-284.0
 30
0.0
 11
10.0
 21
-284.0
 31
0.0
  0
POLYLINE
  8
0
  6
CONTINUOUS
 62
    80
  5
104
 66
     1
 10
0.0
 20
0.0
 30
0.0
  0
VERTEX
  8
0
  6
CONTINUOUS
 62
    80
  5
253
 10
-18.475209
 20
-272.570938
 30
0.0
  0
VERTEX
  8
0
  6
CONTINUOUS
 62
    80
  5
254
 10
-18.215339
 20
-272.726738
 30
0.0
  0
VERTEX
  8
0
  6
CONTINUOUS
 62
    80
  5
255
 10
-17.949893
 20
-272.875821
 30
0.0
  0
VERTEX
  8
0
  6
CONTINUOUS
 62
    80
  5
256
 10
-17.679245
 20
-273.017726
 30
0.0
  0
VERTEX
  8
0
  6
CONTINUOUS
 62
    80
  5
257
 10
-17.403764
 20
-273.151993
 30
0.0
  0
VERTEX
  8
0
  6
CONTINUOUS
 62
    80
  5
258
 10
-17.123823
 20
-273.278162
 30
0.0
  0
VERTEX
  8
0
  6
CONTINUOUS
 62
    80
  5
259
 10
-16.839794
 20
-273.395773
 30
0.0
  0
VERTEX
  8
0
  6
CONTINUOUS
 62
    80
  5
25A
 10
-16.552048
 20
-273.504367
 30
0.0
  0
VERTEX
  8
0
  6
CONTINUOUS
 62
    80
  5
25B
 10
-16.260957
 20
-273.603482
 30
0.0
  0
VERTEX
  8
0
  6
CONTINUOUS
 62
    80
  5
25C
 10
-15.966893
 20
-273.692659
 30
0.0
  0
VERTEX
  8
0
  6
CONTINUOUS
 62
    80
  5
25D
 10
-15.670227
 20
-273.771439
 30
0.0
  0
VERTEX
  8
0
  6
CONTINUOUS
 62
    80
  5
25E
 10
-15.37133
 20
-273.83936
 30
0.0
  0
VERTEX
  8
0
  6
CONTINUOUS
 62
    80
  5
25F
 10
-15.070576
 20
-273.895964
 30
0.0
  0
VERTEX
  8
0
  6
CONTINUOUS
 62
    80
  5
260
 10
-14.768334
 20
-273.94079
 30
0.0
  0
VERTEX
  8
0
  6
CONTINUOUS
 62
    80
  5
261
 10
-14.464978
 20
-273.973378
 30
0.0
  0
VERTEX
  8
0
  6
CONTINUOUS
 62
    80
  5
262
 10
-14.160878
 20
-273.993268
 30
0.0
  0
VERTEX
  8
0
  6
CONTINUOUS
 62
    80
  5
263
 10
-13.856406
 20
-274.0
 30
0.0
  0
VERTEX
  8
0
  6
CONTINUOUS
 62
    80
  5
264
 10
-13.551935
 20
-273.993268
 30
0.0
  0
VERTEX
  8
0
  6
CONTINUOUS
 62
    80
  5
265
 10
-13.247835
 20
-273.973378
 30
0.0
  0
VERTEX
  8
0
  6
CONTINUOUS
 62
    80
  5
266
 10
-12.944479
 20
-273.94079
 30
0.0
  0
VERTEX
  8
0
  6
CONTINUOUS
 62
    80
  5
267
 10
-12.642237
 20
-273.895964
 30
0.0
  0
VERTEX
  8
0
  6
CONTINUOUS
 62
    80
  5
268
 10
-12.341483
 20
-273.83936
 30
0.0
  0
VERTEX
  8
0
  6
CONTINUOUS
 62
    80
  5
269
 10
-12.042586
 20
-273.771439
 30
0.0
  0
VERTEX
  8
0
  6
CONTINUOUS
 62
    80
  5
26A
 10
-11.74592
 20
-273.692659
 30
0.0
  0
VERTEX
  8
0
  6
CONTINUOUS
 62
    80
  5
26B
 10
-11.451856
 20
-273.603482
 30
0.0
  0
VERTEX
  8
0
  6
CONTINUOUS
 62
    80
  5
26C
 10
-11.160765
 20
-273.504367
 30
0.0
  0
VERTEX
  8
0
  6
CONTINUOUS
 62
    80
  5
26D
 10
-10.873019
 20
-273.395773
 30
0.0
  0
VERTEX
  8
0
  6
CONTINUOUS
 62
    80
  5
26E
 10
-10.588989
 20
-273.278162
 30
0.0
  0
VERTEX
  8
0
  6
CONTINUOUS
 62
    80
  5
26F
 10
-10.309049
 20
-273.151993
 30
0.0
  0
VERTEX
  8
0
  6
CONTINUOUS
 62
    80
  5
270
 10
-10.033568
 20
-273.017726
 30
0.0
  0
VERTEX
  8
0
  6
CONTINUOUS
 62
    80
  5
271
 10
-9.76292
 20
-272.875821
 30
0.0
  0
VERTEX
  8
0
  6
CONTINUOUS
 62
    80
  5
272
 10
-9.497474
 20
-272.726738
 30
0.0
  0
VERTEX
  8
0
  6
CONTINUOUS
 62
    80
  5
273
 10
-9.237604
 20
-272.570938
 30
0.0
  0
SEQEND
  8
0
  6
CONTINUOUS
 62
    80
  5
274
  0
POLYLINE
  8
0
  6
CONTINUOUS
 62
    80
  5
105
 66
     1
 10
0.0
 20
0.0
 30
0.0
  0
VERTEX
  8
0
  6
CONTINUOUS
 62
    80
  5
275
 10
-9.237604
 20
-262.429062
 30
0.0
  0
VERTEX
  8
0
  6
CONTINUOUS
 62
    80
  5
276
 10
-8.677724
 20
-262.261243
 30
0.0
  0
VERTEX
  8
0
  6
CONTINUOUS
 62
    80
  5
277
 10
-8.114462
 20
-262.103239
 30
0.0
  0
VERTEX
  8
0
  6
CONTINUOUS
 62
    80
  5
278
 10
-7.548045
 20
-261.955191
 30
0.0
  0
VERTEX
  8
0
  6
CONTINUOUS
 62
    80
  5
279
 10
-6.978697
 20
-261.817239
 30
0.0
  0
VERTEX
  8
0
  6
CONTINUOUS
 62
    80
  5
27A
 10
-6.406644
 20
-261.68952
 30
0.0
  0
VERTEX
  8
0
  6
CONTINUOUS
 62
    80
  5
27B
 10
-5.832111
 20
-261.572176
 30
0.0
  0
VERTEX
  8
0
  6
CONTINUOUS
 62
    80
  5
27C
 10
-5.255325
 20
-261.465346
 30
0.0
  0
VERTEX
  8
0
  6
CONTINUOUS
 62
    80
  5
27D
 10
-4.676509
 20
-261.369169
 30
0.0
  0
VERTEX
  8
0
  6
CONTINUOUS
 62
    80
  5
27E
 10
-4.09589
 20
-261.283784
 30
0.0
  0
VERTEX
  8
0
  6
CONTINUOUS
 62
    80
  5
27F
 10
-3.513694
 20
-261.209331
 30
0.0
  0
VERTEX
  8
0
  6
CONTINUOUS
 62
    80
  5
280
 10
-2.930144
 20
-261.14595
 30
0.0
  0
VERTEX
  8
0
  6
CONTINUOUS
 62
    80
  5
281
 10
-2.345468
 20
-261.09378
 30
0.0
  0
VERTEX
  8
0
  6
CONTINUOUS
 62
    80
  5
282
 10
-1.75989
 20
-261.052961
 30
0.0
  0
VERTEX
  8
0
  6
CONTINUOUS
 62
    80
  5
283
 10
-1.173636
 20
-261.023631
 30
0.0
  0
VERTEX
  8
0
  6
CONTINUOUS
 62
    80
  5
284
 10
-0.586931
 20
-261.005931
 30
0.0
  0
VERTEX
  8
0
  6
CONTINUOUS
 62
    80
  5
285
 10
0.0
 20
-261.0
 30
0.0
  0
VERTEX
  8
0
  6
CONTINUOUS
 62
    80
  5
286
 10
0.586931
 20
-261.005931
 30
0.0
  0
VERTEX
  8
0
  6
CONTINUOUS
 62
    80
  5
287
 10
1.173636
 20
-261.023631
 30
0.0
  0
VERTEX
  8
0
  6
CONTINUOUS
 62
    80
  5
288
 10
1.75989
 20
-261.052961
 30
0.0
  0
VERTEX
  8
0
  6
CONTINUOUS
 62
    80
  5
289
 10
2.345468
 20
-261.09378
 30
0.0
  0
VERTEX
  8
0
  6
CONTINUOUS
 62
    80
  5
28A
 10
2.930144
 20
-261.14595
 30
0.0
  0
VERTEX
  8
0
  6
CONTINUOUS
 62
    80
  5
28B
 10
3.513694
 20
-261.209331
 30
0.0
  0
VERTEX
  8
0
  6
CONTINUOUS
 62
    80
  5
28C
 10
4.09589
 20
-261.283784
 30
0.0
  0
VERTEX
  8
0
  6
CONTINUOUS
 62
    80
  5
28D
 10
4.676509
 20
-261.369169
 30
0.0
  0
VERTEX
  8
0
  6
CONTINUOUS
 62
    80
  5
28E
 10
5.255325
 20
-261.465346
 30
0.0
  0
VERTEX
  8
0
  6
CONTINUOUS
 62
    80
  5
28F
 10
5.832111
 20
-261.572176
 30
0.0
  0
VERTEX
  8
0
  6
CONTINUOUS
 62
    80
  5
290
 10
6.406644
 20
-261.68952
 30
0.0
  0
VERTEX
  8
0
  6
CONTINUOUS
 62
    80
  5
291
 10
6.978697
 20
-261.817239
 30
0.0
  0
VERTEX
  8
0
  6
CONTINUOUS
 62
    80
  5
292
 10
7.548045
 20
-261.955191
 30
0.0
  0
VERTEX
  8
0
  6
CONTINUOUS
 62
    80
  5
293
 10
8.114462
 20
-262.103239
 30
0.0
  0
VERTEX
  8
0
  6
CONTINUOUS
 62
    80
  5
294
 10
8.677724
 20
-262.261243
 30
0.0
  0
VERTEX
  8
0
  6
CONTINUOUS
 62
    80
  5
295
 10
9.237604
 20
-262.429062
 30
0.0
  0
SEQEND
  8
0
  6
CONTINUOUS
 62
    80
  5
296
  0
POLYLINE
  8
0
  6
CONTINUOUS
 62
    80
  5
106
 66
     1
 10
0.0
 20
0.0
 30
0.0
  0
VERTEX
  8
0
  6
CONTINUOUS
 62
    80
  5
297
 10
-18.475209
 20
-262.429062
 30
0.0
  0
VERTEX
  8
0
  6
CONTINUOUS
 62
    80
  5
298
 10
-18.215339
 20
-262.273262
 30
0.0
  0
VERTEX
  8
0
  6
CONTINUOUS
 62
    80
  5
299
 10
-17.949893
 20
-262.124179
 30
0.0
  0
VERTEX
  8
0
  6
CONTINUOUS
 62
    80
  5
29A
 10
-17.679245
 20
-261.982274
 30
0.0
  0
VERTEX
  8
0
  6
CONTINUOUS
 62
    80
  5
29B
 10
-17.403764
 20
-261.848007
 30
0.0
  0
VERTEX
  8
0
  6
CONTINUOUS
 62
    80
  5
29C
 10
-17.123823
 20
-261.721838
 30
0.0
  0
VERTEX
  8
0
  6
CONTINUOUS
 62
    80
  5
29D
 10
-16.839794
 20
-261.604227
 30
0.0
  0
VERTEX
  8
0
  6
CONTINUOUS
 62
    80
  5
29E
 10
-16.552048
 20
-261.495633
 30
0.0
  0
VERTEX
  8
0
  6
CONTINUOUS
 62
    80
  5
29F
 10
-16.260957
 20
-261.396518
 30
0.0
  0
VERTEX
  8
0
  6
CONTINUOUS
 62
    80
  5
2A0
 10
-15.966893
 20
-261.307341
 30
0.0
  0
VERTEX
  8
0
  6
CONTINUOUS
 62
    80
  5
2A1
 10
-15.670227
 20
-261.228561
 30
0.0
  0
VERTEX
  8
0
  6
CONTINUOUS
 62
    80
  5
2A2
 10
-15.37133
 20
-261.16064
 30
0.0
  0
VERTEX
  8
0
  6
CONTINUOUS
 62
    80
  5
2A3
 10
-15.070576
 20
-261.104036
 30
0.0
  0
VERTEX
  8
0
  6
CONTINUOUS
 62
    80
  5
2A4
 10
-14.768334
 20
-261.05921
 30
0.0
  0
VERTEX
  8
0
  6
CONTINUOUS
 62
    80
  5
2A5
 10
-14.464978
 20
-261.026622
 30
0.0
  0
VERTEX
  8
0
  6
CONTINUOUS
 62
    80
  5
2A6
 10
-14.160878
 20
-261.006732
 30
0.0
  0
VERTEX
  8
0
  6
CONTINUOUS
 62
    80
  5
2A7
 10
-13.856406
 20
-261.0
 30
0.0
  0
VERTEX
  8
0
  6
CONTINUOUS
 62
    80
  5
2A8
 10
-13.551935
 20
-261.006732
 30
0.0
  0
VERTEX
  8
0
  6
CONTINUOUS
 62
    80
  5
2A9
 10
-13.247835
 20
-261.026622
 30
0.0
  0
VERTEX
  8
0
  6
CONTINUOUS
 62
    80
  5
2AA
 10
-12.944479
 20
-261.05921
 30
0.0
  0
VERTEX
  8
0
  6
CONTINUOUS
 62
    80
  5
2AB
 10
-12.642237
 20
-261.104036
 30
0.0
  0
VERTEX
  8
0
  6
CONTINUOUS
 62
    80
  5
2AC
 10
-12.341483
 20
-261.16064
 30
0.0
  0
VERTEX
  8
0
  6
CONTINUOUS
 62
    80
  5
2AD
 10
-12.042586
 20
-261.228561
 30
0.0
  0
VERTEX
  8
0
  6
CONTINUOUS
 62
    80
  5
2AE
 10
-11.74592
 20
-261.307341
 30
0.0
  0
VERTEX
  8
0
  6
CONTINUOUS
 62
    80
  5
2AF
 10
-11.451856
 20
-261.396518
 30
0.0
  0
VERTEX
  8
0
  6
CONTINUOUS
 62
    80
  5
2B0
 10
-11.160765
 20
-261.495633
 30
0.0
  0
VERTEX
  8
0
  6
CONTINUOUS
 62
    80
  5
2B1
 10
-10.873019
 20
-261.604227
 30
0.0
  0
VERTEX
  8
0
  6
CONTINUOUS
 62
    80
  5
2B2
 10
-10.588989
 20
-261.721838
 30
0.0
  0
VERTEX
  8
0
  6
CONTINUOUS
 62
    80
  5
2B3
 10
-10.309049
 20
-261.848007
 30
0.0
  0
VERTEX
  8
0
  6
CONTINUOUS
 62
    80
  5
2B4
 10
-10.033568
 20
-261.982274
 30
0.0
  0
VERTEX
  8
0
  6
CONTINUOUS
 62
    80
  5
2B5
 10
-9.76292
 20
-262.124179
 30
0.0
  0
VERTEX
  8
0
  6
CONTINUOUS
 62
    80
  5
2B6
 10
-9.497474
 20
-262.273262
 30
0.0
  0
VERTEX
  8
0
  6
CONTINUOUS
 62
    80
  5
2B7
 10
-9.237604
 20
-262.429062
 30
0.0
  0
SEQEND
  8
0
  6
CONTINUOUS
 62
    80
  5
2B8
  0
POLYLINE
  8
0
  6
CONTINUOUS
 62
    80
  5
107
 66
     1
 10
0.0
 20
0.0
 30
0.0
  0
VERTEX
  8
0
  6
CONTINUOUS
 62
    80
  5
2B9
 10
-9.237604
 20
-272.570938
 30
0.0
  0
VERTEX
  8
0
  6
CONTINUOUS
 62
    80
  5
2BA
 10
-8.677724
 20
-272.738757
 30
0.0
  0
VERTEX
  8
0
  6
CONTINUOUS
 62
    80
  5
2BB
 10
-8.114462
 20
-272.896761
 30
0.0
  0
VERTEX
  8
0
  6
CONTINUOUS
 62
    80
  5
2BC
 10
-7.548045
 20
-273.044809
 30
0.0
  0
VERTEX
  8
0
  6
CONTINUOUS
 62
    80
  5
2BD
 10
-6.978697
 20
-273.182761
 30
0.0
  0
VERTEX
  8
0
  6
CONTINUOUS
 62
    80
  5
2BE
 10
-6.406644
 20
-273.31048
 30
0.0
  0
VERTEX
  8
0
  6
CONTINUOUS
 62
    80
  5
2BF
 10
-5.832111
 20
-273.427824
 30
0.0
  0
VERTEX
  8
0
  6
CONTINUOUS
 62
    80
  5
2C0
 10
-5.255325
 20
-273.534654
 30
0.0
  0
VERTEX
  8
0
  6
CONTINUOUS
 62
    80
  5
2C1
 10
-4.676509
 20
-273.630831
 30
0.0
  0
VERTEX
  8
0
  6
CONTINUOUS
 62
    80
  5
2C2
 10
-4.09589
 20
-273.716216
 30
0.0
  0
VERTEX
  8
0
  6
CONTINUOUS
 62
    80
  5
2C3
 10
-3.513694
 20
-273.790669
 30
0.0
  0
VERTEX
  8
0
  6
CONTINUOUS
 62
    80
  5
2C4
 10
-2.930144
 20
-273.85405
 30
0.0
  0
VERTEX
  8
0
  6
CONTINUOUS
 62
    80
  5
2C5
 10
-2.345468
 20
-273.90622
 30
0.0
  0
VERTEX
  8
0
  6
CONTINUOUS
 62
    80
  5
2C6
 10
-1.75989
 20
-273.947039
 30
0.0
  0
VERTEX
  8
0
  6
CONTINUOUS
 62
    80
  5
2C7
 10
-1.173636
 20
-273.976369
 30
0.0
  0
VERTEX
  8
0
  6
CONTINUOUS
 62
    80
  5
2C8
 10
-0.586931
 20
-273.994069
 30
0.0
  0
VERTEX
  8
0
  6
CONTINUOUS
 62
    80
  5
2C9
 10
0.0
 20
-274.0
 30
0.0
  0
VERTEX
  8
0
  6
CONTINUOUS
 62
    80
  5
2CA
 10
0.586931
 20
-273.994069
 30
0.0
  0
VERTEX
  8
0
  6
CONTINUOUS
 62
    80
  5
2CB
 10
1.173636
 20
-273.976369
 30
0.0
  0
VERTEX
  8
0
  6
CONTINUOUS
 62
    80
  5
2CC
 10
1.75989
 20
-273.947039
 30
0.0
  0
VERTEX
  8
0
  6
CONTINUOUS
 62
    80
  5
2CD
 10
2.345468
 20
-273.90622
 30
0.0
  0
VERTEX
  8
0
  6
CONTINUOUS
 62
    80
  5
2CE
 10
2.930144
 20
-273.85405
 30
0.0
  0
VERTEX
  8
0
  6
CONTINUOUS
 62
    80
  5
2CF
 10
3.513694
 20
-273.790669
 30
0.0
  0
VERTEX
  8
0
  6
CONTINUOUS
 62
    80
  5
2D0
 10
4.09589
 20
-273.716216
 30
0.0
  0
VERTEX
  8
0
  6
CONTINUOUS
 62
    80
  5
2D1
 10
4.676509
 20
-273.630831
 30
0.0
  0
VERTEX
  8
0
  6
CONTINUOUS
 62
    80
  5
2D2
 10
5.255325
 20
-273.534654
 30
0.0
  0
VERTEX
  8
0
  6
CONTINUOUS
 62
    80
  5
2D3
 10
5.832111
 20
-273.427824
 30
0.0
  0
VERTEX
  8
0
  6
CONTINUOUS
 62
    80
  5
2D4
 10
6.406644
 20
-273.31048
 30
0.0
  0
VERTEX
  8
0
  6
CONTINUOUS
 62
    80
  5
2D5
 10
6.978697
 20
-273.182761
 30
0.0
  0
VERTEX
  8
0
  6
CONTINUOUS
 62
    80
  5
2D6
 10
7.548045
 20
-273.044809
 30
0.0
  0
VERTEX
  8
0
  6
CONTINUOUS
 62
    80
  5
2D7
 10
8.114462
 20
-272.896761
 30
0.0
  0
VERTEX
  8
0
  6
CONTINUOUS
 62
    80
  5
2D8
 10
8.677724
 20
-272.738757
 30
0.0
  0
VERTEX
  8
0
  6
CONTINUOUS
 62
    80
  5
2D9
 10
9.237604
 20
-272.570938
 30
0.0
  0
SEQEND
  8
0
  6
CONTINUOUS
 62
    80
  5
2DA
  0
POLYLINE
  8
0
  6
CONTINUOUS
 62
    80
  5
108
 66
     1
 10
0.0
 20
0.0
 30
0.0
  0
VERTEX
  8
0
  6
CONTINUOUS
 62
    80
  5
2DB
 10
18.475209
 20
-272.570938
 30
0.0
  0
VERTEX
  8
0
  6
CONTINUOUS
 62
    80
  5
2DC
 10
18.215339
 20
-272.726738
 30
0.0
  0
VERTEX
  8
0
  6
CONTINUOUS
 62
    80
  5
2DD
 10
17.949893
 20
-272.875821
 30
0.0
  0
VERTEX
  8
0
  6
CONTINUOUS
 62
    80
  5
2DE
 10
17.679245
 20
-273.017726
 30
0.0
  0
VERTEX
  8
0
  6
CONTINUOUS
 62
    80
  5
2DF
 10
17.403764
 20
-273.151993
 30
0.0
  0
VERTEX
  8
0
  6
CONTINUOUS
 62
    80
  5
2E0
 10
17.123823
 20
-273.278162
 30
0.0
  0
VERTEX
  8
0
  6
CONTINUOUS
 62
    80
  5
2E1
 10
16.839794
 20
-273.395773
 30
0.0
  0
VERTEX
  8
0
  6
CONTINUOUS
 62
    80
  5
2E2
 10
16.552048
 20
-273.504367
 30
0.0
  0
VERTEX
  8
0
  6
CONTINUOUS
 62
    80
  5
2E3
 10
16.260957
 20
-273.603482
 30
0.0
  0
VERTEX
  8
0
  6
CONTINUOUS
 62
    80
  5
2E4
 10
15.966893
 20
-273.692659
 30
0.0
  0
VERTEX
  8
0
  6
CONTINUOUS
 62
    80
  5
2E5
 10
15.670227
 20
-273.771439
 30
0.0
  0
VERTEX
  8
0
  6
CONTINUOUS
 62
    80
  5
2E6
 10
15.37133
 20
-273.83936
 30
0.0
  0
VERTEX
  8
0
  6
CONTINUOUS
 62
    80
  5
2E7
 10
15.070576
 20
-273.895964
 30
0.0
  0
VERTEX
  8
0
  6
CONTINUOUS
 62
    80
  5
2E8
 10
14.768334
 20
-273.94079
 30
0.0
  0
VERTEX
  8
0
  6
CONTINUOUS
 62
    80
  5
2E9
 10
14.464978
 20
-273.973378
 30
0.0
  0
VERTEX
  8
0
  6
CONTINUOUS
 62
    80
  5
2EA
 10
14.160878
 20
-273.993268
 30
0.0
  0
VERTEX
  8
0
  6
CONTINUOUS
 62
    80
  5
2EB
 10
13.856406
 20
-274.0
 30
0.0
  0
VERTEX
  8
0
  6
CONTINUOUS
 62
    80
  5
2EC
 10
13.551935
 20
-273.993268
 30
0.0
  0
VERTEX
  8
0
  6
CONTINUOUS
 62
    80
  5
2ED
 10
13.247835
 20
-273.973378
 30
0.0
  0
VERTEX
  8
0
  6
CONTINUOUS
 62
    80
  5
2EE
 10
12.944479
 20
-273.94079
 30
0.0
  0
VERTEX
  8
0
  6
CONTINUOUS
 62
    80
  5
2EF
 10
12.642237
 20
-273.895964
 30
0.0
  0
VERTEX
  8
0
  6
CONTINUOUS
 62
    80
  5
2F0
 10
12.341483
 20
-273.83936
 30
0.0
  0
VERTEX
  8
0
  6
CONTINUOUS
 62
    80
  5
2F1
 10
12.042586
 20
-273.771439
 30
0.0
  0
VERTEX
  8
0
  6
CONTINUOUS
 62
    80
  5
2F2
 10
11.74592
 20
-273.692659
 30
0.0
  0
VERTEX
  8
0
  6
CONTINUOUS
 62
    80
  5
2F3
 10
11.451856
 20
-273.603482
 30
0.0
  0
VERTEX
  8
0
  6
CONTINUOUS
 62
    80
  5
2F4
 10
11.160765
 20
-273.504367
 30
0.0
  0
VERTEX
  8
0
  6
CONTINUOUS
 62
    80
  5
2F5
 10
10.873019
 20
-273.395773
 30
0.0
  0
VERTEX
  8
0
  6
CONTINUOUS
 62
    80
  5
2F6
 10
10.588989
 20
-273.278162
 30
0.0
  0
VERTEX
  8
0
  6
CONTINUOUS
 62
    80
  5
2F7
 10
10.309049
 20
-273.151993
 30
0.0
  0
VERTEX
  8
0
  6
CONTINUOUS
 62
    80
  5
2F8
 10
10.033568
 20
-273.017726
 30
0.0
  0
VERTEX
  8
0
  6
CONTINUOUS
 62
    80
  5
2F9
 10
9.76292
 20
-272.875821
 30
0.0
  0
VERTEX
  8
0
  6
CONTINUOUS
 62
    80
  5
2FA
 10
9.497474
 20
-272.726738
 30
0.0
  0
VERTEX
  8
0
  6
CONTINUOUS
 62
    80
  5
2FB
 10
9.237604
 20
-272.570938
 30
0.0
  0
SEQEND
  8
0
  6
CONTINUOUS
 62
    80
  5
2FC
  0
POLYLINE
  8
0
  6
CONTINUOUS
 62
    80
  5
109
 66
     1
 10
0.0
 20
0.0
 30
0.0
  0
VERTEX
  8
0
  6
CONTINUOUS
 62
    80
  5
2FD
 10
18.475209
 20
-262.429062
 30
0.0
  0
VERTEX
  8
0
  6
CONTINUOUS
 62
    80
  5
2FE
 10
18.215339
 20
-262.273262
 30
0.0
  0
VERTEX
  8
0
  6
CONTINUOUS
 62
    80
  5
2FF
 10
17.949893
 20
-262.124179
 30
0.0
  0
VERTEX
  8
0
  6
CONTINUOUS
 62
    80
  5
300
 10
17.679245
 20
-261.982274
 30
0.0
  0
VERTEX
  8
0
  6
CONTINUOUS
 62
    80
  5
301
 10
17.403764
 20
-261.848007
 30
0.0
  0
VERTEX
  8
0
  6
CONTINUOUS
 62
    80
  5
302
 10
17.123823
 20
-261.721838
 30
0.0
  0
VERTEX
  8
0
  6
CONTINUOUS
 62
    80
  5
303
 10
16.839794
 20
-261.604227
 30
0.0
  0
VERTEX
  8
0
  6
CONTINUOUS
 62
    80
  5
304
 10
16.552048
 20
-261.495633
 30
0.0
  0
VERTEX
  8
0
  6
CONTINUOUS
 62
    80
  5
305
 10
16.260957
 20
-261.396518
 30
0.0
  0
VERTEX
  8
0
  6
CONTINUOUS
 62
    80
  5
306
 10
15.966893
 20
-261.307341
 30
0.0
  0
VERTEX
  8
0
  6
CONTINUOUS
 62
    80
  5
307
 10
15.670227
 20
-261.228561
 30
0.0
  0
VERTEX
  8
0
  6
CONTINUOUS
 62
    80
  5
308
 10
15.37133
 20
-261.16064
 30
0.0
  0
VERTEX
  8
0
  6
CONTINUOUS
 62
    80
  5
309
 10
15.070576
 20
-261.104036
 30
0.0
  0
VERTEX
  8
0
  6
CONTINUOUS
 62
    80
  5
30A
 10
14.768334
 20
-261.05921
 30
0.0
  0
VERTEX
  8
0
  6
CONTINUOUS
 62
    80
  5
30B
 10
14.464978
 20
-261.026622
 30
0.0
  0
VERTEX
  8
0
  6
CONTINUOUS
 62
    80
  5
30C
 10
14.160878
 20
-261.006732
 30
0.0
  0
VERTEX
  8
0
  6
CONTINUOUS
 62
    80
  5
30D
 10
13.856406
 20
-261.0
 30
0.0
  0
VERTEX
  8
0
  6
CONTINUOUS
 62
    80
  5
30E
 10
13.551935
 20
-261.006732
 30
0.0
  0
VERTEX
  8
0
  6
CONTINUOUS
 62
    80
  5
30F
 10
13.247835
 20
-261.026622
 30
0.0
  0
VERTEX
  8
0
  6
CONTINUOUS
 62
    80
  5
310
 10
12.944479
 20
-261.05921
 30
0.0
  0
VERTEX
  8
0
  6
CONTINUOUS
 62
    80
  5
311
 10
12.642237
 20
-261.104036
 30
0.0
  0
VERTEX
  8
0
  6
CONTINUOUS
 62
    80
  5
312
 10
12.341483
 20
-261.16064
 30
0.0
  0
VERTEX
  8
0
  6
CONTINUOUS
 62
    80
  5
313
 10
12.042586
 20
-261.228561
 30
0.0
  0
VERTEX
  8
0
  6
CONTINUOUS
 62
    80
  5
314
 10
11.74592
 20
-261.307341
 30
0.0
  0
VERTEX
  8
0
  6
CONTINUOUS
 62
    80
  5
315
 10
11.451856
 20
-261.396518
 30
0.0
  0
VERTEX
  8
0
  6
CONTINUOUS
 62
    80
  5
316
 10
11.160765
 20
-261.495633
 30
0.0
  0
VERTEX
  8
0
  6
CONTINUOUS
 62
    80
  5
317
 10
10.873019
 20
-261.604227
 30
0.0
  0
VERTEX
  8
0
  6
CONTINUOUS
 62
    80
  5
318
 10
10.588989
 20
-261.721838
 30
0.0
  0
VERTEX
  8
0
  6
CONTINUOUS
 62
    80
  5
319
 10
10.309049
 20
-261.848007
 30
0.0
  0
VERTEX
  8
0
  6
CONTINUOUS
 62
    80
  5
31A
 10
10.033568
 20
-261.982274
 30
0.0
  0
VERTEX
  8
0
  6
CONTINUOUS
 62
    80
  5
31B
 10
9.76292
 20
-262.124179
 30
0.0
  0
VERTEX
  8
0
  6
CONTINUOUS
 62
    80
  5
31C
 10
9.497474
 20
-262.273262
 30
0.0
  0
VERTEX
  8
0
  6
CONTINUOUS
 62
    80
  5
31D
 10
9.237604
 20
-262.429062
 30
0.0
  0
SEQEND
  8
0
  6
CONTINUOUS
 62
    80
  5
31E
  0
POLYLINE
  8
0
  6
CONTINUOUS
 62
    80
  5
10A
 66
     1
 10
0.0
 20
0.0
 30
0.0
  0
VERTEX
  8
0
  6
CONTINUOUS
 62
    80
  5
31F
 10
18.475209
 20
-237.429062
 30
0.0
  0
VERTEX
  8
0
  6
CONTINUOUS
 62
    80
  5
320
 10
18.215339
 20
-237.273262
 30
0.0
  0
VERTEX
  8
0
  6
CONTINUOUS
 62
    80
  5
321
 10
17.949893
 20
-237.124179
 30
0.0
  0
VERTEX
  8
0
  6
CONTINUOUS
 62
    80
  5
322
 10
17.679245
 20
-236.982274
 30
0.0
  0
VERTEX
  8
0
  6
CONTINUOUS
 62
    80
  5
323
 10
17.403764
 20
-236.848007
 30
0.0
  0
VERTEX
  8
0
  6
CONTINUOUS
 62
    80
  5
324
 10
17.123823
 20
-236.721838
 30
0.0
  0
VERTEX
  8
0
  6
CONTINUOUS
 62
    80
  5
325
 10
16.839794
 20
-236.604227
 30
0.0
  0
VERTEX
  8
0
  6
CONTINUOUS
 62
    80
  5
326
 10
16.552048
 20
-236.495633
 30
0.0
  0
VERTEX
  8
0
  6
CONTINUOUS
 62
    80
  5
327
 10
16.260957
 20
-236.396518
 30
0.0
  0
VERTEX
  8
0
  6
CONTINUOUS
 62
    80
  5
328
 10
15.966893
 20
-236.307341
 30
0.0
  0
VERTEX
  8
0
  6
CONTINUOUS
 62
    80
  5
329
 10
15.670227
 20
-236.228561
 30
0.0
  0
VERTEX
  8
0
  6
CONTINUOUS
 62
    80
  5
32A
 10
15.37133
 20
-236.16064
 30
0.0
  0
VERTEX
  8
0
  6
CONTINUOUS
 62
    80
  5
32B
 10
15.070576
 20
-236.104036
 30
0.0
  0
VERTEX
  8
0
  6
CONTINUOUS
 62
    80
  5
32C
 10
14.768334
 20
-236.05921
 30
0.0
  0
VERTEX
  8
0
  6
CONTINUOUS
 62
    80
  5
32D
 10
14.464978
 20
-236.026622
 30
0.0
  0
VERTEX
  8
0
  6
CONTINUOUS
 62
    80
  5
32E
 10
14.160878
 20
-236.006732
 30
0.0
  0
VERTEX
  8
0
  6
CONTINUOUS
 62
    80
  5
32F
 10
13.856406
 20
-236.0
 30
0.0
  0
VERTEX
  8
0
  6
CONTINUOUS
 62
    80
  5
330
 10
13.551935
 20
-236.006732
 30
0.0
  0
VERTEX
  8
0
  6
CONTINUOUS
 62
    80
  5
331
 10
13.247835
 20
-236.026622
 30
0.0
  0
VERTEX
  8
0
  6
CONTINUOUS
 62
    80
  5
332
 10
12.944479
 20
-236.05921
 30
0.0
  0
VERTEX
  8
0
  6
CONTINUOUS
 62
    80
  5
333
 10
12.642237
 20
-236.104036
 30
0.0
  0
VERTEX
  8
0
  6
CONTINUOUS
 62
    80
  5
334
 10
12.341483
 20
-236.16064
 30
0.0
  0
VERTEX
  8
0
  6
CONTINUOUS
 62
    80
  5
335
 10
12.042586
 20
-236.228561
 30
0.0
  0
VERTEX
  8
0
  6
CONTINUOUS
 62
    80
  5
336
 10
11.74592
 20
-236.307341
 30
0.0
  0
VERTEX
  8
0
  6
CONTINUOUS
 62
    80
  5
337
 10
11.451856
 20
-236.396518
 30
0.0
  0
VERTEX
  8
0
  6
CONTINUOUS
 62
    80
  5
338
 10
11.160765
 20
-236.495633
 30
0.0
  0
VERTEX
  8
0
  6
CONTINUOUS
 62
    80
  5
339
 10
10.873019
 20
-236.604227
 30
0.0
  0
VERTEX
  8
0
  6
CONTINUOUS
 62
    80
  5
33A
 10
10.588989
 20
-236.721838
 30
0.0
  0
VERTEX
  8
0
  6
CONTINUOUS
 62
    80
  5
33B
 10
10.309049
 20
-236.848007
 30
0.0
  0
VERTEX
  8
0
  6
CONTINUOUS
 62
    80
  5
33C
 10
10.033568
 20
-236.982274
 30
0.0
  0
VERTEX
  8
0
  6
CONTINUOUS
 62
    80
  5
33D
 10
9.76292
 20
-237.124179
 30
0.0
  0
VERTEX
  8
0
  6
CONTINUOUS
 62
    80
  5
33E
 10
9.497474
 20
-237.273262
 30
0.0
  0
VERTEX
  8
0
  6
CONTINUOUS
 62
    80
  5
33F
 10
9.237604
 20
-237.429062
 30
0.0
  0
SEQEND
  8
0
  6
CONTINUOUS
 62
    80
  5
340
  0
POLYLINE
  8
0
  6
CONTINUOUS
 62
    80
  5
10B
 66
     1
 10
0.0
 20
0.0
 30
0.0
  0
VERTEX
  8
0
  6
CONTINUOUS
 62
    80
  5
341
 10
18.475209
 20
-247.570938
 30
0.0
  0
VERTEX
  8
0
  6
CONTINUOUS
 62
    80
  5
342
 10
18.215339
 20
-247.726738
 30
0.0
  0
VERTEX
  8
0
  6
CONTINUOUS
 62
    80
  5
343
 10
17.949893
 20
-247.875821
 30
0.0
  0
VERTEX
  8
0
  6
CONTINUOUS
 62
    80
  5
344
 10
17.679245
 20
-248.017726
 30
0.0
  0
VERTEX
  8
0
  6
CONTINUOUS
 62
    80
  5
345
 10
17.403764
 20
-248.151993
 30
0.0
  0
VERTEX
  8
0
  6
CONTINUOUS
 62
    80
  5
346
 10
17.123823
 20
-248.278162
 30
0.0
  0
VERTEX
  8
0
  6
CONTINUOUS
 62
    80
  5
347
 10
16.839794
 20
-248.395773
 30
0.0
  0
VERTEX
  8
0
  6
CONTINUOUS
 62
    80
  5
348
 10
16.552048
 20
-248.504367
 30
0.0
  0
VERTEX
  8
0
  6
CONTINUOUS
 62
    80
  5
349
 10
16.260957
 20
-248.603482
 30
0.0
  0
VERTEX
  8
0
  6
CONTINUOUS
 62
    80
  5
34A
 10
15.966893
 20
-248.692659
 30
0.0
  0
VERTEX
  8
0
  6
CONTINUOUS
 62
    80
  5
34B
 10
15.670227
 20
-248.771439
 30
0.0
  0
VERTEX
  8
0
  6
CONTINUOUS
 62
    80
  5
34C
 10
15.37133
 20
-248.83936
 30
0.0
  0
VERTEX
  8
0
  6
CONTINUOUS
 62
    80
  5
34D
 10
15.070576
 20
-248.895964
 30
0.0
  0
VERTEX
  8
0
  6
CONTINUOUS
 62
    80
  5
34E
 10
14.768334
 20
-248.94079
 30
0.0
  0
VERTEX
  8
0
  6
CONTINUOUS
 62
    80
  5
34F
 10
14.464978
 20
-248.973378
 30
0.0
  0
VERTEX
  8
0
  6
CONTINUOUS
 62
    80
  5
350
 10
14.160878
 20
-248.993268
 30
0.0
  0
VERTEX
  8
0
  6
CONTINUOUS
 62
    80
  5
351
 10
13.856406
 20
-249.0
 30
0.0
  0
VERTEX
  8
0
  6
CONTINUOUS
 62
    80
  5
352
 10
13.551935
 20
-248.993268
 30
0.0
  0
VERTEX
  8
0
  6
CONTINUOUS
 62
    80
  5
353
 10
13.247835
 20
-248.973378
 30
0.0
  0
VERTEX
  8
0
  6
CONTINUOUS
 62
    80
  5
354
 10
12.944479
 20
-248.94079
 30
0.0
  0
VERTEX
  8
0
  6
CONTINUOUS
 62
    80
  5
355
 10
12.642237
 20
-248.895964
 30
0.0
  0
VERTEX
  8
0
  6
CONTINUOUS
 62
    80
  5
356
 10
12.341483
 20
-248.83936
 30
0.0
  0
VERTEX
  8
0
  6
CONTINUOUS
 62
    80
  5
357
 10
12.042586
 20
-248.771439
 30
0.0
  0
VERTEX
  8
0
  6
CONTINUOUS
 62
    80
  5
358
 10
11.74592
 20
-248.692659
 30
0.0
  0
VERTEX
  8
0
  6
CONTINUOUS
 62
    80
  5
359
 10
11.451856
 20
-248.603482
 30
0.0
  0
VERTEX
  8
0
  6
CONTINUOUS
 62
    80
  5
35A
 10
11.160765
 20
-248.504367
 30
0.0
  0
VERTEX
  8
0
  6
CONTINUOUS
 62
    80
  5
35B
 10
10.873019
 20
-248.395773
 30
0.0
  0
VERTEX
  8
0
  6
CONTINUOUS
 62
    80
  5
35C
 10
10.588989
 20
-248.278162
 30
0.0
  0
VERTEX
  8
0
  6
CONTINUOUS
 62
    80
  5
35D
 10
10.309049
 20
-248.151993
 30
0.0
  0
VERTEX
  8
0
  6
CONTINUOUS
 62
    80
  5
35E
 10
10.033568
 20
-248.017726
 30
0.0
  0
VERTEX
  8
0
  6
CONTINUOUS
 62
    80
  5
35F
 10
9.76292
 20
-247.875821
 30
0.0
  0
VERTEX
  8
0
  6
CONTINUOUS
 62
    80
  5
360
 10
9.497474
 20
-247.726738
 30
0.0
  0
VERTEX
  8
0
  6
CONTINUOUS
 62
    80
  5
361
 10
9.237604
 20
-247.570938
 30
0.0
  0
SEQEND
  8
0
  6
CONTINUOUS
 62
    80
  5
362
  0
POLYLINE
  8
0
  6
CONTINUOUS
 62
    80
  5
10C
 66
     1
 10
0.0
 20
0.0
 30
0.0
  0
VERTEX
  8
0
  6
CONTINUOUS
 62
    80
  5
363
 10
-18.475209
 20
-247.570938
 30
0.0
  0
VERTEX
  8
0
  6
CONTINUOUS
 62
    80
  5
364
 10
-18.215339
 20
-247.726738
 30
0.0
  0
VERTEX
  8
0
  6
CONTINUOUS
 62
    80
  5
365
 10
-17.949893
 20
-247.875821
 30
0.0
  0
VERTEX
  8
0
  6
CONTINUOUS
 62
    80
  5
366
 10
-17.679245
 20
-248.017726
 30
0.0
  0
VERTEX
  8
0
  6
CONTINUOUS
 62
    80
  5
367
 10
-17.403764
 20
-248.151993
 30
0.0
  0
VERTEX
  8
0
  6
CONTINUOUS
 62
    80
  5
368
 10
-17.123823
 20
-248.278162
 30
0.0
  0
VERTEX
  8
0
  6
CONTINUOUS
 62
    80
  5
369
 10
-16.839794
 20
-248.395773
 30
0.0
  0
VERTEX
  8
0
  6
CONTINUOUS
 62
    80
  5
36A
 10
-16.552048
 20
-248.504367
 30
0.0
  0
VERTEX
  8
0
  6
CONTINUOUS
 62
    80
  5
36B
 10
-16.260957
 20
-248.603482
 30
0.0
  0
VERTEX
  8
0
  6
CONTINUOUS
 62
    80
  5
36C
 10
-15.966893
 20
-248.692659
 30
0.0
  0
VERTEX
  8
0
  6
CONTINUOUS
 62
    80
  5
36D
 10
-15.670227
 20
-248.771439
 30
0.0
  0
VERTEX
  8
0
  6
CONTINUOUS
 62
    80
  5
36E
 10
-15.37133
 20
-248.83936
 30
0.0
  0
VERTEX
  8
0
  6
CONTINUOUS
 62
    80
  5
36F
 10
-15.070576
 20
-248.895964
 30
0.0
  0
VERTEX
  8
0
  6
CONTINUOUS
 62
    80
  5
370
 10
-14.768334
 20
-248.94079
 30
0.0
  0
VERTEX
  8
0
  6
CONTINUOUS
 62
    80
  5
371
 10
-14.464978
 20
-248.973378
 30
0.0
  0
VERTEX
  8
0
  6
CONTINUOUS
 62
    80
  5
372
 10
-14.160878
 20
-248.993268
 30
0.0
  0
VERTEX
  8
0
  6
CONTINUOUS
 62
    80
  5
373
 10
-13.856406
 20
-249.0
 30
0.0
  0
VERTEX
  8
0
  6
CONTINUOUS
 62
    80
  5
374
 10
-13.551935
 20
-248.993268
 30
0.0
  0
VERTEX
  8
0
  6
CONTINUOUS
 62
    80
  5
375
 10
-13.247835
 20
-248.973378
 30
0.0
  0
VERTEX
  8
0
  6
CONTINUOUS
 62
    80
  5
376
 10
-12.944479
 20
-248.94079
 30
0.0
  0
VERTEX
  8
0
  6
CONTINUOUS
 62
    80
  5
377
 10
-12.642237
 20
-248.895964
 30
0.0
  0
VERTEX
  8
0
  6
CONTINUOUS
 62
    80
  5
378
 10
-12.341483
 20
-248.83936
 30
0.0
  0
VERTEX
  8
0
  6
CONTINUOUS
 62
    80
  5
379
 10
-12.042586
 20
-248.771439
 30
0.0
  0
VERTEX
  8
0
  6
CONTINUOUS
 62
    80
  5
37A
 10
-11.74592
 20
-248.692659
 30
0.0
  0
VERTEX
  8
0
  6
CONTINUOUS
 62
    80
  5
37B
 10
-11.451856
 20
-248.603482
 30
0.0
  0
VERTEX
  8
0
  6
CONTINUOUS
 62
    80
  5
37C
 10
-11.160765
 20
-248.504367
 30
0.0
  0
VERTEX
  8
0
  6
CONTINUOUS
 62
    80
  5
37D
 10
-10.873019
 20
-248.395773
 30
0.0
  0
VERTEX
  8
0
  6
CONTINUOUS
 62
    80
  5
37E
 10
-10.588989
 20
-248.278162
 30
0.0
  0
VERTEX
  8
0
  6
CONTINUOUS
 62
    80
  5
37F
 10
-10.309049
 20
-248.151993
 30
0.0
  0
VERTEX
  8
0
  6
CONTINUOUS
 62
    80
  5
380
 10
-10.033568
 20
-248.017726
 30
0.0
  0
VERTEX
  8
0
  6
CONTINUOUS
 62
    80
  5
381
 10
-9.76292
 20
-247.875821
 30
0.0
  0
VERTEX
  8
0
  6
CONTINUOUS
 62
    80
  5
382
 10
-9.497474
 20
-247.726738
 30
0.0
  0
VERTEX
  8
0
  6
CONTINUOUS
 62
    80
  5
383
 10
-9.237604
 20
-247.570938
 30
0.0
  0
SEQEND
  8
0
  6
CONTINUOUS
 62
    80
  5
384
  0
POLYLINE
  8
0
  6
CONTINUOUS
 62
    80
  5
10D
 66
     1
 10
0.0
 20
0.0
 30
0.0
  0
VERTEX
  8
0
  6
CONTINUOUS
 62
    80
  5
385
 10
-9.237604
 20
-247.570938
 30
0.0
  0
VERTEX
  8
0
  6
CONTINUOUS
 62
    80
  5
386
 10
-8.677724
 20
-247.738757
 30
0.0
  0
VERTEX
  8
0
  6
CONTINUOUS
 62
    80
  5
387
 10
-8.114462
 20
-247.896761
 30
0.0
  0
VERTEX
  8
0
  6
CONTINUOUS
 62
    80
  5
388
 10
-7.548045
 20
-248.044809
 30
0.0
  0
VERTEX
  8
0
  6
CONTINUOUS
 62
    80
  5
389
 10
-6.978697
 20
-248.182761
 30
0.0
  0
VERTEX
  8
0
  6
CONTINUOUS
 62
    80
  5
38A
 10
-6.406644
 20
-248.31048
 30
0.0
  0
VERTEX
  8
0
  6
CONTINUOUS
 62
    80
  5
38B
 10
-5.832111
 20
-248.427824
 30
0.0
  0
VERTEX
  8
0
  6
CONTINUOUS
 62
    80
  5
38C
 10
-5.255325
 20
-248.534654
 30
0.0
  0
VERTEX
  8
0
  6
CONTINUOUS
 62
    80
  5
38D
 10
-4.676509
 20
-248.630831
 30
0.0
  0
VERTEX
  8
0
  6
CONTINUOUS
 62
    80
  5
38E
 10
-4.09589
 20
-248.716216
 30
0.0
  0
VERTEX
  8
0
  6
CONTINUOUS
 62
    80
  5
38F
 10
-3.513694
 20
-248.790669
 30
0.0
  0
VERTEX
  8
0
  6
CONTINUOUS
 62
    80
  5
390
 10
-2.930144
 20
-248.85405
 30
0.0
  0
VERTEX
  8
0
  6
CONTINUOUS
 62
    80
  5
391
 10
-2.345468
 20
-248.90622
 30
0.0
  0
VERTEX
  8
0
  6
CONTINUOUS
 62
    80
  5
392
 10
-1.75989
 20
-248.947039
 30
0.0
  0
VERTEX
  8
0
  6
CONTINUOUS
 62
    80
  5
393
 10
-1.173636
 20
-248.976369
 30
0.0
  0
VERTEX
  8
0
  6
CONTINUOUS
 62
    80
  5
394
 10
-0.586931
 20
-248.994069
 30
0.0
  0
VERTEX
  8
0
  6
CONTINUOUS
 62
    80
  5
395
 10
0.0
 20
-249.0
 30
0.0
  0
VERTEX
  8
0
  6
CONTINUOUS
 62
    80
  5
396
 10
0.586931
 20
-248.994069
 30
0.0
  0
VERTEX
  8
0
  6
CONTINUOUS
 62
    80
  5
397
 10
1.173636
 20
-248.976369
 30
0.0
  0
VERTEX
  8
0
  6
CONTINUOUS
 62
    80
  5
398
 10
1.75989
 20
-248.947039
 30
0.0
  0
VERTEX
  8
0
  6
CONTINUOUS
 62
    80
  5
399
 10
2.345468
 20
-248.90622
 30
0.0
  0
VERTEX
  8
0
  6
CONTINUOUS
 62
    80
  5
39A
 10
2.930144
 20
-248.85405
 30
0.0
  0
VERTEX
  8
0
  6
CONTINUOUS
 62
    80
  5
39B
 10
3.513694
 20
-248.790669
 30
0.0
  0
VERTEX
  8
0
  6
CONTINUOUS
 62
    80
  5
39C
 10
4.09589
 20
-248.716216
 30
0.0
  0
VERTEX
  8
0
  6
CONTINUOUS
 62
    80
  5
39D
 10
4.676509
 20
-248.630831
 30
0.0
  0
VERTEX
  8
0
  6
CONTINUOUS
 62
    80
  5
39E
 10
5.255325
 20
-248.534654
 30
0.0
  0
VERTEX
  8
0
  6
CONTINUOUS
 62
    80
  5
39F
 10
5.832111
 20
-248.427824
 30
0.0
  0
VERTEX
  8
0
  6
CONTINUOUS
 62
    80
  5
3A0
 10
6.406644
 20
-248.31048
 30
0.0
  0
VERTEX
  8
0
  6
CONTINUOUS
 62
    80
  5
3A1
 10
6.978697
 20
-248.182761
 30
0.0
  0
VERTEX
  8
0
  6
CONTINUOUS
 62
    80
  5
3A2
 10
7.548045
 20
-248.044809
 30
0.0
  0
VERTEX
  8
0
  6
CONTINUOUS
 62
    80
  5
3A3
 10
8.114462
 20
-247.896761
 30
0.0
  0
VERTEX
  8
0
  6
CONTINUOUS
 62
    80
  5
3A4
 10
8.677724
 20
-247.738757
 30
0.0
  0
VERTEX
  8
0
  6
CONTINUOUS
 62
    80
  5
3A5
 10
9.237604
 20
-247.570938
 30
0.0
  0
SEQEND
  8
0
  6
CONTINUOUS
 62
    80
  5
3A6
  0
POLYLINE
  8
0
  6
CONTINUOUS
 62
    80
  5
10E
 66
     1
 10
0.0
 20
0.0
 30
0.0
  0
VERTEX
  8
0
  6
CONTINUOUS
 62
    80
  5
3A7
 10
-9.237604
 20
-237.429062
 30
0.0
  0
VERTEX
  8
0
  6
CONTINUOUS
 62
    80
  5
3A8
 10
-8.677724
 20
-237.261243
 30
0.0
  0
VERTEX
  8
0
  6
CONTINUOUS
 62
    80
  5
3A9
 10
-8.114462
 20
-237.103239
 30
0.0
  0
VERTEX
  8
0
  6
CONTINUOUS
 62
    80
  5
3AA
 10
-7.548045
 20
-236.955191
 30
0.0
  0
VERTEX
  8
0
  6
CONTINUOUS
 62
    80
  5
3AB
 10
-6.978697
 20
-236.817239
 30
0.0
  0
VERTEX
  8
0
  6
CONTINUOUS
 62
    80
  5
3AC
 10
-6.406644
 20
-236.68952
 30
0.0
  0
VERTEX
  8
0
  6
CONTINUOUS
 62
    80
  5
3AD
 10
-5.832111
 20
-236.572176
 30
0.0
  0
VERTEX
  8
0
  6
CONTINUOUS
 62
    80
  5
3AE
 10
-5.255325
 20
-236.465346
 30
0.0
  0
VERTEX
  8
0
  6
CONTINUOUS
 62
    80
  5
3AF
 10
-4.676509
 20
-236.369169
 30
0.0
  0
VERTEX
  8
0
  6
CONTINUOUS
 62
    80
  5
3B0
 10
-4.09589
 20
-236.283784
 30
0.0
  0
VERTEX
  8
0
  6
CONTINUOUS
 62
    80
  5
3B1
 10
-3.513694
 20
-236.209331
 30
0.0
  0
VERTEX
  8
0
  6
CONTINUOUS
 62
    80
  5
3B2
 10
-2.930144
 20
-236.14595
 30
0.0
  0
VERTEX
  8
0
  6
CONTINUOUS
 62
    80
  5
3B3
 10
-2.345468
 20
-236.09378
 30
0.0
  0
VERTEX
  8
0
  6
CONTINUOUS
 62
    80
  5
3B4
 10
-1.75989
 20
-236.052961
 30
0.0
  0
VERTEX
  8
0
  6
CONTINUOUS
 62
    80
  5
3B5
 10
-1.173636
 20
-236.023631
 30
0.0
  0
VERTEX
  8
0
  6
CONTINUOUS
 62
    80
  5
3B6
 10
-0.586931
 20
-236.005931
 30
0.0
  0
VERTEX
  8
0
  6
CONTINUOUS
 62
    80
  5
3B7
 10
0.0
 20
-236.0
 30
0.0
  0
VERTEX
  8
0
  6
CONTINUOUS
 62
    80
  5
3B8
 10
0.586931
 20
-236.005931
 30
0.0
  0
VERTEX
  8
0
  6
CONTINUOUS
 62
    80
  5
3B9
 10
1.173636
 20
-236.023631
 30
0.0
  0
VERTEX
  8
0
  6
CONTINUOUS
 62
    80
  5
3BA
 10
1.75989
 20
-236.052961
 30
0.0
  0
VERTEX
  8
0
  6
CONTINUOUS
 62
    80
  5
3BB
 10
2.345468
 20
-236.09378
 30
0.0
  0
VERTEX
  8
0
  6
CONTINUOUS
 62
    80
  5
3BC
 10
2.930144
 20
-236.14595
 30
0.0
  0
VERTEX
  8
0
  6
CONTINUOUS
 62
    80
  5
3BD
 10
3.513694
 20
-236.209331
 30
0.0
  0
VERTEX
  8
0
  6
CONTINUOUS
 62
    80
  5
3BE
 10
4.09589
 20
-236.283784
 30
0.0
  0
VERTEX
  8
0
  6
CONTINUOUS
 62
    80
  5
3BF
 10
4.676509
 20
-236.369169
 30
0.0
  0
VERTEX
  8
0
  6
CONTINUOUS
 62
    80
  5
3C0
 10
5.255325
 20
-236.465346
 30
0.0
  0
VERTEX
  8
0
  6
CONTINUOUS
 62
    80
  5
3C1
 10
5.832111
 20
-236.572176
 30
0.0
  0
VERTEX
  8
0
  6
CONTINUOUS
 62
    80
  5
3C2
 10
6.406644
 20
-236.68952
 30
0.0
  0
VERTEX
  8
0
  6
CONTINUOUS
 62
    80
  5
3C3
 10
6.978697
 20
-236.817239
 30
0.0
  0
VERTEX
  8
0
  6
CONTINUOUS
 62
    80
  5
3C4
 10
7.548045
 20
-236.955191
 30
0.0
  0
VERTEX
  8
0
  6
CONTINUOUS
 62
    80
  5
3C5
 10
8.114462
 20
-237.103239
 30
0.0
  0
VERTEX
  8
0
  6
CONTINUOUS
 62
    80
  5
3C6
 10
8.677724
 20
-237.261243
 30
0.0
  0
VERTEX
  8
0
  6
CONTINUOUS
 62
    80
  5
3C7
 10
9.237604
 20
-237.429062
 30
0.0
  0
SEQEND
  8
0
  6
CONTINUOUS
 62
    80
  5
3C8
  0
POLYLINE
  8
0
  6
CONTINUOUS
 62
    80
  5
10F
 66
     1
 10
0.0
 20
0.0
 30
0.0
  0
VERTEX
  8
0
  6
CONTINUOUS
 62
    80
  5
3C9
 10
-18.475209
 20
-237.429062
 30
0.0
  0
VERTEX
  8
0
  6
CONTINUOUS
 62
    80
  5
3CA
 10
-18.215339
 20
-237.273262
 30
0.0
  0
VERTEX
  8
0
  6
CONTINUOUS
 62
    80
  5
3CB
 10
-17.949893
 20
-237.124179
 30
0.0
  0
VERTEX
  8
0
  6
CONTINUOUS
 62
    80
  5
3CC
 10
-17.679245
 20
-236.982274
 30
0.0
  0
VERTEX
  8
0
  6
CONTINUOUS
 62
    80
  5
3CD
 10
-17.403764
 20
-236.848007
 30
0.0
  0
VERTEX
  8
0
  6
CONTINUOUS
 62
    80
  5
3CE
 10
-17.123823
 20
-236.721838
 30
0.0
  0
VERTEX
  8
0
  6
CONTINUOUS
 62
    80
  5
3CF
 10
-16.839794
 20
-236.604227
 30
0.0
  0
VERTEX
  8
0
  6
CONTINUOUS
 62
    80
  5
3D0
 10
-16.552048
 20
-236.495633
 30
0.0
  0
VERTEX
  8
0
  6
CONTINUOUS
 62
    80
  5
3D1
 10
-16.260957
 20
-236.396518
 30
0.0
  0
VERTEX
  8
0
  6
CONTINUOUS
 62
    80
  5
3D2
 10
-15.966893
 20
-236.307341
 30
0.0
  0
VERTEX
  8
0
  6
CONTINUOUS
 62
    80
  5
3D3
 10
-15.670227
 20
-236.228561
 30
0.0
  0
VERTEX
  8
0
  6
CONTINUOUS
 62
    80
  5
3D4
 10
-15.37133
 20
-236.16064
 30
0.0
  0
VERTEX
  8
0
  6
CONTINUOUS
 62
    80
  5
3D5
 10
-15.070576
 20
-236.104036
 30
0.0
  0
VERTEX
  8
0
  6
CONTINUOUS
 62
    80
  5
3D6
 10
-14.768334
 20
-236.05921
 30
0.0
  0
VERTEX
  8
0
  6
CONTINUOUS
 62
    80
  5
3D7
 10
-14.464978
 20
-236.026622
 30
0.0
  0
VERTEX
  8
0
  6
CONTINUOUS
 62
    80
  5
3D8
 10
-14.160878
 20
-236.006732
 30
0.0
  0
VERTEX
  8
0
  6
CONTINUOUS
 62
    80
  5
3D9
 10
-13.856406
 20
-236.0
 30
0.0
  0
VERTEX
  8
0
  6
CONTINUOUS
 62
    80
  5
3DA
 10
-13.551935
 20
-236.006732
 30
0.0
  0
VERTEX
  8
0
  6
CONTINUOUS
 62
    80
  5
3DB
 10
-13.247835
 20
-236.026622
 30
0.0
  0
VERTEX
  8
0
  6
CONTINUOUS
 62
    80
  5
3DC
 10
-12.944479
 20
-236.05921
 30
0.0
  0
VERTEX
  8
0
  6
CONTINUOUS
 62
    80
  5
3DD
 10
-12.642237
 20
-236.104036
 30
0.0
  0
VERTEX
  8
0
  6
CONTINUOUS
 62
    80
  5
3DE
 10
-12.341483
 20
-236.16064
 30
0.0
  0
VERTEX
  8
0
  6
CONTINUOUS
 62
    80
  5
3DF
 10
-12.042586
 20
-236.228561
 30
0.0
  0
VERTEX
  8
0
  6
CONTINUOUS
 62
    80
  5
3E0
 10
-11.74592
 20
-236.307341
 30
0.0
  0
VERTEX
  8
0
  6
CONTINUOUS
 62
    80
  5
3E1
 10
-11.451856
 20
-236.396518
 30
0.0
  0
VERTEX
  8
0
  6
CONTINUOUS
 62
    80
  5
3E2
 10
-11.160765
 20
-236.495633
 30
0.0
  0
VERTEX
  8
0
  6
CONTINUOUS
 62
    80
  5
3E3
 10
-10.873019
 20
-236.604227
 30
0.0
  0
VERTEX
  8
0
  6
CONTINUOUS
 62
    80
  5
3E4
 10
-10.588989
 20
-236.721838
 30
0.0
  0
VERTEX
  8
0
  6
CONTINUOUS
 62
    80
  5
3E5
 10
-10.309049
 20
-236.848007
 30
0.0
  0
VERTEX
  8
0
  6
CONTINUOUS
 62
    80
  5
3E6
 10
-10.033568
 20
-236.982274
 30
0.0
  0
VERTEX
  8
0
  6
CONTINUOUS
 62
    80
  5
3E7
 10
-9.76292
 20
-237.124179
 30
0.0
  0
VERTEX
  8
0
  6
CONTINUOUS
 62
    80
  5
3E8
 10
-9.497474
 20
-237.273262
 30
0.0
  0
VERTEX
  8
0
  6
CONTINUOUS
 62
    80
  5
3E9
 10
-9.237604
 20
-237.429062
 30
0.0
  0
SEQEND
  8
0
  6
CONTINUOUS
 62
    80
  5
3EA
  0
LINE
  8
0
  6
CONTINUOUS
 62
     3
  5
110
 10
-18.5
 20
-261.0
 30
0.0
 11
18.5
 21
-261.0
 31
0.0
  0
LINE
  8
0
  6
CONTINUOUS
 62
    80
  5
111
 10
9.237604
 20
-262.429062
 30
0.0
 11
9.237604
 21
-272.570938
 31
0.0
  0
LINE
  8
0
  6
CONTINUOUS
 62
     3
  5
112
 10
18.5
 20
-258.0
 30
0.0
 11
18.5
 21
-261.0
 31
0.0
  0
LINE
  8
0
  6
CONTINUOUS
 62
     3
  5
113
 10
-18.475209
 20
-262.429062
 30
0.0
 11
-18.475209
 21
-272.570938
 31
0.0
  0
LINE
  8
0
  6
CONTINUOUS
 62
     3
  5
114
 10
-18.475209
 20
-272.570938
 30
0.0
 11
-16.0
 21
-274.0
 31
0.0
  0
LINE
  8
0
  6
CONTINUOUS
 62
     3
  5
115
 10
-16.0
 20
-274.0
 30
0.0
 11
16.0
 21
-274.0
 31
0.0
  0
LINE
  8
0
  6
CONTINUOUS
 62
     3
  5
116
 10
-18.5
 20
-258.0
 30
0.0
 11
-18.5
 21
-261.0
 31
0.0
  0
LINE
  8
0
  6
CONTINUOUS
 62
    80
  5
117
 10
-9.237604
 20
-262.429062
 30
0.0
 11
-9.237604
 21
-272.570938
 31
0.0
  0
LINE
  8
0
  6
CONTINUOUS
 62
     3
  5
118
 10
-18.475209
 20
-262.429062
 30
0.0
 11
-16.0
 21
-261.0
 31
0.0
  0
LINE
  8
0
  6
CONTINUOUS
 62
     3
  5
119
 10
18.475209
 20
-262.429062
 30
0.0
 11
16.0
 21
-261.0
 31
0.0
  0
LINE
  8
0
  6
CONTINUOUS
 62
     3
  5
11A
 10
18.475209
 20
-272.570938
 30
0.0
 11
16.0
 21
-274.0
 31
0.0
  0
LINE
  8
0
  6
CONTINUOUS
 62
     3
  5
11B
 10
18.475209
 20
-262.429062
 30
0.0
 11
18.475209
 21
-272.570938
 31
0.0
  0
LINE
  8
0
  6
CONTINUOUS
 62
     3
  5
11C
 10
18.5
 20
-254.0
 30
0.0
 11
18.5
 21
-249.0
 31
0.0
  0
LINE
  8
0
  6
CONTINUOUS
 62
     3
  5
11D
 10
-18.5
 20
-254.0
 30
0.0
 11
-18.5
 21
-249.0
 31
0.0
  0
LINE
  8
0
  6
CONTINUOUS
 62
     3
  5
11E
 10
18.475209
 20
-247.570938
 30
0.0
 11
18.475209
 21
-237.429062
 31
0.0
  0
LINE
  8
0
  6
CONTINUOUS
 62
     3
  5
11F
 10
18.475209
 20
-237.429062
 30
0.0
 11
16.0
 21
-236.0
 31
0.0
  0
LINE
  8
0
  6
CONTINUOUS
 62
     3
  5
120
 10
18.475209
 20
-247.570938
 30
0.0
 11
16.0
 21
-249.0
 31
0.0
  0
LINE
  8
0
  6
CONTINUOUS
 62
     3
  5
121
 10
-18.475209
 20
-247.570938
 30
0.0
 11
-16.0
 21
-249.0
 31
0.0
  0
LINE
  8
0
  6
CONTINUOUS
 62
    80
  5
122
 10
9.237604
 20
-247.570938
 30
0.0
 11
9.237604
 21
-237.429062
 31
0.0
  0
LINE
  8
0
  6
CONTINUOUS
 62
     3
  5
123
 10
-18.475209
 20
-237.429062
 30
0.0
 11
-16.0
 21
-236.0
 31
0.0
  0
LINE
  8
0
  6
CONTINUOUS
 62
     3
  5
124
 10
-18.475209
 20
-247.570938
 30
0.0
 11
-18.475209
 21
-237.429062
 31
0.0
  0
LINE
  8
0
  6
CONTINUOUS
 62
    80
  5
125
 10
-9.237604
 20
-247.570938
 30
0.0
 11
-9.237604
 21
-237.429062
 31
0.0
  0
LINE
  8
0
  6
CONTINUOUS
 62
    80
  5
126
 10
-9.5
 20
-282.0
 30
0.0
 11
-9.5
 21
-274.0
 31
0.0
  0
LINE
  8
0
  6
CONTINUOUS
 62
    80
  5
127
 10
9.5
 20
-282.0
 30
0.0
 11
9.5
 21
-274.0
 31
0.0
  0
LINE
  8
0
  6
CONTINUOUS
 62
    80
  5
128
 10
-11.0
 20
-280.5
 30
0.0
 11
11.0
 21
-280.5
 31
0.0
  0
LINE
  8
0
  6
CONTINUOUS
 62
     3
  5
129
 10
-9.5
 20
-282.0
 30
0.0
 11
-11.0
 21
-280.5
 31
0.0
  0
LINE
  8
0
  6
CONTINUOUS
 62
     3
  5
12A
 10
9.5
 20
-282.0
 30
0.0
 11
11.0
 21
-280.5
 31
0.0
  0
LINE
  8
0
  6
CONTINUOUS
 62
     3
  5
12B
 10
-11.0
 20
-280.5
 30
0.0
 11
-11.0
 21
-274.0
 31
0.0
  0
LINE
  8
0
  6
CONTINUOUS
 62
     3
  5
12C
 10
11.0
 20
-280.5
 30
0.0
 11
11.0
 21
-274.0
 31
0.0
  0
LINE
  8
0
  6
CONTINUOUS
 62
     3
  5
12D
 10
-16.0
 20
-236.0
 30
0.0
 11
16.0
 21
-236.0
 31
0.0
  0
LINE
  8
0
  6
CONTINUOUS
 62
     3
  5
12E
 10
-18.5
 20
-252.0
 30
0.0
 11
18.5
 21
-252.0
 31
0.0
  0
LINE
  8
0
  6
CONTINUOUS
 62
     3
  5
12F
 10
-18.5
 20
-249.0
 30
0.0
 11
18.5
 21
-249.0
 31
0.0
  0
ARC
  8
0
  6
CONTINUOUS
 62
     3
  5
130
 10
0.0
 20
-284.0
 30
0.0
 40
5.5
 50
213.055731
 51
326.944269
  0
LINE
  8
0
  6
CONTINUOUS
 62
     3
  5
131
 10
-11.0
 20
-236.0
 30
0.0
 11
-11.0
 21
0.0
 31
0.0
  0
LINE
  8
0
  6
CONTINUOUS
 62
     3
  5
132
 10
11.0
 20
-236.0
 30
0.0
 11
11.0
 21
0.0
 31
0.0
  0
ENDBLK
  8
0
  5
133
  0
BLOCK
  8
0
  5
134
  2
MS_7
 70
     0
 10
0.0
 20
0.0
 30
0.0
  3
MS_7
  0
LINE
  8
0
  6
CONTINUOUS
 62
     3
  5
135
 10
-11.0
 20
0.0
 30
0.0
 11
11.0
 21
0.0
 31
0.0
  0
LINE
  8
0
  6
CONTINUOUS
 62
    50
  5
136
 10
16.0
 20
-254.0
 30
0.0
 11
16.0
 21
-258.0
 31
0.0
  0
LINE
  8
0
  6
CENTER
 62
    50
  5
137
 10
-53.0
 20
-319.0
 30
0.0
 11
-63.5
 21
-319.0
 31
0.0
  0
LINE
  8
0
  6
CONTINUOUS
 62
    50
  5
138
 10
-52.0
 20
-254.0
 30
0.0
 11
16.0
 21
-254.0
 31
0.0
  0
LINE
  8
0
  6
CONTINUOUS
 62
    50
  5
139
 10
16.0
 20
-258.0
 30
0.0
 11
-18.5
 21
-258.0
 31
0.0
  0
LINE
  8
0
  6
CONTINUOUS
 62
    50
  5
13A
 10
-60.0
 20
-262.0
 30
0.0
 11
-60.0
 21
-335.0
 31
0.0
  0
LINE
  8
0
  6
CONTINUOUS
 62
    50
  5
13B
 10
-56.0
 20
-263.0
 30
0.0
 11
-56.0
 21
-335.0
 31
0.0
  0
LINE
  8
0
  6
CONTINUOUS
 62
    50
  5
13C
 10
-56.0
 20
-335.0
 30
0.0
 11
-60.0
 21
-335.0
 31
0.0
  0
ARC
  8
0
  6
CONTINUOUS
 62
    50
  5
13D
 10
-51.0
 20
-263.0
 30
0.0
 40
5.0
 50
90.0
 51
180.0
  0
ARC
  8
0
  6
CONTINUOUS
 62
    50
  5
13E
 10
-52.0
 20
-262.0
 30
0.0
 40
8.0
 50
90.0
 51
180.0
  0
LINE
  8
0
  6
CONTINUOUS
 62
     3
  5
13F
 10
-51.0
 20
-258.0
 30
0.0
 11
18.5
 21
-258.0
 31
0.0
  0
LINE
  8
0
  6
CONTINUOUS
 62
     3
  5
140
 10
-18.5
 20
-254.0
 30
0.0
 11
18.5
 21
-254.0
 31
0.0
  0
LINE
  8
0
  6
CONTINUOUS
 62
     3
  5
141
 10
10.0
 20
-285.0
 30
0.0
 11
10.0
 21
-284.0
 31
0.0
  0
LINE
  8
0
  6
CONTINUOUS
 62
     3
  5
142
 10
9.0
 20
-286.0
 30
0.0
 11
9.0
 21
-287.0
 31
0.0
  0
LINE
  8
0
  6
CONTINUOUS
 62
     3
  5
143
 10
11.85
 20
-283.0
 30
0.0
 11
11.85
 21
-283.3
 31
0.0
  0
LINE
  8
0
  6
CONTINUOUS
 62
     3
  5
144
 10
10.0
 20
-284.0
 30
0.0
 11
11.85
 21
-283.3
 31
0.0
  0
LINE
  8
0
  6
CONTINUOUS
 62
     3
  5
145
 10
10.0
 20
-283.0
 30
0.0
 11
10.0
 21
-282.0
 31
0.0
  0
ARC
  8
0
  6
CONTINUOUS
 62
     3
  5
146
 10
9.0
 20
-285.0
 30
0.0
 40
1.0
 50
270.0
 51
0.0
  0
LINE
  8
0
  6
CONTINUOUS
 62
     3
  5
147
 10
-10.0
 20
-282.0
 30
0.0
 11
10.0
 21
-282.0
 31
0.0
  0
LINE
  8
0
  6
CONTINUOUS
 62
     3
  5
148
 10
-9.0
 20
-286.0
 30
0.0
 11
9.0
 21
-286.0
 31
0.0
  0
LINE
  8
0
  6
CONTINUOUS
 62
     3
  5
149
 10
-11.85
 20
-283.3
 30
0.0
 11
11.85
 21
-283.3
 31
0.0
  0
ARC
  8
0
  6
CONTINUOUS
 62
     3
  5
14A
 10
-9.0
 20
-285.0
 30
0.0
 40
1.0
 50
180.0
 51
270.0
  0
LINE
  8
0
  6
CONTINUOUS
 62
     3
  5
14B
 10
-10.0
 20
-283.0
 30
0.0
 11
-10.0
 21
-282.0
 31
0.0
  0
LINE
  8
0
  6
CONTINUOUS
 62
     3
  5
14C
 10
-10.0
 20
-284.0
 30
0.0
 11
-11.85
 21
-283.3
 31
0.0
  0
LINE
  8
0
  6
CONTINUOUS
 62
     3
  5
14D
 10
-11.85
 20
-283.0
 30
0.0
 11
-11.85
 21
-283.3
 31
0.0
  0
LINE
  8
0
  6
CONTINUOUS
 62
     3
  5
14E
 10
-9.0
 20
-286.0
 30
0.0
 11
-9.0
 21
-287.0
 31
0.0
  0
LINE
  8
0
  6
CONTINUOUS
 62
     3
  5
14F
 10
-11.85
 20
-283.0
 30
0.0
 11
11.85
 21
-283.0
 31
0.0
  0
LINE
  8
0
  6
CONTINUOUS
 62
     3
  5
150
 10
-10.0
 20
-285.0
 30
0.0
 11
-10.0
 21
-284.0
 31
0.0
  0
LINE
  8
0
  6
CONTINUOUS
 62
     3
  5
151
 10
-9.0
 20
-287.0
 30
0.0
 11
9.0
 21
-287.0
 31
0.0
  0
LINE
  8
0
  6
CONTINUOUS
 62
     3
  5
152
 10
-10.0
 20
-284.0
 30
0.0
 11
10.0
 21
-284.0
 31
0.0
  0
POLYLINE
  8
0
  6
CONTINUOUS
 62
     3
  5
153
 66
     1
 10
0.0
 20
0.0
 30
0.0
  0
VERTEX
  8
0
  6
CONTINUOUS
 62
     3
  5
3EB
 10
-18.475209
 20
-272.570938
 30
0.0
  0
VERTEX
  8
0
  6
CONTINUOUS
 62
     3
  5
3EC
 10
-18.215339
 20
-272.726738
 30
0.0
  0
VERTEX
  8
0
  6
CONTINUOUS
 62
     3
  5
3ED
 10
-17.949893
 20
-272.875821
 30
0.0
  0
VERTEX
  8
0
  6
CONTINUOUS
 62
     3
  5
3EE
 10
-17.679245
 20
-273.017726
 30
0.0
  0
VERTEX
  8
0
  6
CONTINUOUS
 62
     3
  5
3EF
 10
-17.403764
 20
-273.151993
 30
0.0
  0
VERTEX
  8
0
  6
CONTINUOUS
 62
     3
  5
3F0
 10
-17.123823
 20
-273.278162
 30
0.0
  0
VERTEX
  8
0
  6
CONTINUOUS
 62
     3
  5
3F1
 10
-16.839794
 20
-273.395773
 30
0.0
  0
VERTEX
  8
0
  6
CONTINUOUS
 62
     3
  5
3F2
 10
-16.552048
 20
-273.504367
 30
0.0
  0
VERTEX
  8
0
  6
CONTINUOUS
 62
     3
  5
3F3
 10
-16.260957
 20
-273.603482
 30
0.0
  0
VERTEX
  8
0
  6
CONTINUOUS
 62
     3
  5
3F4
 10
-15.966893
 20
-273.692659
 30
0.0
  0
VERTEX
  8
0
  6
CONTINUOUS
 62
     3
  5
3F5
 10
-15.670227
 20
-273.771439
 30
0.0
  0
VERTEX
  8
0
  6
CONTINUOUS
 62
     3
  5
3F6
 10
-15.37133
 20
-273.83936
 30
0.0
  0
VERTEX
  8
0
  6
CONTINUOUS
 62
     3
  5
3F7
 10
-15.070576
 20
-273.895964
 30
0.0
  0
VERTEX
  8
0
  6
CONTINUOUS
 62
     3
  5
3F8
 10
-14.768334
 20
-273.94079
 30
0.0
  0
VERTEX
  8
0
  6
CONTINUOUS
 62
     3
  5
3F9
 10
-14.464978
 20
-273.973378
 30
0.0
  0
VERTEX
  8
0
  6
CONTINUOUS
 62
     3
  5
3FA
 10
-14.160878
 20
-273.993268
 30
0.0
  0
VERTEX
  8
0
  6
CONTINUOUS
 62
     3
  5
3FB
 10
-13.856406
 20
-274.0
 30
0.0
  0
VERTEX
  8
0
  6
CONTINUOUS
 62
     3
  5
3FC
 10
-13.551935
 20
-273.993268
 30
0.0
  0
VERTEX
  8
0
  6
CONTINUOUS
 62
     3
  5
3FD
 10
-13.247835
 20
-273.973378
 30
0.0
  0
VERTEX
  8
0
  6
CONTINUOUS
 62
     3
  5
3FE
 10
-12.944479
 20
-273.94079
 30
0.0
  0
VERTEX
  8
0
  6
CONTINUOUS
 62
     3
  5
3FF
 10
-12.642237
 20
-273.895964
 30
0.0
  0
VERTEX
  8
0
  6
CONTINUOUS
 62
     3
  5
400
 10
-12.341483
 20
-273.83936
 30
0.0
  0
VERTEX
  8
0
  6
CONTINUOUS
 62
     3
  5
401
 10
-12.042586
 20
-273.771439
 30
0.0
  0
VERTEX
  8
0
  6
CONTINUOUS
 62
     3
  5
402
 10
-11.74592
 20
-273.692659
 30
0.0
  0
VERTEX
  8
0
  6
CONTINUOUS
 62
     3
  5
403
 10
-11.451856
 20
-273.603482
 30
0.0
  0
VERTEX
  8
0
  6
CONTINUOUS
 62
     3
  5
404
 10
-11.160765
 20
-273.504367
 30
0.0
  0
VERTEX
  8
0
  6
CONTINUOUS
 62
     3
  5
405
 10
-10.873019
 20
-273.395773
 30
0.0
  0
VERTEX
  8
0
  6
CONTINUOUS
 62
     3
  5
406
 10
-10.588989
 20
-273.278162
 30
0.0
  0
VERTEX
  8
0
  6
CONTINUOUS
 62
     3
  5
407
 10
-10.309049
 20
-273.151993
 30
0.0
  0
VERTEX
  8
0
  6
CONTINUOUS
 62
     3
  5
408
 10
-10.033568
 20
-273.017726
 30
0.0
  0
VERTEX
  8
0
  6
CONTINUOUS
 62
     3
  5
409
 10
-9.76292
 20
-272.875821
 30
0.0
  0
VERTEX
  8
0
  6
CONTINUOUS
 62
     3
  5
40A
 10
-9.497474
 20
-272.726738
 30
0.0
  0
VERTEX
  8
0
  6
CONTINUOUS
 62
     3
  5
40B
 10
-9.237604
 20
-272.570938
 30
0.0
  0
SEQEND
  8
0
  6
CONTINUOUS
 62
     3
  5
40C
  0
POLYLINE
  8
0
  6
CONTINUOUS
 62
     3
  5
154
 66
     1
 10
0.0
 20
0.0
 30
0.0
  0
VERTEX
  8
0
  6
CONTINUOUS
 62
     3
  5
40D
 10
-9.237604
 20
-262.429062
 30
0.0
  0
VERTEX
  8
0
  6
CONTINUOUS
 62
     3
  5
40E
 10
-8.677724
 20
-262.261243
 30
0.0
  0
VERTEX
  8
0
  6
CONTINUOUS
 62
     3
  5
40F
 10
-8.114462
 20
-262.103239
 30
0.0
  0
VERTEX
  8
0
  6
CONTINUOUS
 62
     3
  5
410
 10
-7.548045
 20
-261.955191
 30
0.0
  0
VERTEX
  8
0
  6
CONTINUOUS
 62
     3
  5
411
 10
-6.978697
 20
-261.817239
 30
0.0
  0
VERTEX
  8
0
  6
CONTINUOUS
 62
     3
  5
412
 10
-6.406644
 20
-261.68952
 30
0.0
  0
VERTEX
  8
0
  6
CONTINUOUS
 62
     3
  5
413
 10
-5.832111
 20
-261.572176
 30
0.0
  0
VERTEX
  8
0
  6
CONTINUOUS
 62
     3
  5
414
 10
-5.255325
 20
-261.465346
 30
0.0
  0
VERTEX
  8
0
  6
CONTINUOUS
 62
     3
  5
415
 10
-4.676509
 20
-261.369169
 30
0.0
  0
VERTEX
  8
0
  6
CONTINUOUS
 62
     3
  5
416
 10
-4.09589
 20
-261.283784
 30
0.0
  0
VERTEX
  8
0
  6
CONTINUOUS
 62
     3
  5
417
 10
-3.513694
 20
-261.209331
 30
0.0
  0
VERTEX
  8
0
  6
CONTINUOUS
 62
     3
  5
418
 10
-2.930144
 20
-261.14595
 30
0.0
  0
VERTEX
  8
0
  6
CONTINUOUS
 62
     3
  5
419
 10
-2.345468
 20
-261.09378
 30
0.0
  0
VERTEX
  8
0
  6
CONTINUOUS
 62
     3
  5
41A
 10
-1.75989
 20
-261.052961
 30
0.0
  0
VERTEX
  8
0
  6
CONTINUOUS
 62
     3
  5
41B
 10
-1.173636
 20
-261.023631
 30
0.0
  0
VERTEX
  8
0
  6
CONTINUOUS
 62
     3
  5
41C
 10
-0.586931
 20
-261.005931
 30
0.0
  0
VERTEX
  8
0
  6
CONTINUOUS
 62
     3
  5
41D
 10
0.0
 20
-261.0
 30
0.0
  0
VERTEX
  8
0
  6
CONTINUOUS
 62
     3
  5
41E
 10
0.586931
 20
-261.005931
 30
0.0
  0
VERTEX
  8
0
  6
CONTINUOUS
 62
     3
  5
41F
 10
1.173636
 20
-261.023631
 30
0.0
  0
VERTEX
  8
0
  6
CONTINUOUS
 62
     3
  5
420
 10
1.75989
 20
-261.052961
 30
0.0
  0
VERTEX
  8
0
  6
CONTINUOUS
 62
     3
  5
421
 10
2.345468
 20
-261.09378
 30
0.0
  0
VERTEX
  8
0
  6
CONTINUOUS
 62
     3
  5
422
 10
2.930144
 20
-261.14595
 30
0.0
  0
VERTEX
  8
0
  6
CONTINUOUS
 62
     3
  5
423
 10
3.513694
 20
-261.209331
 30
0.0
  0
VERTEX
  8
0
  6
CONTINUOUS
 62
     3
  5
424
 10
4.09589
 20
-261.283784
 30
0.0
  0
VERTEX
  8
0
  6
CONTINUOUS
 62
     3
  5
425
 10
4.676509
 20
-261.369169
 30
0.0
  0
VERTEX
  8
0
  6
CONTINUOUS
 62
     3
  5
426
 10
5.255325
 20
-261.465346
 30
0.0
  0
VERTEX
  8
0
  6
CONTINUOUS
 62
     3
  5
427
 10
5.832111
 20
-261.572176
 30
0.0
  0
VERTEX
  8
0
  6
CONTINUOUS
 62
     3
  5
428
 10
6.406644
 20
-261.68952
 30
0.0
  0
VERTEX
  8
0
  6
CONTINUOUS
 62
     3
  5
429
 10
6.978697
 20
-261.817239
 30
0.0
  0
VERTEX
  8
0
  6
CONTINUOUS
 62
     3
  5
42A
 10
7.548045
 20
-261.955191
 30
0.0
  0
VERTEX
  8
0
  6
CONTINUOUS
 62
     3
  5
42B
 10
8.114462
 20
-262.103239
 30
0.0
  0
VERTEX
  8
0
  6
CONTINUOUS
 62
     3
  5
42C
 10
8.677724
 20
-262.261243
 30
0.0
  0
VERTEX
  8
0
  6
CONTINUOUS
 62
     3
  5
42D
 10
9.237604
 20
-262.429062
 30
0.0
  0
SEQEND
  8
0
  6
CONTINUOUS
 62
     3
  5
42E
  0
POLYLINE
  8
0
  6
CONTINUOUS
 62
     3
  5
155
 66
     1
 10
0.0
 20
0.0
 30
0.0
  0
VERTEX
  8
0
  6
CONTINUOUS
 62
     3
  5
42F
 10
-18.475209
 20
-262.429062
 30
0.0
  0
VERTEX
  8
0
  6
CONTINUOUS
 62
     3
  5
430
 10
-18.215339
 20
-262.273262
 30
0.0
  0
VERTEX
  8
0
  6
CONTINUOUS
 62
     3
  5
431
 10
-17.949893
 20
-262.124179
 30
0.0
  0
VERTEX
  8
0
  6
CONTINUOUS
 62
     3
  5
432
 10
-17.679245
 20
-261.982274
 30
0.0
  0
VERTEX
  8
0
  6
CONTINUOUS
 62
     3
  5
433
 10
-17.403764
 20
-261.848007
 30
0.0
  0
VERTEX
  8
0
  6
CONTINUOUS
 62
     3
  5
434
 10
-17.123823
 20
-261.721838
 30
0.0
  0
VERTEX
  8
0
  6
CONTINUOUS
 62
     3
  5
435
 10
-16.839794
 20
-261.604227
 30
0.0
  0
VERTEX
  8
0
  6
CONTINUOUS
 62
     3
  5
436
 10
-16.552048
 20
-261.495633
 30
0.0
  0
VERTEX
  8
0
  6
CONTINUOUS
 62
     3
  5
437
 10
-16.260957
 20
-261.396518
 30
0.0
  0
VERTEX
  8
0
  6
CONTINUOUS
 62
     3
  5
438
 10
-15.966893
 20
-261.307341
 30
0.0
  0
VERTEX
  8
0
  6
CONTINUOUS
 62
     3
  5
439
 10
-15.670227
 20
-261.228561
 30
0.0
  0
VERTEX
  8
0
  6
CONTINUOUS
 62
     3
  5
43A
 10
-15.37133
 20
-261.16064
 30
0.0
  0
VERTEX
  8
0
  6
CONTINUOUS
 62
     3
  5
43B
 10
-15.070576
 20
-261.104036
 30
0.0
  0
VERTEX
  8
0
  6
CONTINUOUS
 62
     3
  5
43C
 10
-14.768334
 20
-261.05921
 30
0.0
  0
VERTEX
  8
0
  6
CONTINUOUS
 62
     3
  5
43D
 10
-14.464978
 20
-261.026622
 30
0.0
  0
VERTEX
  8
0
  6
CONTINUOUS
 62
     3
  5
43E
 10
-14.160878
 20
-261.006732
 30
0.0
  0
VERTEX
  8
0
  6
CONTINUOUS
 62
     3
  5
43F
 10
-13.856406
 20
-261.0
 30
0.0
  0
VERTEX
  8
0
  6
CONTINUOUS
 62
     3
  5
440
 10
-13.551935
 20
-261.006732
 30
0.0
  0
VERTEX
  8
0
  6
CONTINUOUS
 62
     3
  5
441
 10
-13.247835
 20
-261.026622
 30
0.0
  0
VERTEX
  8
0
  6
CONTINUOUS
 62
     3
  5
442
 10
-12.944479
 20
-261.05921
 30
0.0
  0
VERTEX
  8
0
  6
CONTINUOUS
 62
     3
  5
443
 10
-12.642237
 20
-261.104036
 30
0.0
  0
VERTEX
  8
0
  6
CONTINUOUS
 62
     3
  5
444
 10
-12.341483
 20
-261.16064
 30
0.0
  0
VERTEX
  8
0
  6
CONTINUOUS
 62
     3
  5
445
 10
-12.042586
 20
-261.228561
 30
0.0
  0
VERTEX
  8
0
  6
CONTINUOUS
 62
     3
  5
446
 10
-11.74592
 20
-261.307341
 30
0.0
  0
VERTEX
  8
0
  6
CONTINUOUS
 62
     3
  5
447
 10
-11.451856
 20
-261.396518
 30
0.0
  0
VERTEX
  8
0
  6
CONTINUOUS
 62
     3
  5
448
 10
-11.160765
 20
-261.495633
 30
0.0
  0
VERTEX
  8
0
  6
CONTINUOUS
 62
     3
  5
449
 10
-10.873019
 20
-261.604227
 30
0.0
  0
VERTEX
  8
0
  6
CONTINUOUS
 62
     3
  5
44A
 10
-10.588989
 20
-261.721838
 30
0.0
  0
VERTEX
  8
0
  6
CONTINUOUS
 62
     3
  5
44B
 10
-10.309049
 20
-261.848007
 30
0.0
  0
VERTEX
  8
0
  6
CONTINUOUS
 62
     3
  5
44C
 10
-10.033568
 20
-261.982274
 30
0.0
  0
VERTEX
  8
0
  6
CONTINUOUS
 62
     3
  5
44D
 10
-9.76292
 20
-262.124179
 30
0.0
  0
VERTEX
  8
0
  6
CONTINUOUS
 62
     3
  5
44E
 10
-9.497474
 20
-262.273262
 30
0.0
  0
VERTEX
  8
0
  6
CONTINUOUS
 62
     3
  5
44F
 10
-9.237604
 20
-262.429062
 30
0.0
  0
SEQEND
  8
0
  6
CONTINUOUS
 62
     3
  5
450
  0
POLYLINE
  8
0
  6
CONTINUOUS
 62
     3
  5
156
 66
     1
 10
0.0
 20
0.0
 30
0.0
  0
VERTEX
  8
0
  6
CONTINUOUS
 62
     3
  5
451
 10
-9.237604
 20
-272.570938
 30
0.0
  0
VERTEX
  8
0
  6
CONTINUOUS
 62
     3
  5
452
 10
-8.677724
 20
-272.738757
 30
0.0
  0
VERTEX
  8
0
  6
CONTINUOUS
 62
     3
  5
453
 10
-8.114462
 20
-272.896761
 30
0.0
  0
VERTEX
  8
0
  6
CONTINUOUS
 62
     3
  5
454
 10
-7.548045
 20
-273.044809
 30
0.0
  0
VERTEX
  8
0
  6
CONTINUOUS
 62
     3
  5
455
 10
-6.978697
 20
-273.182761
 30
0.0
  0
VERTEX
  8
0
  6
CONTINUOUS
 62
     3
  5
456
 10
-6.406644
 20
-273.31048
 30
0.0
  0
VERTEX
  8
0
  6
CONTINUOUS
 62
     3
  5
457
 10
-5.832111
 20
-273.427824
 30
0.0
  0
VERTEX
  8
0
  6
CONTINUOUS
 62
     3
  5
458
 10
-5.255325
 20
-273.534654
 30
0.0
  0
VERTEX
  8
0
  6
CONTINUOUS
 62
     3
  5
459
 10
-4.676509
 20
-273.630831
 30
0.0
  0
VERTEX
  8
0
  6
CONTINUOUS
 62
     3
  5
45A
 10
-4.09589
 20
-273.716216
 30
0.0
  0
VERTEX
  8
0
  6
CONTINUOUS
 62
     3
  5
45B
 10
-3.513694
 20
-273.790669
 30
0.0
  0
VERTEX
  8
0
  6
CONTINUOUS
 62
     3
  5
45C
 10
-2.930144
 20
-273.85405
 30
0.0
  0
VERTEX
  8
0
  6
CONTINUOUS
 62
     3
  5
45D
 10
-2.345468
 20
-273.90622
 30
0.0
  0
VERTEX
  8
0
  6
CONTINUOUS
 62
     3
  5
45E
 10
-1.75989
 20
-273.947039
 30
0.0
  0
VERTEX
  8
0
  6
CONTINUOUS
 62
     3
  5
45F
 10
-1.173636
 20
-273.976369
 30
0.0
  0
VERTEX
  8
0
  6
CONTINUOUS
 62
     3
  5
460
 10
-0.586931
 20
-273.994069
 30
0.0
  0
VERTEX
  8
0
  6
CONTINUOUS
 62
     3
  5
461
 10
0.0
 20
-274.0
 30
0.0
  0
VERTEX
  8
0
  6
CONTINUOUS
 62
     3
  5
462
 10
0.586931
 20
-273.994069
 30
0.0
  0
VERTEX
  8
0
  6
CONTINUOUS
 62
     3
  5
463
 10
1.173636
 20
-273.976369
 30
0.0
  0
VERTEX
  8
0
  6
CONTINUOUS
 62
     3
  5
464
 10
1.75989
 20
-273.947039
 30
0.0
  0
VERTEX
  8
0
  6
CONTINUOUS
 62
     3
  5
465
 10
2.345468
 20
-273.90622
 30
0.0
  0
VERTEX
  8
0
  6
CONTINUOUS
 62
     3
  5
466
 10
2.930144
 20
-273.85405
 30
0.0
  0
VERTEX
  8
0
  6
CONTINUOUS
 62
     3
  5
467
 10
3.513694
 20
-273.790669
 30
0.0
  0
VERTEX
  8
0
  6
CONTINUOUS
 62
     3
  5
468
 10
4.09589
 20
-273.716216
 30
0.0
  0
VERTEX
  8
0
  6
CONTINUOUS
 62
     3
  5
469
 10
4.676509
 20
-273.630831
 30
0.0
  0
VERTEX
  8
0
  6
CONTINUOUS
 62
     3
  5
46A
 10
5.255325
 20
-273.534654
 30
0.0
  0
VERTEX
  8
0
  6
CONTINUOUS
 62
     3
  5
46B
 10
5.832111
 20
-273.427824
 30
0.0
  0
VERTEX
  8
0
  6
CONTINUOUS
 62
     3
  5
46C
 10
6.406644
 20
-273.31048
 30
0.0
  0
VERTEX
  8
0
  6
CONTINUOUS
 62
     3
  5
46D
 10
6.978697
 20
-273.182761
 30
0.0
  0
VERTEX
  8
0
  6
CONTINUOUS
 62
     3
  5
46E
 10
7.548045
 20
-273.044809
 30
0.0
  0
VERTEX
  8
0
  6
CONTINUOUS
 62
     3
  5
46F
 10
8.114462
 20
-272.896761
 30
0.0
  0
VERTEX
  8
0
  6
CONTINUOUS
 62
     3
  5
470
 10
8.677724
 20
-272.738757
 30
0.0
  0
VERTEX
  8
0
  6
CONTINUOUS
 62
     3
  5
471
 10
9.237604
 20
-272.570938
 30
0.0
  0
SEQEND
  8
0
  6
CONTINUOUS
 62
     3
  5
472
  0
POLYLINE
  8
0
  6
CONTINUOUS
 62
     3
  5
157
 66
     1
 10
0.0
 20
0.0
 30
0.0
  0
VERTEX
  8
0
  6
CONTINUOUS
 62
     3
  5
473
 10
18.475209
 20
-272.570938
 30
0.0
  0
VERTEX
  8
0
  6
CONTINUOUS
 62
     3
  5
474
 10
18.215339
 20
-272.726738
 30
0.0
  0
VERTEX
  8
0
  6
CONTINUOUS
 62
     3
  5
475
 10
17.949893
 20
-272.875821
 30
0.0
  0
VERTEX
  8
0
  6
CONTINUOUS
 62
     3
  5
476
 10
17.679245
 20
-273.017726
 30
0.0
  0
VERTEX
  8
0
  6
CONTINUOUS
 62
     3
  5
477
 10
17.403764
 20
-273.151993
 30
0.0
  0
VERTEX
  8
0
  6
CONTINUOUS
 62
     3
  5
478
 10
17.123823
 20
-273.278162
 30
0.0
  0
VERTEX
  8
0
  6
CONTINUOUS
 62
     3
  5
479
 10
16.839794
 20
-273.395773
 30
0.0
  0
VERTEX
  8
0
  6
CONTINUOUS
 62
     3
  5
47A
 10
16.552048
 20
-273.504367
 30
0.0
  0
VERTEX
  8
0
  6
CONTINUOUS
 62
     3
  5
47B
 10
16.260957
 20
-273.603482
 30
0.0
  0
VERTEX
  8
0
  6
CONTINUOUS
 62
     3
  5
47C
 10
15.966893
 20
-273.692659
 30
0.0
  0
VERTEX
  8
0
  6
CONTINUOUS
 62
     3
  5
47D
 10
15.670227
 20
-273.771439
 30
0.0
  0
VERTEX
  8
0
  6
CONTINUOUS
 62
     3
  5
47E
 10
15.37133
 20
-273.83936
 30
0.0
  0
VERTEX
  8
0
  6
CONTINUOUS
 62
     3
  5
47F
 10
15.070576
 20
-273.895964
 30
0.0
  0
VERTEX
  8
0
  6
CONTINUOUS
 62
     3
  5
480
 10
14.768334
 20
-273.94079
 30
0.0
  0
VERTEX
  8
0
  6
CONTINUOUS
 62
     3
  5
481
 10
14.464978
 20
-273.973378
 30
0.0
  0
VERTEX
  8
0
  6
CONTINUOUS
 62
     3
  5
482
 10
14.160878
 20
-273.993268
 30
0.0
  0
VERTEX
  8
0
  6
CONTINUOUS
 62
     3
  5
483
 10
13.856406
 20
-274.0
 30
0.0
  0
VERTEX
  8
0
  6
CONTINUOUS
 62
     3
  5
484
 10
13.551935
 20
-273.993268
 30
0.0
  0
VERTEX
  8
0
  6
CONTINUOUS
 62
     3
  5
485
 10
13.247835
 20
-273.973378
 30
0.0
  0
VERTEX
  8
0
  6
CONTINUOUS
 62
     3
  5
486
 10
12.944479
 20
-273.94079
 30
0.0
  0
VERTEX
  8
0
  6
CONTINUOUS
 62
     3
  5
487
 10
12.642237
 20
-273.895964
 30
0.0
  0
VERTEX
  8
0
  6
CONTINUOUS
 62
     3
  5
488
 10
12.341483
 20
-273.83936
 30
0.0
  0
VERTEX
  8
0
  6
CONTINUOUS
 62
     3
  5
489
 10
12.042586
 20
-273.771439
 30
0.0
  0
VERTEX
  8
0
  6
CONTINUOUS
 62
     3
  5
48A
 10
11.74592
 20
-273.692659
 30
0.0
  0
VERTEX
  8
0
  6
CONTINUOUS
 62
     3
  5
48B
 10
11.451856
 20
-273.603482
 30
0.0
  0
VERTEX
  8
0
  6
CONTINUOUS
 62
     3
  5
48C
 10
11.160765
 20
-273.504367
 30
0.0
  0
VERTEX
  8
0
  6
CONTINUOUS
 62
     3
  5
48D
 10
10.873019
 20
-273.395773
 30
0.0
  0
VERTEX
  8
0
  6
CONTINUOUS
 62
     3
  5
48E
 10
10.588989
 20
-273.278162
 30
0.0
  0
VERTEX
  8
0
  6
CONTINUOUS
 62
     3
  5
48F
 10
10.309049
 20
-273.151993
 30
0.0
  0
VERTEX
  8
0
  6
CONTINUOUS
 62
     3
  5
490
 10
10.033568
 20
-273.017726
 30
0.0
  0
VERTEX
  8
0
  6
CONTINUOUS
 62
     3
  5
491
 10
9.76292
 20
-272.875821
 30
0.0
  0
VERTEX
  8
0
  6
CONTINUOUS
 62
     3
  5
492
 10
9.497474
 20
-272.726738
 30
0.0
  0
VERTEX
  8
0
  6
CONTINUOUS
 62
     3
  5
493
 10
9.237604
 20
-272.570938
 30
0.0
  0
SEQEND
  8
0
  6
CONTINUOUS
 62
     3
  5
494
  0
POLYLINE
  8
0
  6
CONTINUOUS
 62
     3
  5
158
 66
     1
 10
0.0
 20
0.0
 30
0.0
  0
VERTEX
  8
0
  6
CONTINUOUS
 62
     3
  5
495
 10
18.475209
 20
-262.429062
 30
0.0
  0
VERTEX
  8
0
  6
CONTINUOUS
 62
     3
  5
496
 10
18.215339
 20
-262.273262
 30
0.0
  0
VERTEX
  8
0
  6
CONTINUOUS
 62
     3
  5
497
 10
17.949893
 20
-262.124179
 30
0.0
  0
VERTEX
  8
0
  6
CONTINUOUS
 62
     3
  5
498
 10
17.679245
 20
-261.982274
 30
0.0
  0
VERTEX
  8
0
  6
CONTINUOUS
 62
     3
  5
499
 10
17.403764
 20
-261.848007
 30
0.0
  0
VERTEX
  8
0
  6
CONTINUOUS
 62
     3
  5
49A
 10
17.123823
 20
-261.721838
 30
0.0
  0
VERTEX
  8
0
  6
CONTINUOUS
 62
     3
  5
49B
 10
16.839794
 20
-261.604227
 30
0.0
  0
VERTEX
  8
0
  6
CONTINUOUS
 62
     3
  5
49C
 10
16.552048
 20
-261.495633
 30
0.0
  0
VERTEX
  8
0
  6
CONTINUOUS
 62
     3
  5
49D
 10
16.260957
 20
-261.396518
 30
0.0
  0
VERTEX
  8
0
  6
CONTINUOUS
 62
     3
  5
49E
 10
15.966893
 20
-261.307341
 30
0.0
  0
VERTEX
  8
0
  6
CONTINUOUS
 62
     3
  5
49F
 10
15.670227
 20
-261.228561
 30
0.0
  0
VERTEX
  8
0
  6
CONTINUOUS
 62
     3
  5
4A0
 10
15.37133
 20
-261.16064
 30
0.0
  0
VERTEX
  8
0
  6
CONTINUOUS
 62
     3
  5
4A1
 10
15.070576
 20
-261.104036
 30
0.0
  0
VERTEX
  8
0
  6
CONTINUOUS
 62
     3
  5
4A2
 10
14.768334
 20
-261.05921
 30
0.0
  0
VERTEX
  8
0
  6
CONTINUOUS
 62
     3
  5
4A3
 10
14.464978
 20
-261.026622
 30
0.0
  0
VERTEX
  8
0
  6
CONTINUOUS
 62
     3
  5
4A4
 10
14.160878
 20
-261.006732
 30
0.0
  0
VERTEX
  8
0
  6
CONTINUOUS
 62
     3
  5
4A5
 10
13.856406
 20
-261.0
 30
0.0
  0
VERTEX
  8
0
  6
CONTINUOUS
 62
     3
  5
4A6
 10
13.551935
 20
-261.006732
 30
0.0
  0
VERTEX
  8
0
  6
CONTINUOUS
 62
     3
  5
4A7
 10
13.247835
 20
-261.026622
 30
0.0
  0
VERTEX
  8
0
  6
CONTINUOUS
 62
     3
  5
4A8
 10
12.944479
 20
-261.05921
 30
0.0
  0
VERTEX
  8
0
  6
CONTINUOUS
 62
     3
  5
4A9
 10
12.642237
 20
-261.104036
 30
0.0
  0
VERTEX
  8
0
  6
CONTINUOUS
 62
     3
  5
4AA
 10
12.341483
 20
-261.16064
 30
0.0
  0
VERTEX
  8
0
  6
CONTINUOUS
 62
     3
  5
4AB
 10
12.042586
 20
-261.228561
 30
0.0
  0
VERTEX
  8
0
  6
CONTINUOUS
 62
     3
  5
4AC
 10
11.74592
 20
-261.307341
 30
0.0
  0
VERTEX
  8
0
  6
CONTINUOUS
 62
     3
  5
4AD
 10
11.451856
 20
-261.396518
 30
0.0
  0
VERTEX
  8
0
  6
CONTINUOUS
 62
     3
  5
4AE
 10
11.160765
 20
-261.495633
 30
0.0
  0
VERTEX
  8
0
  6
CONTINUOUS
 62
     3
  5
4AF
 10
10.873019
 20
-261.604227
 30
0.0
  0
VERTEX
  8
0
  6
CONTINUOUS
 62
     3
  5
4B0
 10
10.588989
 20
-261.721838
 30
0.0
  0
VERTEX
  8
0
  6
CONTINUOUS
 62
     3
  5
4B1
 10
10.309049
 20
-261.848007
 30
0.0
  0
VERTEX
  8
0
  6
CONTINUOUS
 62
     3
  5
4B2
 10
10.033568
 20
-261.982274
 30
0.0
  0
VERTEX
  8
0
  6
CONTINUOUS
 62
     3
  5
4B3
 10
9.76292
 20
-262.124179
 30
0.0
  0
VERTEX
  8
0
  6
CONTINUOUS
 62
     3
  5
4B4
 10
9.497474
 20
-262.273262
 30
0.0
  0
VERTEX
  8
0
  6
CONTINUOUS
 62
     3
  5
4B5
 10
9.237604
 20
-262.429062
 30
0.0
  0
SEQEND
  8
0
  6
CONTINUOUS
 62
     3
  5
4B6
  0
POLYLINE
  8
0
  6
CONTINUOUS
 62
     3
  5
159
 66
     1
 10
0.0
 20
0.0
 30
0.0
  0
VERTEX
  8
0
  6
CONTINUOUS
 62
     3
  5
4B7
 10
18.475209
 20
-237.429062
 30
0.0
  0
VERTEX
  8
0
  6
CONTINUOUS
 62
     3
  5
4B8
 10
18.215339
 20
-237.273262
 30
0.0
  0
VERTEX
  8
0
  6
CONTINUOUS
 62
     3
  5
4B9
 10
17.949893
 20
-237.124179
 30
0.0
  0
VERTEX
  8
0
  6
CONTINUOUS
 62
     3
  5
4BA
 10
17.679245
 20
-236.982274
 30
0.0
  0
VERTEX
  8
0
  6
CONTINUOUS
 62
     3
  5
4BB
 10
17.403764
 20
-236.848007
 30
0.0
  0
VERTEX
  8
0
  6
CONTINUOUS
 62
     3
  5
4BC
 10
17.123823
 20
-236.721838
 30
0.0
  0
VERTEX
  8
0
  6
CONTINUOUS
 62
     3
  5
4BD
 10
16.839794
 20
-236.604227
 30
0.0
  0
VERTEX
  8
0
  6
CONTINUOUS
 62
     3
  5
4BE
 10
16.552048
 20
-236.495633
 30
0.0
  0
VERTEX
  8
0
  6
CONTINUOUS
 62
     3
  5
4BF
 10
16.260957
 20
-236.396518
 30
0.0
  0
VERTEX
  8
0
  6
CONTINUOUS
 62
     3
  5
4C0
 10
15.966893
 20
-236.307341
 30
0.0
  0
VERTEX
  8
0
  6
CONTINUOUS
 62
     3
  5
4C1
 10
15.670227
 20
-236.228561
 30
0.0
  0
VERTEX
  8
0
  6
CONTINUOUS
 62
     3
  5
4C2
 10
15.37133
 20
-236.16064
 30
0.0
  0
VERTEX
  8
0
  6
CONTINUOUS
 62
     3
  5
4C3
 10
15.070576
 20
-236.104036
 30
0.0
  0
VERTEX
  8
0
  6
CONTINUOUS
 62
     3
  5
4C4
 10
14.768334
 20
-236.05921
 30
0.0
  0
VERTEX
  8
0
  6
CONTINUOUS
 62
     3
  5
4C5
 10
14.464978
 20
-236.026622
 30
0.0
  0
VERTEX
  8
0
  6
CONTINUOUS
 62
     3
  5
4C6
 10
14.160878
 20
-236.006732
 30
0.0
  0
VERTEX
  8
0
  6
CONTINUOUS
 62
     3
  5
4C7
 10
13.856406
 20
-236.0
 30
0.0
  0
VERTEX
  8
0
  6
CONTINUOUS
 62
     3
  5
4C8
 10
13.551935
 20
-236.006732
 30
0.0
  0
VERTEX
  8
0
  6
CONTINUOUS
 62
     3
  5
4C9
 10
13.247835
 20
-236.026622
 30
0.0
  0
VERTEX
  8
0
  6
CONTINUOUS
 62
     3
  5
4CA
 10
12.944479
 20
-236.05921
 30
0.0
  0
VERTEX
  8
0
  6
CONTINUOUS
 62
     3
  5
4CB
 10
12.642237
 20
-236.104036
 30
0.0
  0
VERTEX
  8
0
  6
CONTINUOUS
 62
     3
  5
4CC
 10
12.341483
 20
-236.16064
 30
0.0
  0
VERTEX
  8
0
  6
CONTINUOUS
 62
     3
  5
4CD
 10
12.042586
 20
-236.228561
 30
0.0
  0
VERTEX
  8
0
  6
CONTINUOUS
 62
     3
  5
4CE
 10
11.74592
 20
-236.307341
 30
0.0
  0
VERTEX
  8
0
  6
CONTINUOUS
 62
     3
  5
4CF
 10
11.451856
 20
-236.396518
 30
0.0
  0
VERTEX
  8
0
  6
CONTINUOUS
 62
     3
  5
4D0
 10
11.160765
 20
-236.495633
 30
0.0
  0
VERTEX
  8
0
  6
CONTINUOUS
 62
     3
  5
4D1
 10
10.873019
 20
-236.604227
 30
0.0
  0
VERTEX
  8
0
  6
CONTINUOUS
 62
     3
  5
4D2
 10
10.588989
 20
-236.721838
 30
0.0
  0
VERTEX
  8
0
  6
CONTINUOUS
 62
     3
  5
4D3
 10
10.309049
 20
-236.848007
 30
0.0
  0
VERTEX
  8
0
  6
CONTINUOUS
 62
     3
  5
4D4
 10
10.033568
 20
-236.982274
 30
0.0
  0
VERTEX
  8
0
  6
CONTINUOUS
 62
     3
  5
4D5
 10
9.76292
 20
-237.124179
 30
0.0
  0
VERTEX
  8
0
  6
CONTINUOUS
 62
     3
  5
4D6
 10
9.497474
 20
-237.273262
 30
0.0
  0
VERTEX
  8
0
  6
CONTINUOUS
 62
     3
  5
4D7
 10
9.237604
 20
-237.429062
 30
0.0
  0
SEQEND
  8
0
  6
CONTINUOUS
 62
     3
  5
4D8
  0
POLYLINE
  8
0
  6
CONTINUOUS
 62
     3
  5
15A
 66
     1
 10
0.0
 20
0.0
 30
0.0
  0
VERTEX
  8
0
  6
CONTINUOUS
 62
     3
  5
4D9
 10
18.475209
 20
-247.570938
 30
0.0
  0
VERTEX
  8
0
  6
CONTINUOUS
 62
     3
  5
4DA
 10
18.215339
 20
-247.726738
 30
0.0
  0
VERTEX
  8
0
  6
CONTINUOUS
 62
     3
  5
4DB
 10
17.949893
 20
-247.875821
 30
0.0
  0
VERTEX
  8
0
  6
CONTINUOUS
 62
     3
  5
4DC
 10
17.679245
 20
-248.017726
 30
0.0
  0
VERTEX
  8
0
  6
CONTINUOUS
 62
     3
  5
4DD
 10
17.403764
 20
-248.151993
 30
0.0
  0
VERTEX
  8
0
  6
CONTINUOUS
 62
     3
  5
4DE
 10
17.123823
 20
-248.278162
 30
0.0
  0
VERTEX
  8
0
  6
CONTINUOUS
 62
     3
  5
4DF
 10
16.839794
 20
-248.395773
 30
0.0
  0
VERTEX
  8
0
  6
CONTINUOUS
 62
     3
  5
4E0
 10
16.552048
 20
-248.504367
 30
0.0
  0
VERTEX
  8
0
  6
CONTINUOUS
 62
     3
  5
4E1
 10
16.260957
 20
-248.603482
 30
0.0
  0
VERTEX
  8
0
  6
CONTINUOUS
 62
     3
  5
4E2
 10
15.966893
 20
-248.692659
 30
0.0
  0
VERTEX
  8
0
  6
CONTINUOUS
 62
     3
  5
4E3
 10
15.670227
 20
-248.771439
 30
0.0
  0
VERTEX
  8
0
  6
CONTINUOUS
 62
     3
  5
4E4
 10
15.37133
 20
-248.83936
 30
0.0
  0
VERTEX
  8
0
  6
CONTINUOUS
 62
     3
  5
4E5
 10
15.070576
 20
-248.895964
 30
0.0
  0
VERTEX
  8
0
  6
CONTINUOUS
 62
     3
  5
4E6
 10
14.768334
 20
-248.94079
 30
0.0
  0
VERTEX
  8
0
  6
CONTINUOUS
 62
     3
  5
4E7
 10
14.464978
 20
-248.973378
 30
0.0
  0
VERTEX
  8
0
  6
CONTINUOUS
 62
     3
  5
4E8
 10
14.160878
 20
-248.993268
 30
0.0
  0
VERTEX
  8
0
  6
CONTINUOUS
 62
     3
  5
4E9
 10
13.856406
 20
-249.0
 30
0.0
  0
VERTEX
  8
0
  6
CONTINUOUS
 62
     3
  5
4EA
 10
13.551935
 20
-248.993268
 30
0.0
  0
VERTEX
  8
0
  6
CONTINUOUS
 62
     3
  5
4EB
 10
13.247835
 20
-248.973378
 30
0.0
  0
VERTEX
  8
0
  6
CONTINUOUS
 62
     3
  5
4EC
 10
12.944479
 20
-248.94079
 30
0.0
  0
VERTEX
  8
0
  6
CONTINUOUS
 62
     3
  5
4ED
 10
12.642237
 20
-248.895964
 30
0.0
  0
VERTEX
  8
0
  6
CONTINUOUS
 62
     3
  5
4EE
 10
12.341483
 20
-248.83936
 30
0.0
  0
VERTEX
  8
0
  6
CONTINUOUS
 62
     3
  5
4EF
 10
12.042586
 20
-248.771439
 30
0.0
  0
VERTEX
  8
0
  6
CONTINUOUS
 62
     3
  5
4F0
 10
11.74592
 20
-248.692659
 30
0.0
  0
VERTEX
  8
0
  6
CONTINUOUS
 62
     3
  5
4F1
 10
11.451856
 20
-248.603482
 30
0.0
  0
VERTEX
  8
0
  6
CONTINUOUS
 62
     3
  5
4F2
 10
11.160765
 20
-248.504367
 30
0.0
  0
VERTEX
  8
0
  6
CONTINUOUS
 62
     3
  5
4F3
 10
10.873019
 20
-248.395773
 30
0.0
  0
VERTEX
  8
0
  6
CONTINUOUS
 62
     3
  5
4F4
 10
10.588989
 20
-248.278162
 30
0.0
  0
VERTEX
  8
0
  6
CONTINUOUS
 62
     3
  5
4F5
 10
10.309049
 20
-248.151993
 30
0.0
  0
VERTEX
  8
0
  6
CONTINUOUS
 62
     3
  5
4F6
 10
10.033568
 20
-248.017726
 30
0.0
  0
VERTEX
  8
0
  6
CONTINUOUS
 62
     3
  5
4F7
 10
9.76292
 20
-247.875821
 30
0.0
  0
VERTEX
  8
0
  6
CONTINUOUS
 62
     3
  5
4F8
 10
9.497474
 20
-247.726738
 30
0.0
  0
VERTEX
  8
0
  6
CONTINUOUS
 62
     3
  5
4F9
 10
9.237604
 20
-247.570938
 30
0.0
  0
SEQEND
  8
0
  6
CONTINUOUS
 62
     3
  5
4FA
  0
POLYLINE
  8
0
  6
CONTINUOUS
 62
     3
  5
15B
 66
     1
 10
0.0
 20
0.0
 30
0.0
  0
VERTEX
  8
0
  6
CONTINUOUS
 62
     3
  5
4FB
 10
-18.475209
 20
-247.570938
 30
0.0
  0
VERTEX
  8
0
  6
CONTINUOUS
 62
     3
  5
4FC
 10
-18.215339
 20
-247.726738
 30
0.0
  0
VERTEX
  8
0
  6
CONTINUOUS
 62
     3
  5
4FD
 10
-17.949893
 20
-247.875821
 30
0.0
  0
VERTEX
  8
0
  6
CONTINUOUS
 62
     3
  5
4FE
 10
-17.679245
 20
-248.017726
 30
0.0
  0
VERTEX
  8
0
  6
CONTINUOUS
 62
     3
  5
4FF
 10
-17.403764
 20
-248.151993
 30
0.0
  0
VERTEX
  8
0
  6
CONTINUOUS
 62
     3
  5
500
 10
-17.123823
 20
-248.278162
 30
0.0
  0
VERTEX
  8
0
  6
CONTINUOUS
 62
     3
  5
501
 10
-16.839794
 20
-248.395773
 30
0.0
  0
VERTEX
  8
0
  6
CONTINUOUS
 62
     3
  5
502
 10
-16.552048
 20
-248.504367
 30
0.0
  0
VERTEX
  8
0
  6
CONTINUOUS
 62
     3
  5
503
 10
-16.260957
 20
-248.603482
 30
0.0
  0
VERTEX
  8
0
  6
CONTINUOUS
 62
     3
  5
504
 10
-15.966893
 20
-248.692659
 30
0.0
  0
VERTEX
  8
0
  6
CONTINUOUS
 62
     3
  5
505
 10
-15.670227
 20
-248.771439
 30
0.0
  0
VERTEX
  8
0
  6
CONTINUOUS
 62
     3
  5
506
 10
-15.37133
 20
-248.83936
 30
0.0
  0
VERTEX
  8
0
  6
CONTINUOUS
 62
     3
  5
507
 10
-15.070576
 20
-248.895964
 30
0.0
  0
VERTEX
  8
0
  6
CONTINUOUS
 62
     3
  5
508
 10
-14.768334
 20
-248.94079
 30
0.0
  0
VERTEX
  8
0
  6
CONTINUOUS
 62
     3
  5
509
 10
-14.464978
 20
-248.973378
 30
0.0
  0
VERTEX
  8
0
  6
CONTINUOUS
 62
     3
  5
50A
 10
-14.160878
 20
-248.993268
 30
0.0
  0
VERTEX
  8
0
  6
CONTINUOUS
 62
     3
  5
50B
 10
-13.856406
 20
-249.0
 30
0.0
  0
VERTEX
  8
0
  6
CONTINUOUS
 62
     3
  5
50C
 10
-13.551935
 20
-248.993268
 30
0.0
  0
VERTEX
  8
0
  6
CONTINUOUS
 62
     3
  5
50D
 10
-13.247835
 20
-248.973378
 30
0.0
  0
VERTEX
  8
0
  6
CONTINUOUS
 62
     3
  5
50E
 10
-12.944479
 20
-248.94079
 30
0.0
  0
VERTEX
  8
0
  6
CONTINUOUS
 62
     3
  5
50F
 10
-12.642237
 20
-248.895964
 30
0.0
  0
VERTEX
  8
0
  6
CONTINUOUS
 62
     3
  5
510
 10
-12.341483
 20
-248.83936
 30
0.0
  0
VERTEX
  8
0
  6
CONTINUOUS
 62
     3
  5
511
 10
-12.042586
 20
-248.771439
 30
0.0
  0
VERTEX
  8
0
  6
CONTINUOUS
 62
     3
  5
512
 10
-11.74592
 20
-248.692659
 30
0.0
  0
VERTEX
  8
0
  6
CONTINUOUS
 62
     3
  5
513
 10
-11.451856
 20
-248.603482
 30
0.0
  0
VERTEX
  8
0
  6
CONTINUOUS
 62
     3
  5
514
 10
-11.160765
 20
-248.504367
 30
0.0
  0
VERTEX
  8
0
  6
CONTINUOUS
 62
     3
  5
515
 10
-10.873019
 20
-248.395773
 30
0.0
  0
VERTEX
  8
0
  6
CONTINUOUS
 62
     3
  5
516
 10
-10.588989
 20
-248.278162
 30
0.0
  0
VERTEX
  8
0
  6
CONTINUOUS
 62
     3
  5
517
 10
-10.309049
 20
-248.151993
 30
0.0
  0
VERTEX
  8
0
  6
CONTINUOUS
 62
     3
  5
518
 10
-10.033568
 20
-248.017726
 30
0.0
  0
VERTEX
  8
0
  6
CONTINUOUS
 62
     3
  5
519
 10
-9.76292
 20
-247.875821
 30
0.0
  0
VERTEX
  8
0
  6
CONTINUOUS
 62
     3
  5
51A
 10
-9.497474
 20
-247.726738
 30
0.0
  0
VERTEX
  8
0
  6
CONTINUOUS
 62
     3
  5
51B
 10
-9.237604
 20
-247.570938
 30
0.0
  0
SEQEND
  8
0
  6
CONTINUOUS
 62
     3
  5
51C
  0
POLYLINE
  8
0
  6
CONTINUOUS
 62
     3
  5
15C
 66
     1
 10
0.0
 20
0.0
 30
0.0
  0
VERTEX
  8
0
  6
CONTINUOUS
 62
     3
  5
51D
 10
-9.237604
 20
-247.570938
 30
0.0
  0
VERTEX
  8
0
  6
CONTINUOUS
 62
     3
  5
51E
 10
-8.677724
 20
-247.738757
 30
0.0
  0
VERTEX
  8
0
  6
CONTINUOUS
 62
     3
  5
51F
 10
-8.114462
 20
-247.896761
 30
0.0
  0
VERTEX
  8
0
  6
CONTINUOUS
 62
     3
  5
520
 10
-7.548045
 20
-248.044809
 30
0.0
  0
VERTEX
  8
0
  6
CONTINUOUS
 62
     3
  5
521
 10
-6.978697
 20
-248.182761
 30
0.0
  0
VERTEX
  8
0
  6
CONTINUOUS
 62
     3
  5
522
 10
-6.406644
 20
-248.31048
 30
0.0
  0
VERTEX
  8
0
  6
CONTINUOUS
 62
     3
  5
523
 10
-5.832111
 20
-248.427824
 30
0.0
  0
VERTEX
  8
0
  6
CONTINUOUS
 62
     3
  5
524
 10
-5.255325
 20
-248.534654
 30
0.0
  0
VERTEX
  8
0
  6
CONTINUOUS
 62
     3
  5
525
 10
-4.676509
 20
-248.630831
 30
0.0
  0
VERTEX
  8
0
  6
CONTINUOUS
 62
     3
  5
526
 10
-4.09589
 20
-248.716216
 30
0.0
  0
VERTEX
  8
0
  6
CONTINUOUS
 62
     3
  5
527
 10
-3.513694
 20
-248.790669
 30
0.0
  0
VERTEX
  8
0
  6
CONTINUOUS
 62
     3
  5
528
 10
-2.930144
 20
-248.85405
 30
0.0
  0
VERTEX
  8
0
  6
CONTINUOUS
 62
     3
  5
529
 10
-2.345468
 20
-248.90622
 30
0.0
  0
VERTEX
  8
0
  6
CONTINUOUS
 62
     3
  5
52A
 10
-1.75989
 20
-248.947039
 30
0.0
  0
VERTEX
  8
0
  6
CONTINUOUS
 62
     3
  5
52B
 10
-1.173636
 20
-248.976369
 30
0.0
  0
VERTEX
  8
0
  6
CONTINUOUS
 62
     3
  5
52C
 10
-0.586931
 20
-248.994069
 30
0.0
  0
VERTEX
  8
0
  6
CONTINUOUS
 62
     3
  5
52D
 10
0.0
 20
-249.0
 30
0.0
  0
VERTEX
  8
0
  6
CONTINUOUS
 62
     3
  5
52E
 10
0.586931
 20
-248.994069
 30
0.0
  0
VERTEX
  8
0
  6
CONTINUOUS
 62
     3
  5
52F
 10
1.173636
 20
-248.976369
 30
0.0
  0
VERTEX
  8
0
  6
CONTINUOUS
 62
     3
  5
530
 10
1.75989
 20
-248.947039
 30
0.0
  0
VERTEX
  8
0
  6
CONTINUOUS
 62
     3
  5
531
 10
2.345468
 20
-248.90622
 30
0.0
  0
VERTEX
  8
0
  6
CONTINUOUS
 62
     3
  5
532
 10
2.930144
 20
-248.85405
 30
0.0
  0
VERTEX
  8
0
  6
CONTINUOUS
 62
     3
  5
533
 10
3.513694
 20
-248.790669
 30
0.0
  0
VERTEX
  8
0
  6
CONTINUOUS
 62
     3
  5
534
 10
4.09589
 20
-248.716216
 30
0.0
  0
VERTEX
  8
0
  6
CONTINUOUS
 62
     3
  5
535
 10
4.676509
 20
-248.630831
 30
0.0
  0
VERTEX
  8
0
  6
CONTINUOUS
 62
     3
  5
536
 10
5.255325
 20
-248.534654
 30
0.0
  0
VERTEX
  8
0
  6
CONTINUOUS
 62
     3
  5
537
 10
5.832111
 20
-248.427824
 30
0.0
  0
VERTEX
  8
0
  6
CONTINUOUS
 62
     3
  5
538
 10
6.406644
 20
-248.31048
 30
0.0
  0
VERTEX
  8
0
  6
CONTINUOUS
 62
     3
  5
539
 10
6.978697
 20
-248.182761
 30
0.0
  0
VERTEX
  8
0
  6
CONTINUOUS
 62
     3
  5
53A
 10
7.548045
 20
-248.044809
 30
0.0
  0
VERTEX
  8
0
  6
CONTINUOUS
 62
     3
  5
53B
 10
8.114462
 20
-247.896761
 30
0.0
  0
VERTEX
  8
0
  6
CONTINUOUS
 62
     3
  5
53C
 10
8.677724
 20
-247.738757
 30
0.0
  0
VERTEX
  8
0
  6
CONTINUOUS
 62
     3
  5
53D
 10
9.237604
 20
-247.570938
 30
0.0
  0
SEQEND
  8
0
  6
CONTINUOUS
 62
     3
  5
53E
  0
POLYLINE
  8
0
  6
CONTINUOUS
 62
     3
  5
15D
 66
     1
 10
0.0
 20
0.0
 30
0.0
  0
VERTEX
  8
0
  6
CONTINUOUS
 62
     3
  5
53F
 10
-9.237604
 20
-237.429062
 30
0.0
  0
VERTEX
  8
0
  6
CONTINUOUS
 62
     3
  5
540
 10
-8.677724
 20
-237.261243
 30
0.0
  0
VERTEX
  8
0
  6
CONTINUOUS
 62
     3
  5
541
 10
-8.114462
 20
-237.103239
 30
0.0
  0
VERTEX
  8
0
  6
CONTINUOUS
 62
     3
  5
542
 10
-7.548045
 20
-236.955191
 30
0.0
  0
VERTEX
  8
0
  6
CONTINUOUS
 62
     3
  5
543
 10
-6.978697
 20
-236.817239
 30
0.0
  0
VERTEX
  8
0
  6
CONTINUOUS
 62
     3
  5
544
 10
-6.406644
 20
-236.68952
 30
0.0
  0
VERTEX
  8
0
  6
CONTINUOUS
 62
     3
  5
545
 10
-5.832111
 20
-236.572176
 30
0.0
  0
VERTEX
  8
0
  6
CONTINUOUS
 62
     3
  5
546
 10
-5.255325
 20
-236.465346
 30
0.0
  0
VERTEX
  8
0
  6
CONTINUOUS
 62
     3
  5
547
 10
-4.676509
 20
-236.369169
 30
0.0
  0
VERTEX
  8
0
  6
CONTINUOUS
 62
     3
  5
548
 10
-4.09589
 20
-236.283784
 30
0.0
  0
VERTEX
  8
0
  6
CONTINUOUS
 62
     3
  5
549
 10
-3.513694
 20
-236.209331
 30
0.0
  0
VERTEX
  8
0
  6
CONTINUOUS
 62
     3
  5
54A
 10
-2.930144
 20
-236.14595
 30
0.0
  0
VERTEX
  8
0
  6
CONTINUOUS
 62
     3
  5
54B
 10
-2.345468
 20
-236.09378
 30
0.0
  0
VERTEX
  8
0
  6
CONTINUOUS
 62
     3
  5
54C
 10
-1.75989
 20
-236.052961
 30
0.0
  0
VERTEX
  8
0
  6
CONTINUOUS
 62
     3
  5
54D
 10
-1.173636
 20
-236.023631
 30
0.0
  0
VERTEX
  8
0
  6
CONTINUOUS
 62
     3
  5
54E
 10
-0.586931
 20
-236.005931
 30
0.0
  0
VERTEX
  8
0
  6
CONTINUOUS
 62
     3
  5
54F
 10
0.0
 20
-236.0
 30
0.0
  0
VERTEX
  8
0
  6
CONTINUOUS
 62
     3
  5
550
 10
0.586931
 20
-236.005931
 30
0.0
  0
VERTEX
  8
0
  6
CONTINUOUS
 62
     3
  5
551
 10
1.173636
 20
-236.023631
 30
0.0
  0
VERTEX
  8
0
  6
CONTINUOUS
 62
     3
  5
552
 10
1.75989
 20
-236.052961
 30
0.0
  0
VERTEX
  8
0
  6
CONTINUOUS
 62
     3
  5
553
 10
2.345468
 20
-236.09378
 30
0.0
  0
VERTEX
  8
0
  6
CONTINUOUS
 62
     3
  5
554
 10
2.930144
 20
-236.14595
 30
0.0
  0
VERTEX
  8
0
  6
CONTINUOUS
 62
     3
  5
555
 10
3.513694
 20
-236.209331
 30
0.0
  0
VERTEX
  8
0
  6
CONTINUOUS
 62
     3
  5
556
 10
4.09589
 20
-236.283784
 30
0.0
  0
VERTEX
  8
0
  6
CONTINUOUS
 62
     3
  5
557
 10
4.676509
 20
-236.369169
 30
0.0
  0
VERTEX
  8
0
  6
CONTINUOUS
 62
     3
  5
558
 10
5.255325
 20
-236.465346
 30
0.0
  0
VERTEX
  8
0
  6
CONTINUOUS
 62
     3
  5
559
 10
5.832111
 20
-236.572176
 30
0.0
  0
VERTEX
  8
0
  6
CONTINUOUS
 62
     3
  5
55A
 10
6.406644
 20
-236.68952
 30
0.0
  0
VERTEX
  8
0
  6
CONTINUOUS
 62
     3
  5
55B
 10
6.978697
 20
-236.817239
 30
0.0
  0
VERTEX
  8
0
  6
CONTINUOUS
 62
     3
  5
55C
 10
7.548045
 20
-236.955191
 30
0.0
  0
VERTEX
  8
0
  6
CONTINUOUS
 62
     3
  5
55D
 10
8.114462
 20
-237.103239
 30
0.0
  0
VERTEX
  8
0
  6
CONTINUOUS
 62
     3
  5
55E
 10
8.677724
 20
-237.261243
 30
0.0
  0
VERTEX
  8
0
  6
CONTINUOUS
 62
     3
  5
55F
 10
9.237604
 20
-237.429062
 30
0.0
  0
SEQEND
  8
0
  6
CONTINUOUS
 62
     3
  5
560
  0
POLYLINE
  8
0
  6
CONTINUOUS
 62
     3
  5
15E
 66
     1
 10
0.0
 20
0.0
 30
0.0
  0
VERTEX
  8
0
  6
CONTINUOUS
 62
     3
  5
561
 10
-18.475209
 20
-237.429062
 30
0.0
  0
VERTEX
  8
0
  6
CONTINUOUS
 62
     3
  5
562
 10
-18.215339
 20
-237.273262
 30
0.0
  0
VERTEX
  8
0
  6
CONTINUOUS
 62
     3
  5
563
 10
-17.949893
 20
-237.124179
 30
0.0
  0
VERTEX
  8
0
  6
CONTINUOUS
 62
     3
  5
564
 10
-17.679245
 20
-236.982274
 30
0.0
  0
VERTEX
  8
0
  6
CONTINUOUS
 62
     3
  5
565
 10
-17.403764
 20
-236.848007
 30
0.0
  0
VERTEX
  8
0
  6
CONTINUOUS
 62
     3
  5
566
 10
-17.123823
 20
-236.721838
 30
0.0
  0
VERTEX
  8
0
  6
CONTINUOUS
 62
     3
  5
567
 10
-16.839794
 20
-236.604227
 30
0.0
  0
VERTEX
  8
0
  6
CONTINUOUS
 62
     3
  5
568
 10
-16.552048
 20
-236.495633
 30
0.0
  0
VERTEX
  8
0
  6
CONTINUOUS
 62
     3
  5
569
 10
-16.260957
 20
-236.396518
 30
0.0
  0
VERTEX
  8
0
  6
CONTINUOUS
 62
     3
  5
56A
 10
-15.966893
 20
-236.307341
 30
0.0
  0
VERTEX
  8
0
  6
CONTINUOUS
 62
     3
  5
56B
 10
-15.670227
 20
-236.228561
 30
0.0
  0
VERTEX
  8
0
  6
CONTINUOUS
 62
     3
  5
56C
 10
-15.37133
 20
-236.16064
 30
0.0
  0
VERTEX
  8
0
  6
CONTINUOUS
 62
     3
  5
56D
 10
-15.070576
 20
-236.104036
 30
0.0
  0
VERTEX
  8
0
  6
CONTINUOUS
 62
     3
  5
56E
 10
-14.768334
 20
-236.05921
 30
0.0
  0
VERTEX
  8
0
  6
CONTINUOUS
 62
     3
  5
56F
 10
-14.464978
 20
-236.026622
 30
0.0
  0
VERTEX
  8
0
  6
CONTINUOUS
 62
     3
  5
570
 10
-14.160878
 20
-236.006732
 30
0.0
  0
VERTEX
  8
0
  6
CONTINUOUS
 62
     3
  5
571
 10
-13.856406
 20
-236.0
 30
0.0
  0
VERTEX
  8
0
  6
CONTINUOUS
 62
     3
  5
572
 10
-13.551935
 20
-236.006732
 30
0.0
  0
VERTEX
  8
0
  6
CONTINUOUS
 62
     3
  5
573
 10
-13.247835
 20
-236.026622
 30
0.0
  0
VERTEX
  8
0
  6
CONTINUOUS
 62
     3
  5
574
 10
-12.944479
 20
-236.05921
 30
0.0
  0
VERTEX
  8
0
  6
CONTINUOUS
 62
     3
  5
575
 10
-12.642237
 20
-236.104036
 30
0.0
  0
VERTEX
  8
0
  6
CONTINUOUS
 62
     3
  5
576
 10
-12.341483
 20
-236.16064
 30
0.0
  0
VERTEX
  8
0
  6
CONTINUOUS
 62
     3
  5
577
 10
-12.042586
 20
-236.228561
 30
0.0
  0
VERTEX
  8
0
  6
CONTINUOUS
 62
     3
  5
578
 10
-11.74592
 20
-236.307341
 30
0.0
  0
VERTEX
  8
0
  6
CONTINUOUS
 62
     3
  5
579
 10
-11.451856
 20
-236.396518
 30
0.0
  0
VERTEX
  8
0
  6
CONTINUOUS
 62
     3
  5
57A
 10
-11.160765
 20
-236.495633
 30
0.0
  0
VERTEX
  8
0
  6
CONTINUOUS
 62
     3
  5
57B
 10
-10.873019
 20
-236.604227
 30
0.0
  0
VERTEX
  8
0
  6
CONTINUOUS
 62
     3
  5
57C
 10
-10.588989
 20
-236.721838
 30
0.0
  0
VERTEX
  8
0
  6
CONTINUOUS
 62
     3
  5
57D
 10
-10.309049
 20
-236.848007
 30
0.0
  0
VERTEX
  8
0
  6
CONTINUOUS
 62
     3
  5
57E
 10
-10.033568
 20
-236.982274
 30
0.0
  0
VERTEX
  8
0
  6
CONTINUOUS
 62
     3
  5
57F
 10
-9.76292
 20
-237.124179
 30
0.0
  0
VERTEX
  8
0
  6
CONTINUOUS
 62
     3
  5
580
 10
-9.497474
 20
-237.273262
 30
0.0
  0
VERTEX
  8
0
  6
CONTINUOUS
 62
     3
  5
581
 10
-9.237604
 20
-237.429062
 30
0.0
  0
SEQEND
  8
0
  6
CONTINUOUS
 62
     3
  5
582
  0
LINE
  8
0
  6
CONTINUOUS
 62
     3
  5
15F
 10
-18.5
 20
-261.0
 30
0.0
 11
18.5
 21
-261.0
 31
0.0
  0
LINE
  8
0
  6
CONTINUOUS
 62
     3
  5
160
 10
9.237604
 20
-262.429062
 30
0.0
 11
9.237604
 21
-272.570938
 31
0.0
  0
LINE
  8
0
  6
CONTINUOUS
 62
     3
  5
161
 10
18.5
 20
-258.0
 30
0.0
 11
18.5
 21
-261.0
 31
0.0
  0
LINE
  8
0
  6
CONTINUOUS
 62
     3
  5
162
 10
-18.475209
 20
-262.429062
 30
0.0
 11
-18.475209
 21
-272.570938
 31
0.0
  0
LINE
  8
0
  6
CONTINUOUS
 62
     3
  5
163
 10
-18.475209
 20
-272.570938
 30
0.0
 11
-16.0
 21
-274.0
 31
0.0
  0
LINE
  8
0
  6
CONTINUOUS
 62
     3
  5
164
 10
-16.0
 20
-274.0
 30
0.0
 11
16.0
 21
-274.0
 31
0.0
  0
LINE
  8
0
  6
CONTINUOUS
 62
     3
  5
165
 10
-18.5
 20
-258.0
 30
0.0
 11
-18.5
 21
-261.0
 31
0.0
  0
LINE
  8
0
  6
CONTINUOUS
 62
     3
  5
166
 10
-9.237604
 20
-262.429062
 30
0.0
 11
-9.237604
 21
-272.570938
 31
0.0
  0
LINE
  8
0
  6
CONTINUOUS
 62
     3
  5
167
 10
-18.475209
 20
-262.429062
 30
0.0
 11
-16.0
 21
-261.0
 31
0.0
  0
LINE
  8
0
  6
CONTINUOUS
 62
     3
  5
168
 10
18.475209
 20
-262.429062
 30
0.0
 11
16.0
 21
-261.0
 31
0.0
  0
LINE
  8
0
  6
CONTINUOUS
 62
     3
  5
169
 10
18.475209
 20
-272.570938
 30
0.0
 11
16.0
 21
-274.0
 31
0.0
  0
LINE
  8
0
  6
CONTINUOUS
 62
     3
  5
16A
 10
18.475209
 20
-262.429062
 30
0.0
 11
18.475209
 21
-272.570938
 31
0.0
  0
LINE
  8
0
  6
CONTINUOUS
 62
     3
  5
16B
 10
18.5
 20
-254.0
 30
0.0
 11
18.5
 21
-249.0
 31
0.0
  0
LINE
  8
0
  6
CONTINUOUS
 62
     3
  5
16C
 10
-18.5
 20
-254.0
 30
0.0
 11
-18.5
 21
-249.0
 31
0.0
  0
LINE
  8
0
  6
CONTINUOUS
 62
     3
  5
16D
 10
18.475209
 20
-247.570938
 30
0.0
 11
18.475209
 21
-237.429062
 31
0.0
  0
LINE
  8
0
  6
CONTINUOUS
 62
     3
  5
16E
 10
18.475209
 20
-237.429062
 30
0.0
 11
16.0
 21
-236.0
 31
0.0
  0
LINE
  8
0
  6
CONTINUOUS
 62
     3
  5
16F
 10
18.475209
 20
-247.570938
 30
0.0
 11
16.0
 21
-249.0
 31
0.0
  0
LINE
  8
0
  6
CONTINUOUS
 62
     3
  5
170
 10
-18.475209
 20
-247.570938
 30
0.0
 11
-16.0
 21
-249.0
 31
0.0
  0
LINE
  8
0
  6
CONTINUOUS
 62
     3
  5
171
 10
9.237604
 20
-247.570938
 30
0.0
 11
9.237604
 21
-237.429062
 31
0.0
  0
LINE
  8
0
  6
CONTINUOUS
 62
     3
  5
172
 10
-18.475209
 20
-237.429062
 30
0.0
 11
-16.0
 21
-236.0
 31
0.0
  0
LINE
  8
0
  6
CONTINUOUS
 62
     3
  5
173
 10
-18.475209
 20
-247.570938
 30
0.0
 11
-18.475209
 21
-237.429062
 31
0.0
  0
LINE
  8
0
  6
CONTINUOUS
 62
     3
  5
174
 10
-9.237604
 20
-247.570938
 30
0.0
 11
-9.237604
 21
-237.429062
 31
0.0
  0
LINE
  8
0
  6
CONTINUOUS
 62
    80
  5
175
 10
-9.5
 20
-282.0
 30
0.0
 11
-9.5
 21
-274.0
 31
0.0
  0
LINE
  8
0
  6
CONTINUOUS
 62
    80
  5
176
 10
9.5
 20
-282.0
 30
0.0
 11
9.5
 21
-274.0
 31
0.0
  0
LINE
  8
0
  6
CONTINUOUS
 62
    80
  5
177
 10
-11.0
 20
-280.5
 30
0.0
 11
11.0
 21
-280.5
 31
0.0
  0
LINE
  8
0
  6
CONTINUOUS
 62
     3
  5
178
 10
-9.5
 20
-282.0
 30
0.0
 11
-11.0
 21
-280.5
 31
0.0
  0
LINE
  8
0
  6
CONTINUOUS
 62
     3
  5
179
 10
9.5
 20
-282.0
 30
0.0
 11
11.0
 21
-280.5
 31
0.0
  0
LINE
  8
0
  6
CONTINUOUS
 62
     3
  5
17A
 10
-11.0
 20
-280.5
 30
0.0
 11
-11.0
 21
-274.0
 31
0.0
  0
LINE
  8
0
  6
CONTINUOUS
 62
     3
  5
17B
 10
11.0
 20
-280.5
 30
0.0
 11
11.0
 21
-274.0
 31
0.0
  0
LINE
  8
0
  6
CONTINUOUS
 62
     3
  5
17C
 10
-16.0
 20
-236.0
 30
0.0
 11
16.0
 21
-236.0
 31
0.0
  0
LINE
  8
0
  6
CONTINUOUS
 62
     3
  5
17D
 10
-18.5
 20
-252.0
 30
0.0
 11
18.5
 21
-252.0
 31
0.0
  0
LINE
  8
0
  6
CONTINUOUS
 62
     3
  5
17E
 10
-18.5
 20
-249.0
 30
0.0
 11
18.5
 21
-249.0
 31
0.0
  0
LINE
  8
0
  6
CENTER
 62
    50
  5
17F
 10
-53.0
 20
-284.0
 30
0.0
 11
-63.5
 21
-284.0
 31
0.0
  0
LINE
  8
0
  6
CONTINUOUS
 62
     3
  5
180
 10
-11.0
 20
-236.0
 30
0.0
 11
-11.0
 21
0.0
 31
0.0
  0
LINE
  8
0
  6
CONTINUOUS
 62
     3
  5
181
 10
11.0
 20
-236.0
 30
0.0
 11
11.0
 21
0.0
 31
0.0
  0
ENDBLK
  8
0
  5
182
  0
BLOCK
  8
0
  5
183
  2
MS_8
 70
     0
 10
0.0
 20
0.0
 30
0.0
  3
MS_8
  0
CIRCLE
  8
0
  6
CONTINUOUS
 62
     3
  5
184
 10
0.0
 20
0.0
 30
0.0
 40
4.0
  0
LINE
  8
0
  6
CONTINUOUS
 62
     3
  5
185
 10
-2.299988
 20
0.575012
 30
0.0
 11
-1.494995
 21
0.575012
 31
0.0
  0
LINE
  8
0
  6
CONTINUOUS
 62
     3
  5
186
 10
2.299988
 20
0.575012
 30
0.0
 11
2.299988
 21
-0.575012
 31
0.0
  0
LINE
  8
0
  6
CONTINUOUS
 62
     3
  5
187
 10
-0.575012
 20
2.299988
 30
0.0
 11
0.575012
 21
2.299988
 31
0.0
  0
LINE
  8
0
  6
CONTINUOUS
 62
     3
  5
188
 10
0.575012
 20
2.299988
 30
0.0
 11
0.575012
 21
1.494995
 31
0.0
  0
LINE
  8
0
  6
CONTINUOUS
 62
     3
  5
189
 10
1.494995
 20
0.575012
 30
0.0
 11
2.299988
 21
0.575012
 31
0.0
  0
LINE
  8
0
  6
CONTINUOUS
 62
     3
  5
18A
 10
-0.575012
 20
2.299988
 30
0.0
 11
-0.575012
 21
1.494995
 31
0.0
  0
LINE
  8
0
  6
CONTINUOUS
 62
     3
  5
18B
 10
-2.299988
 20
0.575012
 30
0.0
 11
-2.299988
 21
-0.575012
 31
0.0
  0
LINE
  8
0
  6
CONTINUOUS
 62
     3
  5
18C
 10
-0.575012
 20
-2.299988
 30
0.0
 11
0.575012
 21
-2.299988
 31
0.0
  0
LINE
  8
0
  6
CONTINUOUS
 62
     3
  5
18D
 10
-2.299988
 20
-0.575012
 30
0.0
 11
-1.494995
 21
-0.575012
 31
0.0
  0
LINE
  8
0
  6
CONTINUOUS
 62
     3
  5
18E
 10
-0.575012
 20
-1.494995
 30
0.0
 11
-0.575012
 21
-2.299988
 31
0.0
  0
LINE
  8
0
  6
CONTINUOUS
 62
     3
  5
18F
 10
0.575012
 20
-1.494995
 30
0.0
 11
0.575012
 21
-2.299988
 31
0.0
  0
LINE
  8
0
  6
CONTINUOUS
 62
     3
  5
190
 10
1.494995
 20
-0.575012
 30
0.0
 11
2.299988
 21
-0.575012
 31
0.0
  0
ARC
  8
0
  6
CONTINUOUS
 62
     3
  5
191
 10
-1.494995
 20
1.494995
 30
0.0
 40
0.92
 50
269.999997
 51
0.0
  0
CIRCLE
  8
0
  6
CONTINUOUS
 62
     3
  5
192
 10
0.0
 20
0.0
 30
0.0
 40
3.5
  0
ARC
  8
0
  6
CONTINUOUS
 62
     3
  5
193
 10
1.494995
 20
1.494995
 30
0.0
 40
0.92
 50
179.999995
 51
269.999997
  0
ARC
  8
0
  6
CONTINUOUS
 62
     3
  5
194
 10
-1.494995
 20
-1.494995
 30
0.0
 40
0.92
 50
0.0
 51
90.000003
  0
ARC
  8
0
  6
CONTINUOUS
 62
     3
  5
195
 10
1.494995
 20
-1.494995
 30
0.0
 40
0.92
 50
90.000003
 51
180.000005
  0
CIRCLE
  8
0
  6
CONTINUOUS
 62
     3
  5
196
 10
0.0
 20
0.0
 30
0.0
 40
28.0
  0
CIRCLE
  8
0
  6
CONTINUOUS
 62
     3
  5
197
 10
0.0
 20
0.0
 30
0.0
 40
25.0
  0
ENDBLK
  8
0
  5
198
  0
BLOCK
  8
0
  5
199
  2
MS_9
 70
     0
 10
0.0
 20
0.0
 30
0.0
  3
MS_9
  0
LINE
  8
0
  6
CONTINUOUS
 62
     3
  5
19A
 10
-27.7
 20
168.5
 30
0.0
 11
27.7
 21
168.5
 31
0.0
  0
LINE
  8
0
  6
CONTINUOUS
 62
     3
  5
19B
 10
27.7
 20
168.5
 30
0.0
 11
28.0
 21
168.2
 31
0.0
  0
LINE
  8
0
  6
CONTINUOUS
 62
     3
  5
19C
 10
-27.7
 20
168.5
 30
0.0
 11
-28.0
 21
168.2
 31
0.0
  0
LINE
  8
0
  6
CONTINUOUS
 62
     3
  5
19D
 10
-28.0
 20
168.2
 30
0.0
 11
-28.0
 21
42.0
 31
0.0
  0
LINE
  8
0
  6
CONTINUOUS
 62
     3
  5
19E
 10
28.0
 20
42.0
 30
0.0
 11
28.0
 21
168.2
 31
0.0
  0
LINE
  8
0
  6
CONTINUOUS
 62
     3
  5
19F
 10
-11.221501
 20
168.5
 30
0.0
 11
11.221501
 21
168.5
 31
0.0
  0
ARC
  8
0
  6
CONTINUOUS
 62
     3
  5
1A0
 10
16.333874
 20
15.5
 30
0.0
 40
1.5
 50
90.0
 51
173.290163
  0
ARC
  8
0
  6
CONTINUOUS
 62
     3
  5
1A1
 10
-16.333874
 20
15.5
 30
0.0
 40
1.5
 50
43.731856
 51
90.0
  0
INSERT
  8
0
  6
BYBLOCK
  5
1A2
  2
MS_1
 10
-10.0
 20
17.0
 30
0.0
  0
LINE
  8
0
  6
CONTINUOUS
 62
     3
  5
1A3
 10
-28.0
 20
32.999592
 30
0.0
 11
-28.0
 21
20.0
 31
0.0
  0
LINE
  8
0
  6
CONTINUOUS
 62
     3
  5
1A4
 10
28.0
 20
20.0
 30
0.0
 11
28.0
 21
32.999592
 31
0.0
  0
LINE
  8
0
  6
CONTINUOUS
 62
     3
  5
1A5
 10
-27.7
 20
42.0
 30
0.0
 11
-28.0
 21
41.7
 31
0.0
  0
LINE
  8
0
  6
CONTINUOUS
 62
     3
  5
1A6
 10
-28.0
 20
33.0
 30
0.0
 11
-28.0
 21
41.7
 31
0.0
  0
LINE
  8
0
  6
CONTINUOUS
 62
     3
  5
1A7
 10
27.7
 20
42.0
 30
0.0
 11
28.0
 21
41.7
 31
0.0
  0
LINE
  8
0
  6
CONTINUOUS
 62
     3
  5
1A8
 10
28.0
 20
33.0
 30
0.0
 11
28.0
 21
41.7
 31
0.0
  0
LINE
  8
0
  6
CONTINUOUS
 62
     3
  5
1A9
 10
-28.0
 20
42.0
 30
0.0
 11
28.0
 21
42.0
 31
0.0
  0
LINE
  8
0
  6
CONTINUOUS
 62
     3
  5
1AA
 10
13.207802
 20
1.766318
 30
0.0
 11
14.844148
 21
15.675262
 31
0.0
  0
LINE
  8
0
  6
CONTINUOUS
 62
     3
  5
1AB
 10
28.0
 20
22.0
 30
0.0
 11
26.5
 21
22.0
 31
0.0
  0
LINE
  8
0
  6
CONTINUOUS
 62
     3
  5
1AC
 10
-26.5
 20
22.0
 30
0.0
 11
-28.0
 21
22.0
 31
0.0
  0
LINE
  8
0
  6
CONTINUOUS
 62
     3
  5
1AD
 10
-28.0
 20
20.0
 30
0.0
 11
28.0
 21
20.0
 31
0.0
  0
LINE
  8
0
  6
CONTINUOUS
 62
     3
  5
1AE
 10
-23.5
 20
20.0
 30
0.0
 11
-23.5
 21
18.0
 31
0.0
  0
ARC
  8
0
  6
CONTINUOUS
 62
     3
  5
1AF
 10
22.5
 20
18.0
 30
0.0
 40
1.0
 50
270.0
 51
0.0
  0
ARC
  8
0
  6
CONTINUOUS
 62
     3
  5
1B0
 10
-11.221501
 20
2.0
 30
0.0
 40
2.0
 50
186.709837
 51
270.0
  0
ARC
  8
0
  6
CONTINUOUS
 62
     3
  5
1B1
 10
11.221501
 20
2.0
 30
0.0
 40
2.0
 50
270.0
 51
353.290163
  0
ARC
  8
0
  6
CONTINUOUS
 62
     3
  5
1B2
 10
-22.5
 20
18.0
 30
0.0
 40
1.0
 50
180.0
 51
270.0
  0
ARC
  8
0
  6
CONTINUOUS
 62
     3
  5
1B3
 10
-51.142085
 20
-10.921872
 30
0.0
 40
40.0
 50
18.493964
 51
44.270508
  0
LINE
  8
0
  6
CONTINUOUS
 62
     3
  5
1B4
 10
-13.207802
 20
1.766318
 30
0.0
 11
-14.844148
 21
15.675262
 31
0.0
  0
ARC
  8
0
  6
CONTINUOUS
 62
     3
  5
1B5
 10
-16.333874
 20
15.5
 30
0.0
 40
1.5
 50
6.709837
 51
23.287624
  0
LINE
  8
0
  6
CONTINUOUS
 62
     3
  5
1B6
 10
-22.5
 20
17.0
 30
0.0
 11
22.5
 21
17.0
 31
0.0
  0
LINE
  8
0
  6
CONTINUOUS
 62
     3
  5
1B7
 10
23.5
 20
18.0
 30
0.0
 11
23.5
 21
20.0
 31
0.0
  0
LINE
  8
0
  6
CONTINUOUS
 62
     3
  5
1B8
 10
-11.221501
 20
0.0
 30
0.0
 11
11.221501
 21
0.0
 31
0.0
  0
ARC
  8
0
  6
CONTINUOUS
 62
     3
  5
1B9
 10
43.39076
 20
3.934586
 30
0.0
 40
40.0
 50
160.935319
 51
185.645008
  0
ARC
  8
0
  6
CONTINUOUS
 62
     3
  5
1BA
 10
45.582316
 20
-0.440605
 30
0.0
 40
40.0
 50
154.150094
 51
179.368866
  0
ARC
  8
0
  6
CONTINUOUS
 62
     3
  5
1BB
 10
17.490842
 20
29.799592
 30
0.0
 40
1.0
 50
351.373073
 51
90.0
  0
ARC
  8
0
  6
CONTINUOUS
 62
     3
  5
1BC
 10
17.490842
 20
25.499592
 30
0.0
 40
1.0
 50
0.0
 51
90.0
  0
LINE
  8
0
  6
CONTINUOUS
 62
     3
  5
1BD
 10
19.79899
 20
29.799592
 30
0.0
 11
19.79899
 21
29.499592
 31
0.0
  0
LINE
  8
0
  6
CONTINUOUS
 62
     3
  5
1BE
 10
18.490842
 20
25.499592
 30
0.0
 11
18.490842
 21
25.199592
 31
0.0
  0
LINE
  8
0
  6
CONTINUOUS
 62
     3
  5
1BF
 10
-5.29863
 20
30.799592
 30
0.0
 11
5.29863
 21
30.799592
 31
0.0
  0
LINE
  8
0
  6
CONTINUOUS
 62
     3
  5
1C0
 10
19.79899
 20
25.499592
 30
0.0
 11
19.79899
 21
25.199592
 31
0.0
  0
LINE
  8
0
  6
CONTINUOUS
 62
     3
  5
1C1
 10
6.29863
 20
29.799592
 30
0.0
 11
6.29863
 21
29.499592
 31
0.0
  0
LINE
  8
0
  6
CONTINUOUS
 62
     3
  5
1C2
 10
9.115908
 20
29.499592
 30
0.0
 11
9.115908
 21
29.799592
 31
0.0
  0
ARC
  8
0
  6
CONTINUOUS
 62
     3
  5
1C3
 10
18.79899
 20
29.499592
 30
0.0
 40
1.0
 50
270.0
 51
0.0
  0
LINE
  8
0
  6
CONTINUOUS
 62
     3
  5
1C4
 10
-6.29863
 20
29.499592
 30
0.0
 11
-6.29863
 21
29.799592
 31
0.0
  0
LINE
  8
0
  6
CONTINUOUS
 62
     3
  5
1C5
 10
5.29863
 20
28.499592
 30
0.0
 11
-5.29863
 21
28.499592
 31
0.0
  0
ARC
  8
0
  6
CONTINUOUS
 62
     3
  5
1C6
 10
17.490842
 20
29.499592
 30
0.0
 40
1.0
 50
270.0
 51
8.626927
  0
ARC
  8
0
  6
CONTINUOUS
 62
     3
  5
1C7
 10
18.79899
 20
29.799592
 30
0.0
 40
1.0
 50
0.0
 51
90.0
  0
ARC
  8
0
  6
CONTINUOUS
 62
     3
  5
1C8
 10
-18.79899
 20
25.199592
 30
0.0
 40
1.0
 50
180.0
 51
270.0
  0
ARC
  8
0
  6
CONTINUOUS
 62
     3
  5
1C9
 10
-18.79899
 20
25.499592
 30
0.0
 40
1.0
 50
90.0
 51
180.0
  0
ARC
  8
0
  6
CONTINUOUS
 62
     3
  5
1CA
 10
-17.490842
 20
25.199592
 30
0.0
 40
1.0
 50
180.0
 51
270.0
  0
ARC
  8
0
  6
CONTINUOUS
 62
     3
  5
1CB
 10
-18.79899
 20
29.499592
 30
0.0
 40
1.0
 50
180.0
 51
270.0
  0
ARC
  8
0
  6
CONTINUOUS
 62
     3
  5
1CC
 10
-18.79899
 20
29.799592
 30
0.0
 40
1.0
 50
90.0
 51
180.0
  0
ARC
  8
0
  6
CONTINUOUS
 62
     3
  5
1CD
 10
-17.490842
 20
29.499592
 30
0.0
 40
1.0
 50
171.373073
 51
270.0
  0
ARC
  8
0
  6
CONTINUOUS
 62
     3
  5
1CE
 10
-17.490842
 20
29.799592
 30
0.0
 40
1.0
 50
90.0
 51
188.626927
  0
ARC
  8
0
  6
CONTINUOUS
 62
     3
  5
1CF
 10
10.115908
 20
25.199592
 30
0.0
 40
1.0
 50
180.0
 51
270.0
  0
ARC
  8
0
  6
CONTINUOUS
 62
     3
  5
1D0
 10
10.115908
 20
25.499592
 30
0.0
 40
1.0
 50
90.0
 51
180.0
  0
ARC
  8
0
  6
CONTINUOUS
 62
     3
  5
1D1
 10
10.115908
 20
29.499592
 30
0.0
 40
1.0
 50
180.0
 51
270.0
  0
ARC
  8
0
  6
CONTINUOUS
 62
     3
  5
1D2
 10
10.115908
 20
29.799592
 30
0.0
 40
1.0
 50
90.0
 51
180.0
  0
ARC
  8
0
  6
CONTINUOUS
 62
     3
  5
1D3
 10
-10.115908
 20
29.499592
 30
0.0
 40
1.0
 50
270.0
 51
0.0
  0
ARC
  8
0
  6
CONTINUOUS
 62
     3
  5
1D4
 10
-10.115908
 20
29.799592
 30
0.0
 40
1.0
 50
0.0
 51
90.0
  0
ARC
  8
0
  6
CONTINUOUS
 62
     3
  5
1D5
 10
-10.115908
 20
25.199592
 30
0.0
 40
1.0
 50
270.0
 51
0.0
  0
ARC
  8
0
  6
CONTINUOUS
 62
     3
  5
1D6
 10
-10.115908
 20
25.499592
 30
0.0
 40
1.0
 50
0.0
 51
90.0
  0
ARC
  8
0
  6
CONTINUOUS
 62
     3
  5
1D7
 10
-5.29863
 20
29.499592
 30
0.0
 40
1.0
 50
180.0
 51
270.0
  0
ARC
  8
0
  6
CONTINUOUS
 62
     3
  5
1D8
 10
-5.29863
 20
29.799592
 30
0.0
 40
1.0
 50
90.0
 51
180.0
  0
ARC
  8
0
  6
CONTINUOUS
 62
     3
  5
1D9
 10
5.29863
 20
29.499592
 30
0.0
 40
1.0
 50
270.0
 51
0.0
  0
ARC
  8
0
  6
CONTINUOUS
 62
     3
  5
1DA
 10
5.29863
 20
29.799592
 30
0.0
 40
1.0
 50
0.0
 51
90.0
  0
ARC
  8
0
  6
CONTINUOUS
 62
     3
  5
1DB
 10
5.29863
 20
25.199592
 30
0.0
 40
1.0
 50
270.0
 51
0.0
  0
ARC
  8
0
  6
CONTINUOUS
 62
     3
  5
1DC
 10
5.29863
 20
25.499592
 30
0.0
 40
1.0
 50
0.0
 51
90.0
  0
ARC
  8
0
  6
CONTINUOUS
 62
     3
  5
1DD
 10
-5.29863
 20
25.199592
 30
0.0
 40
1.0
 50
180.0
 51
270.0
  0
ARC
  8
0
  6
CONTINUOUS
 62
     3
  5
1DE
 10
-5.29863
 20
25.499592
 30
0.0
 40
1.0
 50
90.0
 51
180.0
  0
ARC
  8
0
  6
CONTINUOUS
 62
     3
  5
1DF
 10
17.490842
 20
25.199592
 30
0.0
 40
1.0
 50
270.0
 51
0.0
  0
LINE
  8
0
  6
CONTINUOUS
 62
     3
  5
1E0
 10
10.115908
 20
26.499592
 30
0.0
 11
18.79899
 21
26.499592
 31
0.0
  0
LINE
  8
0
  6
CONTINUOUS
 62
     3
  5
1E1
 10
10.115908
 20
30.799592
 30
0.0
 11
18.79899
 21
30.799592
 31
0.0
  0
ARC
  8
0
  6
CONTINUOUS
 62
     3
  5
1E2
 10
-17.490842
 20
25.499592
 30
0.0
 40
1.0
 50
90.0
 51
180.0
  0
LINE
  8
0
  6
CONTINUOUS
 62
     3
  5
1E3
 10
-19.79899
 20
29.799592
 30
0.0
 11
-19.79899
 21
29.499592
 31
0.0
  0
LINE
  8
0
  6
CONTINUOUS
 62
     3
  5
1E4
 10
-18.79899
 20
28.499592
 30
0.0
 11
-10.115908
 21
28.499592
 31
0.0
  0
ARC
  8
0
  6
CONTINUOUS
 62
     3
  5
1E5
 10
18.79899
 20
25.499592
 30
0.0
 40
1.0
 50
0.0
 51
90.0
  0
LINE
  8
0
  6
CONTINUOUS
 62
     3
  5
1E6
 10
18.79899
 20
28.499592
 30
0.0
 11
10.115908
 21
28.499592
 31
0.0
  0
LINE
  8
0
  6
CONTINUOUS
 62
     3
  5
1E7
 10
-18.490842
 20
25.499592
 30
0.0
 11
-18.490842
 21
25.199592
 31
0.0
  0
LINE
  8
0
  6
CONTINUOUS
 62
     3
  5
1E8
 10
-9.115908
 20
25.199592
 30
0.0
 11
-9.115908
 21
25.499592
 31
0.0
  0
LINE
  8
0
  6
CONTINUOUS
 62
     3
  5
1E9
 10
5.29863
 20
24.199592
 30
0.0
 11
-5.29863
 21
24.199592
 31
0.0
  0
LINE
  8
0
  6
CONTINUOUS
 62
     3
  5
1EA
 10
-10.115908
 20
26.499592
 30
0.0
 11
-18.79899
 21
26.499592
 31
0.0
  0
LINE
  8
0
  6
CONTINUOUS
 62
     3
  5
1EB
 10
18.79899
 20
24.199592
 30
0.0
 11
10.115908
 21
24.199592
 31
0.0
  0
LINE
  8
0
  6
CONTINUOUS
 62
     3
  5
1EC
 10
-19.79899
 20
25.499592
 30
0.0
 11
-19.79899
 21
25.199592
 31
0.0
  0
LINE
  8
0
  6
CONTINUOUS
 62
     3
  5
1ED
 10
-5.29863
 20
26.499592
 30
0.0
 11
5.29863
 21
26.499592
 31
0.0
  0
LINE
  8
0
  6
CONTINUOUS
 62
     3
  5
1EE
 10
6.29863
 20
25.499592
 30
0.0
 11
6.29863
 21
25.199592
 31
0.0
  0
LINE
  8
0
  6
CONTINUOUS
 62
     3
  5
1EF
 10
9.115908
 20
25.199592
 30
0.0
 11
9.115908
 21
25.499592
 31
0.0
  0
LINE
  8
0
  6
CONTINUOUS
 62
     3
  5
1F0
 10
-10.115908
 20
30.799592
 30
0.0
 11
-18.79899
 21
30.799592
 31
0.0
  0
LINE
  8
0
  6
CONTINUOUS
 62
     3
  5
1F1
 10
-6.29863
 20
25.199592
 30
0.0
 11
-6.29863
 21
25.499592
 31
0.0
  0
LINE
  8
0
  6
CONTINUOUS
 62
     3
  5
1F2
 10
-9.115908
 20
29.499592
 30
0.0
 11
-9.115908
 21
29.799592
 31
0.0
  0
ARC
  8
0
  6
CONTINUOUS
 62
     3
  5
1F3
 10
18.79899
 20
25.199592
 30
0.0
 40
1.0
 50
270.0
 51
0.0
  0
LINE
  8
0
  6
CONTINUOUS
 62
     3
  5
1F4
 10
-18.79899
 20
24.199592
 30
0.0
 11
-10.115908
 21
24.199592
 31
0.0
  0
LINE
  8
0
  6
CONTINUOUS
 62
     3
  5
1F5
 10
28.0
 20
21.999592
 30
0.0
 11
-28.0
 21
21.999592
 31
0.0
  0
LINE
  8
0
  6
CONTINUOUS
 62
     3
  5
1F6
 10
28.0
 20
33.0
 30
0.0
 11
-28.0
 21
33.0
 31
0.0
  0
ENDBLK
  8
0
  5
1F7
  0
ENDSEC
  0
SECTION
  2
ENTITIES
  0
INSERT
  8
0
  6
BYBLOCK
  5
1F8
  2
MS_9
 10
195.637895
 20
395.671579
 30
0.0
  0
INSERT
  8
0
  6
BYBLOCK
  5
1F9
  2
MS_9
 10
395.637895
 20
395.671579
 30
0.0
  0
INSERT
  8
0
  6
BYBLOCK
  5
1FA
  2
MS_9
 10
595.637895
 20
395.671579
 30
0.0
  0
INSERT
  8
0
  6
BYBLOCK
  5
1FB
  2
MS_9
 10
795.637895
 20
395.671579
 30
0.0
  0
INSERT
  8
0
  6
BYBLOCK
  5
1FC
  2
MS_9
 10
995.637895
 20
395.671579
 30
0.0
  0
INSERT
  8
0
  6
BYBLOCK
  5
1FD
  2
MS_6
 10
195.637895
 20
395.671579
 30
0.0
  0
INSERT
  8
0
  6
BYBLOCK
  5
1FE
  2
MS_4
 10
195.637895
 20
564.171579
 30
0.0
  0
INSERT
  8
0
  6
BYBLOCK
  5
1FF
  2
MS_2
 10
195.637895
 20
630.171579
 30
0.0
  0
INSERT
  8
0
  6
BYBLOCK
  5
200
  2
MS_2
 10
395.637895
 20
630.171579
 30
0.0
  0
INSERT
  8
0
  6
BYBLOCK
  5
201
  2
MS_4
 10
395.637895
 20
564.171579
 30
0.0
  0
INSERT
  8
0
  6
BYBLOCK
  5
202
  2
MS_6
 10
395.637895
 20
395.671579
 30
0.0
  0
INSERT
  8
0
  6
BYBLOCK
  5
203
  2
MS_2
 10
595.637895
 20
663.171579
 30
0.0
  0
INSERT
  8
0
  6
BYBLOCK
  5
204
  2
MS_6
 10
595.637895
 20
395.671579
 30
0.0
  0
INSERT
  8
0
  6
BYBLOCK
  5
205
  2
MS_2
 10
795.637895
 20
696.171579
 30
0.0
  0
INSERT
  8
0
  6
BYBLOCK
  5
206
  2
MS_4
 10
795.637895
 20
630.171579
 30
0.0
  0
INSERT
  8
0
  6
BYBLOCK
  5
207
  2
MS_6
 10
795.637895
 20
395.671579
 30
0.0
  0
INSERT
  8
0
  6
BYBLOCK
  5
208
  2
MS_6
 10
995.637895
 20
395.671579
 30
0.0
  0
INSERT
  8
0
  6
BYBLOCK
  5
209
  2
MS_3
 10
595.637895
 20
564.171579
 30
0.0
  0
INSERT
  8
0
  6
BYBLOCK
  5
20A
  2
MS_4
 10
795.637895
 20
564.171579
 30
0.0
  0
INSERT
  8
0
  6
BYBLOCK
  5
20B
  2
MS_3
 10
995.637895
 20
564.171579
 30
0.0
  0
INSERT
  8
0
  6
BYBLOCK
  5
20C
  2
MS_2
 10
995.637895
 20
729.171579
 30
0.0
  0
INSERT
  8
0
  6
BYBLOCK
  5
20D
  2
MS_4
 10
995.637895
 20
663.171579
 30
0.0
  0
INSERT
  8
0
  6
BYBLOCK
  5
20E
  2
MS_8
 10
995.637895
 20
839.171579
 30
0.0
  0
LINE
  8
0
  6
CONTINUOUS
 62
     3
  5
20F
 10
979.637895
 20
862.14983
 30
0.0
 11
979.637895
 21
899.171579
 31
0.0
  0
LINE
  8
0
  6
CONTINUOUS
 62
     3
  5
210
 10
1011.637895
 20
862.14983
 30
0.0
 11
1011.637895
 21
899.171579
 31
0.0
  0
LINE
  8
0
  6
CONTINUOUS
 62
     3
  5
211
 10
979.637895
 20
899.171579
 30
0.0
 11
1011.637895
 21
899.171579
 31
0.0
  0
LINE
  8
0
  6
CONTINUOUS
 62
     3
  5
212
 10
779.637895
 20
899.171579
 30
0.0
 11
811.637895
 21
899.171579
 31
0.0
  0
LINE
  8
0
  6
CONTINUOUS
 62
     3
  5
213
 10
811.637895
 20
862.14983
 30
0.0
 11
811.637895
 21
899.171579
 31
0.0
  0
LINE
  8
0
  6
CONTINUOUS
 62
     3
  5
214
 10
779.637895
 20
862.14983
 30
0.0
 11
779.637895
 21
899.171579
 31
0.0
  0
INSERT
  8
0
  6
BYBLOCK
  5
215
  2
MS_8
 10
795.637895
 20
839.171579
 30
0.0
  0
LINE
  8
0
  6
CONTINUOUS
 62
     3
  5
216
 10
579.637895
 20
899.171579
 30
0.0
 11
611.637895
 21
899.171579
 31
0.0
  0
LINE
  8
0
  6
CONTINUOUS
 62
     3
  5
217
 10
611.637895
 20
862.14983
 30
0.0
 11
611.637895
 21
899.171579
 31
0.0
  0
LINE
  8
0
  6
CONTINUOUS
 62
     3
  5
218
 10
579.637895
 20
862.14983
 30
0.0
 11
579.637895
 21
899.171579
 31
0.0
  0
INSERT
  8
0
  6
BYBLOCK
  5
219
  2
MS_8
 10
595.637895
 20
839.171579
 30
0.0
  0
LINE
  8
0
  6
CONTINUOUS
 62
     3
  5
21A
 10
379.637895
 20
899.171579
 30
0.0
 11
411.637895
 21
899.171579
 31
0.0
  0
LINE
  8
0
  6
CONTINUOUS
 62
     3
  5
21B
 10
411.637895
 20
862.14983
 30
0.0
 11
411.637895
 21
899.171579
 31
0.0
  0
LINE
  8
0
  6
CONTINUOUS
 62
     3
  5
21C
 10
379.637895
 20
862.14983
 30
0.0
 11
379.637895
 21
899.171579
 31
0.0
  0
INSERT
  8
0
  6
BYBLOCK
  5
21D
  2
MS_8
 10
395.637895
 20
839.171579
 30
0.0
  0
LINE
  8
0
  6
CONTINUOUS
 62
     3
  5
21E
 10
179.637895
 20
899.171579
 30
0.0
 11
211.637895
 21
899.171579
 31
0.0
  0
LINE
  8
0
  6
CONTINUOUS
 62
     3
  5
21F
 10
211.637895
 20
862.14983
 30
0.0
 11
211.637895
 21
899.171579
 31
0.0
  0
LINE
  8
0
  6
CONTINUOUS
 62
     3
  5
220
 10
179.637895
 20
862.14983
 30
0.0
 11
179.637895
 21
899.171579
 31
0.0
  0
INSERT
  8
0
  6
BYBLOCK
  5
221
  2
MS_8
 10
195.637895
 20
839.171579
 30
0.0
  0
TEXT
  8
0
  6
CONTINUOUS
 62
   255
  5
222
 10
305.918435
 20
1069.171579
 30
0.0
 40
30.0
  1
AUM  -100 / AUM  -200
 41
1.118608
  7
MX_NOTE_STANDARD
 11
305.918435
 21
1084.171579
 31
0.0
 73
     2
  0
TEXT
  8
0
  6
CONTINUOUS
 62
   255
  5
223
 10
305.675259
 20
1024.171579
 30
0.0
 40
30.0
  1
AUMT -100 / AUMT -200
 41
1.069973
  7
MX_NOTE_STANDARD
 11
305.675259
 21
1039.171579
 31
0.0
 73
     2
  0
TEXT
  8
0
  6
CONTINUOUS
 62
   255
  5
224
 10
305.452348
 20
979.171579
 30
0.0
 40
30.0
  1
AUMTB-100 / AUMTB-200
 41
1.025391
  7
MX_NOTE_STANDARD
 11
305.452348
 21
994.171579
 31
0.0
 73
     2
  0
TEXT
  8
0
  6
CONTINUOUS
 62
   255
  5
225
 10
474.484049
 20
2369.171579
 30
0.0
 40
30.0
  1
AUM  - 24
 41
1.081731
  7
MX_NOTE_STANDARD
 11
474.484049
 21
2384.171579
 31
0.0
 73
     2
  0
TEXT
  8
0
  6
CONTINUOUS
 62
   255
  5
226
 10
474.220212
 20
2324.171579
 30
0.0
 40
30.0
  1
AUMT - 24
 41
1.028963
  7
MX_NOTE_STANDARD
 11
474.220212
 21
2339.171579
 31
0.0
 73
     2
  0
TEXT
  8
0
  6
CONTINUOUS
 62
   255
  5
227
 10
473.980918
 20
2279.171579
 30
0.0
 40
30.0
  1
AUMTB- 24
 41
0.981105
  7
MX_NOTE_STANDARD
 11
473.980918
 21
2294.171579
 31
0.0
 73
     2
  0
INSERT
  8
0
  6
BYBLOCK
  5
228
  2
MS_8
 10
195.637895
 20
2139.171579
 30
0.0
  0
LINE
  8
0
  6
CONTINUOUS
 62
     3
  5
229
 10
179.637895
 20
2162.14983
 30
0.0
 11
179.637895
 21
2199.171579
 31
0.0
  0
LINE
  8
0
  6
CONTINUOUS
 62
     3
  5
22A
 10
211.637895
 20
2162.14983
 30
0.0
 11
211.637895
 21
2199.171579
 31
0.0
  0
LINE
  8
0
  6
CONTINUOUS
 62
     3
  5
22B
 10
179.637895
 20
2199.171579
 30
0.0
 11
211.637895
 21
2199.171579
 31
0.0
  0
INSERT
  8
0
  6
BYBLOCK
  5
22C
  2
MS_8
 10
395.637895
 20
2139.171579
 30
0.0
  0
LINE
  8
0
  6
CONTINUOUS
 62
     3
  5
22D
 10
379.637895
 20
2162.14983
 30
0.0
 11
379.637895
 21
2199.171579
 31
0.0
  0
LINE
  8
0
  6
CONTINUOUS
 62
     3
  5
22E
 10
411.637895
 20
2162.14983
 30
0.0
 11
411.637895
 21
2199.171579
 31
0.0
  0
LINE
  8
0
  6
CONTINUOUS
 62
     3
  5
22F
 10
379.637895
 20
2199.171579
 30
0.0
 11
411.637895
 21
2199.171579
 31
0.0
  0
INSERT
  8
0
  6
BYBLOCK
  5
230
  2
MS_8
 10
595.637895
 20
2139.171579
 30
0.0
  0
LINE
  8
0
  6
CONTINUOUS
 62
     3
  5
231
 10
579.637895
 20
2162.14983
 30
0.0
 11
579.637895
 21
2199.171579
 31
0.0
  0
LINE
  8
0
  6
CONTINUOUS
 62
     3
  5
232
 10
611.637895
 20
2162.14983
 30
0.0
 11
611.637895
 21
2199.171579
 31
0.0
  0
LINE
  8
0
  6
CONTINUOUS
 62
     3
  5
233
 10
579.637895
 20
2199.171579
 30
0.0
 11
611.637895
 21
2199.171579
 31
0.0
  0
INSERT
  8
0
  6
BYBLOCK
  5
234
  2
MS_8
 10
795.637895
 20
2139.171579
 30
0.0
  0
LINE
  8
0
  6
CONTINUOUS
 62
     3
  5
235
 10
779.637895
 20
2162.14983
 30
0.0
 11
779.637895
 21
2199.171579
 31
0.0
  0
LINE
  8
0
  6
CONTINUOUS
 62
     3
  5
236
 10
811.637895
 20
2162.14983
 30
0.0
 11
811.637895
 21
2199.171579
 31
0.0
  0
LINE
  8
0
  6
CONTINUOUS
 62
     3
  5
237
 10
779.637895
 20
2199.171579
 30
0.0
 11
811.637895
 21
2199.171579
 31
0.0
  0
LINE
  8
0
  6
CONTINUOUS
 62
     3
  5
238
 10
979.637895
 20
2199.171579
 30
0.0
 11
1011.637895
 21
2199.171579
 31
0.0
  0
LINE
  8
0
  6
CONTINUOUS
 62
     3
  5
239
 10
1011.637895
 20
2162.14983
 30
0.0
 11
1011.637895
 21
2199.171579
 31
0.0
  0
LINE
  8
0
  6
CONTINUOUS
 62
     3
  5
23A
 10
979.637895
 20
2162.14983
 30
0.0
 11
979.637895
 21
2199.171579
 31
0.0
  0
INSERT
  8
0
  6
BYBLOCK
  5
23B
  2
MS_8
 10
995.637895
 20
2139.171579
 30
0.0
  0
INSERT
  8
0
  6
BYBLOCK
  5
23C
  2
MS_4
 10
995.637895
 20
1963.171579
 30
0.0
  0
INSERT
  8
0
  6
BYBLOCK
  5
23D
  2
MS_2
 10
995.637895
 20
2029.171579
 30
0.0
  0
INSERT
  8
0
  6
BYBLOCK
  5
23E
  2
MS_3
 10
995.637895
 20
1864.171579
 30
0.0
  0
INSERT
  8
0
  6
BYBLOCK
  5
23F
  2
MS_4
 10
795.637895
 20
1864.171579
 30
0.0
  0
INSERT
  8
0
  6
BYBLOCK
  5
240
  2
MS_3
 10
595.637895
 20
1864.171579
 30
0.0
  0
INSERT
  8
0
  6
BYBLOCK
  5
241
  2
MS_6
 10
995.637895
 20
1763.671579
 30
0.0
  0
INSERT
  8
0
  6
BYBLOCK
  5
242
  2
MS_5
 10
995.637895
 20
1763.671579
 30
0.0
  0
INSERT
  8
0
  6
BYBLOCK
  5
243
  2
MS_6
 10
795.637895
 20
1763.671579
 30
0.0
  0
INSERT
  8
0
  6
BYBLOCK
  5
244
  2
MS_5
 10
795.637895
 20
1763.671579
 30
0.0
  0
INSERT
  8
0
  6
BYBLOCK
  5
245
  2
MS_4
 10
795.637895
 20
1930.171579
 30
0.0
  0
INSERT
  8
0
  6
BYBLOCK
  5
246
  2
MS_2
 10
795.637895
 20
1996.171579
 30
0.0
  0
INSERT
  8
0
  6
BYBLOCK
  5
247
  2
MS_6
 10
595.637895
 20
1763.671579
 30
0.0
  0
INSERT
  8
0
  6
BYBLOCK
  5
248
  2
MS_5
 10
595.637895
 20
1763.671579
 30
0.0
  0
INSERT
  8
0
  6
BYBLOCK
  5
249
  2
MS_2
 10
595.637895
 20
1963.171579
 30
0.0
  0
INSERT
  8
0
  6
BYBLOCK
  5
24A
  2
MS_6
 10
395.637895
 20
1763.671579
 30
0.0
  0
INSERT
  8
0
  6
BYBLOCK
  5
24B
  2
MS_5
 10
395.637895
 20
1763.671579
 30
0.0
  0
INSERT
  8
0
  6
BYBLOCK
  5
24C
  2
MS_4
 10
395.637895
 20
1864.171579
 30
0.0
  0
INSERT
  8
0
  6
BYBLOCK
  5
24D
  2
MS_2
 10
395.637895
 20
1930.171579
 30
0.0
  0
INSERT
  8
0
  6
BYBLOCK
  5
24E
  2
MS_2
 10
195.637895
 20
1930.171579
 30
0.0
  0
INSERT
  8
0
  6
BYBLOCK
  5
24F
  2
MS_4
 10
195.637895
 20
1864.171579
 30
0.0
  0
INSERT
  8
0
  6
BYBLOCK
  5
250
  2
MS_5
 10
195.637895
 20
1763.671579
 30
0.0
  0
INSERT
  8
0
  6
BYBLOCK
  5
251
  2
MS_6
 10
195.637895
 20
1763.671579
 30
0.0
  0
ENDSEC
  0
EOF
