  0
SECTION
  2
HEADER
  9
$ACADVER
  1
AC1009
  9
$DWGCODEPAGE
  3
dos932
  9
$INSBASE
 10
0.0
 20
0.0
 30
0.0
  9
$EXTMIN
 10
274.99673100000001
 20
152.75859500000001
 30
0.0
  9
$EXTMAX
 10
1141.0000150000001
 20
2385.0
 30
0.0
  9
$LIMMIN
 10
274.99673100000001
 20
152.75859500000001
  9
$LIMMAX
 10
1141.0000150000001
 20
2385.0
  9
$ORTHOMODE
 70
               0
  9
$REGENMODE
 70
               1
  9
$FILLMODE
 70
               1
  9
$QTEXTMODE
 70
               0
  9
$MIRRTEXT
 70
               1
  9
$DRAGMODE
 70
               2
  9
$LTSCALE
 40
1.0
  9
$OSMODE
 70
               0
  9
$ATTMODE
 70
               1
  9
$TEXTSIZE
 40
4.1655998229980469
  9
$TRACEWID
 40
0.05
  9
$TEXTSTYLE
  7
MX_NOTE_STANDARD
  9
$CLAYER
  8
0
  9
$CELTYPE
  6
CONTINUOUS
  9
$CECOLOR
 62
             256
  9
$DIMSCALE
 40
1.0
  9
$DIMASZ
 40
2.5
  9
$DIMEXO
 40
0.5
  9
$DIMDLI
 40
3.75
  9
$DIMRND
 40
0.0
  9
$DIMDLE
 40
0.0
  9
$DIMEXE
 40
1.0
  9
$DIMTP
 40
0.0
  9
$DIMTM
 40
0.0
  9
$DIMTXT
 40
2.5
  9
$DIMCEN
 40
2.5
  9
$DIMTSZ
 40
0.0
  9
$DIMTOL
 70
               0
  9
$DIMLIM
 70
               0
  9
$DIMTIH
 70
               0
  9
$DIMTOH
 70
               0
  9
$DIMSE1
 70
               0
  9
$DIMSE2
 70
               0
  9
$DIMTAD
 70
               1
  9
$DIMZIN
 70
               8
  9
$DIMBLK
  1

  9
$DIMASO
 70
               1
  9
$DIMSHO
 70
               1
  9
$DIMPOST
  1

  9
$DIMAPOST
  1

  9
$DIMALT
 70
               0
  9
$DIMALTD
 70
               4
  9
$DIMALTF
 40
0.03937007874016
  9
$DIMLFAC
 40
1.0
  9
$DIMTOFL
 70
               1
  9
$DIMTVP
 40
0.0
  9
$DIMTIX
 70
               0
  9
$DIMSOXD
 70
               0
  9
$DIMSAH
 70
               1
  9
$DIMBLK1
  1
_OPEN30
  9
$DIMBLK2
  1
_OPEN30
  9
$DIMSTYLE
  2
MXDIMSTYLE
  9
$DIMCLRD
 70
               0
  9
$DIMCLRE
 70
               0
  9
$DIMCLRT
 70
               0
  9
$DIMTFAC
 40
1.0
  9
$DIMGAP
 40
1.0
  9
$LUNITS
 70
               2
  9
$LUPREC
 70
               4
  9
$AXISMODE
 70
               0
  9
$AXISUNIT
 10
0.0
 20
0.0
  9
$SKETCHINC
 40
0.1
  9
$FILLETRAD
 40
0.0
  9
$AUNITS
 70
               0
  9
$AUPREC
 70
               0
  9
$MENU
  1
acad
  9
$ELEVATION
 40
0.0
  9
$PELEVATION
 40
0.0
  9
$THICKNESS
 40
0.0
  9
$LIMCHECK
 70
               0
  9
$BLIPMODE
 70
               1
  9
$CHAMFERA
 40
0.0
  9
$CHAMFERB
 40
0.0
  9
$SKPOLY
 70
               0
  9
$TDCREATE
 40
2455744.546712963
  9
$TDUPDATE
 40
2455744.546712963
  9
$TDINDWG
 40
0.0000000000
  9
$TDUSRTIMER
 40
0.0000000000
  9
$USRTIMER
 70
               1
  9
$ANGBASE
 50
0.0
  9
$ANGDIR
 70
               0
  9
$PDMODE
 70
               0
  9
$PDSIZE
 40
0.0
  9
$PLINEWID
 40
0.0
  9
$COORDS
 70
               1
  9
$SPLFRAME
 70
               0
  9
$SPLINETYPE
 70
               6
  9
$SPLINESEGS
 70
               8
  9
$ATTDIA
 70
               0
  9
$ATTREQ
 70
               1
  9
$HANDLING
 70
               1
  9
$HANDSEED
  5
272
  9
$SURFTAB1
 70
               6
  9
$SURFTAB2
 70
               6
  9
$SURFTYPE
 70
               6
  9
$SURFU
 70
               6
  9
$SURFV
 70
               6
  9
$UCSNAME
  2

  9
$UCSORG
 10
0.0
 20
0.0
 30
0.0
  9
$UCSXDIR
 10
1.0
 20
0.0
 30
0.0
  9
$UCSYDIR
 10
0.0
 20
1.0
 30
0.0
  9
$PUCSNAME
  2

  9
$PUCSORG
 10
0.0
 20
0.0
 30
0.0
  9
$PUCSXDIR
 10
1.0
 20
0.0
 30
0.0
  9
$PUCSYDIR
 10
0.0
 20
1.0
 30
0.0
  9
$USERI1
 70
               0
  9
$USERI2
 70
               0
  9
$USERI3
 70
               0
  9
$USERI4
 70
               0
  9
$USERI5
 70
               0
  9
$USERR1
 40
0.0
  9
$USERR2
 40
0.0
  9
$USERR3
 40
0.0
  9
$USERR4
 40
0.0
  9
$USERR5
 40
0.0
  9
$WORLDVIEW
 70
               1
  9
$SHADEDGE
 70
               3
  9
$SHADEDIF
 70
              70
  9
$TILEMODE
 70
               1
  9
$MAXACTVP
 70
              16
  9
$PINSBASE
 10
0.0
 20
0.0
 30
0.0
  9
$PLIMCHECK
 70
               0
  9
$PEXTMIN
 10
1.0000000000000000E+20
 20
1.0000000000000000E+20
 30
1.0000000000000000E+20
  9
$PEXTMAX
 10
-1.0000000000000000E+20
 20
-1.0000000000000000E+20
 30
-1.0000000000000000E+20
  9
$PLIMMIN
 10
0.0
 20
0.0
  9
$PLIMMAX
 10
12.0
 20
9.0
  9
$UNITMODE
 70
               0
  9
$VISRETAIN
 70
               0
  9
$PLINEGEN
 70
               1
  9
$PSLTSCALE
 70
               0
  9
$TREEDEPTH
 70
            3020
  0
ENDSEC
  0
SECTION
  2
TABLES
  0
TABLE
  2
VPORT
 70
               1
  0
VPORT
  2
*ACTIVE
 70
               0
 10
0.0
 20
0.0
 11
1.0
 21
1.0
 12
707.99837300000013
 22
1268.8792974999999
 13
0.0
 23
0.0
 14
1.0
 24
1.0
 15
0.0
 25
0.0
 16
0.0
 26
0.0
 36
1.0
 17
0.0
 27
0.0
 37
0.0
 40
2254.5638190499999
 41
1.7320508075688772
 42
50.0
 43
0.0
 44
0.0
 50
0.0
 51
0.0
 71
               0
 72
             100
 73
               1
 74
               1
 75
               0
 76
               0
 77
               0
 78
               0
  0
ENDTAB
  0
TABLE
  2
LTYPE
 70
               3
  0
LTYPE
  2
CONTINUOUS
 70
              64
  3
Solid line
 72
              65
 73
               0
 40
0.0
  0
LTYPE
  2
DASHED
 70
              64
  3
Dashed __ __ __ __ __ __ __ __ __ __ __ __ __ _
 72
              65
 73
               2
 40
19.049999999999997
 49
12.699999999999999
 49
-6.3499999999999996
  0
LTYPE
  2
CENTER
 70
              64
  3
Center ____ _ ____ _ ____ _ ____ _ ____ _ ____
 72
              65
 73
               4
 40
50.800000000000004
 49
31.75
 49
-6.3499999999999996
 49
6.3499999999999996
 49
-6.3499999999999996
  0
ENDTAB
  0
TABLE
  2
LAYER
 70
               3
  0
LAYER
  2
0
 70
               0
 62
               7
  6
CONTINUOUS
  0
LAYER
  2
DEFPOINTS
 70
               0
 62
               7
  6
CONTINUOUS
  0
LAYER
  2
LY_3
 70
               0
 62
               7
  6
CONTINUOUS
  0
ENDTAB
  0
TABLE
  2
STYLE
 70
               1
  0
STYLE
  2
MX_NOTE_STANDARD
 70
               0
 40
0.0
 41
1.0
 50
0.0
 71
               0
 42
4.1655998229980469
  3
txt.shx
  4
extfont.shx
  0
ENDTAB
  0
TABLE
  2
VIEW
 70
               0
  0
ENDTAB
  0
TABLE
  2
UCS
 70
               0
  0
ENDTAB
  0
TABLE
  2
APPID
 70
               1
  0
APPID
  2
ACAD
 70
               0
  0
ENDTAB
  0
TABLE
  2
DIMSTYLE
 70
               1
  0
DIMSTYLE
  2
MXDIMSTYLE
 70
               0
  3

  4

  5

  6
_OPEN30
  7
_OPEN30
 40
1.0
 41
2.5
 42
0.5
 43
3.75
 44
1.0
 45
0.0
 46
0.0
 47
0.0
 48
0.0
 71
               0
 72
               0
 73
               0
 74
               0
 75
               0
 76
               0
 77
               1
 78
               8
140
2.5
141
2.5
142
0.0
143
0.03937007874016
144
1.0
145
0.0
146
1.0
147
1.0
170
               0
171
               4
172
               1
173
               1
174
               0
175
               0
176
               0
177
               0
178
               0
  0
ENDTAB
  0
ENDSEC
  0
SECTION
  2
BLOCKS
  0
BLOCK
  8
0
  5
2D
  2
MS_1
 70
               0
 10
0.0
 20
0.0
 30
0.0
  3
MS_1
  0
LINE
  8
0
  6
CONTINUOUS
 62
               3
  5
2E
 10
19.508725999999999
 20
34.965719
 30
0.0
 11
17.544764000000001
 21
35.0
 31
0.0
  0
LINE
  8
0
  6
CONTINUOUS
 62
               3
  5
2F
 10
-19.508725999999999
 20
34.965719
 30
0.0
 11
-17.544764000000001
 21
35.0
 31
0.0
  0
LINE
  8
0
  6
CONTINUOUS
 62
               3
  5
30
 10
-19.508725999999999
 20
-0.034281
 30
0.0
 11
-17.544764000000001
 21
0.0
 31
0.0
  0
LINE
  8
0
  6
CONTINUOUS
 62
               3
  5
31
 10
19.508725999999999
 20
-0.034281
 30
0.0
 11
17.544764000000001
 21
0.0
 31
0.0
  0
LINE
  8
0
  6
CONTINUOUS
 62
               3
  5
32
 10
17.550000000000001
 20
0.0
 30
0.0
 11
-17.550000000000001
 21
0.0
 31
0.0
  0
LINE
  8
0
  6
CONTINUOUS
 62
               3
  5
33
 10
17.550000000000001
 20
35.0
 30
0.0
 11
-17.550000000000001
 21
35.0
 31
0.0
  0
LINE
  8
0
  6
CONTINUOUS
 62
              80
  5
34
 10
-17.243369999999999
 20
5.9571440000000004
 30
0.0
 11
-17.243369999999999
 21
32.957144
 31
0.0
  0
LINE
  8
0
  6
CONTINUOUS
 62
              80
  5
35
 10
18.399477000000001
 20
5.9571440000000004
 30
0.0
 11
18.399477000000001
 21
32.957144
 31
0.0
  0
LINE
  8
0
  6
CONTINUOUS
 62
              80
  5
36
 10
16.251733999999999
 20
5.9571440000000004
 30
0.0
 11
16.251733999999999
 21
32.957144
 31
0.0
  0
LINE
  8
0
  6
CONTINUOUS
 62
              80
  5
37
 10
13.519245
 20
5.9571440000000004
 30
0.0
 11
13.519245
 21
32.957144
 31
0.0
  0
LINE
  8
0
  6
CONTINUOUS
 62
              80
  5
38
 10
9.9372910000000001
 20
5.9571440000000004
 30
0.0
 11
9.9372910000000001
 21
32.957144
 31
0.0
  0
LINE
  8
0
  6
CONTINUOUS
 62
              80
  5
39
 10
5.7309409999999996
 20
5.9571440000000004
 30
0.0
 11
5.7309409999999996
 21
32.957144
 31
0.0
  0
LINE
  8
0
  6
CONTINUOUS
 62
              80
  5
3A
 10
1.1644950000000001
 20
5.9571440000000004
 30
0.0
 11
1.1644950000000001
 21
32.957144
 31
0.0
  0
LINE
  8
0
  6
CONTINUOUS
 62
              80
  5
3B
 10
-3.4751210000000001
 20
5.9571440000000004
 30
0.0
 11
-3.4751210000000001
 21
32.957144
 31
0.0
  0
LINE
  8
0
  6
CONTINUOUS
 62
              80
  5
3C
 10
-7.896382
 20
5.9571440000000004
 30
0.0
 11
-7.896382
 21
32.957144
 31
0.0
  0
LINE
  8
0
  6
CONTINUOUS
 62
              80
  5
3D
 10
-15.003799000000001
 20
5.9571440000000004
 30
0.0
 11
-15.003799000000001
 21
32.957144
 31
0.0
  0
LINE
  8
0
  6
CONTINUOUS
 62
              80
  5
3E
 10
11.821484
 20
5.9571440000000004
 30
0.0
 11
11.821484
 21
32.957144
 31
0.0
  0
LINE
  8
0
  6
CONTINUOUS
 62
              80
  5
3F
 10
7.896382
 20
5.9571440000000004
 30
0.0
 11
7.896382
 21
32.957144
 31
0.0
  0
LINE
  8
0
  6
CONTINUOUS
 62
              80
  5
40
 10
3.4751210000000001
 20
5.9571440000000004
 30
0.0
 11
3.4751210000000001
 21
32.957144
 31
0.0
  0
LINE
  8
0
  6
CONTINUOUS
 62
              80
  5
41
 10
-1.1644950000000001
 20
5.9571440000000004
 30
0.0
 11
-1.1644950000000001
 21
32.957144
 31
0.0
  0
LINE
  8
0
  6
CONTINUOUS
 62
              80
  5
42
 10
-9.9372910000000001
 20
5.9571440000000004
 30
0.0
 11
-9.9372910000000001
 21
32.957144
 31
0.0
  0
LINE
  8
0
  6
CONTINUOUS
 62
              80
  5
43
 10
-5.7309409999999996
 20
5.9571440000000004
 30
0.0
 11
-5.7309409999999996
 21
32.957144
 31
0.0
  0
LINE
  8
0
  6
CONTINUOUS
 62
              80
  5
44
 10
-18.545715000000001
 20
5.9571440000000004
 30
0.0
 11
-18.545715000000001
 21
32.957144
 31
0.0
  0
LINE
  8
0
  6
CONTINUOUS
 62
              80
  5
45
 10
-18.399477000000001
 20
5.9571440000000004
 30
0.0
 11
-18.399477000000001
 21
32.957144
 31
0.0
  0
LINE
  8
0
  6
CONTINUOUS
 62
              80
  5
46
 10
-17.963068
 20
5.9571440000000004
 30
0.0
 11
-17.963068
 21
32.957144
 31
0.0
  0
LINE
  8
0
  6
CONTINUOUS
 62
              80
  5
47
 10
-16.251733999999999
 20
5.9571440000000004
 30
0.0
 11
-16.251733999999999
 21
32.957144
 31
0.0
  0
LINE
  8
0
  6
CONTINUOUS
 62
              80
  5
48
 10
-13.519245
 20
5.9571440000000004
 30
0.0
 11
-13.519245
 21
32.957144
 31
0.0
  0
LINE
  8
0
  6
CONTINUOUS
 62
              80
  5
49
 10
-11.821484
 20
5.9571440000000004
 30
0.0
 11
-11.821484
 21
32.957144
 31
0.0
  0
LINE
  8
0
  6
CONTINUOUS
 62
              80
  5
4A
 10
18.545715000000001
 20
5.9571440000000004
 30
0.0
 11
18.545715000000001
 21
32.957144
 31
0.0
  0
LINE
  8
0
  6
CONTINUOUS
 62
              80
  5
4B
 10
17.963068
 20
5.9571440000000004
 30
0.0
 11
17.963068
 21
32.957144
 31
0.0
  0
LINE
  8
0
  6
CONTINUOUS
 62
              80
  5
4C
 10
17.243369999999999
 20
5.9571440000000004
 30
0.0
 11
17.243369999999999
 21
32.957144
 31
0.0
  0
LINE
  8
0
  6
CONTINUOUS
 62
              80
  5
4D
 10
15.003799000000001
 20
5.9571440000000004
 30
0.0
 11
15.003799000000001
 21
32.957144
 31
0.0
  0
LINE
  8
0
  6
CONTINUOUS
 62
              80
  5
4E
 10
-20.0
 20
3.5
 30
0.0
 11
20.0
 21
3.5
 31
0.0
  0
LINE
  8
0
  6
CONTINUOUS
 62
              80
  5
4F
 10
-20.0
 20
32.5
 30
0.0
 11
20.0
 21
32.5
 31
0.0
  0
LINE
  8
0
  6
CONTINUOUS
 62
              80
  5
50
 10
-19.971064999999999
 20
12.5
 30
0.0
 11
19.971064999999999
 21
12.5
 31
0.0
  0
LINE
  8
0
  6
CONTINUOUS
 62
              80
  5
51
 10
-19.954939
 20
17.5
 30
0.0
 11
19.954939
 21
17.5
 31
0.0
  0
LINE
  8
0
  6
CONTINUOUS
 62
              80
  5
52
 10
-19.888054
 20
22.0
 30
0.0
 11
19.888054
 21
22.0
 31
0.0
  0
LINE
  8
0
  6
CONTINUOUS
 62
              80
  5
53
 10
-19.863786999999999
 20
26.0
 30
0.0
 11
19.863786999999999
 21
26.0
 31
0.0
  0
LINE
  8
0
  6
CONTINUOUS
 62
              80
  5
54
 10
-19.784943999999999
 20
30.0
 30
0.0
 11
19.784943999999999
 21
30.0
 31
0.0
  0
LINE
  8
0
  6
CONTINUOUS
 62
              80
  5
55
 10
-19.954177999999999
 20
9.5
 30
0.0
 11
19.954177999999999
 21
9.5
 31
0.0
  0
LINE
  8
0
  6
CONTINUOUS
 62
              80
  5
56
 10
-19.954177999999999
 20
6.5
 30
0.0
 11
19.954177999999999
 21
6.5
 31
0.0
  0
ARC
  8
0
  6
CONTINUOUS
 62
               3
  5
57
 10
-20.630476000000002
 20
31.25
 30
0.0
 40
1.3999999999999999
 50
314.63998800000002
 51
63.234498999999985
  0
ARC
  8
0
  6
CONTINUOUS
 62
               3
  5
58
 10
-22.236068
 20
28.0
 30
0.0
 40
3.0
 50
325.15009500000002
 51
32.840970000000013
  0
ARC
  8
0
  6
CONTINUOUS
 62
               3
  5
59
 10
-22.236068
 20
24.0
 30
0.0
 40
3.0
 50
324.42377900000002
 51
34.849905000000028
  0
ARC
  8
0
  6
CONTINUOUS
 62
               3
  5
5A
 10
-23.307189000000001
 20
19.75
 30
0.0
 40
4.0
 50
328.67947800000002
 51
29.468477999999987
  0
ARC
  8
0
  6
CONTINUOUS
 62
               3
  5
5B
 10
-29.682458
 20
15.0
 30
0.0
 40
10.0
 50
346.48528100000004
 51
13.273449999999992
  0
ARC
  8
0
  6
CONTINUOUS
 62
               3
  5
5C
 10
-23.162278000000001
 20
11.0
 30
0.0
 40
3.5
 50
337.97568699999999
 51
22.740014000000016
  0
ARC
  8
0
  6
CONTINUOUS
 62
               3
  5
5D
 10
-23.162278000000001
 20
8.0
 30
0.0
 40
3.5
 50
337.97568699999999
 51
22.024312999999985
  0
ARC
  8
0
  6
CONTINUOUS
 62
               3
  5
5E
 10
-23.162278000000001
 20
5.0
 30
0.0
 40
3.5
 50
334.62306599999999
 51
22.024312999999985
  0
ARC
  8
0
  6
CONTINUOUS
 62
               3
  5
5F
 10
-19.295441
 20
29.898081999999999
 30
0.0
 40
0.5
 50
134.63998799999999
 51
212.84097
  0
ARC
  8
0
  6
CONTINUOUS
 62
               3
  5
60
 10
-19.363786999999999
 20
26.0
 30
0.0
 40
0.5
 50
145.15009499999999
 51
214.84990500000001
  0
ARC
  8
0
  6
CONTINUOUS
 62
               3
  5
61
 10
-19.38937
 20
21.963750999999998
 30
0.0
 40
0.5
 50
144.423779
 51
209.468478
  0
ARC
  8
0
  6
CONTINUOUS
 62
               3
  5
62
 10
-19.454177999999999
 20
6.5
 30
0.0
 40
0.5
 50
157.97568699999999
 51
202.02431300000001
  0
ARC
  8
0
  6
CONTINUOUS
 62
               3
  5
63
 10
-19.454177999999999
 20
9.5
 30
0.0
 40
0.5
 50
157.97568699999999
 51
202.02431300000001
  0
ARC
  8
0
  6
CONTINUOUS
 62
               3
  5
64
 10
-19.462962000000001
 20
17.410786999999999
 30
0.0
 40
0.5
 50
148.67947799999999
 51
193.27345
  0
ARC
  8
0
  6
CONTINUOUS
 62
               3
  5
65
 10
-19.473203999999999
 20
12.546201
 30
0.0
 40
0.5
 50
166.48528099999999
 51
202.740014
  0
LINE
  8
0
  6
CONTINUOUS
 62
               3
  5
66
 10
-20.0
 20
3.5
 30
0.0
 11
-20.0
 21
0.457144
 31
0.0
  0
LINE
  8
0
  6
CONTINUOUS
 62
               3
  5
67
 10
-20.0
 20
34.465795
 30
0.0
 11
-20.0
 21
32.5
 31
0.0
  0
ARC
  8
0
  6
CONTINUOUS
 62
               3
  5
68
 10
19.473203999999999
 20
12.546201
 30
0.0
 40
0.5
 50
337.25998600000003
 51
13.514718999999982
  0
ARC
  8
0
  6
CONTINUOUS
 62
               3
  5
69
 10
19.462962000000001
 20
17.410786999999999
 30
0.0
 40
0.5
 50
346.72654999999997
 51
31.320522000000015
  0
ARC
  8
0
  6
CONTINUOUS
 62
               3
  5
6A
 10
19.454177999999999
 20
9.5
 30
0.0
 40
0.5
 50
337.97568699999999
 51
22.024312999999985
  0
ARC
  8
0
  6
CONTINUOUS
 62
               3
  5
6B
 10
19.454177999999999
 20
6.5
 30
0.0
 40
0.5
 50
337.97568699999999
 51
22.024312999999985
  0
ARC
  8
0
  6
CONTINUOUS
 62
               3
  5
6C
 10
19.38937
 20
21.963750999999998
 30
0.0
 40
0.5
 50
330.531522
 51
35.576221000000018
  0
ARC
  8
0
  6
CONTINUOUS
 62
               3
  5
6D
 10
19.363786999999999
 20
26.0
 30
0.0
 40
0.5
 50
325.15009500000002
 51
34.849905000000028
  0
ARC
  8
0
  6
CONTINUOUS
 62
               3
  5
6E
 10
19.295441
 20
29.898081999999999
 30
0.0
 40
0.5
 50
327.15902999999997
 51
45.360011999999976
  0
LINE
  8
0
  6
CONTINUOUS
 62
               3
  5
6F
 10
20.0
 20
3.5
 30
0.0
 11
20.0
 21
0.457144
 31
0.0
  0
ARC
  8
0
  6
CONTINUOUS
 62
               3
  5
70
 10
23.162278000000001
 20
5.0
 30
0.0
 40
3.5
 50
157.97568699999999
 51
205.37693400000001
  0
ARC
  8
0
  6
CONTINUOUS
 62
               3
  5
71
 10
23.162278000000001
 20
8.0
 30
0.0
 40
3.5
 50
157.97568699999999
 51
202.02431300000001
  0
ARC
  8
0
  6
CONTINUOUS
 62
               3
  5
72
 10
23.162278000000001
 20
11.0
 30
0.0
 40
3.5
 50
157.259986
 51
202.02431300000001
  0
ARC
  8
0
  6
CONTINUOUS
 62
               3
  5
73
 10
29.682458
 20
15.0
 30
0.0
 40
10.0
 50
166.72655
 51
193.51471900000001
  0
ARC
  8
0
  6
CONTINUOUS
 62
               3
  5
74
 10
23.307189000000001
 20
19.75
 30
0.0
 40
4.0
 50
150.531522
 51
211.32052200000001
  0
ARC
  8
0
  6
CONTINUOUS
 62
               3
  5
75
 10
22.236068
 20
24.0
 30
0.0
 40
3.0
 50
145.15009499999999
 51
215.57622100000003
  0
ARC
  8
0
  6
CONTINUOUS
 62
               3
  5
76
 10
22.236068
 20
28.0
 30
0.0
 40
3.0
 50
147.15903
 51
214.84990500000001
  0
ARC
  8
0
  6
CONTINUOUS
 62
               3
  5
77
 10
20.630476000000002
 20
31.25
 30
0.0
 40
1.3999999999999999
 50
116.76550100000001
 51
225.36001200000001
  0
LINE
  8
0
  6
CONTINUOUS
 62
               3
  5
78
 10
20.0
 20
34.465795
 30
0.0
 11
20.0
 21
32.5
 31
0.0
  0
ARC
  8
0
  6
CONTINUOUS
 62
               3
  5
79
 10
-19.5
 20
34.465795
 30
0.0
 40
0.5
 50
91.0
 51
180.0
  0
ARC
  8
0
  6
CONTINUOUS
 62
               3
  5
7A
 10
19.5
 20
34.465795
 30
0.0
 40
0.5
 50
0.0
 51
89.0
  0
ARC
  8
0
  6
CONTINUOUS
 62
               3
  5
7B
 10
-19.5
 20
0.457144
 30
0.0
 40
0.5
 50
180.0
 51
262.457877
  0
ARC
  8
0
  6
CONTINUOUS
 62
               3
  5
7C
 10
19.5
 20
0.457144
 30
0.0
 40
0.5
 50
277.542123
 51
0.0
  0
ENDBLK
  8
0
  5
7D
  0
BLOCK
  8
0
  5
7E
  2
MS_2
 70
               0
 10
0.0
 20
0.0
 30
0.0
  3
MS_2
  0
CIRCLE
  8
0
  6
CONTINUOUS
 62
               3
  5
7F
 10
0.0
 20
0.0
 30
0.0
 40
3.5
  0
CIRCLE
  8
0
  6
CONTINUOUS
 62
               3
  5
80
 10
0.0
 20
0.0
 30
0.0
 40
4.2999999999999998
  0
CIRCLE
  8
0
  6
CONTINUOUS
 62
               3
  5
81
 10
0.0
 20
0.0
 30
0.0
 40
19.991194
  0
LINE
  8
0
  6
CONTINUOUS
 62
               3
  5
82
 10
2.5455839999999998
 20
-1.5556350000000001
 30
0.0
 11
0.989949
 21
0.0
 31
0.0
  0
LINE
  8
0
  6
CONTINUOUS
 62
               3
  5
83
 10
-2.5455839999999998
 20
-1.5556350000000001
 30
0.0
 11
-1.5556350000000001
 21
-2.5455839999999998
 31
0.0
  0
LINE
  8
0
  6
CONTINUOUS
 62
               3
  5
84
 10
-2.5455839999999998
 20
1.5556350000000001
 30
0.0
 11
-0.989949
 21
0.0
 31
0.0
  0
LINE
  8
0
  6
CONTINUOUS
 62
               3
  5
85
 10
-1.5556350000000001
 20
2.5455839999999998
 30
0.0
 11
0.0
 21
0.989949
 31
0.0
  0
LINE
  8
0
  6
CONTINUOUS
 62
               3
  5
86
 10
2.5455839999999998
 20
1.5556350000000001
 30
0.0
 11
0.989949
 21
0.0
 31
0.0
  0
LINE
  8
0
  6
CONTINUOUS
 62
               3
  5
87
 10
1.5556350000000001
 20
2.5455839999999998
 30
0.0
 11
0.0
 21
0.989949
 31
0.0
  0
LINE
  8
0
  6
CONTINUOUS
 62
               3
  5
88
 10
-2.5455839999999998
 20
-1.5556350000000001
 30
0.0
 11
-0.989949
 21
0.0
 31
0.0
  0
LINE
  8
0
  6
CONTINUOUS
 62
               3
  5
89
 10
1.5556350000000001
 20
-2.5455839999999998
 30
0.0
 11
2.5455839999999998
 21
-1.5556350000000001
 31
0.0
  0
LINE
  8
0
  6
CONTINUOUS
 62
               3
  5
8A
 10
2.5455839999999998
 20
1.5556350000000001
 30
0.0
 11
1.5556350000000001
 21
2.5455839999999998
 31
0.0
  0
LINE
  8
0
  6
CONTINUOUS
 62
               3
  5
8B
 10
-1.5556350000000001
 20
2.5455839999999998
 30
0.0
 11
-2.5455839999999998
 21
1.5556350000000001
 31
0.0
  0
LINE
  8
0
  6
CONTINUOUS
 62
               3
  5
8C
 10
1.5556350000000001
 20
-2.5455839999999998
 30
0.0
 11
0.0
 21
-0.989949
 31
0.0
  0
LINE
  8
0
  6
CONTINUOUS
 62
               3
  5
8D
 10
-1.5556350000000001
 20
-2.5455839999999998
 30
0.0
 11
0.0
 21
-0.989949
 31
0.0
  0
ENDBLK
  8
0
  5
8E
  0
BLOCK
  8
0
  5
8F
  2
MS_3
 70
               0
 10
0.0
 20
0.0
 30
0.0
  3
MS_3
  0
ARC
  8
0
  6
CONTINUOUS
 62
               3
  5
90
 10
-16.922369
 20
4.430078
 30
0.0
 40
3.0
 50
107.27052500000001
 51
179.0
  0
ARC
  8
0
  6
CONTINUOUS
 62
               3
  5
91
 10
-19.491194
 20
0.457144
 30
0.0
 40
0.5
 50
179.0
 51
261.96601199999998
  0
ARC
  8
0
  6
CONTINUOUS
 62
               3
  5
92
 10
16.922369
 20
4.430078
 30
0.0
 40
3.0
 50
1.0
 51
72.729474999999994
  0
ARC
  8
0
  6
CONTINUOUS
 62
               3
  5
93
 10
19.491194
 20
0.457144
 30
0.0
 40
0.5
 50
278.03398800000008
 51
0.9999999999999887
  0
ARC
  8
0
  6
CONTINUOUS
 62
               3
  5
94
 10
0.0
 20
-50.0
 30
0.0
 40
60.0
 50
72.729474999999994
 51
107.27052500000001
  0
LINE
  8
0
  6
CONTINUOUS
 62
               3
  5
95
 10
17.550000000000001
 20
0.0
 30
0.0
 11
-17.550000000000001
 21
0.0
 31
0.0
  0
LINE
  8
0
  6
CONTINUOUS
 62
               3
  5
96
 10
19.508725999999999
 20
-0.034281
 30
0.0
 11
17.544764000000001
 21
0.0
 31
0.0
  0
LINE
  8
0
  6
CONTINUOUS
 62
               3
  5
97
 10
-19.508725999999999
 20
-0.034281
 30
0.0
 11
-17.544764000000001
 21
0.0
 31
0.0
  0
LINE
  8
0
  6
CONTINUOUS
 62
               3
  5
98
 10
-19.921911999999999
 20
4.4824349999999997
 30
0.0
 11
-19.991116999999999
 21
0.46587
 31
0.0
  0
LINE
  8
0
  6
CONTINUOUS
 62
               3
  5
99
 10
19.921911999999999
 20
4.4824349999999997
 30
0.0
 11
19.991116999999999
 21
0.46587
 31
0.0
  0
ENDBLK
  8
0
  5
9A
  0
BLOCK
  8
0
  5
9B
  2
MS_4
 70
               0
 10
0.0
 20
0.0
 30
0.0
  3
MS_4
  0
POLYLINE
  8
0
  6
CONTINUOUS
 62
               3
  5
9C
 66
               1
 10
0.0
 20
0.0
 30
0.0
  0
VERTEX
  8
0
  6
CONTINUOUS
 62
               3
  5
255
 10
19.516960000000001
 20
-0.042569
 30
0.0
  0
VERTEX
  8
0
  6
CONTINUOUS
 62
               3
  5
256
 10
19.617376
 20
-0.083318
 30
0.0
  0
VERTEX
  8
0
  6
CONTINUOUS
 62
               3
  5
257
 10
19.709762999999999
 20
-0.136452
 30
0.0
  0
VERTEX
  8
0
  6
CONTINUOUS
 62
               3
  5
258
 10
19.792100000000001
 20
-0.200811
 30
0.0
  0
VERTEX
  8
0
  6
CONTINUOUS
 62
               3
  5
259
 10
19.862590000000001
 20
-0.274987
 30
0.0
  0
VERTEX
  8
0
  6
CONTINUOUS
 62
               3
  5
25A
 10
19.919691
 20
-0.357359
 30
0.0
  0
VERTEX
  8
0
  6
CONTINUOUS
 62
               3
  5
25B
 10
19.962154999999999
 20
-0.446127
 30
0.0
  0
VERTEX
  8
0
  6
CONTINUOUS
 62
               3
  5
25C
 10
19.989053999999999
 20
-0.539351
 30
0.0
  0
VERTEX
  8
0
  6
CONTINUOUS
 62
               3
  5
25D
 10
19.9998
 20
-0.634994
 30
0.0
  0
VERTEX
  8
0
  6
CONTINUOUS
 62
               3
  5
25E
 10
19.994159
 20
-0.730964
 30
0.0
  0
VERTEX
  8
0
  6
CONTINUOUS
 62
               3
  5
25F
 10
19.972252999999998
 20
-0.825165
 30
0.0
  0
VERTEX
  8
0
  6
CONTINUOUS
 62
               3
  5
260
 10
19.934560999999999
 20
-0.9155370000000001
 30
0.0
  0
VERTEX
  8
0
  6
CONTINUOUS
 62
               3
  5
261
 10
19.881907999999999
 20
-1.000105
 30
0.0
  0
SEQEND
  8
0
  6
CONTINUOUS
 62
               3
  5
262
  0
LINE
  8
0
  6
CONTINUOUS
 62
               3
  5
9D
 10
-19.508725999999999
 20
-0.034281
 30
0.0
 11
-17.544764000000001
 21
0.0
 31
0.0
  0
POLYLINE
  8
0
  6
CONTINUOUS
 62
               3
  5
9E
 66
               1
 10
0.0
 20
0.0
 30
0.0
  0
VERTEX
  8
0
  6
CONTINUOUS
 62
               3
  5
263
 10
-19.881907999999999
 20
-1.000105
 30
0.0
  0
VERTEX
  8
0
  6
CONTINUOUS
 62
               3
  5
264
 10
-19.934560999999999
 20
-0.9155370000000001
 30
0.0
  0
VERTEX
  8
0
  6
CONTINUOUS
 62
               3
  5
265
 10
-19.972252999999998
 20
-0.825165
 30
0.0
  0
VERTEX
  8
0
  6
CONTINUOUS
 62
               3
  5
266
 10
-19.994159
 20
-0.730964
 30
0.0
  0
VERTEX
  8
0
  6
CONTINUOUS
 62
               3
  5
267
 10
-19.9998
 20
-0.634994
 30
0.0
  0
VERTEX
  8
0
  6
CONTINUOUS
 62
               3
  5
268
 10
-19.989053999999999
 20
-0.539351
 30
0.0
  0
VERTEX
  8
0
  6
CONTINUOUS
 62
               3
  5
269
 10
-19.962154999999999
 20
-0.446127
 30
0.0
  0
VERTEX
  8
0
  6
CONTINUOUS
 62
               3
  5
26A
 10
-19.919691
 20
-0.357359
 30
0.0
  0
VERTEX
  8
0
  6
CONTINUOUS
 62
               3
  5
26B
 10
-19.862590000000001
 20
-0.274987
 30
0.0
  0
VERTEX
  8
0
  6
CONTINUOUS
 62
               3
  5
26C
 10
-19.792100000000001
 20
-0.200811
 30
0.0
  0
VERTEX
  8
0
  6
CONTINUOUS
 62
               3
  5
26D
 10
-19.709762999999999
 20
-0.136452
 30
0.0
  0
VERTEX
  8
0
  6
CONTINUOUS
 62
               3
  5
26E
 10
-19.617376
 20
-0.083318
 30
0.0
  0
VERTEX
  8
0
  6
CONTINUOUS
 62
               3
  5
26F
 10
-19.516960000000001
 20
-0.042569
 30
0.0
  0
SEQEND
  8
0
  6
CONTINUOUS
 62
               3
  5
270
  0
ARC
  8
0
  6
CONTINUOUS
 62
               3
  5
9F
 10
-130.0
 20
-1.0
 30
0.0
 40
150.0
 50
352.32567599999999
 51
359.99999500000001
  0
ARC
  8
0
  6
CONTINUOUS
 62
               3
  5
A0
 10
13.014923
 20
-39.5
 30
0.0
 40
1.0
 50
270.00000299999999
 51
358.99999700000001
  0
ARC
  8
0
  6
CONTINUOUS
 62
               3
  5
A1
 10
-13.014953999999999
 20
-39.5
 30
0.0
 40
1.0
 50
181.0
 51
270.00000299999999
  0
ARC
  8
0
  6
CONTINUOUS
 62
               3
  5
A2
 10
-17.665427999999999
 20
-20.897769
 30
0.0
 40
1.0
 50
187.67432400000001
 51
236.84182100000004
  0
ARC
  8
0
  6
CONTINUOUS
 62
               3
  5
A3
 10
17.665427999999999
 20
-20.897769
 30
0.0
 40
1.0
 50
303.15817900000002
 51
352.32567599999999
  0
ARC
  8
0
  6
CONTINUOUS
 62
               3
  5
A4
 10
23.059998
 20
-29.154682999999999
 30
0.0
 40
8.8629610000000003
 50
123.158179
 51
178.99998299999999
  0
ARC
  8
0
  6
CONTINUOUS
 62
               3
  5
A5
 10
-23.059998
 20
-29.154682999999999
 30
0.0
 40
8.8629610000000003
 50
1.0000170000000002
 51
56.84182100000001
  0
ARC
  8
0
  6
CONTINUOUS
 62
               3
  5
A6
 10
130.0
 20
-1.0
 30
0.0
 40
150.0
 50
180.0
 51
187.67432400000001
  0
LINE
  8
0
  6
CONTINUOUS
 62
               3
  5
A7
 10
-14.014804
 20
-39.517445000000002
 30
0.0
 11
-14.198387
 21
-29.0
 31
0.0
  0
LINE
  8
0
  6
CONTINUOUS
 62
               3
  5
A8
 10
13.014923
 20
-40.5
 30
0.0
 11
-13.014953999999999
 21
-40.5
 31
0.0
  0
LINE
  8
0
  6
CONTINUOUS
 62
               3
  5
A9
 10
14.014804
 20
-39.517445000000002
 30
0.0
 11
14.198387
 21
-29.0
 31
0.0
  0
LINE
  8
0
  6
CONTINUOUS
 62
               3
  5
AA
 10
-18.463747000000001
 20
-21.500004000000001
 30
0.0
 11
18.463747000000001
 21
-21.500004000000001
 31
0.0
  0
LINE
  8
0
  6
CONTINUOUS
 62
               3
  5
AB
 10
20.0
 20
-1.0
 30
0.0
 11
-20.0
 21
-1.0
 31
0.0
  0
LINE
  8
0
  6
CONTINUOUS
 62
               3
  5
AC
 10
-17.550000000000001
 20
0.0
 30
0.0
 11
17.550000000000001
 21
0.0
 31
0.0
  0
LINE
  8
0
  6
CONTINUOUS
 62
               3
  5
AD
 10
19.508725999999999
 20
-0.034281
 30
0.0
 11
17.544764000000001
 21
0.0
 31
0.0
  0
ENDBLK
  8
0
  5
AE
  0
BLOCK
  8
0
  5
AF
  2
MS_5
 70
               0
 10
0.0
 20
0.0
 30
0.0
  3
MS_5
  0
ARC
  8
0
  6
DASHED
 62
              80
  5
B1
 10
26.000015000000001
 20
-305.5
 30
0.0
 40
7.0
 50
0.0
 51
90.0
  0
ARC
  8
0
  6
DASHED
 62
              80
  5
B2
 10
26.000015000000001
 20
-305.5
 30
0.0
 40
10.0
 50
0.0
 51
90.0
  0
LINE
  8
0
  6
DASHED
 62
              80
  5
B3
 10
26.000015000000001
 20
-295.5
 30
0.0
 11
16.000015000000001
 21
-295.5
 31
0.0
  0
LINE
  8
0
  6
DASHED
 62
              80
  5
B4
 10
26.000015000000001
 20
-298.5
 30
0.0
 11
16.000015000000001
 21
-298.5
 31
0.0
  0
LINE
  8
0
  6
DASHED
 62
              80
  5
B5
 10
33.000014999999998
 20
-305.5
 30
0.0
 11
33.000014999999998
 21
-358.5
 31
0.0
  0
LINE
  8
0
  6
DASHED
 62
              80
  5
B6
 10
36.000014999999998
 20
-358.5
 30
0.0
 11
33.000014999999998
 21
-358.5
 31
0.0
  0
LINE
  8
0
  6
DASHED
 62
              80
  5
B7
 10
36.000014999999998
 20
-305.5
 30
0.0
 11
36.000014999999998
 21
-358.5
 31
0.0
  0
LINE
  8
0
  6
CENTER
 62
              50
  5
B9
 10
-9.4999850000000006
 20
-322.5
 30
0.0
 11
41.000014999999998
 21
-322.5
 31
0.0
  0
LINE
  8
0
  6
CENTER
 62
              50
  5
BA
 10
-9.4999850000000006
 20
-342.5
 30
0.0
 11
41.000014999999998
 21
-342.5
 31
0.0
  0
LINE
  8
0
  6
CONTINUOUS
 62
               3
  5
BB
 10
-8.6500000000000004
 20
-40.499997
 30
0.0
 11
8.6500000000000004
 21
-40.499997
 31
0.0
  0
LINE
  8
0
  6
CONTINUOUS
 62
               3
  5
BC
 10
14.000014999999999
 20
-295.5
 30
0.0
 11
14.000014999999999
 21
-293.5
 31
0.0
  0
LINE
  8
0
  6
CONTINUOUS
 62
               3
  5
BD
 10
-13.999985000000001
 20
-295.5
 30
0.0
 11
-13.999985000000001
 21
-293.5
 31
0.0
  0
LINE
  8
0
  6
CONTINUOUS
 62
               3
  5
BE
 10
-14.999985000000001
 20
-293.5
 30
0.0
 11
15.000014999999999
 21
-293.5
 31
0.0
  0
ARC
  8
0
  6
CONTINUOUS
 62
               3
  5
BF
 10
0.000015
 20
-322.5
 30
0.0
 40
4.5
 50
153.6122
 51
26.387799999999991
  0
ARC
  8
0
  6
CONTINUOUS
 62
               3
  5
C0
 10
7.0000150000000003
 20
-319.5
 30
0.0
 40
1.0
 50
270.0
 51
0.0
  0
ARC
  8
0
  6
CONTINUOUS
 62
               3
  5
C1
 10
-6.9999849999999997
 20
-319.5
 30
0.0
 40
1.0
 50
180.0
 51
270.0
  0
ARC
  8
0
  6
CONTINUOUS
 62
               3
  5
C2
 10
11.625014999999999
 20
-306.25390599999997
 30
0.0
 40
4.7539059999999997
 50
35.400855999999997
 51
144.599144
  0
ARC
  8
0
  6
CONTINUOUS
 62
               3
  5
C3
 10
0.000015
 20
-317.515625
 30
0.0
 40
16.015625
 50
61.059412000000009
 51
118.94058800000002
  0
ARC
  8
0
  6
CONTINUOUS
 62
               3
  5
C4
 10
-11.624985000000001
 20
-306.25390599999997
 30
0.0
 40
4.7539059999999997
 50
35.400855999999997
 51
144.599144
  0
ARC
  8
0
  6
CONTINUOUS
 62
               3
  5
C5
 10
-11.624985000000001
 20
-307.74609400000003
 30
0.0
 40
4.7539059999999997
 50
215.400856
 51
324.59914400000002
  0
ARC
  8
0
  6
CONTINUOUS
 62
               3
  5
C6
 10
0.000015
 20
-296.484375
 30
0.0
 40
16.015625
 50
241.05941200000004
 51
298.94058799999999
  0
ARC
  8
0
  6
CONTINUOUS
 62
               3
  5
C7
 10
11.625014999999999
 20
-307.74609400000003
 30
0.0
 40
4.7539059999999997
 50
215.400856
 51
324.59914400000002
  0
ARC
  8
0
  6
CONTINUOUS
 62
               3
  5
C8
 10
-11.624985000000001
 20
-285.74609400000003
 30
0.0
 40
4.7539059999999997
 50
215.400856
 51
324.59914400000002
  0
ARC
  8
0
  6
CONTINUOUS
 62
               3
  5
C9
 10
0.000015
 20
-274.484375
 30
0.0
 40
16.015625
 50
241.05941200000004
 51
298.94058799999999
  0
ARC
  8
0
  6
CONTINUOUS
 62
               3
  5
CA
 10
11.625014999999999
 20
-285.74609400000003
 30
0.0
 40
4.7539059999999997
 50
215.400856
 51
324.59914400000002
  0
ARC
  8
0
  6
CONTINUOUS
 62
               3
  5
CB
 10
11.625014999999999
 20
-284.25390599999997
 30
0.0
 40
4.7539059999999997
 50
35.400855999999997
 51
144.599144
  0
ARC
  8
0
  6
CONTINUOUS
 62
               3
  5
CC
 10
-11.624985000000001
 20
-284.25390599999997
 30
0.0
 40
4.7539059999999997
 50
35.400855999999997
 51
144.599144
  0
ARC
  8
0
  6
CONTINUOUS
 62
               3
  5
CD
 10
0.000015
 20
-295.515625
 30
0.0
 40
16.015625
 50
61.059412000000009
 51
118.94058800000002
  0
CIRCLE
  8
0
  6
CONTINUOUS
 62
               3
  5
CE
 10
0.000015
 20
-342.5
 30
0.0
 40
4.5
  0
ARC
  8
0
  6
CONTINUOUS
 62
               3
  5
CF
 10
0.000015
 20
-342.5
 30
0.0
 40
16.0
 50
180.0
 51
0.0
  0
LINE
  8
0
  6
CONTINUOUS
 62
               3
  5
D0
 10
-8.6500000000000004
 20
-40.499997
 30
0.0
 11
-8.6500000000000004
 21
-279.5
 31
0.0
  0
LINE
  8
0
  6
CONTINUOUS
 62
               3
  5
D1
 10
8.6500000000000004
 20
-40.499997
 30
0.0
 11
8.6500000000000004
 21
-279.5
 31
0.0
  0
LINE
  8
0
  6
CONTINUOUS
 62
               3
  5
D2
 10
-15.999985000000001
 20
-295.5
 30
0.0
 11
16.000015000000001
 21
-295.5
 31
0.0
  0
LINE
  8
0
  6
CONTINUOUS
 62
               3
  5
D3
 10
-15.999985000000001
 20
-298.5
 30
0.0
 11
16.000015000000001
 21
-298.5
 31
0.0
  0
LINE
  8
0
  6
CONTINUOUS
 62
               3
  5
D4
 10
8.0000149999999994
 20
-319.5
 30
0.0
 11
8.0000149999999994
 21
-318.5
 31
0.0
  0
LINE
  8
0
  6
CONTINUOUS
 62
               3
  5
D5
 10
8.0000149999999994
 20
-317.5
 30
0.0
 11
8.0000149999999994
 21
-316.5
 31
0.0
  0
LINE
  8
0
  6
CONTINUOUS
 62
               3
  5
D6
 10
-7.9999849999999997
 20
-317.5
 30
0.0
 11
-7.9999849999999997
 21
-316.5
 31
0.0
  0
LINE
  8
0
  6
CONTINUOUS
 62
               3
  5
D7
 10
8.0000149999999994
 20
-318.5
 30
0.0
 11
-7.9999849999999997
 21
-318.5
 31
0.0
  0
LINE
  8
0
  6
CONTINUOUS
 62
               3
  5
D8
 10
8.0000149999999994
 20
-318.5
 30
0.0
 11
9.1000150000000009
 21
-317.80000000000001
 31
0.0
  0
LINE
  8
0
  6
CONTINUOUS
 62
               3
  5
D9
 10
-7.9999849999999997
 20
-318.5
 30
0.0
 11
-9.0999850000000002
 21
-317.80000000000001
 31
0.0
  0
LINE
  8
0
  6
CONTINUOUS
 62
               3
  5
DA
 10
7.0000150000000003
 20
-320.5
 30
0.0
 11
-6.9999849999999997
 21
-320.5
 31
0.0
  0
LINE
  8
0
  6
CONTINUOUS
 62
               3
  5
DB
 10
-9.0999850000000002
 20
-317.80000000000001
 30
0.0
 11
-9.0999850000000002
 21
-317.5
 31
0.0
  0
LINE
  8
0
  6
CONTINUOUS
 62
               3
  5
DC
 10
9.1000150000000009
 20
-317.80000000000001
 30
0.0
 11
-9.0999850000000002
 21
-317.80000000000001
 31
0.0
  0
LINE
  8
0
  6
CONTINUOUS
 62
               3
  5
DD
 10
9.1000150000000009
 20
-317.80000000000001
 30
0.0
 11
9.1000150000000009
 21
-317.5
 31
0.0
  0
LINE
  8
0
  6
CONTINUOUS
 62
               3
  5
DE
 10
-7.9999849999999997
 20
-319.5
 30
0.0
 11
-7.9999849999999997
 21
-318.5
 31
0.0
  0
LINE
  8
0
  6
CONTINUOUS
 62
               3
  5
DF
 10
9.1000150000000009
 20
-317.5
 30
0.0
 11
-9.0999850000000002
 21
-317.5
 31
0.0
  0
LINE
  8
0
  6
CONTINUOUS
 62
               3
  5
E0
 10
6.6500149999999998
 20
-316.5
 30
0.0
 11
8.6500149999999998
 21
-314.5
 31
0.0
  0
LINE
  8
0
  6
CONTINUOUS
 62
               3
  5
E1
 10
-6.649985
 20
-316.5
 30
0.0
 11
-8.6499849999999991
 21
-314.5
 31
0.0
  0
LINE
  8
0
  6
CONTINUOUS
 62
               3
  5
E2
 10
6.6500149999999998
 20
-312.5
 30
0.0
 11
6.6500149999999998
 21
-316.5
 31
0.0
  0
LINE
  8
0
  6
CONTINUOUS
 62
               3
  5
E3
 10
-6.649985
 20
-312.5
 30
0.0
 11
-6.649985
 21
-316.5
 31
0.0
  0
LINE
  8
0
  6
CONTINUOUS
 62
               3
  5
E4
 10
8.6500149999999998
 20
-312.5
 30
0.0
 11
8.6500149999999998
 21
-314.5
 31
0.0
  0
LINE
  8
0
  6
CONTINUOUS
 62
               3
  5
E5
 10
-8.6499849999999991
 20
-312.5
 30
0.0
 11
-8.6499849999999991
 21
-314.5
 31
0.0
  0
LINE
  8
0
  6
CONTINUOUS
 62
               3
  5
E6
 10
-7.9999849999999997
 20
-316.5
 30
0.0
 11
8.0000149999999994
 21
-316.5
 31
0.0
  0
LINE
  8
0
  6
CONTINUOUS
 62
               3
  5
E7
 10
-8.6499849999999991
 20
-314.5
 30
0.0
 11
8.6500149999999998
 21
-314.5
 31
0.0
  0
LINE
  8
0
  6
CONTINUOUS
 62
               3
  5
E8
 10
-15.499985000000001
 20
-303.405868
 30
0.0
 11
-13.594117000000001
 21
-301.5
 31
0.0
  0
LINE
  8
0
  6
CONTINUOUS
 62
               3
  5
E9
 10
7.7500150000000003
 20
-310.5
 30
0.0
 11
7.7500150000000003
 21
-303.5
 31
0.0
  0
LINE
  8
0
  6
CONTINUOUS
 62
               3
  5
EA
 10
-13.594117000000001
 20
-312.5
 30
0.0
 11
13.594148000000001
 21
-312.5
 31
0.0
  0
LINE
  8
0
  6
CONTINUOUS
 62
               3
  5
EB
 10
15.500014999999999
 20
-303.405868
 30
0.0
 11
13.594148000000001
 21
-301.5
 31
0.0
  0
LINE
  8
0
  6
CONTINUOUS
 62
               3
  5
EC
 10
15.500014999999999
 20
-310.594132
 30
0.0
 11
13.594148000000001
 21
-312.5
 31
0.0
  0
LINE
  8
0
  6
CONTINUOUS
 62
               3
  5
ED
 10
-15.499985000000001
 20
-310.594132
 30
0.0
 11
-13.594117000000001
 21
-312.5
 31
0.0
  0
LINE
  8
0
  6
CONTINUOUS
 62
               3
  5
EE
 10
15.500014999999999
 20
-310.594132
 30
0.0
 11
15.500014999999999
 21
-303.405868
 31
0.0
  0
LINE
  8
0
  6
CONTINUOUS
 62
               3
  5
EF
 10
-15.499985000000001
 20
-310.594132
 30
0.0
 11
-15.499985000000001
 21
-303.405868
 31
0.0
  0
LINE
  8
0
  6
CONTINUOUS
 62
               3
  5
F0
 10
-7.7499849999999997
 20
-310.5
 30
0.0
 11
-7.7499849999999997
 21
-303.5
 31
0.0
  0
LINE
  8
0
  6
CONTINUOUS
 62
               3
  5
F1
 10
15.500014999999999
 20
-288.594132
 30
0.0
 11
13.594148000000001
 21
-290.5
 31
0.0
  0
LINE
  8
0
  6
CONTINUOUS
 62
               3
  5
F2
 10
-15.499985000000001
 20
-288.594132
 30
0.0
 11
-13.594117000000001
 21
-290.5
 31
0.0
  0
LINE
  8
0
  6
CONTINUOUS
 62
               3
  5
F3
 10
15.500014999999999
 20
-281.405868
 30
0.0
 11
13.594148000000001
 21
-279.5
 31
0.0
  0
LINE
  8
0
  6
CONTINUOUS
 62
               3
  5
F4
 10
-15.499985000000001
 20
-281.405868
 30
0.0
 11
-13.594117000000001
 21
-279.5
 31
0.0
  0
LINE
  8
0
  6
CONTINUOUS
 62
               3
  5
F5
 10
7.7500150000000003
 20
-281.5
 30
0.0
 11
7.7500150000000003
 21
-288.5
 31
0.0
  0
LINE
  8
0
  6
CONTINUOUS
 62
               3
  5
F6
 10
-7.7499849999999997
 20
-281.5
 30
0.0
 11
-7.7499849999999997
 21
-288.5
 31
0.0
  0
LINE
  8
0
  6
CONTINUOUS
 62
               3
  5
F7
 10
-13.594117000000001
 20
-279.5
 30
0.0
 11
13.594148000000001
 21
-279.5
 31
0.0
  0
LINE
  8
0
  6
CONTINUOUS
 62
               3
  5
F8
 10
-15.499985000000001
 20
-281.405868
 30
0.0
 11
-15.499985000000001
 21
-288.594132
 31
0.0
  0
LINE
  8
0
  6
CONTINUOUS
 62
               3
  5
F9
 10
15.500014999999999
 20
-281.405868
 30
0.0
 11
15.500014999999999
 21
-288.594132
 31
0.0
  0
LINE
  8
0
  6
CONTINUOUS
 62
               3
  5
FA
 10
15.000014999999999
 20
-298.5
 30
0.0
 11
15.000014999999999
 21
-301.5
 31
0.0
  0
LINE
  8
0
  6
CONTINUOUS
 62
               3
  5
FB
 10
-14.999985000000001
 20
-298.5
 30
0.0
 11
-14.999985000000001
 21
-301.5
 31
0.0
  0
LINE
  8
0
  6
CONTINUOUS
 62
               3
  5
FC
 10
-14.999985000000001
 20
-290.5
 30
0.0
 11
15.000014999999999
 21
-290.5
 31
0.0
  0
LINE
  8
0
  6
CONTINUOUS
 62
               3
  5
FD
 10
-14.999985000000001
 20
-301.5
 30
0.0
 11
15.000014999999999
 21
-301.5
 31
0.0
  0
LINE
  8
0
  6
CONTINUOUS
 62
               3
  5
FE
 10
15.000014999999999
 20
-290.5
 30
0.0
 11
15.000014999999999
 21
-293.5
 31
0.0
  0
LINE
  8
0
  6
CONTINUOUS
 62
               3
  5
FF
 10
-14.999985000000001
 20
-290.5
 30
0.0
 11
-14.999985000000001
 21
-293.5
 31
0.0
  0
LINE
  8
0
  6
CONTINUOUS
 62
               3
  5
100
 10
-15.999985000000001
 20
-295.5
 30
0.0
 11
-15.999985000000001
 21
-342.5
 31
0.0
  0
LINE
  8
0
  6
CONTINUOUS
 62
               3
  5
101
 10
16.000015000000001
 20
-295.5
 30
0.0
 11
16.000015000000001
 21
-342.5
 31
0.0
  0
ENDBLK
  8
0
  5
102
  0
BLOCK
  8
0
  5
103
  2
MS_6
 70
               0
 10
0.0
 20
0.0
 30
0.0
  3
MS_6
  0
LINE
  8
0
  6
CENTER
 62
              50
  5
104
 10
27.999984999999999
 20
-302.00000299999999
 30
0.0
 11
40.999985000000002
 21
-302.00000299999999
 31
0.0
  0
LINE
  8
0
  6
CENTER
 62
              50
  5
105
 10
27.999984999999999
 20
-282.00000299999999
 30
0.0
 11
40.999985000000002
 21
-282.00000299999999
 31
0.0
  0
LINE
  8
0
  6
CONTINUOUS
 62
               3
  5
106
 10
-8.6500000000000004
 20
0.0
 30
0.0
 11
8.6500000000000004
 21
0.0
 31
0.0
  0
POINT
  8
0
  6
CONTINUOUS
 62
              80
  5
107
 10
0.0
 20
0.0
 30
0.0
  0
LINE
  8
0
  6
CONTINUOUS
 62
               3
  5
108
 10
-16.000015000000001
 20
-255.00000299999999
 30
0.0
 11
-16.000015000000001
 21
-258.00000299999999
 31
0.0
  0
LINE
  8
0
  6
CONTINUOUS
 62
               3
  5
109
 10
35.999985000000002
 20
-265.00000299999999
 30
0.0
 11
35.999985000000002
 21
-318.00000299999999
 31
0.0
  0
LINE
  8
0
  6
CONTINUOUS
 62
               3
  5
10A
 10
35.999985000000002
 20
-318.00000299999999
 30
0.0
 11
32.999985000000002
 21
-318.00000299999999
 31
0.0
  0
LINE
  8
0
  6
CONTINUOUS
 62
               3
  5
10B
 10
32.999985000000002
 20
-265.00000299999999
 30
0.0
 11
32.999985000000002
 21
-318.00000299999999
 31
0.0
  0
LINE
  8
0
  6
CONTINUOUS
 62
               3
  5
10C
 10
14.999985000000001
 20
-250.00000299999999
 30
0.0
 11
14.999985000000001
 21
-253.00000299999999
 31
0.0
  0
LINE
  8
0
  6
CONTINUOUS
 62
               3
  5
10D
 10
-15.000014999999999
 20
-250.00000299999999
 30
0.0
 11
-15.000014999999999
 21
-253.00000299999999
 31
0.0
  0
LINE
  8
0
  6
CONTINUOUS
 62
               3
  5
10E
 10
14.999985000000001
 20
-261.00000299999999
 30
0.0
 11
-15.000014999999999
 21
-261.00000299999999
 31
0.0
  0
LINE
  8
0
  6
CONTINUOUS
 62
               3
  5
10F
 10
14.999985000000001
 20
-250.00000299999999
 30
0.0
 11
-15.000014999999999
 21
-250.00000299999999
 31
0.0
  0
LINE
  8
0
  6
CONTINUOUS
 62
               3
  5
110
 10
14.999985000000001
 20
-258.00000299999999
 30
0.0
 11
14.999985000000001
 21
-261.00000299999999
 31
0.0
  0
LINE
  8
0
  6
CONTINUOUS
 62
               3
  5
111
 10
-15.000014999999999
 20
-258.00000299999999
 30
0.0
 11
-15.000014999999999
 21
-261.00000299999999
 31
0.0
  0
LINE
  8
0
  6
CONTINUOUS
 62
               3
  5
112
 10
-15.500014999999999
 20
-240.90586999999999
 30
0.0
 11
-15.500014999999999
 21
-248.09413499999999
 31
0.0
  0
LINE
  8
0
  6
CONTINUOUS
 62
               3
  5
113
 10
15.499985000000001
 20
-240.90586999999999
 30
0.0
 11
15.499985000000001
 21
-248.09413499999999
 31
0.0
  0
LINE
  8
0
  6
CONTINUOUS
 62
               3
  5
114
 10
13.594117000000001
 20
-239.00000299999999
 30
0.0
 11
-13.594148000000001
 21
-239.00000299999999
 31
0.0
  0
LINE
  8
0
  6
CONTINUOUS
 62
               3
  5
115
 10
7.7499849999999997
 20
-241.00000299999999
 30
0.0
 11
7.7499849999999997
 21
-248.00000299999999
 31
0.0
  0
LINE
  8
0
  6
CONTINUOUS
 62
               3
  5
116
 10
-7.7500150000000003
 20
-241.00000299999999
 30
0.0
 11
-7.7500150000000003
 21
-248.00000299999999
 31
0.0
  0
LINE
  8
0
  6
CONTINUOUS
 62
               3
  5
117
 10
15.499985000000001
 20
-240.90586999999999
 30
0.0
 11
13.594117000000001
 21
-239.00000299999999
 31
0.0
  0
LINE
  8
0
  6
CONTINUOUS
 62
               3
  5
118
 10
-15.500014999999999
 20
-240.90586999999999
 30
0.0
 11
-13.594148000000001
 21
-239.00000299999999
 31
0.0
  0
LINE
  8
0
  6
CONTINUOUS
 62
               3
  5
119
 10
15.499985000000001
 20
-248.09413499999999
 30
0.0
 11
13.594117000000001
 21
-250.00000299999999
 31
0.0
  0
LINE
  8
0
  6
CONTINUOUS
 62
               3
  5
11A
 10
-15.500014999999999
 20
-248.09413499999999
 30
0.0
 11
-13.594148000000001
 21
-250.00000299999999
 31
0.0
  0
LINE
  8
0
  6
CONTINUOUS
 62
               3
  5
11B
 10
7.7499849999999997
 20
-270.00000299999999
 30
0.0
 11
7.7499849999999997
 21
-263.00000299999999
 31
0.0
  0
LINE
  8
0
  6
CONTINUOUS
 62
               3
  5
11C
 10
15.499985000000001
 20
-270.09413499999999
 30
0.0
 11
15.499985000000001
 21
-262.90586999999999
 31
0.0
  0
LINE
  8
0
  6
CONTINUOUS
 62
               3
  5
11D
 10
-15.500014999999999
 20
-270.09413499999999
 30
0.0
 11
-15.500014999999999
 21
-262.90586999999999
 31
0.0
  0
LINE
  8
0
  6
CONTINUOUS
 62
               3
  5
11E
 10
15.499985000000001
 20
-270.09413499999999
 30
0.0
 11
13.594117000000001
 21
-272.00000299999999
 31
0.0
  0
LINE
  8
0
  6
CONTINUOUS
 62
               3
  5
11F
 10
-15.500014999999999
 20
-270.09413499999999
 30
0.0
 11
-13.594148000000001
 21
-272.00000299999999
 31
0.0
  0
LINE
  8
0
  6
CONTINUOUS
 62
               3
  5
120
 10
-15.500014999999999
 20
-262.90586999999999
 30
0.0
 11
-13.594148000000001
 21
-261.00000299999999
 31
0.0
  0
LINE
  8
0
  6
CONTINUOUS
 62
               3
  5
121
 10
13.594117000000001
 20
-272.00000299999999
 30
0.0
 11
-13.594148000000001
 21
-272.00000299999999
 31
0.0
  0
LINE
  8
0
  6
CONTINUOUS
 62
               3
  5
122
 10
-7.7500150000000003
 20
-270.00000299999999
 30
0.0
 11
-7.7500150000000003
 21
-263.00000299999999
 31
0.0
  0
LINE
  8
0
  6
CONTINUOUS
 62
               3
  5
123
 10
15.499985000000001
 20
-262.90586999999999
 30
0.0
 11
13.594117000000001
 21
-261.00000299999999
 31
0.0
  0
LINE
  8
0
  6
CONTINUOUS
 62
               3
  5
124
 10
8.6499849999999991
 20
-274.00000299999999
 30
0.0
 11
-8.6500149999999998
 21
-274.00000299999999
 31
0.0
  0
LINE
  8
0
  6
CONTINUOUS
 62
               3
  5
125
 10
7.9999849999999997
 20
-276.00000299999999
 30
0.0
 11
-8.0000149999999994
 21
-276.00000299999999
 31
0.0
  0
LINE
  8
0
  6
CONTINUOUS
 62
               3
  5
126
 10
8.6499849999999991
 20
-272.00000299999999
 30
0.0
 11
8.6499849999999991
 21
-274.00000299999999
 31
0.0
  0
LINE
  8
0
  6
CONTINUOUS
 62
               3
  5
127
 10
-8.6500149999999998
 20
-272.00000299999999
 30
0.0
 11
-8.6500149999999998
 21
-274.00000299999999
 31
0.0
  0
LINE
  8
0
  6
CONTINUOUS
 62
               3
  5
128
 10
6.649985
 20
-272.00000299999999
 30
0.0
 11
6.649985
 21
-276.00000299999999
 31
0.0
  0
LINE
  8
0
  6
CONTINUOUS
 62
               3
  5
129
 10
-6.6500149999999998
 20
-272.00000299999999
 30
0.0
 11
-6.6500149999999998
 21
-276.00000299999999
 31
0.0
  0
LINE
  8
0
  6
CONTINUOUS
 62
               3
  5
12A
 10
6.649985
 20
-276.00000299999999
 30
0.0
 11
8.6499849999999991
 21
-274.00000299999999
 31
0.0
  0
LINE
  8
0
  6
CONTINUOUS
 62
               3
  5
12B
 10
-6.6500149999999998
 20
-276.00000299999999
 30
0.0
 11
-8.6500149999999998
 21
-274.00000299999999
 31
0.0
  0
LINE
  8
0
  6
CONTINUOUS
 62
               3
  5
12C
 10
-9.1000150000000009
 20
-277.00000299999999
 30
0.0
 11
9.0999850000000002
 21
-277.00000299999999
 31
0.0
  0
LINE
  8
0
  6
CONTINUOUS
 62
               3
  5
12D
 10
7.9999849999999997
 20
-279.00000299999999
 30
0.0
 11
7.9999849999999997
 21
-278.00000299999999
 31
0.0
  0
LINE
  8
0
  6
CONTINUOUS
 62
               3
  5
12E
 10
-9.1000150000000009
 20
-277.300003
 30
0.0
 11
-9.1000150000000009
 21
-277.00000299999999
 31
0.0
  0
LINE
  8
0
  6
CONTINUOUS
 62
               3
  5
12F
 10
-9.1000150000000009
 20
-277.300003
 30
0.0
 11
9.0999850000000002
 21
-277.300003
 31
0.0
  0
LINE
  8
0
  6
CONTINUOUS
 62
               3
  5
130
 10
9.0999850000000002
 20
-277.300003
 30
0.0
 11
9.0999850000000002
 21
-277.00000299999999
 31
0.0
  0
LINE
  8
0
  6
CONTINUOUS
 62
               3
  5
131
 10
-7.0000150000000003
 20
-280.00000299999999
 30
0.0
 11
6.9999849999999997
 21
-280.00000299999999
 31
0.0
  0
LINE
  8
0
  6
CONTINUOUS
 62
               3
  5
132
 10
7.9999849999999997
 20
-278.00000299999999
 30
0.0
 11
9.0999850000000002
 21
-277.300003
 31
0.0
  0
LINE
  8
0
  6
CONTINUOUS
 62
               3
  5
133
 10
-8.0000149999999994
 20
-278.00000299999999
 30
0.0
 11
-9.1000150000000009
 21
-277.300003
 31
0.0
  0
LINE
  8
0
  6
CONTINUOUS
 62
               3
  5
134
 10
-8.0000149999999994
 20
-278.00000299999999
 30
0.0
 11
7.9999849999999997
 21
-278.00000299999999
 31
0.0
  0
LINE
  8
0
  6
CONTINUOUS
 62
               3
  5
135
 10
7.9999849999999997
 20
-277.00000299999999
 30
0.0
 11
7.9999849999999997
 21
-276.00000299999999
 31
0.0
  0
LINE
  8
0
  6
CONTINUOUS
 62
               3
  5
136
 10
-8.0000149999999994
 20
-277.00000299999999
 30
0.0
 11
-8.0000149999999994
 21
-276.00000299999999
 31
0.0
  0
LINE
  8
0
  6
CONTINUOUS
 62
               3
  5
137
 10
-8.0000149999999994
 20
-279.00000299999999
 30
0.0
 11
-8.0000149999999994
 21
-278.00000299999999
 31
0.0
  0
LINE
  8
0
  6
CONTINUOUS
 62
               3
  5
138
 10
25.999984999999999
 20
-258.00000299999999
 30
0.0
 11
-16.000015000000001
 21
-258.00000299999999
 31
0.0
  0
LINE
  8
0
  6
CONTINUOUS
 62
               3
  5
139
 10
25.999984999999999
 20
-255.00000299999999
 30
0.0
 11
-16.000015000000001
 21
-255.00000299999999
 31
0.0
  0
ARC
  8
0
  6
CONTINUOUS
 62
               3
  5
13A
 10
25.999984999999999
 20
-265.00000299999999
 30
0.0
 40
10.0
 50
0.0
 51
90.0
  0
ARC
  8
0
  6
CONTINUOUS
 62
               3
  5
13B
 10
25.999984999999999
 20
-265.00000299999999
 30
0.0
 40
7.0
 50
0.0
 51
90.0
  0
ARC
  8
0
  6
CONTINUOUS
 62
               3
  5
13C
 10
-0.000015
 20
-255.01562799999999
 30
0.0
 40
16.015625
 50
61.059412000000009
 51
118.94058800000002
  0
ARC
  8
0
  6
CONTINUOUS
 62
               3
  5
13D
 10
11.624985000000001
 20
-243.75390899999999
 30
0.0
 40
4.7539059999999997
 50
35.400855999999997
 51
144.599144
  0
ARC
  8
0
  6
CONTINUOUS
 62
               3
  5
13E
 10
-11.625014999999999
 20
-243.75390899999999
 30
0.0
 40
4.7539059999999997
 50
35.400855999999997
 51
144.599144
  0
ARC
  8
0
  6
CONTINUOUS
 62
               3
  5
13F
 10
-11.625014999999999
 20
-245.24609599999999
 30
0.0
 40
4.7539059999999997
 50
215.400856
 51
324.59914400000002
  0
ARC
  8
0
  6
CONTINUOUS
 62
               3
  5
140
 10
-0.000015
 20
-233.98437799999999
 30
0.0
 40
16.015625
 50
241.05941200000004
 51
298.94058799999999
  0
ARC
  8
0
  6
CONTINUOUS
 62
               3
  5
141
 10
11.624985000000001
 20
-245.24609599999999
 30
0.0
 40
4.7539059999999997
 50
215.400856
 51
324.59914400000002
  0
ARC
  8
0
  6
CONTINUOUS
 62
               3
  5
142
 10
-11.625014999999999
 20
-267.24609600000002
 30
0.0
 40
4.7539059999999997
 50
215.400856
 51
324.59914400000002
  0
ARC
  8
0
  6
CONTINUOUS
 62
               3
  5
143
 10
-0.000015
 20
-255.98437799999999
 30
0.0
 40
16.015625
 50
241.05941200000004
 51
298.94058799999999
  0
ARC
  8
0
  6
CONTINUOUS
 62
               3
  5
144
 10
11.624985000000001
 20
-267.24609600000002
 30
0.0
 40
4.7539059999999997
 50
215.400856
 51
324.59914400000002
  0
ARC
  8
0
  6
CONTINUOUS
 62
               3
  5
145
 10
11.624985000000001
 20
-265.75390900000002
 30
0.0
 40
4.7539059999999997
 50
35.400855999999997
 51
144.599144
  0
ARC
  8
0
  6
CONTINUOUS
 62
               3
  5
146
 10
-0.000015
 20
-277.01562799999999
 30
0.0
 40
16.015625
 50
61.059412000000009
 51
118.94058800000002
  0
ARC
  8
0
  6
CONTINUOUS
 62
               3
  5
147
 10
-11.625014999999999
 20
-265.75390900000002
 30
0.0
 40
4.7539059999999997
 50
35.400855999999997
 51
144.599144
  0
ARC
  8
0
  6
CONTINUOUS
 62
               3
  5
148
 10
6.9999849999999997
 20
-279.00000299999999
 30
0.0
 40
1.0
 50
270.0
 51
0.0
  0
ARC
  8
0
  6
CONTINUOUS
 62
               3
  5
149
 10
-7.0000150000000003
 20
-279.00000299999999
 30
0.0
 40
1.0
 50
180.0
 51
270.0
  0
LINE
  8
0
  6
CONTINUOUS
 62
               3
  5
14A
 10
14.999985000000001
 20
-253.00000299999999
 30
0.0
 11
-15.000014999999999
 21
-253.00000299999999
 31
0.0
  0
LINE
  8
0
  6
CONTINUOUS
 62
               3
  5
14B
 10
13.999985000000001
 20
-255.00000199999999
 30
0.0
 11
13.999985000000001
 21
-253.00000199999999
 31
0.0
  0
LINE
  8
0
  6
CONTINUOUS
 62
               3
  5
14C
 10
-14.000014999999999
 20
-255.00000199999999
 30
0.0
 11
-14.000014999999999
 21
-253.00000199999999
 31
0.0
  0
LINE
  8
0
  6
CONTINUOUS
 62
               3
  5
14D
 10
8.6500000000000004
 20
0.0
 30
0.0
 11
8.6500000000000004
 21
-239.00000299999999
 31
0.0
  0
LINE
  8
0
  6
CONTINUOUS
 62
               3
  5
14E
 10
-8.6500000000000004
 20
0.0
 30
0.0
 11
-8.6500000000000004
 21
-239.00000299999999
 31
0.0
  0
ENDBLK
  8
0
  5
14F
  0
BLOCK
  8
0
  5
150
  2
MS_7
 70
               0
 10
0.0
 20
0.0
 30
0.0
  3
MS_7
  0
LINE
  8
0
  6
CONTINUOUS
 62
               3
  5
151
 10
-19.999998999999999
 20
-109.500001
 30
0.0
 11
-19.5
 21
-110.0
 31
0.0
  0
LINE
  8
0
  6
CONTINUOUS
 62
               3
  5
152
 10
19.999998999999999
 20
-109.500001
 30
0.0
 11
19.5
 21
-110.0
 31
0.0
  0
LINE
  8
0
  6
CONTINUOUS
 62
               3
  5
153
 10
19.5
 20
-110.0
 30
0.0
 11
-19.5
 21
-110.0
 31
0.0
  0
LINE
  8
0
  6
CONTINUOUS
 62
               3
  5
154
 10
19.5
 20
0.0
 30
0.0
 11
20.0
 21
-0.5
 31
0.0
  0
LINE
  8
0
  6
CONTINUOUS
 62
               3
  5
155
 10
20.0
 20
-0.5
 30
0.0
 11
20.0
 21
-109.5
 31
0.0
  0
LINE
  8
0
  6
CONTINUOUS
 62
               3
  5
156
 10
-19.5
 20
0.0
 30
0.0
 11
19.5
 21
0.0
 31
0.0
  0
LINE
  8
0
  6
CONTINUOUS
 62
               3
  5
157
 10
-19.5
 20
0.0
 30
0.0
 11
-20.0
 21
-0.5
 31
0.0
  0
LINE
  8
0
  6
CONTINUOUS
 62
               3
  5
158
 10
-20.0
 20
-0.5
 30
0.0
 11
-20.0
 21
-109.5
 31
0.0
  0
ARC
  8
0
  6
CONTINUOUS
 62
               3
  5
159
 10
23.0
 20
-110.5
 30
0.0
 40
3.0
 50
180.0
 51
260.40593200000001
  0
ARC
  8
0
  6
CONTINUOUS
 62
               3
  5
15A
 10
-23.0
 20
-110.5
 30
0.0
 40
3.0
 50
279.59406799999999
 51
0.0
  0
LINE
  8
0
  6
CONTINUOUS
 62
               3
  5
15B
 10
10.693185
 20
-119.0
 30
0.0
 11
10.693185
 21
-125.2
 31
0.0
  0
LINE
  8
0
  6
CONTINUOUS
 62
               3
  5
15C
 10
14.014785
 20
-160.51745199999999
 30
0.0
 11
14.140544
 21
-153.312738
 31
0.0
  0
ARC
  8
0
  6
CONTINUOUS
 62
               3
  5
15D
 10
13.014937
 20
-160.5
 30
0.0
 40
1.0
 50
270.0
 51
359.0
  0
ARC
  8
0
  6
CONTINUOUS
 62
               3
  5
15E
 10
19.139782
 20
-153.40000000000001
 30
0.0
 40
5.0
 50
90.0
 51
179.0
  0
LINE
  8
0
  6
CONTINUOUS
 62
               3
  5
15F
 10
-22.5
 20
-132.5
 30
0.0
 11
-22.0
 21
-133.0
 31
0.0
  0
LINE
  8
0
  6
CONTINUOUS
 62
               3
  5
160
 10
-20.469398000000002
 20
-137.40000000000001
 30
0.0
 11
-22.5
 21
-134.5
 31
0.0
  0
LINE
  8
0
  6
CONTINUOUS
 62
               3
  5
161
 10
-22.0
 20
-133.0
 30
0.0
 11
-22.5
 21
-133.5
 31
0.0
  0
LINE
  8
0
  6
CONTINUOUS
 62
               3
  5
162
 10
-14.014785
 20
-160.51745199999999
 30
0.0
 11
-14.140544
 21
-153.312738
 31
0.0
  0
LINE
  8
0
  6
CONTINUOUS
 62
               3
  5
163
 10
-21.0
 20
-125.2
 30
0.0
 11
-21.0
 21
-119.0
 31
0.0
  0
ARC
  8
0
  6
CONTINUOUS
 62
               3
  5
164
 10
-13.014938000000001
 20
-160.5
 30
0.0
 40
1.0
 50
181.0
 51
270.0
  0
ARC
  8
0
  6
CONTINUOUS
 62
               3
  5
165
 10
177.5
 20
-134.5
 30
0.0
 40
197.99063799999999
 50
180.83924999999999
 51
184.02578099999999
  0
ARC
  8
0
  6
CONTINUOUS
 62
               3
  5
166
 10
-19.139783000000001
 20
-153.40000000000001
 30
0.0
 40
5.0
 50
1.0
 51
90.0
  0
LINE
  8
0
  6
CONTINUOUS
 62
               3
  5
167
 10
-22.5
 20
-134.5
 30
0.0
 11
-22.5
 21
-133.5
 31
0.0
  0
LINE
  8
0
  6
CONTINUOUS
 62
               3
  5
168
 10
-10.693185
 20
-119.0
 30
0.0
 11
-10.693185
 21
-125.2
 31
0.0
  0
LINE
  8
0
  6
CONTINUOUS
 62
               3
  5
169
 10
13.050580999999999
 20
-161.5
 30
0.0
 11
-13.050580999999999
 21
-161.5
 31
0.0
  0
LINE
  8
0
  6
CONTINUOUS
 62
               3
  5
16A
 10
-20.002108
 20
-148.40000000000001
 30
0.0
 11
20.002108
 21
-148.40000000000001
 31
0.0
  0
LINE
  8
0
  6
CONTINUOUS
 62
               3
  5
16B
 10
-22.0
 20
-116.0
 30
0.0
 11
-22.5
 21
-116.5
 31
0.0
  0
LINE
  8
0
  6
CONTINUOUS
 62
               3
  5
16C
 10
-22.0
 20
-116.0
 30
0.0
 11
-22.5
 21
-115.5
 31
0.0
  0
LINE
  8
0
  6
CONTINUOUS
 62
               3
  5
16D
 10
-22.5
 20
-117.5
 30
0.0
 11
-22.5
 21
-116.5
 31
0.0
  0
LINE
  8
0
  6
CONTINUOUS
 62
               3
  5
16E
 10
-22.5
 20
-113.45804
 30
0.0
 11
-22.5
 21
-115.5
 31
0.0
  0
LINE
  8
0
  6
CONTINUOUS
 62
               3
  5
16F
 10
-22.5
 20
-132.5
 30
0.0
 11
-22.5
 21
-126.7
 31
0.0
  0
ARC
  8
0
  6
CONTINUOUS
 62
               3
  5
170
 10
-21.0
 20
-126.7
 30
0.0
 40
1.5
 50
90.0
 51
180.0
  0
ARC
  8
0
  6
CONTINUOUS
 62
               3
  5
171
 10
-21.0
 20
-117.5
 30
0.0
 40
1.5
 50
180.0
 51
270.0
  0
LINE
  8
0
  6
CONTINUOUS
 62
               3
  5
172
 10
22.0
 20
-133.0
 30
0.0
 11
22.5
 21
-133.5
 31
0.0
  0
LINE
  8
0
  6
CONTINUOUS
 62
               3
  5
173
 10
20.469398000000002
 20
-137.40000000000001
 30
0.0
 11
22.5
 21
-134.5
 31
0.0
  0
LINE
  8
0
  6
CONTINUOUS
 62
               3
  5
174
 10
22.5
 20
-134.5
 30
0.0
 11
22.5
 21
-133.5
 31
0.0
  0
LINE
  8
0
  6
CONTINUOUS
 62
               3
  5
175
 10
22.0
 20
-116.0
 30
0.0
 11
22.5
 21
-115.5
 31
0.0
  0
LINE
  8
0
  6
CONTINUOUS
 62
               3
  5
176
 10
22.5
 20
-113.45804
 30
0.0
 11
22.5
 21
-115.5
 31
0.0
  0
LINE
  8
0
  6
CONTINUOUS
 62
               3
  5
177
 10
22.5
 20
-132.5
 30
0.0
 11
22.0
 21
-133.0
 31
0.0
  0
LINE
  8
0
  6
CONTINUOUS
 62
               3
  5
178
 10
22.0
 20
-116.0
 30
0.0
 11
22.5
 21
-116.5
 31
0.0
  0
LINE
  8
0
  6
CONTINUOUS
 62
               3
  5
179
 10
22.5
 20
-132.5
 30
0.0
 11
22.5
 21
-126.7
 31
0.0
  0
LINE
  8
0
  6
CONTINUOUS
 62
               3
  5
17A
 10
22.5
 20
-117.5
 30
0.0
 11
22.5
 21
-116.5
 31
0.0
  0
LINE
  8
0
  6
CONTINUOUS
 62
               3
  5
17B
 10
21.0
 20
-125.2
 30
0.0
 11
21.0
 21
-119.0
 31
0.0
  0
ARC
  8
0
  6
CONTINUOUS
 62
               3
  5
17C
 10
21.0
 20
-117.5
 30
0.0
 40
1.5
 50
270.0
 51
0.0
  0
ARC
  8
0
  6
CONTINUOUS
 62
               3
  5
17D
 10
21.0
 20
-126.7
 30
0.0
 40
1.5
 50
0.0
 51
90.0
  0
ARC
  8
0
  6
CONTINUOUS
 62
               3
  5
17E
 10
-177.5
 20
-134.5
 30
0.0
 40
197.99063799999999
 50
355.97421900000001
 51
359.16075000000001
  0
LINE
  8
0
  6
CONTINUOUS
 62
               3
  5
17F
 10
-22.0
 20
-116.0
 30
0.0
 11
22.0
 21
-116.0
 31
0.0
  0
LINE
  8
0
  6
CONTINUOUS
 62
               3
  5
180
 10
-22.0
 20
-133.0
 30
0.0
 11
22.0
 21
-133.0
 31
0.0
  0
LINE
  8
0
  6
CONTINUOUS
 62
               3
  5
181
 10
-21.0
 20
-119.0
 30
0.0
 11
21.0
 21
-119.0
 31
0.0
  0
LINE
  8
0
  6
CONTINUOUS
 62
               3
  5
182
 10
-21.0
 20
-125.2
 30
0.0
 11
21.0
 21
-125.2
 31
0.0
  0
LINE
  8
0
  6
CONTINUOUS
 62
               3
  5
183
 10
-20.469398000000002
 20
-137.40000000000001
 30
0.0
 11
20.469398000000002
 21
-137.40000000000001
 31
0.0
  0
LINE
  8
0
  6
CONTINUOUS
 62
               3
  5
184
 10
-22.5
 20
-113.45804
 30
0.0
 11
22.5
 21
-113.45804
 31
0.0
  0
LINE
  8
0
  6
CONTINUOUS
 62
               3
  5
185
 10
19.5
 20
-110.0
 30
0.0
 11
20.0
 21
-110.5
 31
0.0
  0
LINE
  8
0
  6
CONTINUOUS
 62
               3
  5
186
 10
-19.5
 20
-110.0
 30
0.0
 11
-20.0
 21
-110.5
 31
0.0
  0
LINE
  8
0
  6
CONTINUOUS
 62
               3
  5
187
 10
-3.5423979999999999
 20
-124.5
 30
0.0
 11
3.5423979999999999
 21
-124.5
 31
0.0
  0
LINE
  8
0
  6
CONTINUOUS
 62
               3
  5
188
 10
-9.8000000000000007
 20
-119.2
 30
0.0
 11
9.8000000000000007
 21
-119.2
 31
0.0
  0
LINE
  8
0
  6
CONTINUOUS
 62
               3
  5
189
 10
-9.7650900000000007
 20
-121.2
 30
0.0
 11
9.7650900000000007
 21
-121.2
 31
0.0
  0
LINE
  8
0
  6
CONTINUOUS
 62
               3
  5
18A
 10
-7.6940619999999997
 20
-123.90000000000001
 30
0.0
 11
-7.7411909999999997
 21
-121.2
 31
0.0
  0
LINE
  8
0
  6
CONTINUOUS
 62
               3
  5
18B
 10
-9.8000000000000007
 20
-119.2
 30
0.0
 11
-9.7650900000000007
 21
-121.2
 31
0.0
  0
LINE
  8
0
  6
CONTINUOUS
 62
               3
  5
18C
 10
-9.706061
 20
-119.2
 30
0.0
 11
-9.6698229999999992
 21
-121.2
 31
0.0
  0
LINE
  8
0
  6
CONTINUOUS
 62
               3
  5
18D
 10
-9.3235449999999993
 20
-119.2
 30
0.0
 11
-9.2866339999999994
 21
-121.2
 31
0.0
  0
LINE
  8
0
  6
CONTINUOUS
 62
               3
  5
18E
 10
-8.6577369999999991
 20
-119.2
 30
0.0
 11
-8.6212750000000007
 21
-121.2
 31
0.0
  0
LINE
  8
0
  6
CONTINUOUS
 62
               3
  5
18F
 10
-7.7288680000000003
 20
-119.2
 30
0.0
 11
-7.6939640000000002
 21
-121.2
 31
0.0
  0
LINE
  8
0
  6
CONTINUOUS
 62
               3
  5
190
 10
-6.5651619999999999
 20
-119.2
 30
0.0
 11
-6.5328749999999998
 21
-121.2
 31
0.0
  0
LINE
  8
0
  6
CONTINUOUS
 62
               3
  5
191
 10
-5.7883199999999997
 20
-123.90000000000001
 30
0.0
 11
-5.7411909999999997
 21
-121.2
 31
0.0
  0
LINE
  8
0
  6
CONTINUOUS
 62
               3
  5
192
 10
-3.6000000000000001
 20
-121.2
 30
0.0
 11
-3.5423979999999999
 21
-124.5
 31
0.0
  0
LINE
  8
0
  6
CONTINUOUS
 62
               3
  5
193
 10
-5.2019770000000003
 20
-119.2
 30
0.0
 11
-5.1732880000000003
 21
-121.2
 31
0.0
  0
LINE
  8
0
  6
CONTINUOUS
 62
               3
  5
194
 10
-3.6807319999999999
 20
-119.2
 30
0.0
 11
-3.6565129999999999
 21
-121.2
 31
0.0
  0
LINE
  8
0
  6
CONTINUOUS
 62
               3
  5
195
 10
-5.7883199999999997
 20
-123.90000000000001
 30
0.0
 11
-7.6940619999999997
 21
-123.90000000000001
 31
0.0
  0
LINE
  8
0
  6
CONTINUOUS
 62
               3
  5
196
 10
-2.04765
 20
-119.2
 30
0.0
 11
-2.0286369999999998
 21
-121.2
 31
0.0
  0
LINE
  8
0
  6
CONTINUOUS
 62
               3
  5
197
 10
0.160693
 20
-119.2
 30
0.0
 11
0.147463
 21
-121.2
 31
0.0
  0
LINE
  8
0
  6
CONTINUOUS
 62
               3
  5
198
 10
-0.160693
 20
-119.2
 30
0.0
 11
-0.147463
 21
-121.2
 31
0.0
  0
LINE
  8
0
  6
CONTINUOUS
 62
               3
  5
199
 10
2.04765
 20
-119.2
 30
0.0
 11
2.0286360000000001
 21
-121.2
 31
0.0
  0
LINE
  8
0
  6
CONTINUOUS
 62
               3
  5
19A
 10
3.6807319999999999
 20
-119.2
 30
0.0
 11
3.6565129999999999
 21
-121.2
 31
0.0
  0
LINE
  8
0
  6
CONTINUOUS
 62
               3
  5
19B
 10
8.6577369999999991
 20
-119.2
 30
0.0
 11
8.6212750000000007
 21
-121.2
 31
0.0
  0
LINE
  8
0
  6
CONTINUOUS
 62
               3
  5
19C
 10
9.3235449999999993
 20
-119.2
 30
0.0
 11
9.2866339999999994
 21
-121.2
 31
0.0
  0
LINE
  8
0
  6
CONTINUOUS
 62
               3
  5
19D
 10
7.7288680000000003
 20
-119.2
 30
0.0
 11
7.6939640000000002
 21
-121.2
 31
0.0
  0
LINE
  8
0
  6
CONTINUOUS
 62
               3
  5
19E
 10
6.5651619999999999
 20
-119.2
 30
0.0
 11
6.5328749999999998
 21
-121.2
 31
0.0
  0
LINE
  8
0
  6
CONTINUOUS
 62
               3
  5
19F
 10
5.2019770000000003
 20
-119.2
 30
0.0
 11
5.1732870000000002
 21
-121.2
 31
0.0
  0
LINE
  8
0
  6
CONTINUOUS
 62
               3
  5
1A0
 10
3.6000000000000001
 20
-121.2
 30
0.0
 11
3.5423979999999999
 21
-124.5
 31
0.0
  0
LINE
  8
0
  6
CONTINUOUS
 62
               3
  5
1A1
 10
5.7883199999999997
 20
-123.90000000000001
 30
0.0
 11
5.7411909999999997
 21
-121.2
 31
0.0
  0
LINE
  8
0
  6
CONTINUOUS
 62
               3
  5
1A2
 10
7.6940619999999997
 20
-123.90000000000001
 30
0.0
 11
7.7411909999999997
 21
-121.2
 31
0.0
  0
LINE
  8
0
  6
CONTINUOUS
 62
               3
  5
1A3
 10
5.7883199999999997
 20
-123.90000000000001
 30
0.0
 11
7.6940619999999997
 21
-123.90000000000001
 31
0.0
  0
LINE
  8
0
  6
CONTINUOUS
 62
               3
  5
1A4
 10
9.8000000000000007
 20
-119.2
 30
0.0
 11
9.7650900000000007
 21
-121.2
 31
0.0
  0
LINE
  8
0
  6
CONTINUOUS
 62
               3
  5
1A5
 10
9.706061
 20
-119.2
 30
0.0
 11
9.6698229999999992
 21
-121.2
 31
0.0
  0
ENDBLK
  8
0
  5
1A6
  0
BLOCK
  8
0
  5
1A7
  2
MS_8
 70
               0
 10
0.0
 20
0.0
 30
0.0
  3
MS_8
  0
LINE
  8
0
  6
CONTINUOUS
 62
               3
  5
1A8
 10
17.550000000000001
 20
0.0
 30
0.0
 11
-17.550000000000001
 21
0.0
 31
0.0
  0
LINE
  8
0
  6
CONTINUOUS
 62
               3
  5
1A9
 10
19.508725999999999
 20
-0.034281
 30
0.0
 11
17.544764000000001
 21
0.0
 31
0.0
  0
LINE
  8
0
  6
CONTINUOUS
 62
               3
  5
1AA
 10
-19.508725999999999
 20
-0.034281
 30
0.0
 11
-17.544764000000001
 21
0.0
 31
0.0
  0
LINE
  8
0
  6
CONTINUOUS
 62
              80
  5
1AB
 10
-24.5
 20
-99.034128999999993
 30
0.0
 11
24.5
 21
-99.034128999999993
 31
0.0
  0
LINE
  8
0
  6
CONTINUOUS
 62
               3
  5
1AC
 10
-24.5
 20
-99.516673999999995
 30
0.0
 11
-24.5
 21
-99.034128999999993
 31
0.0
  0
LINE
  8
0
  6
CONTINUOUS
 62
               3
  5
1AD
 10
-25.0
 20
-99.525401000000002
 30
0.0
 11
-24.5
 21
-99.516673999999995
 31
0.0
  0
LINE
  8
0
  6
CONTINUOUS
 62
               3
  5
1AE
 10
25.0
 20
-99.525401000000002
 30
0.0
 11
24.5
 21
-99.516673999999995
 31
0.0
  0
LINE
  8
0
  6
CONTINUOUS
 62
               3
  5
1AF
 10
24.5
 20
-99.516673999999995
 30
0.0
 11
24.5
 21
-99.034128999999993
 31
0.0
  0
LINE
  8
0
  6
CONTINUOUS
 62
               3
  5
1B0
 10
25.0
 20
-99.525401000000002
 30
0.0
 11
25.0
 21
-138.542856
 31
0.0
  0
LINE
  8
0
  6
CONTINUOUS
 62
               3
  5
1B1
 10
24.5
 20
-138.55158399999999
 30
0.0
 11
24.5
 21
-139.03412900000001
 31
0.0
  0
LINE
  8
0
  6
CONTINUOUS
 62
               3
  5
1B2
 10
25.0
 20
-138.542856
 30
0.0
 11
24.5
 21
-138.55158399999999
 31
0.0
  0
LINE
  8
0
  6
CONTINUOUS
 62
               3
  5
1B3
 10
-25.0
 20
-99.525401000000002
 30
0.0
 11
-25.0
 21
-138.542856
 31
0.0
  0
LINE
  8
0
  6
CONTINUOUS
 62
               3
  5
1B4
 10
-25.0
 20
-138.542856
 30
0.0
 11
-24.5
 21
-138.55158399999999
 31
0.0
  0
LINE
  8
0
  6
CONTINUOUS
 62
               3
  5
1B5
 10
-24.5
 20
-138.55158399999999
 30
0.0
 11
-24.5
 21
-139.03412900000001
 31
0.0
  0
ARC
  8
0
  6
CONTINUOUS
 62
               3
  5
1B6
 10
19.5
 20
-0.534205
 30
0.0
 40
0.5
 50
0.0
 51
89.0
  0
ARC
  8
0
  6
CONTINUOUS
 62
               3
  5
1B7
 10
-19.5
 20
-0.534205
 30
0.0
 40
0.5
 50
91.0
 51
180.0
  0
LINE
  8
0
  6
CONTINUOUS
 62
               3
  5
1B8
 10
24.5
 20
-98.551584000000005
 30
0.0
 11
24.5
 21
-99.034128999999993
 31
0.0
  0
LINE
  8
0
  6
CONTINUOUS
 62
               3
  5
1B9
 10
25.0
 20
-98.542856
 30
0.0
 11
24.5
 21
-98.551584000000005
 31
0.0
  0
LINE
  8
0
  6
CONTINUOUS
 62
               3
  5
1BA
 10
25.0
 20
-51.469963
 30
0.0
 11
25.0
 21
-98.542856
 31
0.0
  0
LINE
  8
0
  6
CONTINUOUS
 62
               3
  5
1BB
 10
-25.0
 20
-98.542856
 30
0.0
 11
-24.5
 21
-98.551584000000005
 31
0.0
  0
LINE
  8
0
  6
CONTINUOUS
 62
               3
  5
1BC
 10
-25.0
 20
-51.469963
 30
0.0
 11
-25.0
 21
-98.542856
 31
0.0
  0
LINE
  8
0
  6
CONTINUOUS
 62
               3
  5
1BD
 10
-24.5
 20
-98.551584000000005
 30
0.0
 11
-24.5
 21
-99.034128999999993
 31
0.0
  0
LINE
  8
0
  6
CONTINUOUS
 62
               3
  5
1BE
 10
25.0
 20
-139.03412900000001
 30
0.0
 11
-25.0
 21
-139.03412900000001
 31
0.0
  0
LINE
  8
0
  6
CONTINUOUS
 62
               3
  5
1BF
 10
24.5
 20
-98.551584000000005
 30
0.0
 11
-24.5
 21
-98.551584000000005
 31
0.0
  0
LINE
  8
0
  6
CONTINUOUS
 62
               3
  5
1C0
 10
-23.5
 20
-148.007946
 30
0.0
 11
23.5
 21
-148.007946
 31
0.0
  0
LINE
  8
0
  6
CONTINUOUS
 62
               3
  5
1C1
 10
25.0
 20
-140.56008299999999
 30
0.0
 11
25.0
 21
-139.03412900000001
 31
0.0
  0
LINE
  8
0
  6
CONTINUOUS
 62
               3
  5
1C2
 10
-25.0
 20
-140.56008299999999
 30
0.0
 11
-25.0
 21
-139.03412900000001
 31
0.0
  0
LINE
  8
0
  6
CONTINUOUS
 62
               3
  5
1C3
 10
25.0
 20
-164.234129
 30
0.0
 11
24.5
 21
-164.24285599999999
 31
0.0
  0
LINE
  8
0
  6
CONTINUOUS
 62
               3
  5
1C4
 10
24.5
 20
-164.734129
 30
0.0
 11
24.5
 21
-164.24285599999999
 31
0.0
  0
LINE
  8
0
  6
CONTINUOUS
 62
               3
  5
1C5
 10
-25.0
 20
-164.234129
 30
0.0
 11
-25.0
 21
-149.50817499999999
 31
0.0
  0
LINE
  8
0
  6
CONTINUOUS
 62
               3
  5
1C6
 10
25.0
 20
-164.234129
 30
0.0
 11
25.0
 21
-149.50817499999999
 31
0.0
  0
LINE
  8
0
  6
CONTINUOUS
 62
               3
  5
1C7
 10
24.5
 20
-164.24285599999999
 30
0.0
 11
-24.5
 21
-164.24285599999999
 31
0.0
  0
LINE
  8
0
  6
CONTINUOUS
 62
               3
  5
1C8
 10
23.526178999999999
 20
-142.059855
 30
0.0
 11
23.5
 21
-142.06031200000001
 31
0.0
  0
LINE
  8
0
  6
CONTINUOUS
 62
               3
  5
1C9
 10
-23.5
 20
-142.06031200000001
 30
0.0
 11
23.5
 21
-142.06031200000001
 31
0.0
  0
LINE
  8
0
  6
CONTINUOUS
 62
               3
  5
1CA
 10
-23.526178999999999
 20
-142.059855
 30
0.0
 11
-23.5
 21
-142.06031200000001
 31
0.0
  0
LINE
  8
0
  6
CONTINUOUS
 62
               3
  5
1CB
 10
-24.5
 20
-164.734129
 30
0.0
 11
-24.5
 21
-164.24285599999999
 31
0.0
  0
LINE
  8
0
  6
CONTINUOUS
 62
               3
  5
1CC
 10
-25.0
 20
-164.234129
 30
0.0
 11
-24.5
 21
-164.24285599999999
 31
0.0
  0
LINE
  8
0
  6
CONTINUOUS
 62
               3
  5
1CD
 10
23.237127000000001
 20
-142.06031200000001
 30
0.0
 11
23.237127000000001
 21
-148.007946
 31
0.0
  0
LINE
  8
0
  6
CONTINUOUS
 62
               3
  5
1CE
 10
10.693185
 20
-142.06031200000001
 30
0.0
 11
10.693185
 21
-148.007946
 31
0.0
  0
LINE
  8
0
  6
CONTINUOUS
 62
               3
  5
1CF
 10
-10.693185
 20
-142.06031200000001
 30
0.0
 11
-10.693185
 21
-148.007946
 31
0.0
  0
LINE
  8
0
  6
CONTINUOUS
 62
               3
  5
1D0
 10
-23.237127000000001
 20
-142.06031200000001
 30
0.0
 11
-23.237127000000001
 21
-148.007946
 31
0.0
  0
ARC
  8
0
  6
CONTINUOUS
 62
               3
  5
1D1
 10
-15.0
 20
-51.469963
 30
0.0
 40
40.0
 50
0.0
 51
20.364135000000001
  0
ARC
  8
0
  6
CONTINUOUS
 62
               3
  5
1D2
 10
15.0
 20
-51.469963
 30
0.0
 40
40.0
 50
159.635865
 51
180.0
  0
ARC
  8
0
  6
CONTINUOUS
 62
               3
  5
1D3
 10
60.0
 20
-23.631141
 30
0.0
 40
40.0
 50
180.0
 51
200.36413500000003
  0
ARC
  8
0
  6
CONTINUOUS
 62
               3
  5
1D4
 10
-60.0
 20
-23.631141
 30
0.0
 40
40.0
 50
339.63586500000008
 51
0.0
  0
ARC
  8
0
  6
CONTINUOUS
 62
               3
  5
1D5
 10
-23.5
 20
-149.50817499999999
 30
0.0
 40
1.5
 50
90.0
 51
180.0
  0
ARC
  8
0
  6
CONTINUOUS
 62
               3
  5
1D6
 10
23.5
 20
-140.56008299999999
 30
0.0
 40
1.5
 50
271.0
 51
0.0
  0
ARC
  8
0
  6
CONTINUOUS
 62
               3
  5
1D7
 10
23.5
 20
-149.50817499999999
 30
0.0
 40
1.5
 50
0.0
 51
90.0
  0
ARC
  8
0
  6
CONTINUOUS
 62
               3
  5
1D8
 10
-23.5
 20
-140.56008299999999
 30
0.0
 40
1.5
 50
180.0
 51
269.0
  0
LINE
  8
0
  6
CONTINUOUS
 62
               3
  5
1D9
 10
-20.0
 20
-0.534205
 30
0.0
 11
-20.0
 21
-23.615749999999998
 31
0.0
  0
LINE
  8
0
  6
CONTINUOUS
 62
               3
  5
1DA
 10
20.0
 20
-0.534205
 30
0.0
 11
20.0
 21
-23.615749999999998
 31
0.0
  0
LINE
  8
0
  6
CONTINUOUS
 62
               3
  5
1DB
 10
25.0
 20
-164.734129
 30
0.0
 11
-25.0
 21
-164.734129
 31
0.0
  0
ARC
  8
0
  6
CONTINUOUS
 62
               3
  5
1DC
 10
13.014938000000001
 20
-203.24140199999999
 30
0.0
 40
1.0
 50
270.0
 51
359.0
  0
LINE
  8
0
  6
CONTINUOUS
 62
               3
  5
1DD
 10
13.014938000000001
 20
-204.24140199999999
 30
0.0
 11
-13.014938000000001
 21
-204.24140199999999
 31
0.0
  0
ARC
  8
0
  6
CONTINUOUS
 62
               3
  5
1DE
 10
22.50619
 20
-190.24140199999999
 30
0.0
 40
1.0
 50
270.0
 51
352.96755999999999
  0
ARC
  8
0
  6
CONTINUOUS
 62
               3
  5
1DF
 10
21.103431
 20
-198.24140199999999
 30
0.0
 40
7.0
 50
90.0
 51
179.0
  0
LINE
  8
0
  6
CONTINUOUS
 62
               3
  5
1E0
 10
14.104498
 20
-198.119235
 30
0.0
 11
14.014785
 21
-203.25885500000001
 31
0.0
  0
ARC
  8
0
  6
CONTINUOUS
 62
               3
  5
1E1
 10
-21.103431
 20
-198.24140199999999
 30
0.0
 40
7.0
 50
1.0
 51
90.0
  0
ARC
  8
0
  6
CONTINUOUS
 62
               3
  5
1E2
 10
-22.50619
 20
-190.24140199999999
 30
0.0
 40
1.0
 50
187.03244000000004
 51
270.0
  0
LINE
  8
0
  6
CONTINUOUS
 62
               3
  5
1E3
 10
-14.104498
 20
-198.119235
 30
0.0
 11
-14.014785
 21
-203.25885500000001
 31
0.0
  0
LINE
  8
0
  6
CONTINUOUS
 62
               3
  5
1E4
 10
22.50619
 20
-191.24140199999999
 30
0.0
 11
-22.50619
 21
-191.24140199999999
 31
0.0
  0
ARC
  8
0
  6
CONTINUOUS
 62
               3
  5
1E5
 10
-13.014938000000001
 20
-203.24140199999999
 30
0.0
 40
1.0
 50
181.0
 51
270.0
  0
ARC
  8
0
  6
CONTINUOUS
 62
               3
  5
1E6
 10
-174.99673100000001
 20
-165.877577
 30
0.0
 40
200.0
 50
352.96755999999999
 51
0.3275749999999836
  0
ARC
  8
0
  6
CONTINUOUS
 62
               3
  5
1E7
 10
174.99673100000001
 20
-165.877577
 30
0.0
 40
200.0
 50
179.672425
 51
187.03244000000004
  0
ENDBLK
  8
0
  5
1E8
  0
BLOCK
  8
0
  6
BYBLOCK
 62
               0
  5
28
  2
_OPEN30
 70
               2
 10
0.0
 20
0.0
 30
0.0
  3
_OPEN30
  0
LINE
  8
0
  6
BYBLOCK
 62
               0
  5
29
 10
-1.0
 20
0.267949
 30
0.0
 11
0.0
 21
0.0
 31
0.0
  0
LINE
  8
0
  6
BYBLOCK
 62
               0
  5
2A
 10
0.0
 20
0.0
 30
0.0
 11
-1.0
 21
-0.267949
 31
0.0
  0
LINE
  8
0
  6
BYBLOCK
 62
               0
  5
2B
 10
0.0
 20
0.0
 30
0.0
 11
-1.0
 21
0.0
 31
0.0
  0
ENDBLK
  8
0
  6
BYBLOCK
 62
               0
  5
2C
  0
ENDSEC
  0
SECTION
  2
ENTITIES
  0
INSERT
  8
LY_3
  6
BYBLOCK
  5
1E9
  2
MS_2
 10
300.0
 20
960.0
 30
0.0
  0
INSERT
  8
LY_3
  6
BYBLOCK
  5
1EA
  2
MS_2
 10
500.0
 20
960.0
 30
0.0
  0
INSERT
  8
LY_3
  6
BYBLOCK
  5
1EB
  2
MS_2
 10
700.0
 20
960.0
 30
0.0
  0
INSERT
  8
LY_3
  6
BYBLOCK
  5
1EC
  2
MS_2
 10
900.0
 20
960.0
 30
0.0
  0
INSERT
  8
LY_3
  6
BYBLOCK
  5
1ED
  2
MS_2
 10
300.0
 20
2160.0
 30
0.0
  0
INSERT
  8
LY_3
  6
BYBLOCK
  5
1EE
  2
MS_2
 10
500.0
 20
2160.0
 30
0.0
  0
INSERT
  8
LY_3
  6
BYBLOCK
  5
1EF
  2
MS_2
 10
700.0
 20
2160.0
 30
0.0
  0
INSERT
  8
LY_3
  6
BYBLOCK
  5
1F0
  2
MS_2
 10
900.0
 20
2160.0
 30
0.0
  0
INSERT
  8
LY_3
  6
BYBLOCK
  5
1F1
  2
MS_5
 10
300.0
 20
511.25859500000001
 30
0.0
  0
INSERT
  8
LY_3
  6
BYBLOCK
  5
1F2
  2
MS_5
 10
500.0
 20
511.25859500000001
 30
0.0
  0
INSERT
  8
LY_3
  6
BYBLOCK
  5
1F3
  2
MS_5
 10
700.0
 20
511.25859500000001
 30
0.0
  0
INSERT
  8
LY_3
  6
BYBLOCK
  5
1F4
  2
MS_5
 10
900.0
 20
511.25859500000001
 30
0.0
  0
INSERT
  8
LY_3
  6
BYBLOCK
  5
1F5
  2
MS_5
 10
1100.0
 20
511.25859500000001
 30
0.0
  0
INSERT
  8
LY_3
  6
BYBLOCK
  5
1F6
  2
MS_8
 10
300.0
 20
675.0
 30
0.0
  0
INSERT
  8
LY_3
  6
BYBLOCK
  5
1F7
  2
MS_8
 10
500.0
 20
675.0
 30
0.0
  0
INSERT
  8
LY_3
  6
BYBLOCK
  5
1F8
  2
MS_8
 10
700.0
 20
675.0
 30
0.0
  0
INSERT
  8
LY_3
  6
BYBLOCK
  5
1F9
  2
MS_8
 10
900.0
 20
675.0
 30
0.0
  0
INSERT
  8
LY_3
  6
BYBLOCK
  5
1FA
  2
MS_8
 10
1100.0
 20
675.0
 30
0.0
  0
INSERT
  8
LY_3
  6
BYBLOCK
  5
1FB
  2
MS_1
 10
300.0
 20
675.0
 30
0.0
  0
INSERT
  8
LY_3
  6
BYBLOCK
  5
1FC
  2
MS_3
 10
300.0
 20
710.0
 30
0.0
  0
INSERT
  8
LY_3
  6
BYBLOCK
  5
1FD
  2
MS_1
 10
500.0
 20
675.0
 30
0.0
  0
INSERT
  8
LY_3
  6
BYBLOCK
  5
1FE
  2
MS_1
 10
500.0
 20
710.0
 30
0.0
  0
INSERT
  8
LY_3
  6
BYBLOCK
  5
1FF
  2
MS_3
 10
500.0
 20
745.0
 30
0.0
  0
INSERT
  8
LY_3
  6
BYBLOCK
  5
200
  2
MS_1
 10
700.0
 20
675.0
 30
0.0
  0
INSERT
  8
LY_3
  6
BYBLOCK
  5
201
  2
MS_1
 10
700.0
 20
710.0
 30
0.0
  0
INSERT
  8
LY_3
  6
BYBLOCK
  5
202
  2
MS_1
 10
700.0
 20
745.0
 30
0.0
  0
INSERT
  8
LY_3
  6
BYBLOCK
  5
203
  2
MS_3
 10
700.0
 20
780.0
 30
0.0
  0
INSERT
  8
LY_3
  6
BYBLOCK
  5
204
  2
MS_1
 10
900.0
 20
675.0
 30
0.0
  0
INSERT
  8
LY_3
  6
BYBLOCK
  5
205
  2
MS_1
 10
900.0
 20
710.0
 30
0.0
  0
INSERT
  8
LY_3
  6
BYBLOCK
  5
206
  2
MS_1
 10
900.0
 20
745.0
 30
0.0
  0
INSERT
  8
LY_3
  6
BYBLOCK
  5
207
  2
MS_1
 10
900.0
 20
780.0
 30
0.0
  0
INSERT
  8
LY_3
  6
BYBLOCK
  5
208
  2
MS_3
 10
900.0
 20
815.0
 30
0.0
  0
INSERT
  8
LY_3
  6
BYBLOCK
  5
209
  2
MS_2
 10
1100.0
 20
960.0
 30
0.0
  0
INSERT
  8
LY_3
  6
BYBLOCK
  5
20A
  2
MS_3
 10
1100.0
 20
850.0
 30
0.0
  0
INSERT
  8
LY_3
  6
BYBLOCK
  5
20B
  2
MS_1
 10
1100.0
 20
815.0
 30
0.0
  0
INSERT
  8
LY_3
  6
BYBLOCK
  5
20C
  2
MS_1
 10
1100.0
 20
780.0
 30
0.0
  0
INSERT
  8
LY_3
  6
BYBLOCK
  5
20D
  2
MS_1
 10
1100.0
 20
745.0
 30
0.0
  0
INSERT
  8
LY_3
  6
BYBLOCK
  5
20E
  2
MS_1
 10
1100.0
 20
710.0
 30
0.0
  0
INSERT
  8
LY_3
  6
BYBLOCK
  5
20F
  2
MS_1
 10
1100.0
 20
675.0
 30
0.0
  0
INSERT
  8
LY_3
  6
BYBLOCK
  5
210
  2
MS_4
 10
300.00009499999999
 20
1875.0000130000001
 30
0.0
  0
INSERT
  8
LY_3
  6
BYBLOCK
  5
211
  2
MS_4
 10
500.00007499999998
 20
1875.00001
 30
0.0
  0
INSERT
  8
LY_3
  6
BYBLOCK
  5
212
  2
MS_4
 10
700.00005499999997
 20
1875.000008
 30
0.0
  0
INSERT
  8
LY_3
  6
BYBLOCK
  5
213
  2
MS_4
 10
900.00003500000003
 20
1875.0000050000001
 30
0.0
  0
INSERT
  8
LY_3
  6
BYBLOCK
  5
214
  2
MS_4
 10
1100.0000150000001
 20
1875.0000030000001
 30
0.0
  0
INSERT
  8
LY_3
  6
BYBLOCK
  5
215
  2
MS_5
 10
300.0
 20
1875.0
 30
0.0
  0
INSERT
  8
LY_3
  6
BYBLOCK
  5
216
  2
MS_1
 10
300.0
 20
1875.0
 30
0.0
  0
INSERT
  8
LY_3
  6
BYBLOCK
  5
217
  2
MS_3
 10
300.0
 20
1910.0
 30
0.0
  0
INSERT
  8
LY_3
  6
BYBLOCK
  5
218
  2
MS_5
 10
500.0
 20
1875.0
 30
0.0
  0
INSERT
  8
LY_3
  6
BYBLOCK
  5
219
  2
MS_1
 10
500.0
 20
1875.0
 30
0.0
  0
INSERT
  8
LY_3
  6
BYBLOCK
  5
21A
  2
MS_1
 10
500.0
 20
1910.0
 30
0.0
  0
INSERT
  8
LY_3
  6
BYBLOCK
  5
21B
  2
MS_3
 10
500.0
 20
1945.0
 30
0.0
  0
INSERT
  8
LY_3
  6
BYBLOCK
  5
21C
  2
MS_5
 10
700.0
 20
1875.0
 30
0.0
  0
INSERT
  8
LY_3
  6
BYBLOCK
  5
21D
  2
MS_1
 10
700.0
 20
1875.0
 30
0.0
  0
INSERT
  8
LY_3
  6
BYBLOCK
  5
21E
  2
MS_1
 10
700.0
 20
1910.0
 30
0.0
  0
INSERT
  8
LY_3
  6
BYBLOCK
  5
21F
  2
MS_1
 10
700.0
 20
1945.0
 30
0.0
  0
INSERT
  8
LY_3
  6
BYBLOCK
  5
220
  2
MS_3
 10
700.0
 20
1980.0
 30
0.0
  0
INSERT
  8
LY_3
  6
BYBLOCK
  5
221
  2
MS_5
 10
900.0
 20
1875.0
 30
0.0
  0
INSERT
  8
LY_3
  6
BYBLOCK
  5
222
  2
MS_1
 10
900.0
 20
1875.0
 30
0.0
  0
INSERT
  8
LY_3
  6
BYBLOCK
  5
223
  2
MS_1
 10
900.0
 20
1910.0
 30
0.0
  0
INSERT
  8
LY_3
  6
BYBLOCK
  5
224
  2
MS_1
 10
900.0
 20
1945.0
 30
0.0
  0
INSERT
  8
LY_3
  6
BYBLOCK
  5
225
  2
MS_1
 10
900.0
 20
1980.0
 30
0.0
  0
INSERT
  8
LY_3
  6
BYBLOCK
  5
226
  2
MS_3
 10
900.0
 20
2015.0
 30
0.0
  0
INSERT
  8
LY_3
  6
BYBLOCK
  5
227
  2
MS_2
 10
1100.0
 20
2160.0
 30
0.0
  0
INSERT
  8
LY_3
  6
BYBLOCK
  5
228
  2
MS_3
 10
1100.0
 20
2050.0
 30
0.0
  0
INSERT
  8
LY_3
  6
BYBLOCK
  5
229
  2
MS_1
 10
1100.0
 20
2015.0
 30
0.0
  0
INSERT
  8
LY_3
  6
BYBLOCK
  5
22A
  2
MS_1
 10
1100.0
 20
1980.0
 30
0.0
  0
INSERT
  8
LY_3
  6
BYBLOCK
  5
22B
  2
MS_1
 10
1100.0
 20
1945.0
 30
0.0
  0
INSERT
  8
LY_3
  6
BYBLOCK
  5
22C
  2
MS_1
 10
1100.0
 20
1910.0
 30
0.0
  0
INSERT
  8
LY_3
  6
BYBLOCK
  5
22D
  2
MS_1
 10
1100.0
 20
1875.0
 30
0.0
  0
INSERT
  8
LY_3
  6
BYBLOCK
  5
22E
  2
MS_5
 10
1100.0
 20
1875.0
 30
0.0
  0
LINE
  8
LY_3
  6
CONTINUOUS
 62
               3
  5
22F
 10
284.0
 20
979.20937300000003
 30
0.0
 11
284.0
 21
995.99996899999996
 31
0.0
  0
LINE
  8
LY_3
  6
CONTINUOUS
 62
               3
  5
230
 10
316.0
 20
979.20937300000003
 30
0.0
 11
316.0
 21
995.99996899999996
 31
0.0
  0
LINE
  8
LY_3
  6
CONTINUOUS
 62
               3
  5
231
 10
316.0
 20
995.99996899999996
 30
0.0
 11
284.0
 21
995.99996899999996
 31
0.0
  0
CIRCLE
  8
LY_3
  6
CONTINUOUS
 62
               3
  5
232
 10
300.0
 20
960.0
 30
0.0
 40
25.0
  0
LINE
  8
LY_3
  6
CONTINUOUS
 62
               3
  5
233
 10
484.0
 20
979.20937300000003
 30
0.0
 11
484.0
 21
995.99996899999996
 31
0.0
  0
LINE
  8
LY_3
  6
CONTINUOUS
 62
               3
  5
234
 10
516.0
 20
979.20937300000003
 30
0.0
 11
516.0
 21
995.99996899999996
 31
0.0
  0
LINE
  8
LY_3
  6
CONTINUOUS
 62
               3
  5
235
 10
516.0
 20
995.99996899999996
 30
0.0
 11
484.0
 21
995.99996899999996
 31
0.0
  0
CIRCLE
  8
LY_3
  6
CONTINUOUS
 62
               3
  5
236
 10
500.0
 20
960.0
 30
0.0
 40
25.0
  0
LINE
  8
LY_3
  6
CONTINUOUS
 62
               3
  5
237
 10
684.0
 20
979.20937300000003
 30
0.0
 11
684.0
 21
995.99996899999996
 31
0.0
  0
LINE
  8
LY_3
  6
CONTINUOUS
 62
               3
  5
238
 10
716.0
 20
979.20937300000003
 30
0.0
 11
716.0
 21
995.99996899999996
 31
0.0
  0
LINE
  8
LY_3
  6
CONTINUOUS
 62
               3
  5
239
 10
716.0
 20
995.99996899999996
 30
0.0
 11
684.0
 21
995.99996899999996
 31
0.0
  0
CIRCLE
  8
LY_3
  6
CONTINUOUS
 62
               3
  5
23A
 10
700.0
 20
960.0
 30
0.0
 40
25.0
  0
LINE
  8
LY_3
  6
CONTINUOUS
 62
               3
  5
23B
 10
884.0
 20
979.20937300000003
 30
0.0
 11
884.0
 21
995.99996899999996
 31
0.0
  0
LINE
  8
LY_3
  6
CONTINUOUS
 62
               3
  5
23C
 10
916.0
 20
979.20937300000003
 30
0.0
 11
916.0
 21
995.99996899999996
 31
0.0
  0
LINE
  8
LY_3
  6
CONTINUOUS
 62
               3
  5
23D
 10
916.0
 20
995.99996899999996
 30
0.0
 11
884.0
 21
995.99996899999996
 31
0.0
  0
CIRCLE
  8
LY_3
  6
CONTINUOUS
 62
               3
  5
23E
 10
900.0
 20
960.0
 30
0.0
 40
25.0
  0
LINE
  8
LY_3
  6
CONTINUOUS
 62
               3
  5
23F
 10
316.0
 20
2195.999969
 30
0.0
 11
284.0
 21
2195.999969
 31
0.0
  0
LINE
  8
LY_3
  6
CONTINUOUS
 62
               3
  5
240
 10
284.0
 20
2171.9853170000001
 30
0.0
 11
284.0
 21
2195.999969
 31
0.0
  0
LINE
  8
LY_3
  6
CONTINUOUS
 62
               3
  5
241
 10
316.0
 20
2171.9853170000001
 30
0.0
 11
316.0
 21
2195.999969
 31
0.0
  0
LINE
  8
LY_3
  6
CONTINUOUS
 62
               3
  5
242
 10
516.0
 20
2195.999969
 30
0.0
 11
484.0
 21
2195.999969
 31
0.0
  0
LINE
  8
LY_3
  6
CONTINUOUS
 62
               3
  5
243
 10
484.0
 20
2171.9853170000001
 30
0.0
 11
484.0
 21
2195.999969
 31
0.0
  0
LINE
  8
LY_3
  6
CONTINUOUS
 62
               3
  5
244
 10
516.0
 20
2171.9853170000001
 30
0.0
 11
516.0
 21
2195.999969
 31
0.0
  0
LINE
  8
LY_3
  6
CONTINUOUS
 62
               3
  5
245
 10
716.0
 20
2195.999969
 30
0.0
 11
684.0
 21
2195.999969
 31
0.0
  0
LINE
  8
LY_3
  6
CONTINUOUS
 62
               3
  5
246
 10
684.0
 20
2171.9853170000001
 30
0.0
 11
684.0
 21
2195.999969
 31
0.0
  0
LINE
  8
LY_3
  6
CONTINUOUS
 62
               3
  5
247
 10
716.0
 20
2171.9853170000001
 30
0.0
 11
716.0
 21
2195.999969
 31
0.0
  0
LINE
  8
LY_3
  6
CONTINUOUS
 62
               3
  5
248
 10
916.0
 20
2195.999969
 30
0.0
 11
884.0
 21
2195.999969
 31
0.0
  0
LINE
  8
LY_3
  6
CONTINUOUS
 62
               3
  5
249
 10
884.0
 20
2171.9853170000001
 30
0.0
 11
884.0
 21
2195.999969
 31
0.0
  0
LINE
  8
LY_3
  6
CONTINUOUS
 62
               3
  5
24A
 10
916.0
 20
2171.9853170000001
 30
0.0
 11
916.0
 21
2195.999969
 31
0.0
  0
TEXT
  8
LY_3
  6
CONTINUOUS
 62
             255
  5
24B
 10
641.7695292172582
 20
1122.5
 30
0.0
 40
30.0
  1
XVC4M
 41
0.878906243451638
  7
MX_NOTE_STANDARD
 11
641.7695292172582
 21
1137.5
 31
0.0
 73
               2
  0
TEXT
  8
LY_3
  6
CONTINUOUS
 62
             255
  5
24C
 10
641.76953121725819
 20
2345.0
 30
0.0
 40
30.0
  1
XVC4B
 41
0.878906243451638
  7
MX_NOTE_STANDARD
 11
641.76953121725819
 21
2360.0
 31
0.0
 73
               2
  0
CIRCLE
  8
LY_3
  6
CONTINUOUS
 62
               3
  5
24D
 10
1100.0
 20
960.0
 30
0.0
 40
25.0
  0
LINE
  8
LY_3
  6
CONTINUOUS
 62
               3
  5
24E
 10
1116.0
 20
995.99996899999996
 30
0.0
 11
1084.0
 21
995.99996899999996
 31
0.0
  0
LINE
  8
LY_3
  6
CONTINUOUS
 62
               3
  5
24F
 10
1116.0
 20
979.20937300000003
 30
0.0
 11
1116.0
 21
995.99996899999996
 31
0.0
  0
LINE
  8
LY_3
  6
CONTINUOUS
 62
               3
  5
250
 10
1084.0
 20
979.20937300000003
 30
0.0
 11
1084.0
 21
995.99996899999996
 31
0.0
  0
LINE
  8
LY_3
  6
CONTINUOUS
 62
               3
  5
251
 10
1116.0
 20
2171.9853170000001
 30
0.0
 11
1116.0
 21
2195.999969
 31
0.0
  0
LINE
  8
LY_3
  6
CONTINUOUS
 62
               3
  5
252
 10
1084.0
 20
2171.9853170000001
 30
0.0
 11
1084.0
 21
2195.999969
 31
0.0
  0
LINE
  8
LY_3
  6
CONTINUOUS
 62
               3
  5
253
 10
1116.0
 20
2195.999969
 30
0.0
 11
1084.0
 21
2195.999969
 31
0.0
  0
ENDSEC
  0
EOF
