  0
SECTION
  2
HEADER
  9
$ACADVER
  1
AC1009
  9
$DWGCODEPAGE
  3
dos932
  9
$INSBASE
 10
0.0
 20
0.0
 30
0.0
  9
$EXTMIN
 10
-15.566167
 20
-85.5
 30
0.0
  9
$EXTMAX
 10
415.566167
 20
164.5
 30
0.0
  9
$LIMMIN
 10
-15.566167
 20
-85.5
  9
$LIMMAX
 10
415.566167
 20
164.5
  9
$ORTHOMODE
 70
     0
  9
$REGENMODE
 70
     1
  9
$FILLMODE
 70
     1
  9
$QTEXTMODE
 70
     0
  9
$MIRRTEXT
 70
     1
  9
$DRAGMODE
 70
     2
  9
$LTSCALE
 40
1.0
  9
$OSMODE
 70
     0
  9
$ATTMODE
 70
     1
  9
$TEXTSIZE
 40
4.1656
  9
$TRACEWID
 40
0.05
  9
$TEXTSTYLE
  7
MX_NOTE_STANDARD
  9
$CLAYER
  8
0
  9
$CELTYPE
  6
CONTINUOUS
  9
$CECOLOR
 62
   256
  9
$DIMSCALE
 40
1.0
  9
$DIMASZ
 40
2.5
  9
$DIMEXO
 40
0.5
  9
$DIMDLI
 40
3.75
  9
$DIMRND
 40
0.0
  9
$DIMDLE
 40
0.0
  9
$DIMEXE
 40
1.0
  9
$DIMTP
 40
0.0
  9
$DIMTM
 40
0.0
  9
$DIMTXT
 40
2.5
  9
$DIMCEN
 40
2.5
  9
$DIMTSZ
 40
0.0
  9
$DIMTOL
 70
     0
  9
$DIMLIM
 70
     0
  9
$DIMTIH
 70
     0
  9
$DIMTOH
 70
     0
  9
$DIMSE1
 70
     0
  9
$DIMSE2
 70
     0
  9
$DIMTAD
 70
     1
  9
$DIMZIN
 70
     8
  9
$DIMBLK
  1

  9
$DIMASO
 70
     1
  9
$DIMSHO
 70
     1
  9
$DIMPOST
  1

  9
$DIMAPOST
  1

  9
$DIMALT
 70
     0
  9
$DIMALTD
 70
     4
  9
$DIMALTF
 40
0.03937
  9
$DIMLFAC
 40
1.0
  9
$DIMTOFL
 70
     1
  9
$DIMTVP
 40
0.0
  9
$DIMTIX
 70
     0
  9
$DIMSOXD
 70
     0
  9
$DIMSAH
 70
     0
  9
$DIMBLK1
  1

  9
$DIMBLK2
  1

  9
$DIMSTYLE
  2
MXDIMSTYLE
  9
$DIMCLRD
 70
     0
  9
$DIMCLRE
 70
     0
  9
$DIMCLRT
 70
     0
  9
$DIMTFAC
 40
1.0
  9
$DIMGAP
 40
1.0
  9
$LUNITS
 70
     2
  9
$LUPREC
 70
     4
  9
$AXISMODE
 70
     0
  9
$AXISUNIT
 10
0.0
 20
0.0
  9
$SKETCHINC
 40
0.1
  9
$FILLETRAD
 40
0.0
  9
$AUNITS
 70
     0
  9
$AUPREC
 70
     0
  9
$MENU
  1
acad
  9
$ELEVATION
 40
0.0
  9
$PELEVATION
 40
0.0
  9
$THICKNESS
 40
0.0
  9
$LIMCHECK
 70
     0
  9
$BLIPMODE
 70
     1
  9
$CHAMFERA
 40
0.0
  9
$CHAMFERB
 40
0.0
  9
$SKPOLY
 70
     0
  9
$TDCREATE
 40
2453676.660879630
  9
$TDUPDATE
 40
2453676.660879630
  9
$TDINDWG
 40
0.0000000000
  9
$TDUSRTIMER
 40
0.0000000000
  9
$USRTIMER
 70
     1
  9
$ANGBASE
 50
0.0
  9
$ANGDIR
 70
     0
  9
$PDMODE
 70
     0
  9
$PDSIZE
 40
0.0
  9
$PLINEWID
 40
0.0
  9
$COORDS
 70
     1
  9
$SPLFRAME
 70
     0
  9
$SPLINETYPE
 70
     6
  9
$SPLINESEGS
 70
     8
  9
$ATTDIA
 70
     0
  9
$ATTREQ
 70
     1
  9
$HANDLING
 70
     1
  9
$HANDSEED
  5
144
  9
$SURFTAB1
 70
     6
  9
$SURFTAB2
 70
     6
  9
$SURFTYPE
 70
     6
  9
$SURFU
 70
     6
  9
$SURFV
 70
     6
  9
$UCSNAME
  2

  9
$UCSORG
 10
0.0
 20
0.0
 30
0.0
  9
$UCSXDIR
 10
1.0
 20
0.0
 30
0.0
  9
$UCSYDIR
 10
0.0
 20
1.0
 30
0.0
  9
$PUCSNAME
  2

  9
$PUCSORG
 10
0.0
 20
0.0
 30
0.0
  9
$PUCSXDIR
 10
1.0
 20
0.0
 30
0.0
  9
$PUCSYDIR
 10
0.0
 20
1.0
 30
0.0
  9
$USERI1
 70
     0
  9
$USERI2
 70
     0
  9
$USERI3
 70
     0
  9
$USERI4
 70
     0
  9
$USERI5
 70
     0
  9
$USERR1
 40
0.0
  9
$USERR2
 40
0.0
  9
$USERR3
 40
0.0
  9
$USERR4
 40
0.0
  9
$USERR5
 40
0.0
  9
$WORLDVIEW
 70
     1
  9
$SHADEDGE
 70
     3
  9
$SHADEDIF
 70
    70
  9
$TILEMODE
 70
     1
  9
$MAXACTVP
 70
    16
  9
$PINSBASE
 10
0.0
 20
0.0
 30
0.0
  9
$PLIMCHECK
 70
     0
  9
$PEXTMIN
 10
1.000000E+20
 20
1.000000E+20
 30
1.000000E+20
  9
$PEXTMAX
 10
-1.000000E+20
 20
-1.000000E+20
 30
-1.000000E+20
  9
$PLIMMIN
 10
0.0
 20
0.0
  9
$PLIMMAX
 10
12.0
 20
9.0
  9
$UNITMODE
 70
     0
  9
$VISRETAIN
 70
     0
  9
$PLINEGEN
 70
     1
  9
$PSLTSCALE
 70
     0
  9
$TREEDEPTH
 70
  3020
  9
$DWGCODEPAGE
  3
dos932
  0
ENDSEC
  0
SECTION
  2
TABLES
  0
TABLE
  2
VPORT
 70
     1
  0
VPORT
  2
*ACTIVE
 70
     0
 10
0.0
 20
0.0
 11
1.0
 21
1.0
 12
200.0
 22
39.5
 13
0.0
 23
0.0
 14
1.0
 24
1.0
 15
0.0
 25
0.0
 16
0.0
 26
0.0
 36
1.0
 17
0.0
 27
0.0
 37
0.0
 40
252.5
 41
1.732051
 42
50.0
 43
0.0
 44
0.0
 50
0.0
 51
0.0
 71
     0
 72
   100
 73
     1
 74
     1
 75
     0
 76
     0
 77
     0
 78
     0
  0
ENDTAB
  0
TABLE
  2
LTYPE
 70
     2
  0
LTYPE
  2
CONTINUOUS
 70
    64
  3
Solid line
 72
    65
 73
     0
 40
0.0
  0
LTYPE
  2
DASHED
 70
    64
  3
Dashed __ __ __ __ __ __ __ __ __ __ __ __ __ _
 72
    65
 73
     2
 40
19.05
 49
12.7
 49
-6.35
  0
ENDTAB
  0
TABLE
  2
LAYER
 70
     5
  0
LAYER
  2
0
 70
     0
 62
     7
  6
CONTINUOUS
  0
LAYER
  2
1
 70
     0
 62
     7
  6
CONTINUOUS
  0
LAYER
  2
30
 70
     0
 62
     7
  6
CONTINUOUS
  0
LAYER
  2
_CONSTR
 70
     0
 62
     5
  6
CONTINUOUS
  0
LAYER
  2
DEFPOINTS
 70
     0
 62
     7
  6
CONTINUOUS
  0
ENDTAB
  0
TABLE
  2
STYLE
 70
     1
  0
STYLE
  2
MX_NOTE_STANDARD
 70
     0
 40
0.0
 41
1.0
 50
0.0
 71
     0
 42
4.1656
  3
txt.shx
  4
extfont.shx
  0
ENDTAB
  0
TABLE
  2
VIEW
 70
     0
  0
ENDTAB
  0
TABLE
  2
UCS
 70
     0
  0
ENDTAB
  0
TABLE
  2
APPID
 70
     1
  0
APPID
  2
ACAD
 70
     0
  0
ENDTAB
  0
TABLE
  2
DIMSTYLE
 70
     1
  0
DIMSTYLE
  2
MXDIMSTYLE
 70
     0
  3

  4

  5

  6

  7

 40
1.0
 41
2.5
 42
0.5
 43
3.75
 44
1.0
 45
0.0
 46
0.0
 47
0.0
 48
0.0
 71
     0
 72
     0
 73
     0
 74
     0
 75
     0
 76
     0
 77
     1
 78
     8
140
2.5
141
2.5
142
0.0
143
0.03937
144
1.0
145
0.0
146
1.0
147
1.0
170
     0
171
     4
172
     1
173
     0
174
     0
175
     0
176
     0
177
     0
178
     0
  0
ENDTAB
  0
ENDSEC
  0
SECTION
  2
BLOCKS
  0
BLOCK
  8
0
  5
29
  2
MS_1
 70
     0
 10
0.0
 20
0.0
 30
0.0
  3
MS_1
  0
ARC
  8
0
  6
CONTINUOUS
 62
     3
  5
2A
 10
-10.085786
 20
8.0
 30
0.0
 40
1.0
 50
90.0
 51
135.0
  0
ARC
  8
0
  6
CONTINUOUS
 62
     3
  5
2B
 10
14.0
 20
4.085786
 30
0.0
 40
1.0
 50
0.0
 51
45.0
  0
LINE
  8
0
  6
CONTINUOUS
 62
     3
  5
2C
 10
14.707107
 20
4.792893
 30
0.0
 11
10.792893
 21
8.707107
 31
0.0
  0
ARC
  8
0
  6
CONTINUOUS
 62
     3
  5
2D
 10
-14.0
 20
4.085786
 30
0.0
 40
1.0
 50
135.0
 51
180.0
  0
ARC
  8
0
  6
CONTINUOUS
 62
     3
  5
2E
 10
10.085786
 20
8.0
 30
0.0
 40
1.0
 50
45.0
 51
90.0
  0
LINE
  8
0
  6
CONTINUOUS
 62
     3
  5
2F
 10
-14.707107
 20
4.792893
 30
0.0
 11
-10.792893
 21
8.707107
 31
0.0
  0
LINE
  8
0
  6
CONTINUOUS
 62
     3
  5
30
 10
-10.085786
 20
9.0
 30
0.0
 11
10.085786
 21
9.0
 31
0.0
  0
LINE
  8
0
  6
CONTINUOUS
 62
     3
  5
31
 10
15.0
 20
0.0
 30
0.0
 11
-15.0
 21
0.0
 31
0.0
  0
LINE
  8
0
  6
CONTINUOUS
 62
     3
  5
32
 10
-15.0
 20
0.0
 30
0.0
 11
-15.0
 21
4.085786
 31
0.0
  0
LINE
  8
0
  6
CONTINUOUS
 62
     3
  5
33
 10
15.0
 20
0.0
 30
0.0
 11
15.0
 21
4.085786
 31
0.0
  0
ENDBLK
  8
0
  5
34
  0
BLOCK
  8
0
  5
35
  2
MS_2
 70
     0
 10
0.0
 20
0.0
 30
0.0
  3
MS_2
  0
LINE
  8
0
  6
DASHED
 62
    80
  5
37
 10
-15.0
 20
28.2
 30
0.0
 11
15.0
 21
28.2
 31
0.0
  0
LINE
  8
0
  6
DASHED
 62
    80
  5
38
 10
-15.0
 20
14.1
 30
0.0
 11
15.0
 21
14.1
 31
0.0
  0
LINE
  8
0
  6
CONTINUOUS
 62
     3
  5
39
 10
15.0
 20
43.5
 30
0.0
 11
-15.0
 21
43.5
 31
0.0
  0
LINE
  8
0
  6
CONTINUOUS
 62
    80
  5
3A
 10
0.0
 20
0.0
 30
0.0
 11
0.0
 21
42.7
 31
0.0
  0
LINE
  8
0
  6
CONTINUOUS
 62
    80
  5
3B
 10
13.5
 20
0.0
 30
0.0
 11
13.5
 21
42.7
 31
0.0
  0
LINE
  8
0
  6
CONTINUOUS
 62
    80
  5
3C
 10
12.0
 20
0.0
 30
0.0
 11
12.0
 21
42.7
 31
0.0
  0
LINE
  8
0
  6
CONTINUOUS
 62
    80
  5
3D
 10
10.5
 20
0.0
 30
0.0
 11
10.5
 21
42.7
 31
0.0
  0
LINE
  8
0
  6
CONTINUOUS
 62
    80
  5
3E
 10
9.0
 20
0.0
 30
0.0
 11
9.0
 21
42.7
 31
0.0
  0
LINE
  8
0
  6
CONTINUOUS
 62
    80
  5
3F
 10
7.5
 20
0.0
 30
0.0
 11
7.5
 21
42.7
 31
0.0
  0
LINE
  8
0
  6
CONTINUOUS
 62
    80
  5
40
 10
6.0
 20
0.0
 30
0.0
 11
6.0
 21
42.7
 31
0.0
  0
LINE
  8
0
  6
CONTINUOUS
 62
    80
  5
41
 10
4.5
 20
0.0
 30
0.0
 11
4.5
 21
42.7
 31
0.0
  0
LINE
  8
0
  6
CONTINUOUS
 62
    80
  5
42
 10
3.0
 20
0.0
 30
0.0
 11
3.0
 21
42.7
 31
0.0
  0
LINE
  8
0
  6
CONTINUOUS
 62
    80
  5
43
 10
1.5
 20
0.0
 30
0.0
 11
1.5
 21
42.7
 31
0.0
  0
LINE
  8
0
  6
CONTINUOUS
 62
    80
  5
44
 10
-1.5
 20
0.0
 30
0.0
 11
-1.5
 21
42.7
 31
0.0
  0
LINE
  8
0
  6
CONTINUOUS
 62
    80
  5
45
 10
-3.0
 20
0.0
 30
0.0
 11
-3.0
 21
42.7
 31
0.0
  0
LINE
  8
0
  6
CONTINUOUS
 62
    80
  5
46
 10
-4.5
 20
0.0
 30
0.0
 11
-4.5
 21
42.7
 31
0.0
  0
LINE
  8
0
  6
CONTINUOUS
 62
    80
  5
47
 10
-6.0
 20
0.0
 30
0.0
 11
-6.0
 21
42.7
 31
0.0
  0
LINE
  8
0
  6
CONTINUOUS
 62
    80
  5
48
 10
-7.5
 20
0.0
 30
0.0
 11
-7.5
 21
42.7
 31
0.0
  0
LINE
  8
0
  6
CONTINUOUS
 62
    80
  5
49
 10
-9.0
 20
0.0
 30
0.0
 11
-9.0
 21
42.7
 31
0.0
  0
LINE
  8
0
  6
CONTINUOUS
 62
    80
  5
4A
 10
-10.5
 20
0.0
 30
0.0
 11
-10.5
 21
42.7
 31
0.0
  0
LINE
  8
0
  6
CONTINUOUS
 62
    80
  5
4B
 10
-12.0
 20
0.0
 30
0.0
 11
-12.0
 21
42.7
 31
0.0
  0
LINE
  8
0
  6
CONTINUOUS
 62
    80
  5
4C
 10
-13.5
 20
0.0
 30
0.0
 11
-13.5
 21
42.7
 31
0.0
  0
LINE
  8
0
  6
CONTINUOUS
 62
     3
  5
4D
 10
-15.0
 20
42.7
 30
0.0
 11
15.0
 21
42.7
 31
0.0
  0
LINE
  8
0
  6
CONTINUOUS
 62
     3
  5
4E
 10
15.0
 20
0.0
 30
0.0
 11
-15.0
 21
0.0
 31
0.0
  0
LINE
  8
0
  6
CONTINUOUS
 62
     3
  5
4F
 10
-15.0
 20
0.0
 30
0.0
 11
-15.0
 21
43.5
 31
0.0
  0
LINE
  8
0
  6
CONTINUOUS
 62
     3
  5
50
 10
15.0
 20
0.0
 30
0.0
 11
15.0
 21
43.5
 31
0.0
  0
ENDBLK
  8
0
  5
51
  0
BLOCK
  8
0
  5
52
  2
MS_3
 70
     0
 10
0.0
 20
0.0
 30
0.0
  3
MS_3
  0
LINE
  8
0
  6
DASHED
 62
    80
  5
53
 10
-15.0
 20
14.1
 30
0.0
 11
15.0
 21
14.1
 31
0.0
  0
LINE
  8
0
  6
CONTINUOUS
 62
    80
  5
54
 10
0.0
 20
0.0
 30
0.0
 11
0.0
 21
28.2
 31
0.0
  0
LINE
  8
0
  6
CONTINUOUS
 62
    80
  5
55
 10
13.5
 20
0.0
 30
0.0
 11
13.5
 21
28.2
 31
0.0
  0
LINE
  8
0
  6
CONTINUOUS
 62
    80
  5
56
 10
12.0
 20
0.0
 30
0.0
 11
12.0
 21
28.2
 31
0.0
  0
LINE
  8
0
  6
CONTINUOUS
 62
    80
  5
57
 10
10.5
 20
0.0
 30
0.0
 11
10.5
 21
28.2
 31
0.0
  0
LINE
  8
0
  6
CONTINUOUS
 62
    80
  5
58
 10
9.0
 20
0.0
 30
0.0
 11
9.0
 21
28.2
 31
0.0
  0
LINE
  8
0
  6
CONTINUOUS
 62
    80
  5
59
 10
7.5
 20
0.0
 30
0.0
 11
7.5
 21
28.2
 31
0.0
  0
LINE
  8
0
  6
CONTINUOUS
 62
    80
  5
5A
 10
6.0
 20
0.0
 30
0.0
 11
6.0
 21
28.2
 31
0.0
  0
LINE
  8
0
  6
CONTINUOUS
 62
    80
  5
5B
 10
4.5
 20
0.0
 30
0.0
 11
4.5
 21
28.2
 31
0.0
  0
LINE
  8
0
  6
CONTINUOUS
 62
    80
  5
5C
 10
3.0
 20
0.0
 30
0.0
 11
3.0
 21
28.2
 31
0.0
  0
LINE
  8
0
  6
CONTINUOUS
 62
    80
  5
5D
 10
1.5
 20
0.0
 30
0.0
 11
1.5
 21
28.2
 31
0.0
  0
LINE
  8
0
  6
CONTINUOUS
 62
    80
  5
5E
 10
-1.5
 20
0.0
 30
0.0
 11
-1.5
 21
28.2
 31
0.0
  0
LINE
  8
0
  6
CONTINUOUS
 62
    80
  5
5F
 10
-3.0
 20
0.0
 30
0.0
 11
-3.0
 21
28.2
 31
0.0
  0
LINE
  8
0
  6
CONTINUOUS
 62
    80
  5
60
 10
-4.5
 20
0.0
 30
0.0
 11
-4.5
 21
28.2
 31
0.0
  0
LINE
  8
0
  6
CONTINUOUS
 62
    80
  5
61
 10
-6.0
 20
0.0
 30
0.0
 11
-6.0
 21
28.2
 31
0.0
  0
LINE
  8
0
  6
CONTINUOUS
 62
    80
  5
62
 10
-7.5
 20
0.0
 30
0.0
 11
-7.5
 21
28.2
 31
0.0
  0
LINE
  8
0
  6
CONTINUOUS
 62
    80
  5
63
 10
-9.0
 20
0.0
 30
0.0
 11
-9.0
 21
28.2
 31
0.0
  0
LINE
  8
0
  6
CONTINUOUS
 62
    80
  5
64
 10
-10.5
 20
0.0
 30
0.0
 11
-10.5
 21
28.2
 31
0.0
  0
LINE
  8
0
  6
CONTINUOUS
 62
    80
  5
65
 10
-12.0
 20
0.0
 30
0.0
 11
-12.0
 21
28.2
 31
0.0
  0
LINE
  8
0
  6
CONTINUOUS
 62
    80
  5
66
 10
-13.5
 20
0.0
 30
0.0
 11
-13.5
 21
28.2
 31
0.0
  0
LINE
  8
0
  6
CONTINUOUS
 62
     3
  5
67
 10
15.0
 20
29.0
 30
0.0
 11
-15.0
 21
29.0
 31
0.0
  0
LINE
  8
0
  6
CONTINUOUS
 62
     3
  5
68
 10
-15.0
 20
28.2
 30
0.0
 11
15.0
 21
28.2
 31
0.0
  0
LINE
  8
0
  6
CONTINUOUS
 62
     3
  5
69
 10
15.0
 20
0.0
 30
0.0
 11
-15.0
 21
0.0
 31
0.0
  0
LINE
  8
0
  6
CONTINUOUS
 62
     3
  5
6A
 10
-15.0
 20
0.0
 30
0.0
 11
-15.0
 21
29.0
 31
0.0
  0
LINE
  8
0
  6
CONTINUOUS
 62
     3
  5
6B
 10
15.0
 20
0.0
 30
0.0
 11
15.0
 21
29.0
 31
0.0
  0
ENDBLK
  8
0
  5
6C
  0
BLOCK
  8
0
  5
6D
  2
MS_4
 70
     0
 10
0.0
 20
0.0
 30
0.0
  3
MS_4
  0
LINE
  8
0
  6
CONTINUOUS
 62
     3
  5
6E
 10
14.0
 20
0.0
 30
0.0
 11
-14.0
 21
0.0
 31
0.0
  0
LINE
  8
0
  6
CONTINUOUS
 62
     3
  5
6F
 10
-10.2
 20
-20.0
 30
0.0
 11
10.2
 21
-20.0
 31
0.0
  0
LINE
  8
0
  6
CONTINUOUS
 62
     3
  5
70
 10
-10.2
 20
-20.0
 30
0.0
 11
-11.0
 21
-19.2
 31
0.0
  0
LINE
  8
0
  6
CONTINUOUS
 62
     3
  5
71
 10
10.2
 20
-20.0
 30
0.0
 11
11.0
 21
-19.2
 31
0.0
  0
LINE
  8
0
  6
CONTINUOUS
 62
    80
  5
72
 10
11.0
 20
-19.2
 30
0.0
 11
-11.0
 21
-19.2
 31
0.0
  0
LINE
  8
0
  6
CONTINUOUS
 62
    80
  5
73
 10
10.2
 20
-20.0
 30
0.0
 11
10.2
 21
0.0
 31
0.0
  0
LINE
  8
0
  6
CONTINUOUS
 62
     3
  5
74
 10
-11.0
 20
-19.2
 30
0.0
 11
-11.0
 21
0.0
 31
0.0
  0
LINE
  8
0
  6
CONTINUOUS
 62
     3
  5
75
 10
11.0
 20
-19.2
 30
0.0
 11
11.0
 21
0.0
 31
0.0
  0
LINE
  8
0
  6
CONTINUOUS
 62
    80
  5
76
 10
-10.2
 20
0.0
 30
0.0
 11
-10.2
 21
-20.0
 31
0.0
  0
LINE
  8
0
  6
CONTINUOUS
 62
     3
  5
77
 10
-14.970142
 20
173.88057
 30
0.0
 11
-14.0
 21
170.0
 31
0.0
  0
LINE
  8
0
  6
CONTINUOUS
 62
     3
  5
78
 10
14.970143
 20
173.88057
 30
0.0
 11
14.0
 21
170.0
 31
0.0
  0
ARC
  8
0
  6
CONTINUOUS
 62
     3
  5
79
 10
14.0
 20
174.123106
 30
0.0
 40
1.0
 50
345.963757
 51
0.0
  0
ARC
  8
0
  6
CONTINUOUS
 62
     3
  5
7A
 10
-14.0
 20
174.123106
 30
0.0
 40
1.0
 50
180.0
 51
194.036243
  0
LINE
  8
0
  6
CONTINUOUS
 62
     3
  5
7B
 10
14.0
 20
170.0
 30
0.0
 11
-14.0
 21
170.0
 31
0.0
  0
LINE
  8
0
  6
CONTINUOUS
 62
     3
  5
7C
 10
-15.0
 20
174.123106
 30
0.0
 11
15.0
 21
174.123106
 31
0.0
  0
LINE
  8
0
  6
CONTINUOUS
 62
     3
  5
7D
 10
-15.0
 20
174.123106
 30
0.0
 11
-15.0
 21
188.0
 31
0.0
  0
LINE
  8
0
  6
CONTINUOUS
 62
     3
  5
7E
 10
15.0
 20
174.123106
 30
0.0
 11
15.0
 21
188.0
 31
0.0
  0
LINE
  8
0
  6
CONTINUOUS
 62
     3
  5
7F
 10
-14.0
 20
0.0
 30
0.0
 11
-14.0
 21
170.0
 31
0.0
  0
LINE
  8
0
  6
CONTINUOUS
 62
     3
  5
80
 10
14.0
 20
0.0
 30
0.0
 11
14.0
 21
170.0
 31
0.0
  0
LINE
  8
0
  6
CONTINUOUS
 62
     3
  5
81
 10
-15.0
 20
187.2
 30
0.0
 11
15.0
 21
187.2
 31
0.0
  0
LINE
  8
0
  6
CONTINUOUS
 62
     3
  5
82
 10
15.0
 20
188.0
 30
0.0
 11
-15.0
 21
188.0
 31
0.0
  0
ENDBLK
  8
0
  5
83
  0
BLOCK
  8
0
  5
84
  2
MS_5
 70
     0
 10
0.0
 20
0.0
 30
0.0
  3
MS_5
  0
LINE
  8
0
  6
CONTINUOUS
 62
     3
  5
85
 10
13.535898
 20
-8.5
 30
0.0
 11
-13.535898
 21
-8.5
 31
0.0
  0
LINE
  8
0
  6
CONTINUOUS
 62
    80
  5
86
 10
-3.865281
 20
-8.5
 30
0.0
 11
-7.649891
 21
-6.314955
 31
0.0
  0
LINE
  8
0
  6
CONTINUOUS
 62
     3
  5
87
 10
15.299782
 20
-1.5
 30
0.0
 11
15.299782
 21
-7.481621
 31
0.0
  0
LINE
  8
0
  6
CONTINUOUS
 62
    80
  5
88
 10
7.649891
 20
-6.314955
 30
0.0
 11
7.649891
 21
-1.5
 31
0.0
  0
LINE
  8
0
  6
CONTINUOUS
 62
    80
  5
89
 10
-11.434501
 20
-8.5
 30
0.0
 11
-7.649891
 21
-6.314955
 31
0.0
  0
LINE
  8
0
  6
CONTINUOUS
 62
    80
  5
8A
 10
3.865281
 20
-8.5
 30
0.0
 11
7.649891
 21
-6.314955
 31
0.0
  0
LINE
  8
0
  6
CONTINUOUS
 62
    80
  5
8B
 10
11.434501
 20
-8.5
 30
0.0
 11
7.649891
 21
-6.314955
 31
0.0
  0
LINE
  8
0
  6
CONTINUOUS
 62
     3
  5
8C
 10
13.535898
 20
-8.5
 30
0.0
 11
15.299782
 21
-7.481621
 31
0.0
  0
LINE
  8
0
  6
CONTINUOUS
 62
    80
  5
8D
 10
-7.649891
 20
-6.314955
 30
0.0
 11
-7.649891
 21
-1.5
 31
0.0
  0
LINE
  8
0
  6
CONTINUOUS
 62
     3
  5
8E
 10
15.5
 20
-1.5
 30
0.0
 11
15.5
 21
0.0
 31
0.0
  0
LINE
  8
0
  6
CONTINUOUS
 62
     3
  5
8F
 10
-15.5
 20
-1.5
 30
0.0
 11
-15.5
 21
0.0
 31
0.0
  0
LINE
  8
0
  6
CONTINUOUS
 62
     3
  5
90
 10
-15.299782
 20
-1.5
 30
0.0
 11
-15.299782
 21
-7.481621
 31
0.0
  0
LINE
  8
0
  6
CONTINUOUS
 62
     3
  5
91
 10
-13.535898
 20
-8.5
 30
0.0
 11
-15.299782
 21
-7.481621
 31
0.0
  0
LINE
  8
0
  6
CONTINUOUS
 62
     3
  5
92
 10
15.5
 20
-1.5
 30
0.0
 11
-15.5
 21
-1.5
 31
0.0
  0
LINE
  8
0
  6
CONTINUOUS
 62
     3
  5
93
 10
-15.5
 20
0.0
 30
0.0
 11
15.5
 21
0.0
 31
0.0
  0
ENDBLK
  8
0
  5
94
  0
BLOCK
  8
0
  5
95
  2
MS_6
 70
     0
 10
0.0
 20
0.0
 30
0.0
  3
MS_6
  0
CIRCLE
  8
0
  6
CONTINUOUS
 62
     3
  5
96
 10
0.0
 20
0.0
 30
0.0
 40
10.5
  0
CIRCLE
  8
0
  6
CONTINUOUS
 62
     3
  5
97
 10
0.0
 20
0.0
 30
0.0
 40
4.0
  0
CIRCLE
  8
0
  6
CONTINUOUS
 62
     3
  5
98
 10
0.0
 20
0.0
 30
0.0
 40
15.0
  0
ARC
  8
0
  6
CONTINUOUS
 62
     3
  5
99
 10
-0.974976
 20
-0.974976
 30
0.0
 40
0.6
 50
0.0
 51
90.000003
  0
ARC
  8
0
  6
CONTINUOUS
 62
     3
  5
9A
 10
0.975037
 20
-0.974976
 30
0.0
 40
0.6
 50
90.000003
 51
180.000005
  0
ARC
  8
0
  6
CONTINUOUS
 62
     3
  5
9B
 10
0.975037
 20
0.975037
 30
0.0
 40
0.6
 50
179.999995
 51
269.999997
  0
ARC
  8
0
  6
CONTINUOUS
 62
     3
  5
9C
 10
-0.974976
 20
0.975037
 30
0.0
 40
0.6
 50
269.999997
 51
0.0
  0
CIRCLE
  8
0
  6
CONTINUOUS
 62
     3
  5
9D
 10
0.0
 20
0.0
 30
0.0
 40
2.75
  0
LINE
  8
0
  6
CONTINUOUS
 62
     3
  5
9E
 10
-0.375
 20
-0.974976
 30
0.0
 11
-0.375
 21
-1.5
 31
0.0
  0
LINE
  8
0
  6
CONTINUOUS
 62
     3
  5
9F
 10
-1.5
 20
-0.375
 30
0.0
 11
-0.974976
 21
-0.375
 31
0.0
  0
LINE
  8
0
  6
CONTINUOUS
 62
     3
  5
A0
 10
0.975037
 20
-0.375
 30
0.0
 11
1.5
 21
-0.375
 31
0.0
  0
LINE
  8
0
  6
CONTINUOUS
 62
     3
  5
A1
 10
0.375
 20
-0.974976
 30
0.0
 11
0.375
 21
-1.5
 31
0.0
  0
LINE
  8
0
  6
CONTINUOUS
 62
     3
  5
A2
 10
-0.375
 20
-1.5
 30
0.0
 11
0.375
 21
-1.5
 31
0.0
  0
LINE
  8
0
  6
CONTINUOUS
 62
     3
  5
A3
 10
0.975037
 20
0.375
 30
0.0
 11
1.5
 21
0.375
 31
0.0
  0
LINE
  8
0
  6
CONTINUOUS
 62
     3
  5
A4
 10
0.375
 20
1.5
 30
0.0
 11
0.375
 21
0.975037
 31
0.0
  0
LINE
  8
0
  6
CONTINUOUS
 62
     3
  5
A5
 10
1.5
 20
0.375
 30
0.0
 11
1.5
 21
-0.375
 31
0.0
  0
LINE
  8
0
  6
CONTINUOUS
 62
     3
  5
A6
 10
-1.5
 20
0.375
 30
0.0
 11
-0.974976
 21
0.375
 31
0.0
  0
LINE
  8
0
  6
CONTINUOUS
 62
     3
  5
A7
 10
-0.375
 20
1.5
 30
0.0
 11
-0.375
 21
0.975037
 31
0.0
  0
LINE
  8
0
  6
CONTINUOUS
 62
     3
  5
A8
 10
-0.375
 20
1.5
 30
0.0
 11
0.375
 21
1.5
 31
0.0
  0
LINE
  8
0
  6
CONTINUOUS
 62
     3
  5
A9
 10
-1.5
 20
0.375
 30
0.0
 11
-1.5
 21
-0.375
 31
0.0
  0
ENDBLK
  8
0
  5
AA
  0
BLOCK
  8
0
  5
AB
  2
MS_7
 70
     0
 10
0.0
 20
0.0
 30
0.0
  3
MS_7
  0
CIRCLE
  8
0
  6
CONTINUOUS
 62
    20
  5
AC
 10
0.0
 20
0.0
 30
0.0
 40
11.5
  0
CIRCLE
  8
0
  6
CONTINUOUS
 62
    30
  5
AD
 10
0.0
 20
0.0
 30
0.0
 40
11.0
  0
LINE
  8
0
  6
CONTINUOUS
 62
    30
  5
AE
 10
15.566167
 20
0.0
 30
0.0
 11
7.783083
 21
13.480696
 31
0.0
  0
LINE
  8
0
  6
CONTINUOUS
 62
    30
  5
AF
 10
7.783083
 20
-13.480696
 30
0.0
 11
15.566167
 21
0.0
 31
0.0
  0
LINE
  8
0
  6
CONTINUOUS
 62
    30
  5
B0
 10
-7.783084
 20
-13.480696
 30
0.0
 11
7.783083
 21
-13.480696
 31
0.0
  0
LINE
  8
0
  6
CONTINUOUS
 62
    30
  5
B1
 10
-15.566167
 20
0.0
 30
0.0
 11
-7.783084
 21
-13.480696
 31
0.0
  0
LINE
  8
0
  6
CONTINUOUS
 62
    30
  5
B2
 10
-7.783084
 20
13.480696
 30
0.0
 11
-15.566167
 21
0.0
 31
0.0
  0
LINE
  8
0
  6
CONTINUOUS
 62
    30
  5
B3
 10
7.783083
 20
13.480696
 30
0.0
 11
-7.783084
 21
13.480696
 31
0.0
  0
ENDBLK
  8
0
  5
B4
  0
BLOCK
  8
0
  5
B5
  2
MS_8
 70
     0
 10
0.0
 20
0.0
 30
0.0
  3
MS_8
  0
CIRCLE
  8
0
  6
CONTINUOUS
 62
   140
  5
B6
 10
0.0
 20
0.0
 30
0.0
 40
11.5
  0
CIRCLE
  8
0
  6
CONTINUOUS
 62
   140
  5
B7
 10
0.0
 20
0.0
 30
0.0
 40
15.5
  0
ENDBLK
  8
0
  5
B8
  0
ENDSEC
  0
SECTION
  2
ENTITIES
  0
LINE
  8
0
  6
CONTINUOUS
 62
     3
  5
B9
 10
-14.970142
 20
3.88057
 30
0.0
 11
-14.0
 21
0.0
 31
0.0
  0
LINE
  8
0
  6
CONTINUOUS
 62
     3
  5
BA
 10
14.970143
 20
3.88057
 30
0.0
 11
14.0
 21
0.0
 31
0.0
  0
ARC
  8
0
  6
CONTINUOUS
 62
     3
  5
BB
 10
14.0
 20
4.123106
 30
0.0
 40
1.0
 50
345.963757
 51
0.0
  0
ARC
  8
0
  6
CONTINUOUS
 62
     3
  5
BC
 10
-14.0
 20
4.123106
 30
0.0
 40
1.0
 50
180.0
 51
194.036243
  0
LINE
  8
0
  6
CONTINUOUS
 62
     3
  5
BD
 10
14.0
 20
0.0
 30
0.0
 11
-14.0
 21
0.0
 31
0.0
  0
LINE
  8
0
  6
CONTINUOUS
 62
     3
  5
BE
 10
-15.0
 20
4.123106
 30
0.0
 11
15.0
 21
4.123106
 31
0.0
  0
LINE
  8
0
  6
CONTINUOUS
 62
     3
  5
BF
 10
-15.0
 20
4.123106
 30
0.0
 11
-15.0
 21
18.0
 31
0.0
  0
LINE
  8
0
  6
CONTINUOUS
 62
     3
  5
C0
 10
15.0
 20
4.123106
 30
0.0
 11
15.0
 21
18.0
 31
0.0
  0
LINE
  8
0
  6
CONTINUOUS
 62
     3
  5
C1
 10
-15.0
 20
17.2
 30
0.0
 11
15.0
 21
17.2
 31
0.0
  0
LINE
  8
0
  6
CONTINUOUS
 62
     3
  5
C2
 10
15.0
 20
18.0
 30
0.0
 11
-15.0
 21
18.0
 31
0.0
  0
INSERT
  8
0
  6
BYBLOCK
  5
C3
  2
MS_3
 10
0.0
 20
18.0
 30
0.0
  0
INSERT
  8
0
  6
BYBLOCK
  5
C4
  2
MS_1
 10
0.0
 20
47.0
 30
0.0
  0
INSERT
  8
0
  6
BYBLOCK
  5
C5
  2
MS_1
 10
100.0
 20
47.0
 30
0.0
  0
INSERT
  8
0
  6
BYBLOCK
  5
C6
  2
MS_3
 10
100.0
 20
18.0
 30
0.0
  0
LINE
  8
0
  6
CONTINUOUS
 62
     3
  5
C7
 10
115.0
 20
18.0
 30
0.0
 11
85.0
 21
18.0
 31
0.0
  0
LINE
  8
0
  6
CONTINUOUS
 62
     3
  5
C8
 10
85.0
 20
17.2
 30
0.0
 11
115.0
 21
17.2
 31
0.0
  0
LINE
  8
0
  6
CONTINUOUS
 62
     3
  5
C9
 10
115.0
 20
4.123106
 30
0.0
 11
115.0
 21
18.0
 31
0.0
  0
LINE
  8
0
  6
CONTINUOUS
 62
     3
  5
CA
 10
85.0
 20
4.123106
 30
0.0
 11
85.0
 21
18.0
 31
0.0
  0
LINE
  8
0
  6
CONTINUOUS
 62
     3
  5
CB
 10
85.0
 20
4.123106
 30
0.0
 11
115.0
 21
4.123106
 31
0.0
  0
LINE
  8
0
  6
CONTINUOUS
 62
     3
  5
CC
 10
114.0
 20
0.0
 30
0.0
 11
86.0
 21
0.0
 31
0.0
  0
ARC
  8
0
  6
CONTINUOUS
 62
     3
  5
CD
 10
86.0
 20
4.123106
 30
0.0
 40
1.0
 50
180.0
 51
194.036243
  0
ARC
  8
0
  6
CONTINUOUS
 62
     3
  5
CE
 10
114.0
 20
4.123106
 30
0.0
 40
1.0
 50
345.963757
 51
0.0
  0
LINE
  8
0
  6
CONTINUOUS
 62
     3
  5
CF
 10
114.970143
 20
3.88057
 30
0.0
 11
114.0
 21
0.0
 31
0.0
  0
LINE
  8
0
  6
CONTINUOUS
 62
     3
  5
D0
 10
85.029858
 20
3.88057
 30
0.0
 11
86.0
 21
0.0
 31
0.0
  0
LINE
  8
0
  6
CONTINUOUS
 62
     3
  5
D1
 10
215.0
 20
18.0
 30
0.0
 11
185.0
 21
18.0
 31
0.0
  0
LINE
  8
0
  6
CONTINUOUS
 62
     3
  5
D2
 10
185.0
 20
17.2
 30
0.0
 11
215.0
 21
17.2
 31
0.0
  0
LINE
  8
0
  6
CONTINUOUS
 62
     3
  5
D3
 10
215.0
 20
4.123106
 30
0.0
 11
215.0
 21
18.0
 31
0.0
  0
LINE
  8
0
  6
CONTINUOUS
 62
     3
  5
D4
 10
185.0
 20
4.123106
 30
0.0
 11
185.0
 21
18.0
 31
0.0
  0
LINE
  8
0
  6
CONTINUOUS
 62
     3
  5
D5
 10
185.0
 20
4.123106
 30
0.0
 11
215.0
 21
4.123106
 31
0.0
  0
LINE
  8
0
  6
CONTINUOUS
 62
     3
  5
D6
 10
214.0
 20
0.0
 30
0.0
 11
186.0
 21
0.0
 31
0.0
  0
ARC
  8
0
  6
CONTINUOUS
 62
     3
  5
D7
 10
186.0
 20
4.123106
 30
0.0
 40
1.0
 50
180.0
 51
194.036243
  0
ARC
  8
0
  6
CONTINUOUS
 62
     3
  5
D8
 10
214.0
 20
4.123106
 30
0.0
 40
1.0
 50
345.963757
 51
0.0
  0
LINE
  8
0
  6
CONTINUOUS
 62
     3
  5
D9
 10
214.970143
 20
3.88057
 30
0.0
 11
214.0
 21
0.0
 31
0.0
  0
LINE
  8
0
  6
CONTINUOUS
 62
     3
  5
DA
 10
185.029858
 20
3.88057
 30
0.0
 11
186.0
 21
0.0
 31
0.0
  0
INSERT
  8
0
  6
BYBLOCK
  5
DB
  2
MS_2
 10
200.0
 20
18.0
 30
0.0
  0
INSERT
  8
0
  6
BYBLOCK
  5
DC
  2
MS_1
 10
200.0
 20
61.5
 30
0.0
  0
LINE
  8
0
  6
CONTINUOUS
 62
     3
  5
DD
 10
285.029858
 20
3.88057
 30
0.0
 11
286.0
 21
0.0
 31
0.0
  0
LINE
  8
0
  6
CONTINUOUS
 62
     3
  5
DE
 10
314.970143
 20
3.88057
 30
0.0
 11
314.0
 21
0.0
 31
0.0
  0
ARC
  8
0
  6
CONTINUOUS
 62
     3
  5
DF
 10
314.0
 20
4.123106
 30
0.0
 40
1.0
 50
345.963757
 51
0.0
  0
ARC
  8
0
  6
CONTINUOUS
 62
     3
  5
E0
 10
286.0
 20
4.123106
 30
0.0
 40
1.0
 50
180.0
 51
194.036243
  0
LINE
  8
0
  6
CONTINUOUS
 62
     3
  5
E1
 10
314.0
 20
0.0
 30
0.0
 11
286.0
 21
0.0
 31
0.0
  0
LINE
  8
0
  6
CONTINUOUS
 62
     3
  5
E2
 10
285.0
 20
4.123106
 30
0.0
 11
315.0
 21
4.123106
 31
0.0
  0
LINE
  8
0
  6
CONTINUOUS
 62
     3
  5
E3
 10
285.0
 20
4.123106
 30
0.0
 11
285.0
 21
18.0
 31
0.0
  0
LINE
  8
0
  6
CONTINUOUS
 62
     3
  5
E4
 10
315.0
 20
4.123106
 30
0.0
 11
315.0
 21
18.0
 31
0.0
  0
LINE
  8
0
  6
CONTINUOUS
 62
     3
  5
E5
 10
285.0
 20
17.2
 30
0.0
 11
315.0
 21
17.2
 31
0.0
  0
LINE
  8
0
  6
CONTINUOUS
 62
     3
  5
E6
 10
315.0
 20
18.0
 30
0.0
 11
285.0
 21
18.0
 31
0.0
  0
INSERT
  8
0
  6
BYBLOCK
  5
E7
  2
MS_3
 10
300.0
 20
18.0
 30
0.0
  0
INSERT
  8
0
  6
BYBLOCK
  5
E8
  2
MS_1
 10
300.0
 20
76.0
 30
0.0
  0
INSERT
  8
0
  6
BYBLOCK
  5
E9
  2
MS_3
 10
300.0
 20
47.0
 30
0.0
  0
INSERT
  8
0
  6
BYBLOCK
  5
EA
  2
MS_3
 10
400.0
 20
18.0
 30
0.0
  0
LINE
  8
0
  6
CONTINUOUS
 62
     3
  5
EB
 10
415.0
 20
18.0
 30
0.0
 11
385.0
 21
18.0
 31
0.0
  0
LINE
  8
0
  6
CONTINUOUS
 62
     3
  5
EC
 10
385.0
 20
17.2
 30
0.0
 11
415.0
 21
17.2
 31
0.0
  0
LINE
  8
0
  6
CONTINUOUS
 62
     3
  5
ED
 10
415.0
 20
4.123106
 30
0.0
 11
415.0
 21
18.0
 31
0.0
  0
LINE
  8
0
  6
CONTINUOUS
 62
     3
  5
EE
 10
385.0
 20
4.123106
 30
0.0
 11
385.0
 21
18.0
 31
0.0
  0
LINE
  8
0
  6
CONTINUOUS
 62
     3
  5
EF
 10
385.0
 20
4.123106
 30
0.0
 11
415.0
 21
4.123106
 31
0.0
  0
LINE
  8
0
  6
CONTINUOUS
 62
     3
  5
F0
 10
414.0
 20
0.0
 30
0.0
 11
386.0
 21
0.0
 31
0.0
  0
ARC
  8
0
  6
CONTINUOUS
 62
     3
  5
F1
 10
386.0
 20
4.123106
 30
0.0
 40
1.0
 50
180.0
 51
194.036243
  0
ARC
  8
0
  6
CONTINUOUS
 62
     3
  5
F2
 10
414.0
 20
4.123106
 30
0.0
 40
1.0
 50
345.963757
 51
0.0
  0
LINE
  8
0
  6
CONTINUOUS
 62
     3
  5
F3
 10
414.970143
 20
3.88057
 30
0.0
 11
414.0
 21
0.0
 31
0.0
  0
LINE
  8
0
  6
CONTINUOUS
 62
     3
  5
F4
 10
385.029858
 20
3.88057
 30
0.0
 11
386.0
 21
0.0
 31
0.0
  0
INSERT
  8
0
  6
BYBLOCK
  5
F5
  2
MS_2
 10
400.0
 20
47.0
 30
0.0
  0
INSERT
  8
0
  6
BYBLOCK
  5
F6
  2
MS_1
 10
400.0
 20
90.5
 30
0.0
  0
INSERT
  8
0
  6
BYBLOCK
  5
F7
  2
MS_6
 10
400.0
 20
149.5
 30
0.0
  0
INSERT
  8
0
  6
BYBLOCK
  5
F8
  2
MS_6
 10
300.0
 20
149.5
 30
0.0
  0
INSERT
  8
0
  6
BYBLOCK
  5
F9
  2
MS_6
 10
200.0
 20
149.5
 30
0.0
  0
INSERT
  8
0
  6
BYBLOCK
  5
FA
  2
MS_6
 10
100.0
 20
149.5
 30
0.0
  0
INSERT
  8
0
  6
BYBLOCK
  5
FB
  2
MS_6
 10
0.0
 20
149.5
 30
0.0
  0
INSERT
  8
0
  6
BYBLOCK
 62
    80
  5
FC
  2
MS_8
 10
400.0
 20
-70.0
 30
0.0
  0
INSERT
  8
0
  6
BYBLOCK
 62
    80
  5
FD
  2
MS_7
 10
400.0
 20
-70.0
 30
0.0
  0
CIRCLE
  8
0
  6
CONTINUOUS
 62
     3
  5
FE
 10
400.0
 20
-70.0
 30
0.0
 40
10.2
  0
CIRCLE
  8
0
  6
CONTINUOUS
 62
     3
  5
FF
 10
400.0
 20
-70.0
 30
0.0
 40
8.2
  0
INSERT
  8
0
  6
BYBLOCK
 62
    80
  5
100
  2
MS_8
 10
300.0
 20
-70.0
 30
0.0
  0
INSERT
  8
0
  6
BYBLOCK
 62
    80
  5
101
  2
MS_7
 10
300.0
 20
-70.0
 30
0.0
  0
CIRCLE
  8
0
  6
CONTINUOUS
 62
     3
  5
102
 10
300.0
 20
-70.0
 30
0.0
 40
10.2
  0
CIRCLE
  8
0
  6
CONTINUOUS
 62
     3
  5
103
 10
300.0
 20
-70.0
 30
0.0
 40
8.2
  0
INSERT
  8
0
  6
BYBLOCK
 62
    80
  5
104
  2
MS_8
 10
200.0
 20
-70.0
 30
0.0
  0
INSERT
  8
0
  6
BYBLOCK
 62
    80
  5
105
  2
MS_7
 10
200.0
 20
-70.0
 30
0.0
  0
CIRCLE
  8
0
  6
CONTINUOUS
 62
     3
  5
106
 10
200.0
 20
-70.0
 30
0.0
 40
10.2
  0
CIRCLE
  8
0
  6
CONTINUOUS
 62
     3
  5
107
 10
200.0
 20
-70.0
 30
0.0
 40
8.2
  0
INSERT
  8
0
  6
BYBLOCK
 62
    80
  5
108
  2
MS_8
 10
100.0
 20
-70.0
 30
0.0
  0
INSERT
  8
0
  6
BYBLOCK
 62
    80
  5
109
  2
MS_7
 10
100.0
 20
-70.0
 30
0.0
  0
CIRCLE
  8
0
  6
CONTINUOUS
 62
     3
  5
10A
 10
100.0
 20
-70.0
 30
0.0
 40
10.2
  0
CIRCLE
  8
0
  6
CONTINUOUS
 62
     3
  5
10B
 10
100.0
 20
-70.0
 30
0.0
 40
8.2
  0
CIRCLE
  8
0
  6
CONTINUOUS
 62
     3
  5
10C
 10
0.0
 20
-70.0
 30
0.0
 40
8.2
  0
CIRCLE
  8
0
  6
CONTINUOUS
 62
     3
  5
10D
 10
0.0
 20
-70.0
 30
0.0
 40
10.2
  0
INSERT
  8
0
  6
BYBLOCK
 62
    80
  5
10E
  2
MS_7
 10
0.0
 20
-70.0
 30
0.0
  0
INSERT
  8
0
  6
BYBLOCK
 62
    80
  5
10F
  2
MS_8
 10
0.0
 20
-70.0
 30
0.0
  0
INSERT
  8
0
  6
BYBLOCK
  5
110
  2
MS_5
 10
400.0
 20
0.0
 30
0.0
  0
LINE
  8
0
  6
CONTINUOUS
 62
     3
  5
111
 10
414.0
 20
0.0
 30
0.0
 11
386.0
 21
0.0
 31
0.0
  0
LINE
  8
0
  6
CONTINUOUS
 62
     3
  5
112
 10
389.8
 20
-20.0
 30
0.0
 11
410.2
 21
-20.0
 31
0.0
  0
LINE
  8
0
  6
CONTINUOUS
 62
     3
  5
113
 10
389.8
 20
-20.0
 30
0.0
 11
389.0
 21
-19.2
 31
0.0
  0
LINE
  8
0
  6
CONTINUOUS
 62
     3
  5
114
 10
410.2
 20
-20.0
 30
0.0
 11
411.0
 21
-19.2
 31
0.0
  0
LINE
  8
0
  6
CONTINUOUS
 62
    80
  5
115
 10
411.0
 20
-19.2
 30
0.0
 11
389.0
 21
-19.2
 31
0.0
  0
LINE
  8
0
  6
CONTINUOUS
 62
    80
  5
116
 10
410.2
 20
-20.0
 30
0.0
 11
410.2
 21
-8.5
 31
0.0
  0
LINE
  8
0
  6
CONTINUOUS
 62
     3
  5
117
 10
389.0
 20
-19.2
 30
0.0
 11
389.0
 21
-8.5
 31
0.0
  0
LINE
  8
0
  6
CONTINUOUS
 62
     3
  5
118
 10
411.0
 20
-19.2
 30
0.0
 11
411.0
 21
-8.5
 31
0.0
  0
LINE
  8
0
  6
CONTINUOUS
 62
    80
  5
119
 10
389.8
 20
-8.5
 30
0.0
 11
389.8
 21
-20.0
 31
0.0
  0
LINE
  8
0
  6
CONTINUOUS
 62
    80
  5
11A
 10
289.8
 20
-8.5
 30
0.0
 11
289.8
 21
-20.0
 31
0.0
  0
LINE
  8
0
  6
CONTINUOUS
 62
     3
  5
11B
 10
311.0
 20
-19.2
 30
0.0
 11
311.0
 21
-8.5
 31
0.0
  0
LINE
  8
0
  6
CONTINUOUS
 62
     3
  5
11C
 10
289.0
 20
-19.2
 30
0.0
 11
289.0
 21
-8.5
 31
0.0
  0
LINE
  8
0
  6
CONTINUOUS
 62
    80
  5
11D
 10
310.2
 20
-20.0
 30
0.0
 11
310.2
 21
-8.5
 31
0.0
  0
LINE
  8
0
  6
CONTINUOUS
 62
    80
  5
11E
 10
311.0
 20
-19.2
 30
0.0
 11
289.0
 21
-19.2
 31
0.0
  0
LINE
  8
0
  6
CONTINUOUS
 62
     3
  5
11F
 10
310.2
 20
-20.0
 30
0.0
 11
311.0
 21
-19.2
 31
0.0
  0
LINE
  8
0
  6
CONTINUOUS
 62
     3
  5
120
 10
289.8
 20
-20.0
 30
0.0
 11
289.0
 21
-19.2
 31
0.0
  0
LINE
  8
0
  6
CONTINUOUS
 62
     3
  5
121
 10
289.8
 20
-20.0
 30
0.0
 11
310.2
 21
-20.0
 31
0.0
  0
LINE
  8
0
  6
CONTINUOUS
 62
     3
  5
122
 10
314.0
 20
0.0
 30
0.0
 11
286.0
 21
0.0
 31
0.0
  0
INSERT
  8
0
  6
BYBLOCK
  5
123
  2
MS_5
 10
300.0
 20
0.0
 30
0.0
  0
INSERT
  8
0
  6
BYBLOCK
  5
124
  2
MS_5
 10
200.0
 20
0.0
 30
0.0
  0
LINE
  8
0
  6
CONTINUOUS
 62
     3
  5
125
 10
214.0
 20
0.0
 30
0.0
 11
186.0
 21
0.0
 31
0.0
  0
LINE
  8
0
  6
CONTINUOUS
 62
     3
  5
126
 10
189.8
 20
-20.0
 30
0.0
 11
210.2
 21
-20.0
 31
0.0
  0
LINE
  8
0
  6
CONTINUOUS
 62
     3
  5
127
 10
189.8
 20
-20.0
 30
0.0
 11
189.0
 21
-19.2
 31
0.0
  0
LINE
  8
0
  6
CONTINUOUS
 62
     3
  5
128
 10
210.2
 20
-20.0
 30
0.0
 11
211.0
 21
-19.2
 31
0.0
  0
LINE
  8
0
  6
CONTINUOUS
 62
    80
  5
129
 10
211.0
 20
-19.2
 30
0.0
 11
189.0
 21
-19.2
 31
0.0
  0
LINE
  8
0
  6
CONTINUOUS
 62
    80
  5
12A
 10
210.2
 20
-20.0
 30
0.0
 11
210.2
 21
-8.5
 31
0.0
  0
LINE
  8
0
  6
CONTINUOUS
 62
     3
  5
12B
 10
189.0
 20
-19.2
 30
0.0
 11
189.0
 21
-8.5
 31
0.0
  0
LINE
  8
0
  6
CONTINUOUS
 62
     3
  5
12C
 10
211.0
 20
-19.2
 30
0.0
 11
211.0
 21
-8.5
 31
0.0
  0
LINE
  8
0
  6
CONTINUOUS
 62
    80
  5
12D
 10
189.8
 20
-8.5
 30
0.0
 11
189.8
 21
-20.0
 31
0.0
  0
INSERT
  8
0
  6
BYBLOCK
  5
12E
  2
MS_5
 10
100.0
 20
0.0
 30
0.0
  0
LINE
  8
0
  6
CONTINUOUS
 62
     3
  5
12F
 10
114.0
 20
0.0
 30
0.0
 11
86.0
 21
0.0
 31
0.0
  0
LINE
  8
0
  6
CONTINUOUS
 62
     3
  5
130
 10
89.8
 20
-20.0
 30
0.0
 11
110.2
 21
-20.0
 31
0.0
  0
LINE
  8
0
  6
CONTINUOUS
 62
     3
  5
131
 10
89.8
 20
-20.0
 30
0.0
 11
89.0
 21
-19.2
 31
0.0
  0
LINE
  8
0
  6
CONTINUOUS
 62
     3
  5
132
 10
110.2
 20
-20.0
 30
0.0
 11
111.0
 21
-19.2
 31
0.0
  0
LINE
  8
0
  6
CONTINUOUS
 62
    80
  5
133
 10
111.0
 20
-19.2
 30
0.0
 11
89.0
 21
-19.2
 31
0.0
  0
LINE
  8
0
  6
CONTINUOUS
 62
    80
  5
134
 10
110.2
 20
-20.0
 30
0.0
 11
110.2
 21
-8.5
 31
0.0
  0
LINE
  8
0
  6
CONTINUOUS
 62
     3
  5
135
 10
89.0
 20
-19.2
 30
0.0
 11
89.0
 21
-8.5
 31
0.0
  0
LINE
  8
0
  6
CONTINUOUS
 62
     3
  5
136
 10
111.0
 20
-19.2
 30
0.0
 11
111.0
 21
-8.5
 31
0.0
  0
LINE
  8
0
  6
CONTINUOUS
 62
    80
  5
137
 10
89.8
 20
-8.5
 30
0.0
 11
89.8
 21
-20.0
 31
0.0
  0
LINE
  8
0
  6
CONTINUOUS
 62
    80
  5
138
 10
-10.2
 20
-8.5
 30
0.0
 11
-10.2
 21
-20.0
 31
0.0
  0
LINE
  8
0
  6
CONTINUOUS
 62
     3
  5
139
 10
11.0
 20
-19.2
 30
0.0
 11
11.0
 21
-8.5
 31
0.0
  0
LINE
  8
0
  6
CONTINUOUS
 62
     3
  5
13A
 10
-11.0
 20
-19.2
 30
0.0
 11
-11.0
 21
-8.5
 31
0.0
  0
LINE
  8
0
  6
CONTINUOUS
 62
    80
  5
13B
 10
10.2
 20
-20.0
 30
0.0
 11
10.2
 21
-8.5
 31
0.0
  0
LINE
  8
0
  6
CONTINUOUS
 62
    80
  5
13C
 10
11.0
 20
-19.2
 30
0.0
 11
-11.0
 21
-19.2
 31
0.0
  0
LINE
  8
0
  6
CONTINUOUS
 62
     3
  5
13D
 10
10.2
 20
-20.0
 30
0.0
 11
11.0
 21
-19.2
 31
0.0
  0
LINE
  8
0
  6
CONTINUOUS
 62
     3
  5
13E
 10
-10.2
 20
-20.0
 30
0.0
 11
-11.0
 21
-19.2
 31
0.0
  0
LINE
  8
0
  6
CONTINUOUS
 62
     3
  5
13F
 10
-10.2
 20
-20.0
 30
0.0
 11
10.2
 21
-20.0
 31
0.0
  0
LINE
  8
0
  6
CONTINUOUS
 62
     3
  5
140
 10
14.0
 20
0.0
 30
0.0
 11
-14.0
 21
0.0
 31
0.0
  0
INSERT
  8
0
  6
BYBLOCK
  5
141
  2
MS_5
 10
0.0
 20
0.0
 30
0.0
  0
ENDSEC
  0
EOF
