  0
SECTION
  2
HEADER
  9
$ACADVER
  1
AC1009
  9
$DWGCODEPAGE
  3
dos932
  9
$INSBASE
 10
0.0
 20
0.0
 30
0.0
  9
$EXTMIN
 10
-15.0
 20
-100.0
 30
0.0
  9
$EXTMAX
 10
211.625
 20
258.589833
 30
0.0
  9
$LIMMIN
 10
-15.0
 20
-100.0
  9
$LIMMAX
 10
211.625
 20
258.589833
  9
$ORTHOMODE
 70
     0
  9
$REGENMODE
 70
     1
  9
$FILLMODE
 70
     1
  9
$QTEXTMODE
 70
     0
  9
$MIRRTEXT
 70
     1
  9
$DRAGMODE
 70
     2
  9
$LTSCALE
 40
1.0
  9
$OSMODE
 70
     0
  9
$ATTMODE
 70
     1
  9
$TEXTSIZE
 40
4.1656
  9
$TRACEWID
 40
0.05
  9
$TEXTSTYLE
  7
MX_NOTE_STANDARD
  9
$CLAYER
  8
LY_1
  9
$CELTYPE
  6
CONTINUOUS
  9
$CECOLOR
 62
   256
  9
$DIMSCALE
 40
1.0
  9
$DIMASZ
 40
2.5
  9
$DIMEXO
 40
0.5
  9
$DIMDLI
 40
3.75
  9
$DIMRND
 40
0.0
  9
$DIMDLE
 40
0.0
  9
$DIMEXE
 40
1.0
  9
$DIMTP
 40
0.0
  9
$DIMTM
 40
0.0
  9
$DIMTXT
 40
2.5
  9
$DIMCEN
 40
2.5
  9
$DIMTSZ
 40
0.0
  9
$DIMTOL
 70
     0
  9
$DIMLIM
 70
     0
  9
$DIMTIH
 70
     0
  9
$DIMTOH
 70
     0
  9
$DIMSE1
 70
     0
  9
$DIMSE2
 70
     0
  9
$DIMTAD
 70
     1
  9
$DIMZIN
 70
     8
  9
$DIMBLK
  1

  9
$DIMASO
 70
     1
  9
$DIMSHO
 70
     1
  9
$DIMPOST
  1

  9
$DIMAPOST
  1

  9
$DIMALT
 70
     0
  9
$DIMALTD
 70
     4
  9
$DIMALTF
 40
0.03937
  9
$DIMLFAC
 40
1.0
  9
$DIMTOFL
 70
     1
  9
$DIMTVP
 40
0.0
  9
$DIMTIX
 70
     0
  9
$DIMSOXD
 70
     0
  9
$DIMSAH
 70
     0
  9
$DIMBLK1
  1

  9
$DIMBLK2
  1

  9
$DIMSTYLE
  2
MXDIMSTYLE
  9
$DIMCLRD
 70
     0
  9
$DIMCLRE
 70
     0
  9
$DIMCLRT
 70
     0
  9
$DIMTFAC
 40
1.0
  9
$DIMGAP
 40
1.0
  9
$LUNITS
 70
     2
  9
$LUPREC
 70
     4
  9
$AXISMODE
 70
     0
  9
$AXISUNIT
 10
0.0
 20
0.0
  9
$SKETCHINC
 40
0.1
  9
$FILLETRAD
 40
0.0
  9
$AUNITS
 70
     0
  9
$AUPREC
 70
     0
  9
$MENU
  1
acad
  9
$ELEVATION
 40
0.0
  9
$PELEVATION
 40
0.0
  9
$THICKNESS
 40
0.0
  9
$LIMCHECK
 70
     0
  9
$BLIPMODE
 70
     1
  9
$CHAMFERA
 40
0.0
  9
$CHAMFERB
 40
0.0
  9
$SKPOLY
 70
     0
  9
$TDCREATE
 40
2453885.424513889
  9
$TDUPDATE
 40
2453885.424513889
  9
$TDINDWG
 40
0.0000000000
  9
$TDUSRTIMER
 40
0.0000000000
  9
$USRTIMER
 70
     1
  9
$ANGBASE
 50
0.0
  9
$ANGDIR
 70
     0
  9
$PDMODE
 70
     0
  9
$PDSIZE
 40
0.0
  9
$PLINEWID
 40
0.0
  9
$COORDS
 70
     1
  9
$SPLFRAME
 70
     0
  9
$SPLINETYPE
 70
     6
  9
$SPLINESEGS
 70
     8
  9
$ATTDIA
 70
     0
  9
$ATTREQ
 70
     1
  9
$HANDLING
 70
     1
  9
$HANDSEED
  5
976
  9
$SURFTAB1
 70
     6
  9
$SURFTAB2
 70
     6
  9
$SURFTYPE
 70
     6
  9
$SURFU
 70
     6
  9
$SURFV
 70
     6
  9
$UCSNAME
  2

  9
$UCSORG
 10
0.0
 20
0.0
 30
0.0
  9
$UCSXDIR
 10
1.0
 20
0.0
 30
0.0
  9
$UCSYDIR
 10
0.0
 20
1.0
 30
0.0
  9
$PUCSNAME
  2

  9
$PUCSORG
 10
0.0
 20
0.0
 30
0.0
  9
$PUCSXDIR
 10
1.0
 20
0.0
 30
0.0
  9
$PUCSYDIR
 10
0.0
 20
1.0
 30
0.0
  9
$USERI1
 70
     0
  9
$USERI2
 70
     0
  9
$USERI3
 70
     0
  9
$USERI4
 70
     0
  9
$USERI5
 70
     0
  9
$USERR1
 40
0.0
  9
$USERR2
 40
0.0
  9
$USERR3
 40
0.0
  9
$USERR4
 40
0.0
  9
$USERR5
 40
0.0
  9
$WORLDVIEW
 70
     1
  9
$SHADEDGE
 70
     3
  9
$SHADEDIF
 70
    70
  9
$TILEMODE
 70
     1
  9
$MAXACTVP
 70
    16
  9
$PINSBASE
 10
0.0
 20
0.0
 30
0.0
  9
$PLIMCHECK
 70
     0
  9
$PEXTMIN
 10
1.000000E+20
 20
1.000000E+20
 30
1.000000E+20
  9
$PEXTMAX
 10
-1.000000E+20
 20
-1.000000E+20
 30
-1.000000E+20
  9
$PLIMMIN
 10
0.0
 20
0.0
  9
$PLIMMAX
 10
12.0
 20
9.0
  9
$UNITMODE
 70
     0
  9
$VISRETAIN
 70
     0
  9
$PLINEGEN
 70
     1
  9
$PSLTSCALE
 70
     0
  9
$TREEDEPTH
 70
  3020
  9
$DWGCODEPAGE
  3
dos932
  0
ENDSEC
  0
SECTION
  2
TABLES
  0
TABLE
  2
VPORT
 70
     1
  0
VPORT
  2
*ACTIVE
 70
     0
 10
0.0
 20
0.0
 11
1.0
 21
1.0
 12
98.3125
 22
79.294916
 13
0.0
 23
0.0
 14
1.0
 24
1.0
 15
0.0
 25
0.0
 16
0.0
 26
0.0
 36
1.0
 17
0.0
 27
0.0
 37
0.0
 40
362.175731
 41
1.732051
 42
50.0
 43
0.0
 44
0.0
 50
0.0
 51
0.0
 71
     0
 72
   100
 73
     1
 74
     1
 75
     0
 76
     0
 77
     0
 78
     0
  0
ENDTAB
  0
TABLE
  2
LTYPE
 70
     4
  0
LTYPE
  2
CONTINUOUS
 70
    64
  3
Solid line
 72
    65
 73
     0
 40
0.0
  0
LTYPE
  2
DASHED
 70
    64
  3
Dashed __ __ __ __ __ __ __ __ __ __ __ __ __ _
 72
    65
 73
     2
 40
19.05
 49
12.7
 49
-6.35
  0
LTYPE
  2
CENTER
 70
    64
  3
Center ____ _ ____ _ ____ _ ____ _ ____ _ ____
 72
    65
 73
     4
 40
50.8
 49
31.75
 49
-6.35
 49
6.35
 49
-6.35
  0
LTYPE
  2
PHANTOM
 70
    64
  3
Phantom ______  __  __  ______  __  __  ______
 72
    65
 73
     6
 40
63.5
 49
31.75
 49
-6.35
 49
6.35
 49
-6.35
 49
6.35
 49
-6.35
  0
ENDTAB
  0
TABLE
  2
LAYER
 70
     3
  0
LAYER
  2
0
 70
     0
 62
     7
  6
CONTINUOUS
  0
LAYER
  2
LY_1
 70
     0
 62
     7
  6
CONTINUOUS
  0
LAYER
  2
DEFPOINTS
 70
     0
 62
     7
  6
CONTINUOUS
  0
ENDTAB
  0
TABLE
  2
STYLE
 70
     1
  0
STYLE
  2
MX_NOTE_STANDARD
 70
     0
 40
0.0
 41
1.0
 50
0.0
 71
     0
 42
4.1656
  3
txt.shx
  4
extfont.shx
  0
ENDTAB
  0
TABLE
  2
VIEW
 70
     0
  0
ENDTAB
  0
TABLE
  2
UCS
 70
     0
  0
ENDTAB
  0
TABLE
  2
APPID
 70
     1
  0
APPID
  2
ACAD
 70
     0
  0
ENDTAB
  0
TABLE
  2
DIMSTYLE
 70
     1
  0
DIMSTYLE
  2
MXDIMSTYLE
 70
     0
  3

  4

  5

  6

  7

 40
1.0
 41
2.5
 42
0.5
 43
3.75
 44
1.0
 45
0.0
 46
0.0
 47
0.0
 48
0.0
 71
     0
 72
     0
 73
     0
 74
     0
 75
     0
 76
     0
 77
     1
 78
     8
140
2.5
141
2.5
142
0.0
143
0.03937
144
1.0
145
0.0
146
1.0
147
1.0
170
     0
171
     4
172
     1
173
     0
174
     0
175
     0
176
     0
177
     0
178
     0
  0
ENDTAB
  0
ENDSEC
  0
SECTION
  2
BLOCKS
  0
BLOCK
  8
0
  5
20
  2
MS_1
 70
     0
 10
0.0
 20
0.0
 30
0.0
  3
MS_1
  0
LINE
  8
0
  6
CONTINUOUS
 62
     3
  5
21
 10
-26.75
 20
275.625
 30
0.0
 11
393.25
 21
275.625
 31
0.0
  0
TEXT
  8
0
  6
CONTINUOUS
 62
     3
  5
22
 10
346.142738
 20
-3.33458
 30
0.0
 40
3.0
  1
様式　D-094
 41
0.901186
  7
MX_NOTE_STANDARD
 11
346.142738
 21
-1.83458
 31
0.0
 73
     2
  0
LINE
  8
0
  6
CONTINUOUS
 62
     3
  5
23
 10
313.25
 20
31.625
 30
0.0
 11
313.25
 21
16.125
 31
0.0
  0
LINE
  8
0
  6
CONTINUOUS
 62
     3
  5
24
 10
256.25
 20
31.625
 30
0.0
 11
256.25
 21
16.125
 31
0.0
  0
TEXT
  8
0
  6
CONTINUOUS
 62
     3
  5
25
 10
268.166667
 20
255.024985
 30
0.0
 40
3.2
  1
訂正数
 41
0.78125
  7
MX_NOTE_STANDARD
 11
268.166667
 21
256.624985
 31
0.0
 73
     2
  0
LINE
  8
0
  6
CONTINUOUS
 62
    80
  5
26
 10
277.25
 20
259.124985
 30
0.0
 11
277.25
 21
234.124989
 31
0.0
  0
POLYLINE
  8
0
  6
CONTINUOUS
 62
    80
  5
27
 66
     1
 10
0.0
 20
0.0
 30
0.0
  0
VERTEX
  8
0
  6
CONTINUOUS
 62
    80
  5
497
 10
337.342568
 20
4.286199
 30
0.0
  0
VERTEX
  8
0
  6
CONTINUOUS
 62
    80
  5
498
 10
337.342525
 20
4.286035
 30
0.0
  0
VERTEX
  8
0
  6
CONTINUOUS
 62
    80
  5
499
 10
337.342481
 20
4.285871
 30
0.0
  0
VERTEX
  8
0
  6
CONTINUOUS
 62
    80
  5
49A
 10
337.342437
 20
4.285707
 30
0.0
  0
VERTEX
  8
0
  6
CONTINUOUS
 62
    80
  5
49B
 10
337.342393
 20
4.285543
 30
0.0
  0
VERTEX
  8
0
  6
CONTINUOUS
 62
    80
  5
49C
 10
337.342349
 20
4.285379
 30
0.0
  0
VERTEX
  8
0
  6
CONTINUOUS
 62
    80
  5
49D
 10
337.342305
 20
4.285215
 30
0.0
  0
VERTEX
  8
0
  6
CONTINUOUS
 62
    80
  5
49E
 10
337.342261
 20
4.285052
 30
0.0
  0
VERTEX
  8
0
  6
CONTINUOUS
 62
    80
  5
49F
 10
337.342217
 20
4.284888
 30
0.0
  0
VERTEX
  8
0
  6
CONTINUOUS
 62
    80
  5
4A0
 10
337.342173
 20
4.284724
 30
0.0
  0
VERTEX
  8
0
  6
CONTINUOUS
 62
    80
  5
4A1
 10
337.342129
 20
4.28456
 30
0.0
  0
VERTEX
  8
0
  6
CONTINUOUS
 62
    80
  5
4A2
 10
337.342085
 20
4.284396
 30
0.0
  0
VERTEX
  8
0
  6
CONTINUOUS
 62
    80
  5
4A3
 10
337.342041
 20
4.284232
 30
0.0
  0
VERTEX
  8
0
  6
CONTINUOUS
 62
    80
  5
4A4
 10
337.341997
 20
4.284069
 30
0.0
  0
VERTEX
  8
0
  6
CONTINUOUS
 62
    80
  5
4A5
 10
337.341953
 20
4.283905
 30
0.0
  0
VERTEX
  8
0
  6
CONTINUOUS
 62
    80
  5
4A6
 10
337.341909
 20
4.283741
 30
0.0
  0
VERTEX
  8
0
  6
CONTINUOUS
 62
    80
  5
4A7
 10
337.341865
 20
4.283577
 30
0.0
  0
VERTEX
  8
0
  6
CONTINUOUS
 62
    80
  5
4A8
 10
337.339642
 20
4.275438
 30
0.0
  0
VERTEX
  8
0
  6
CONTINUOUS
 62
    80
  5
4A9
 10
337.337366
 20
4.267309
 30
0.0
  0
VERTEX
  8
0
  6
CONTINUOUS
 62
    80
  5
4AA
 10
337.335037
 20
4.259188
 30
0.0
  0
VERTEX
  8
0
  6
CONTINUOUS
 62
    80
  5
4AB
 10
337.332656
 20
4.251077
 30
0.0
  0
VERTEX
  8
0
  6
CONTINUOUS
 62
    80
  5
4AC
 10
337.330223
 20
4.242976
 30
0.0
  0
VERTEX
  8
0
  6
CONTINUOUS
 62
    80
  5
4AD
 10
337.327739
 20
4.234886
 30
0.0
  0
VERTEX
  8
0
  6
CONTINUOUS
 62
    80
  5
4AE
 10
337.325203
 20
4.226805
 30
0.0
  0
VERTEX
  8
0
  6
CONTINUOUS
 62
    80
  5
4AF
 10
337.322618
 20
4.218736
 30
0.0
  0
VERTEX
  8
0
  6
CONTINUOUS
 62
    80
  5
4B0
 10
337.319982
 20
4.210677
 30
0.0
  0
VERTEX
  8
0
  6
CONTINUOUS
 62
    80
  5
4B1
 10
337.317298
 20
4.20263
 30
0.0
  0
VERTEX
  8
0
  6
CONTINUOUS
 62
    80
  5
4B2
 10
337.314564
 20
4.194595
 30
0.0
  0
VERTEX
  8
0
  6
CONTINUOUS
 62
    80
  5
4B3
 10
337.311783
 20
4.186572
 30
0.0
  0
VERTEX
  8
0
  6
CONTINUOUS
 62
    80
  5
4B4
 10
337.308954
 20
4.17856
 30
0.0
  0
VERTEX
  8
0
  6
CONTINUOUS
 62
    80
  5
4B5
 10
337.306077
 20
4.170562
 30
0.0
  0
VERTEX
  8
0
  6
CONTINUOUS
 62
    80
  5
4B6
 10
337.303155
 20
4.162576
 30
0.0
  0
VERTEX
  8
0
  6
CONTINUOUS
 62
    80
  5
4B7
 10
337.300186
 20
4.154604
 30
0.0
  0
VERTEX
  8
0
  6
CONTINUOUS
 62
    80
  5
4B8
 10
337.280506
 20
4.104843
 30
0.0
  0
VERTEX
  8
0
  6
CONTINUOUS
 62
    80
  5
4B9
 10
337.259098
 20
4.05557
 30
0.0
  0
VERTEX
  8
0
  6
CONTINUOUS
 62
    80
  5
4BA
 10
337.236057
 20
4.006732
 30
0.0
  0
VERTEX
  8
0
  6
CONTINUOUS
 62
    80
  5
4BB
 10
337.211478
 20
3.958281
 30
0.0
  0
VERTEX
  8
0
  6
CONTINUOUS
 62
    80
  5
4BC
 10
337.18546
 20
3.910171
 30
0.0
  0
VERTEX
  8
0
  6
CONTINUOUS
 62
    80
  5
4BD
 10
337.158106
 20
3.86236
 30
0.0
  0
VERTEX
  8
0
  6
CONTINUOUS
 62
    80
  5
4BE
 10
337.129522
 20
3.814804
 30
0.0
  0
VERTEX
  8
0
  6
CONTINUOUS
 62
    80
  5
4BF
 10
337.099815
 20
3.767463
 30
0.0
  0
VERTEX
  8
0
  6
CONTINUOUS
 62
    80
  5
4C0
 10
337.069098
 20
3.720296
 30
0.0
  0
VERTEX
  8
0
  6
CONTINUOUS
 62
    80
  5
4C1
 10
337.037483
 20
3.673259
 30
0.0
  0
VERTEX
  8
0
  6
CONTINUOUS
 62
    80
  5
4C2
 10
337.005085
 20
3.62631
 30
0.0
  0
VERTEX
  8
0
  6
CONTINUOUS
 62
    80
  5
4C3
 10
336.972021
 20
3.579404
 30
0.0
  0
VERTEX
  8
0
  6
CONTINUOUS
 62
    80
  5
4C4
 10
336.938411
 20
3.532497
 30
0.0
  0
VERTEX
  8
0
  6
CONTINUOUS
 62
    80
  5
4C5
 10
336.904373
 20
3.485541
 30
0.0
  0
VERTEX
  8
0
  6
CONTINUOUS
 62
    80
  5
4C6
 10
336.870028
 20
3.438488
 30
0.0
  0
VERTEX
  8
0
  6
CONTINUOUS
 62
    80
  5
4C7
 10
336.835498
 20
3.391285
 30
0.0
  0
VERTEX
  8
0
  6
CONTINUOUS
 62
    80
  5
4C8
 10
336.797904
 20
3.339815
 30
0.0
  0
VERTEX
  8
0
  6
CONTINUOUS
 62
    80
  5
4C9
 10
336.760443
 20
3.288459
 30
0.0
  0
VERTEX
  8
0
  6
CONTINUOUS
 62
    80
  5
4CA
 10
336.723077
 20
3.237239
 30
0.0
  0
VERTEX
  8
0
  6
CONTINUOUS
 62
    80
  5
4CB
 10
336.68577
 20
3.186175
 30
0.0
  0
VERTEX
  8
0
  6
CONTINUOUS
 62
    80
  5
4CC
 10
336.648484
 20
3.135286
 30
0.0
  0
VERTEX
  8
0
  6
CONTINUOUS
 62
    80
  5
4CD
 10
336.611182
 20
3.084592
 30
0.0
  0
VERTEX
  8
0
  6
CONTINUOUS
 62
    80
  5
4CE
 10
336.573828
 20
3.034114
 30
0.0
  0
VERTEX
  8
0
  6
CONTINUOUS
 62
    80
  5
4CF
 10
336.536385
 20
2.983871
 30
0.0
  0
VERTEX
  8
0
  6
CONTINUOUS
 62
    80
  5
4D0
 10
336.498816
 20
2.933881
 30
0.0
  0
VERTEX
  8
0
  6
CONTINUOUS
 62
    80
  5
4D1
 10
336.461085
 20
2.884165
 30
0.0
  0
VERTEX
  8
0
  6
CONTINUOUS
 62
    80
  5
4D2
 10
336.423156
 20
2.834741
 30
0.0
  0
VERTEX
  8
0
  6
CONTINUOUS
 62
    80
  5
4D3
 10
336.384992
 20
2.785629
 30
0.0
  0
VERTEX
  8
0
  6
CONTINUOUS
 62
    80
  5
4D4
 10
336.346556
 20
2.736847
 30
0.0
  0
VERTEX
  8
0
  6
CONTINUOUS
 62
    80
  5
4D5
 10
336.307814
 20
2.688413
 30
0.0
  0
VERTEX
  8
0
  6
CONTINUOUS
 62
    80
  5
4D6
 10
336.268727
 20
2.640347
 30
0.0
  0
VERTEX
  8
0
  6
CONTINUOUS
 62
    80
  5
4D7
 10
336.229261
 20
2.592665
 30
0.0
  0
SEQEND
  8
0
  6
CONTINUOUS
 62
    80
  5
4D8
  0
POLYLINE
  8
0
  6
CONTINUOUS
 62
    80
  5
28
 66
     1
 10
0.0
 20
0.0
 30
0.0
  0
VERTEX
  8
0
  6
CONTINUOUS
 62
    80
  5
4D9
 10
337.471762
 20
4.287003
 30
0.0
  0
VERTEX
  8
0
  6
CONTINUOUS
 62
    80
  5
4DA
 10
337.471213
 20
4.284748
 30
0.0
  0
VERTEX
  8
0
  6
CONTINUOUS
 62
    80
  5
4DB
 10
337.470661
 20
4.282494
 30
0.0
  0
VERTEX
  8
0
  6
CONTINUOUS
 62
    80
  5
4DC
 10
337.470105
 20
4.280241
 30
0.0
  0
VERTEX
  8
0
  6
CONTINUOUS
 62
    80
  5
4DD
 10
337.469545
 20
4.277989
 30
0.0
  0
VERTEX
  8
0
  6
CONTINUOUS
 62
    80
  5
4DE
 10
337.468982
 20
4.275737
 30
0.0
  0
VERTEX
  8
0
  6
CONTINUOUS
 62
    80
  5
4DF
 10
337.468416
 20
4.273487
 30
0.0
  0
VERTEX
  8
0
  6
CONTINUOUS
 62
    80
  5
4E0
 10
337.467846
 20
4.271238
 30
0.0
  0
VERTEX
  8
0
  6
CONTINUOUS
 62
    80
  5
4E1
 10
337.467272
 20
4.268989
 30
0.0
  0
VERTEX
  8
0
  6
CONTINUOUS
 62
    80
  5
4E2
 10
337.466695
 20
4.266742
 30
0.0
  0
VERTEX
  8
0
  6
CONTINUOUS
 62
    80
  5
4E3
 10
337.466114
 20
4.264495
 30
0.0
  0
VERTEX
  8
0
  6
CONTINUOUS
 62
    80
  5
4E4
 10
337.46553
 20
4.26225
 30
0.0
  0
VERTEX
  8
0
  6
CONTINUOUS
 62
    80
  5
4E5
 10
337.464942
 20
4.260005
 30
0.0
  0
VERTEX
  8
0
  6
CONTINUOUS
 62
    80
  5
4E6
 10
337.464351
 20
4.257762
 30
0.0
  0
VERTEX
  8
0
  6
CONTINUOUS
 62
    80
  5
4E7
 10
337.463756
 20
4.255519
 30
0.0
  0
VERTEX
  8
0
  6
CONTINUOUS
 62
    80
  5
4E8
 10
337.463157
 20
4.253278
 30
0.0
  0
VERTEX
  8
0
  6
CONTINUOUS
 62
    80
  5
4E9
 10
337.462555
 20
4.251038
 30
0.0
  0
VERTEX
  8
0
  6
CONTINUOUS
 62
    80
  5
4EA
 10
337.460121
 20
4.242125
 30
0.0
  0
VERTEX
  8
0
  6
CONTINUOUS
 62
    80
  5
4EB
 10
337.457631
 20
4.233229
 30
0.0
  0
VERTEX
  8
0
  6
CONTINUOUS
 62
    80
  5
4EC
 10
337.455085
 20
4.224352
 30
0.0
  0
VERTEX
  8
0
  6
CONTINUOUS
 62
    80
  5
4ED
 10
337.452484
 20
4.215492
 30
0.0
  0
VERTEX
  8
0
  6
CONTINUOUS
 62
    80
  5
4EE
 10
337.449828
 20
4.20665
 30
0.0
  0
VERTEX
  8
0
  6
CONTINUOUS
 62
    80
  5
4EF
 10
337.447119
 20
4.197827
 30
0.0
  0
VERTEX
  8
0
  6
CONTINUOUS
 62
    80
  5
4F0
 10
337.444356
 20
4.189022
 30
0.0
  0
VERTEX
  8
0
  6
CONTINUOUS
 62
    80
  5
4F1
 10
337.441541
 20
4.180236
 30
0.0
  0
VERTEX
  8
0
  6
CONTINUOUS
 62
    80
  5
4F2
 10
337.438674
 20
4.171469
 30
0.0
  0
VERTEX
  8
0
  6
CONTINUOUS
 62
    80
  5
4F3
 10
337.435756
 20
4.162722
 30
0.0
  0
VERTEX
  8
0
  6
CONTINUOUS
 62
    80
  5
4F4
 10
337.432787
 20
4.153994
 30
0.0
  0
VERTEX
  8
0
  6
CONTINUOUS
 62
    80
  5
4F5
 10
337.429768
 20
4.145286
 30
0.0
  0
VERTEX
  8
0
  6
CONTINUOUS
 62
    80
  5
4F6
 10
337.4267
 20
4.136598
 30
0.0
  0
VERTEX
  8
0
  6
CONTINUOUS
 62
    80
  5
4F7
 10
337.423583
 20
4.12793
 30
0.0
  0
VERTEX
  8
0
  6
CONTINUOUS
 62
    80
  5
4F8
 10
337.420418
 20
4.119283
 30
0.0
  0
VERTEX
  8
0
  6
CONTINUOUS
 62
    80
  5
4F9
 10
337.417206
 20
4.110657
 30
0.0
  0
VERTEX
  8
0
  6
CONTINUOUS
 62
    80
  5
4FA
 10
337.395947
 20
4.056904
 30
0.0
  0
VERTEX
  8
0
  6
CONTINUOUS
 62
    80
  5
4FB
 10
337.372941
 20
4.003949
 30
0.0
  0
VERTEX
  8
0
  6
CONTINUOUS
 62
    80
  5
4FC
 10
337.348311
 20
3.95174
 30
0.0
  0
VERTEX
  8
0
  6
CONTINUOUS
 62
    80
  5
4FD
 10
337.322179
 20
3.900227
 30
0.0
  0
VERTEX
  8
0
  6
CONTINUOUS
 62
    80
  5
4FE
 10
337.294669
 20
3.849358
 30
0.0
  0
VERTEX
  8
0
  6
CONTINUOUS
 62
    80
  5
4FF
 10
337.265905
 20
3.79908
 30
0.0
  0
VERTEX
  8
0
  6
CONTINUOUS
 62
    80
  5
500
 10
337.23601
 20
3.749343
 30
0.0
  0
VERTEX
  8
0
  6
CONTINUOUS
 62
    80
  5
501
 10
337.205107
 20
3.700094
 30
0.0
  0
VERTEX
  8
0
  6
CONTINUOUS
 62
    80
  5
502
 10
337.17332
 20
3.651282
 30
0.0
  0
VERTEX
  8
0
  6
CONTINUOUS
 62
    80
  5
503
 10
337.140771
 20
3.602856
 30
0.0
  0
VERTEX
  8
0
  6
CONTINUOUS
 62
    80
  5
504
 10
337.107585
 20
3.554764
 30
0.0
  0
VERTEX
  8
0
  6
CONTINUOUS
 62
    80
  5
505
 10
337.073884
 20
3.506954
 30
0.0
  0
VERTEX
  8
0
  6
CONTINUOUS
 62
    80
  5
506
 10
337.039792
 20
3.459375
 30
0.0
  0
VERTEX
  8
0
  6
CONTINUOUS
 62
    80
  5
507
 10
337.005432
 20
3.411975
 30
0.0
  0
VERTEX
  8
0
  6
CONTINUOUS
 62
    80
  5
508
 10
336.970927
 20
3.364702
 30
0.0
  0
VERTEX
  8
0
  6
CONTINUOUS
 62
    80
  5
509
 10
336.936401
 20
3.317505
 30
0.0
  0
VERTEX
  8
0
  6
CONTINUOUS
 62
    80
  5
50A
 10
336.905484
 20
3.275182
 30
0.0
  0
VERTEX
  8
0
  6
CONTINUOUS
 62
    80
  5
50B
 10
336.874628
 20
3.232889
 30
0.0
  0
VERTEX
  8
0
  6
CONTINUOUS
 62
    80
  5
50C
 10
336.843813
 20
3.190639
 30
0.0
  0
VERTEX
  8
0
  6
CONTINUOUS
 62
    80
  5
50D
 10
336.813017
 20
3.148441
 30
0.0
  0
VERTEX
  8
0
  6
CONTINUOUS
 62
    80
  5
50E
 10
336.782221
 20
3.106308
 30
0.0
  0
VERTEX
  8
0
  6
CONTINUOUS
 62
    80
  5
50F
 10
336.751402
 20
3.06425
 30
0.0
  0
VERTEX
  8
0
  6
CONTINUOUS
 62
    80
  5
510
 10
336.720541
 20
3.022279
 30
0.0
  0
VERTEX
  8
0
  6
CONTINUOUS
 62
    80
  5
511
 10
336.689615
 20
2.980405
 30
0.0
  0
VERTEX
  8
0
  6
CONTINUOUS
 62
    80
  5
512
 10
336.658606
 20
2.93864
 30
0.0
  0
VERTEX
  8
0
  6
CONTINUOUS
 62
    80
  5
513
 10
336.62749
 20
2.896995
 30
0.0
  0
VERTEX
  8
0
  6
CONTINUOUS
 62
    80
  5
514
 10
336.596249
 20
2.855481
 30
0.0
  0
VERTEX
  8
0
  6
CONTINUOUS
 62
    80
  5
515
 10
336.56486
 20
2.814109
 30
0.0
  0
VERTEX
  8
0
  6
CONTINUOUS
 62
    80
  5
516
 10
336.533303
 20
2.772891
 30
0.0
  0
VERTEX
  8
0
  6
CONTINUOUS
 62
    80
  5
517
 10
336.501557
 20
2.731837
 30
0.0
  0
VERTEX
  8
0
  6
CONTINUOUS
 62
    80
  5
518
 10
336.469601
 20
2.690958
 30
0.0
  0
VERTEX
  8
0
  6
CONTINUOUS
 62
    80
  5
519
 10
336.437415
 20
2.650267
 30
0.0
  0
SEQEND
  8
0
  6
CONTINUOUS
 62
    80
  5
51A
  0
POLYLINE
  8
0
  6
CONTINUOUS
 62
    80
  5
29
 66
     1
 10
0.0
 20
0.0
 30
0.0
  0
VERTEX
  8
0
  6
CONTINUOUS
 62
    80
  5
51B
 10
349.313618
 20
6.031361
 30
0.0
  0
VERTEX
  8
0
  6
CONTINUOUS
 62
    80
  5
51C
 10
349.487146
 20
5.975105
 30
0.0
  0
VERTEX
  8
0
  6
CONTINUOUS
 62
    80
  5
51D
 10
349.660673
 20
5.918849
 30
0.0
  0
VERTEX
  8
0
  6
CONTINUOUS
 62
    80
  5
51E
 10
349.8342
 20
5.862592
 30
0.0
  0
VERTEX
  8
0
  6
CONTINUOUS
 62
    80
  5
51F
 10
350.007727
 20
5.806335
 30
0.0
  0
VERTEX
  8
0
  6
CONTINUOUS
 62
    80
  5
520
 10
350.181254
 20
5.750078
 30
0.0
  0
VERTEX
  8
0
  6
CONTINUOUS
 62
    80
  5
521
 10
350.354782
 20
5.693821
 30
0.0
  0
VERTEX
  8
0
  6
CONTINUOUS
 62
    80
  5
522
 10
350.528309
 20
5.637564
 30
0.0
  0
VERTEX
  8
0
  6
CONTINUOUS
 62
    80
  5
523
 10
350.701836
 20
5.581307
 30
0.0
  0
VERTEX
  8
0
  6
CONTINUOUS
 62
    80
  5
524
 10
350.875364
 20
5.52505
 30
0.0
  0
VERTEX
  8
0
  6
CONTINUOUS
 62
    80
  5
525
 10
351.048891
 20
5.468792
 30
0.0
  0
VERTEX
  8
0
  6
CONTINUOUS
 62
    80
  5
526
 10
351.222418
 20
5.412535
 30
0.0
  0
VERTEX
  8
0
  6
CONTINUOUS
 62
    80
  5
527
 10
351.395946
 20
5.356278
 30
0.0
  0
VERTEX
  8
0
  6
CONTINUOUS
 62
    80
  5
528
 10
351.569473
 20
5.300021
 30
0.0
  0
VERTEX
  8
0
  6
CONTINUOUS
 62
    80
  5
529
 10
351.743001
 20
5.243765
 30
0.0
  0
VERTEX
  8
0
  6
CONTINUOUS
 62
    80
  5
52A
 10
351.916528
 20
5.187508
 30
0.0
  0
VERTEX
  8
0
  6
CONTINUOUS
 62
    80
  5
52B
 10
352.090055
 20
5.131252
 30
0.0
  0
SEQEND
  8
0
  6
CONTINUOUS
 62
    80
  5
52C
  0
POLYLINE
  8
0
  6
CONTINUOUS
 62
    80
  5
2A
 66
     1
 10
0.0
 20
0.0
 30
0.0
  0
VERTEX
  8
0
  6
CONTINUOUS
 62
    80
  5
52D
 10
349.314301
 20
6.125
 30
0.0
  0
VERTEX
  8
0
  6
CONTINUOUS
 62
    80
  5
52E
 10
349.493318
 20
6.066964
 30
0.0
  0
VERTEX
  8
0
  6
CONTINUOUS
 62
    80
  5
52F
 10
349.672336
 20
6.008928
 30
0.0
  0
VERTEX
  8
0
  6
CONTINUOUS
 62
    80
  5
530
 10
349.851354
 20
5.950891
 30
0.0
  0
VERTEX
  8
0
  6
CONTINUOUS
 62
    80
  5
531
 10
350.030372
 20
5.892854
 30
0.0
  0
VERTEX
  8
0
  6
CONTINUOUS
 62
    80
  5
532
 10
350.20939
 20
5.834817
 30
0.0
  0
VERTEX
  8
0
  6
CONTINUOUS
 62
    80
  5
533
 10
350.388409
 20
5.77678
 30
0.0
  0
VERTEX
  8
0
  6
CONTINUOUS
 62
    80
  5
534
 10
350.567427
 20
5.718743
 30
0.0
  0
VERTEX
  8
0
  6
CONTINUOUS
 62
    80
  5
535
 10
350.746445
 20
5.660706
 30
0.0
  0
VERTEX
  8
0
  6
CONTINUOUS
 62
    80
  5
536
 10
350.925463
 20
5.602668
 30
0.0
  0
VERTEX
  8
0
  6
CONTINUOUS
 62
    80
  5
537
 10
351.104481
 20
5.544631
 30
0.0
  0
VERTEX
  8
0
  6
CONTINUOUS
 62
    80
  5
538
 10
351.283499
 20
5.486594
 30
0.0
  0
VERTEX
  8
0
  6
CONTINUOUS
 62
    80
  5
539
 10
351.462517
 20
5.428557
 30
0.0
  0
VERTEX
  8
0
  6
CONTINUOUS
 62
    80
  5
53A
 10
351.641535
 20
5.37052
 30
0.0
  0
VERTEX
  8
0
  6
CONTINUOUS
 62
    80
  5
53B
 10
351.820553
 20
5.312483
 30
0.0
  0
VERTEX
  8
0
  6
CONTINUOUS
 62
    80
  5
53C
 10
351.999571
 20
5.254447
 30
0.0
  0
VERTEX
  8
0
  6
CONTINUOUS
 62
    80
  5
53D
 10
352.178589
 20
5.196411
 30
0.0
  0
SEQEND
  8
0
  6
CONTINUOUS
 62
    80
  5
53E
  0
POLYLINE
  8
0
  6
CONTINUOUS
 62
    80
  5
2B
 66
     1
 10
0.0
 20
0.0
 30
0.0
  0
VERTEX
  8
0
  6
CONTINUOUS
 62
    80
  5
53F
 10
349.314983
 20
6.031361
 30
0.0
  0
VERTEX
  8
0
  6
CONTINUOUS
 62
    80
  5
540
 10
349.141456
 20
5.975105
 30
0.0
  0
VERTEX
  8
0
  6
CONTINUOUS
 62
    80
  5
541
 10
348.96793
 20
5.918849
 30
0.0
  0
VERTEX
  8
0
  6
CONTINUOUS
 62
    80
  5
542
 10
348.794404
 20
5.862592
 30
0.0
  0
VERTEX
  8
0
  6
CONTINUOUS
 62
    80
  5
543
 10
348.620879
 20
5.806335
 30
0.0
  0
VERTEX
  8
0
  6
CONTINUOUS
 62
    80
  5
544
 10
348.447354
 20
5.750079
 30
0.0
  0
VERTEX
  8
0
  6
CONTINUOUS
 62
    80
  5
545
 10
348.273829
 20
5.693821
 30
0.0
  0
VERTEX
  8
0
  6
CONTINUOUS
 62
    80
  5
546
 10
348.100305
 20
5.637564
 30
0.0
  0
VERTEX
  8
0
  6
CONTINUOUS
 62
    80
  5
547
 10
347.92678
 20
5.581307
 30
0.0
  0
VERTEX
  8
0
  6
CONTINUOUS
 62
    80
  5
548
 10
347.753256
 20
5.52505
 30
0.0
  0
VERTEX
  8
0
  6
CONTINUOUS
 62
    80
  5
549
 10
347.579731
 20
5.468792
 30
0.0
  0
VERTEX
  8
0
  6
CONTINUOUS
 62
    80
  5
54A
 10
347.406206
 20
5.412535
 30
0.0
  0
VERTEX
  8
0
  6
CONTINUOUS
 62
    80
  5
54B
 10
347.232681
 20
5.356278
 30
0.0
  0
VERTEX
  8
0
  6
CONTINUOUS
 62
    80
  5
54C
 10
347.059155
 20
5.300021
 30
0.0
  0
VERTEX
  8
0
  6
CONTINUOUS
 62
    80
  5
54D
 10
346.885629
 20
5.243765
 30
0.0
  0
VERTEX
  8
0
  6
CONTINUOUS
 62
    80
  5
54E
 10
346.712103
 20
5.187508
 30
0.0
  0
VERTEX
  8
0
  6
CONTINUOUS
 62
    80
  5
54F
 10
346.538576
 20
5.131252
 30
0.0
  0
SEQEND
  8
0
  6
CONTINUOUS
 62
    80
  5
550
  0
POLYLINE
  8
0
  6
CONTINUOUS
 62
    80
  5
2C
 66
     1
 10
0.0
 20
0.0
 30
0.0
  0
VERTEX
  8
0
  6
CONTINUOUS
 62
    80
  5
551
 10
349.314301
 20
6.125
 30
0.0
  0
VERTEX
  8
0
  6
CONTINUOUS
 62
    80
  5
552
 10
349.135283
 20
6.066964
 30
0.0
  0
VERTEX
  8
0
  6
CONTINUOUS
 62
    80
  5
553
 10
348.956266
 20
6.008928
 30
0.0
  0
VERTEX
  8
0
  6
CONTINUOUS
 62
    80
  5
554
 10
348.77725
 20
5.950891
 30
0.0
  0
VERTEX
  8
0
  6
CONTINUOUS
 62
    80
  5
555
 10
348.598233
 20
5.892854
 30
0.0
  0
VERTEX
  8
0
  6
CONTINUOUS
 62
    80
  5
556
 10
348.419218
 20
5.834817
 30
0.0
  0
VERTEX
  8
0
  6
CONTINUOUS
 62
    80
  5
557
 10
348.240202
 20
5.77678
 30
0.0
  0
VERTEX
  8
0
  6
CONTINUOUS
 62
    80
  5
558
 10
348.061187
 20
5.718743
 30
0.0
  0
VERTEX
  8
0
  6
CONTINUOUS
 62
    80
  5
559
 10
347.882172
 20
5.660706
 30
0.0
  0
VERTEX
  8
0
  6
CONTINUOUS
 62
    80
  5
55A
 10
347.703156
 20
5.602668
 30
0.0
  0
VERTEX
  8
0
  6
CONTINUOUS
 62
    80
  5
55B
 10
347.524141
 20
5.544631
 30
0.0
  0
VERTEX
  8
0
  6
CONTINUOUS
 62
    80
  5
55C
 10
347.345126
 20
5.486594
 30
0.0
  0
VERTEX
  8
0
  6
CONTINUOUS
 62
    80
  5
55D
 10
347.16611
 20
5.428557
 30
0.0
  0
VERTEX
  8
0
  6
CONTINUOUS
 62
    80
  5
55E
 10
346.987094
 20
5.37052
 30
0.0
  0
VERTEX
  8
0
  6
CONTINUOUS
 62
    80
  5
55F
 10
346.808077
 20
5.312483
 30
0.0
  0
VERTEX
  8
0
  6
CONTINUOUS
 62
    80
  5
560
 10
346.62906
 20
5.254447
 30
0.0
  0
VERTEX
  8
0
  6
CONTINUOUS
 62
    80
  5
561
 10
346.450043
 20
5.196411
 30
0.0
  0
SEQEND
  8
0
  6
CONTINUOUS
 62
    80
  5
562
  0
POLYLINE
  8
0
  6
CONTINUOUS
 62
    80
  5
2D
 66
     1
 10
0.0
 20
0.0
 30
0.0
  0
VERTEX
  8
0
  6
CONTINUOUS
 62
    80
  5
563
 10
340.452941
 20
2.1477
 30
0.0
  0
VERTEX
  8
0
  6
CONTINUOUS
 62
    80
  5
564
 10
340.50494
 20
2.150706
 30
0.0
  0
VERTEX
  8
0
  6
CONTINUOUS
 62
    80
  5
565
 10
340.556931
 20
2.153865
 30
0.0
  0
VERTEX
  8
0
  6
CONTINUOUS
 62
    80
  5
566
 10
340.608914
 20
2.157176
 30
0.0
  0
VERTEX
  8
0
  6
CONTINUOUS
 62
    80
  5
567
 10
340.660888
 20
2.160638
 30
0.0
  0
VERTEX
  8
0
  6
CONTINUOUS
 62
    80
  5
568
 10
340.712854
 20
2.164252
 30
0.0
  0
VERTEX
  8
0
  6
CONTINUOUS
 62
    80
  5
569
 10
340.764811
 20
2.168016
 30
0.0
  0
VERTEX
  8
0
  6
CONTINUOUS
 62
    80
  5
56A
 10
340.816758
 20
2.171929
 30
0.0
  0
VERTEX
  8
0
  6
CONTINUOUS
 62
    80
  5
56B
 10
340.868694
 20
2.175993
 30
0.0
  0
VERTEX
  8
0
  6
CONTINUOUS
 62
    80
  5
56C
 10
340.920621
 20
2.180205
 30
0.0
  0
VERTEX
  8
0
  6
CONTINUOUS
 62
    80
  5
56D
 10
340.972536
 20
2.184566
 30
0.0
  0
VERTEX
  8
0
  6
CONTINUOUS
 62
    80
  5
56E
 10
341.02444
 20
2.189075
 30
0.0
  0
VERTEX
  8
0
  6
CONTINUOUS
 62
    80
  5
56F
 10
341.076332
 20
2.193731
 30
0.0
  0
VERTEX
  8
0
  6
CONTINUOUS
 62
    80
  5
570
 10
341.128211
 20
2.198534
 30
0.0
  0
VERTEX
  8
0
  6
CONTINUOUS
 62
    80
  5
571
 10
341.180078
 20
2.203484
 30
0.0
  0
VERTEX
  8
0
  6
CONTINUOUS
 62
    80
  5
572
 10
341.231932
 20
2.208579
 30
0.0
  0
VERTEX
  8
0
  6
CONTINUOUS
 62
    80
  5
573
 10
341.283772
 20
2.21382
 30
0.0
  0
VERTEX
  8
0
  6
CONTINUOUS
 62
    80
  5
574
 10
341.350654
 20
2.220799
 30
0.0
  0
VERTEX
  8
0
  6
CONTINUOUS
 62
    80
  5
575
 10
341.417507
 20
2.228021
 30
0.0
  0
VERTEX
  8
0
  6
CONTINUOUS
 62
    80
  5
576
 10
341.48433
 20
2.235488
 30
0.0
  0
VERTEX
  8
0
  6
CONTINUOUS
 62
    80
  5
577
 10
341.551121
 20
2.243204
 30
0.0
  0
VERTEX
  8
0
  6
CONTINUOUS
 62
    80
  5
578
 10
341.61788
 20
2.25117
 30
0.0
  0
VERTEX
  8
0
  6
CONTINUOUS
 62
    80
  5
579
 10
341.684605
 20
2.259387
 30
0.0
  0
VERTEX
  8
0
  6
CONTINUOUS
 62
    80
  5
57A
 10
341.751295
 20
2.26786
 30
0.0
  0
VERTEX
  8
0
  6
CONTINUOUS
 62
    80
  5
57B
 10
341.817949
 20
2.276588
 30
0.0
  0
VERTEX
  8
0
  6
CONTINUOUS
 62
    80
  5
57C
 10
341.884565
 20
2.285575
 30
0.0
  0
VERTEX
  8
0
  6
CONTINUOUS
 62
    80
  5
57D
 10
341.951141
 20
2.294823
 30
0.0
  0
VERTEX
  8
0
  6
CONTINUOUS
 62
    80
  5
57E
 10
342.017678
 20
2.304334
 30
0.0
  0
VERTEX
  8
0
  6
CONTINUOUS
 62
    80
  5
57F
 10
342.084173
 20
2.314109
 30
0.0
  0
VERTEX
  8
0
  6
CONTINUOUS
 62
    80
  5
580
 10
342.150624
 20
2.324152
 30
0.0
  0
VERTEX
  8
0
  6
CONTINUOUS
 62
    80
  5
581
 10
342.217032
 20
2.334464
 30
0.0
  0
VERTEX
  8
0
  6
CONTINUOUS
 62
    80
  5
582
 10
342.283395
 20
2.345048
 30
0.0
  0
VERTEX
  8
0
  6
CONTINUOUS
 62
    80
  5
583
 10
342.34971
 20
2.355905
 30
0.0
  0
VERTEX
  8
0
  6
CONTINUOUS
 62
    80
  5
584
 10
342.412399
 20
2.366428
 30
0.0
  0
VERTEX
  8
0
  6
CONTINUOUS
 62
    80
  5
585
 10
342.475048
 20
2.377198
 30
0.0
  0
VERTEX
  8
0
  6
CONTINUOUS
 62
    80
  5
586
 10
342.537657
 20
2.388212
 30
0.0
  0
VERTEX
  8
0
  6
CONTINUOUS
 62
    80
  5
587
 10
342.600224
 20
2.39947
 30
0.0
  0
VERTEX
  8
0
  6
CONTINUOUS
 62
    80
  5
588
 10
342.662748
 20
2.410972
 30
0.0
  0
VERTEX
  8
0
  6
CONTINUOUS
 62
    80
  5
589
 10
342.725228
 20
2.422716
 30
0.0
  0
VERTEX
  8
0
  6
CONTINUOUS
 62
    80
  5
58A
 10
342.787664
 20
2.434701
 30
0.0
  0
VERTEX
  8
0
  6
CONTINUOUS
 62
    80
  5
58B
 10
342.850054
 20
2.446927
 30
0.0
  0
VERTEX
  8
0
  6
CONTINUOUS
 62
    80
  5
58C
 10
342.912396
 20
2.459392
 30
0.0
  0
VERTEX
  8
0
  6
CONTINUOUS
 62
    80
  5
58D
 10
342.974691
 20
2.472096
 30
0.0
  0
VERTEX
  8
0
  6
CONTINUOUS
 62
    80
  5
58E
 10
343.036937
 20
2.485038
 30
0.0
  0
VERTEX
  8
0
  6
CONTINUOUS
 62
    80
  5
58F
 10
343.099133
 20
2.498216
 30
0.0
  0
VERTEX
  8
0
  6
CONTINUOUS
 62
    80
  5
590
 10
343.161278
 20
2.51163
 30
0.0
  0
VERTEX
  8
0
  6
CONTINUOUS
 62
    80
  5
591
 10
343.22337
 20
2.52528
 30
0.0
  0
VERTEX
  8
0
  6
CONTINUOUS
 62
    80
  5
592
 10
343.28541
 20
2.539163
 30
0.0
  0
VERTEX
  8
0
  6
CONTINUOUS
 62
    80
  5
593
 10
343.347395
 20
2.55328
 30
0.0
  0
SEQEND
  8
0
  6
CONTINUOUS
 62
    80
  5
594
  0
POLYLINE
  8
0
  6
CONTINUOUS
 62
    80
  5
2E
 66
     1
 10
0.0
 20
0.0
 30
0.0
  0
VERTEX
  8
0
  6
CONTINUOUS
 62
    80
  5
595
 10
340.364319
 20
2.053528
 30
0.0
  0
VERTEX
  8
0
  6
CONTINUOUS
 62
    80
  5
596
 10
340.422446
 20
2.05659
 30
0.0
  0
VERTEX
  8
0
  6
CONTINUOUS
 62
    80
  5
597
 10
340.480563
 20
2.059843
 30
0.0
  0
VERTEX
  8
0
  6
CONTINUOUS
 62
    80
  5
598
 10
340.538671
 20
2.063286
 30
0.0
  0
VERTEX
  8
0
  6
CONTINUOUS
 62
    80
  5
599
 10
340.596767
 20
2.066918
 30
0.0
  0
VERTEX
  8
0
  6
CONTINUOUS
 62
    80
  5
59A
 10
340.654853
 20
2.070739
 30
0.0
  0
VERTEX
  8
0
  6
CONTINUOUS
 62
    80
  5
59B
 10
340.712926
 20
2.074747
 30
0.0
  0
VERTEX
  8
0
  6
CONTINUOUS
 62
    80
  5
59C
 10
340.770987
 20
2.078943
 30
0.0
  0
VERTEX
  8
0
  6
CONTINUOUS
 62
    80
  5
59D
 10
340.829035
 20
2.083325
 30
0.0
  0
VERTEX
  8
0
  6
CONTINUOUS
 62
    80
  5
59E
 10
340.88707
 20
2.087892
 30
0.0
  0
VERTEX
  8
0
  6
CONTINUOUS
 62
    80
  5
59F
 10
340.94509
 20
2.092644
 30
0.0
  0
VERTEX
  8
0
  6
CONTINUOUS
 62
    80
  5
5A0
 10
341.003095
 20
2.097581
 30
0.0
  0
VERTEX
  8
0
  6
CONTINUOUS
 62
    80
  5
5A1
 10
341.061085
 20
2.1027
 30
0.0
  0
VERTEX
  8
0
  6
CONTINUOUS
 62
    80
  5
5A2
 10
341.119058
 20
2.108003
 30
0.0
  0
VERTEX
  8
0
  6
CONTINUOUS
 62
    80
  5
5A3
 10
341.177015
 20
2.113488
 30
0.0
  0
VERTEX
  8
0
  6
CONTINUOUS
 62
    80
  5
5A4
 10
341.234955
 20
2.119153
 30
0.0
  0
VERTEX
  8
0
  6
CONTINUOUS
 62
    80
  5
5A5
 10
341.292877
 20
2.125
 30
0.0
  0
VERTEX
  8
0
  6
CONTINUOUS
 62
    80
  5
5A6
 10
341.360081
 20
2.132012
 30
0.0
  0
VERTEX
  8
0
  6
CONTINUOUS
 62
    80
  5
5A7
 10
341.427259
 20
2.139269
 30
0.0
  0
VERTEX
  8
0
  6
CONTINUOUS
 62
    80
  5
5A8
 10
341.49441
 20
2.146774
 30
0.0
  0
VERTEX
  8
0
  6
CONTINUOUS
 62
    80
  5
5A9
 10
341.561533
 20
2.154528
 30
0.0
  0
VERTEX
  8
0
  6
CONTINUOUS
 62
    80
  5
5AA
 10
341.628626
 20
2.162533
 30
0.0
  0
VERTEX
  8
0
  6
CONTINUOUS
 62
    80
  5
5AB
 10
341.695688
 20
2.170792
 30
0.0
  0
VERTEX
  8
0
  6
CONTINUOUS
 62
    80
  5
5AC
 10
341.762718
 20
2.179307
 30
0.0
  0
VERTEX
  8
0
  6
CONTINUOUS
 62
    80
  5
5AD
 10
341.829714
 20
2.188081
 30
0.0
  0
VERTEX
  8
0
  6
CONTINUOUS
 62
    80
  5
5AE
 10
341.896675
 20
2.197115
 30
0.0
  0
VERTEX
  8
0
  6
CONTINUOUS
 62
    80
  5
5AF
 10
341.9636
 20
2.206411
 30
0.0
  0
VERTEX
  8
0
  6
CONTINUOUS
 62
    80
  5
5B0
 10
342.030488
 20
2.215972
 30
0.0
  0
VERTEX
  8
0
  6
CONTINUOUS
 62
    80
  5
5B1
 10
342.097336
 20
2.225799
 30
0.0
  0
VERTEX
  8
0
  6
CONTINUOUS
 62
    80
  5
5B2
 10
342.164145
 20
2.235896
 30
0.0
  0
VERTEX
  8
0
  6
CONTINUOUS
 62
    80
  5
5B3
 10
342.230913
 20
2.246264
 30
0.0
  0
VERTEX
  8
0
  6
CONTINUOUS
 62
    80
  5
5B4
 10
342.297638
 20
2.256905
 30
0.0
  0
VERTEX
  8
0
  6
CONTINUOUS
 62
    80
  5
5B5
 10
342.364319
 20
2.267822
 30
0.0
  0
VERTEX
  8
0
  6
CONTINUOUS
 62
    80
  5
5B6
 10
342.431679
 20
2.279139
 30
0.0
  0
VERTEX
  8
0
  6
CONTINUOUS
 62
    80
  5
5B7
 10
342.498992
 20
2.290738
 30
0.0
  0
VERTEX
  8
0
  6
CONTINUOUS
 62
    80
  5
5B8
 10
342.566257
 20
2.302618
 30
0.0
  0
VERTEX
  8
0
  6
CONTINUOUS
 62
    80
  5
5B9
 10
342.633473
 20
2.314778
 30
0.0
  0
VERTEX
  8
0
  6
CONTINUOUS
 62
    80
  5
5BA
 10
342.700638
 20
2.327217
 30
0.0
  0
VERTEX
  8
0
  6
CONTINUOUS
 62
    80
  5
5BB
 10
342.767752
 20
2.339933
 30
0.0
  0
VERTEX
  8
0
  6
CONTINUOUS
 62
    80
  5
5BC
 10
342.834813
 20
2.352925
 30
0.0
  0
VERTEX
  8
0
  6
CONTINUOUS
 62
    80
  5
5BD
 10
342.901819
 20
2.366193
 30
0.0
  0
VERTEX
  8
0
  6
CONTINUOUS
 62
    80
  5
5BE
 10
342.968769
 20
2.379736
 30
0.0
  0
VERTEX
  8
0
  6
CONTINUOUS
 62
    80
  5
5BF
 10
343.035663
 20
2.393551
 30
0.0
  0
VERTEX
  8
0
  6
CONTINUOUS
 62
    80
  5
5C0
 10
343.102499
 20
2.407638
 30
0.0
  0
VERTEX
  8
0
  6
CONTINUOUS
 62
    80
  5
5C1
 10
343.169275
 20
2.421997
 30
0.0
  0
VERTEX
  8
0
  6
CONTINUOUS
 62
    80
  5
5C2
 10
343.235991
 20
2.436625
 30
0.0
  0
VERTEX
  8
0
  6
CONTINUOUS
 62
    80
  5
5C3
 10
343.302644
 20
2.451522
 30
0.0
  0
VERTEX
  8
0
  6
CONTINUOUS
 62
    80
  5
5C4
 10
343.369235
 20
2.466686
 30
0.0
  0
VERTEX
  8
0
  6
CONTINUOUS
 62
    80
  5
5C5
 10
343.43576
 20
2.482117
 30
0.0
  0
SEQEND
  8
0
  6
CONTINUOUS
 62
    80
  5
5C6
  0
POLYLINE
  8
0
  6
CONTINUOUS
 62
    80
  5
2F
 66
     1
 10
0.0
 20
0.0
 30
0.0
  0
VERTEX
  8
0
  6
CONTINUOUS
 62
    80
  5
5C7
 10
341.38214
 20
2.684022
 30
0.0
  0
VERTEX
  8
0
  6
CONTINUOUS
 62
    80
  5
5C8
 10
341.37692
 20
2.683698
 30
0.0
  0
VERTEX
  8
0
  6
CONTINUOUS
 62
    80
  5
5C9
 10
341.371701
 20
2.683373
 30
0.0
  0
VERTEX
  8
0
  6
CONTINUOUS
 62
    80
  5
5CA
 10
341.366482
 20
2.683047
 30
0.0
  0
VERTEX
  8
0
  6
CONTINUOUS
 62
    80
  5
5CB
 10
341.361264
 20
2.68272
 30
0.0
  0
VERTEX
  8
0
  6
CONTINUOUS
 62
    80
  5
5CC
 10
341.356046
 20
2.682392
 30
0.0
  0
VERTEX
  8
0
  6
CONTINUOUS
 62
    80
  5
5CD
 10
341.350828
 20
2.682064
 30
0.0
  0
VERTEX
  8
0
  6
CONTINUOUS
 62
    80
  5
5CE
 10
341.345611
 20
2.681734
 30
0.0
  0
VERTEX
  8
0
  6
CONTINUOUS
 62
    80
  5
5CF
 10
341.340394
 20
2.681404
 30
0.0
  0
VERTEX
  8
0
  6
CONTINUOUS
 62
    80
  5
5D0
 10
341.335177
 20
2.681072
 30
0.0
  0
VERTEX
  8
0
  6
CONTINUOUS
 62
    80
  5
5D1
 10
341.329961
 20
2.68074
 30
0.0
  0
VERTEX
  8
0
  6
CONTINUOUS
 62
    80
  5
5D2
 10
341.324745
 20
2.680407
 30
0.0
  0
VERTEX
  8
0
  6
CONTINUOUS
 62
    80
  5
5D3
 10
341.31953
 20
2.680072
 30
0.0
  0
VERTEX
  8
0
  6
CONTINUOUS
 62
    80
  5
5D4
 10
341.314314
 20
2.679737
 30
0.0
  0
VERTEX
  8
0
  6
CONTINUOUS
 62
    80
  5
5D5
 10
341.3091
 20
2.679401
 30
0.0
  0
VERTEX
  8
0
  6
CONTINUOUS
 62
    80
  5
5D6
 10
341.303886
 20
2.679063
 30
0.0
  0
VERTEX
  8
0
  6
CONTINUOUS
 62
    80
  5
5D7
 10
341.298672
 20
2.678725
 30
0.0
  0
VERTEX
  8
0
  6
CONTINUOUS
 62
    80
  5
5D8
 10
341.245882
 20
2.675236
 30
0.0
  0
VERTEX
  8
0
  6
CONTINUOUS
 62
    80
  5
5D9
 10
341.193088
 20
2.67164
 30
0.0
  0
VERTEX
  8
0
  6
CONTINUOUS
 62
    80
  5
5DA
 10
341.14029
 20
2.667944
 30
0.0
  0
VERTEX
  8
0
  6
CONTINUOUS
 62
    80
  5
5DB
 10
341.087488
 20
2.664156
 30
0.0
  0
VERTEX
  8
0
  6
CONTINUOUS
 62
    80
  5
5DC
 10
341.034679
 20
2.660282
 30
0.0
  0
VERTEX
  8
0
  6
CONTINUOUS
 62
    80
  5
5DD
 10
340.981865
 20
2.65633
 30
0.0
  0
VERTEX
  8
0
  6
CONTINUOUS
 62
    80
  5
5DE
 10
340.929044
 20
2.652307
 30
0.0
  0
VERTEX
  8
0
  6
CONTINUOUS
 62
    80
  5
5DF
 10
340.876216
 20
2.648221
 30
0.0
  0
VERTEX
  8
0
  6
CONTINUOUS
 62
    80
  5
5E0
 10
340.82338
 20
2.644078
 30
0.0
  0
VERTEX
  8
0
  6
CONTINUOUS
 62
    80
  5
5E1
 10
340.770536
 20
2.639886
 30
0.0
  0
VERTEX
  8
0
  6
CONTINUOUS
 62
    80
  5
5E2
 10
340.717682
 20
2.635652
 30
0.0
  0
VERTEX
  8
0
  6
CONTINUOUS
 62
    80
  5
5E3
 10
340.664819
 20
2.631383
 30
0.0
  0
VERTEX
  8
0
  6
CONTINUOUS
 62
    80
  5
5E4
 10
340.611946
 20
2.627087
 30
0.0
  0
VERTEX
  8
0
  6
CONTINUOUS
 62
    80
  5
5E5
 10
340.559061
 20
2.62277
 30
0.0
  0
VERTEX
  8
0
  6
CONTINUOUS
 62
    80
  5
5E6
 10
340.506166
 20
2.618441
 30
0.0
  0
VERTEX
  8
0
  6
CONTINUOUS
 62
    80
  5
5E7
 10
340.453258
 20
2.614106
 30
0.0
  0
SEQEND
  8
0
  6
CONTINUOUS
 62
    80
  5
5E8
  0
POLYLINE
  8
0
  6
CONTINUOUS
 62
    80
  5
30
 66
     1
 10
0.0
 20
0.0
 30
0.0
  0
VERTEX
  8
0
  6
CONTINUOUS
 62
    80
  5
5E9
 10
341.292877
 20
2.767822
 30
0.0
  0
VERTEX
  8
0
  6
CONTINUOUS
 62
    80
  5
5EA
 10
341.234793
 20
2.763978
 30
0.0
  0
VERTEX
  8
0
  6
CONTINUOUS
 62
    80
  5
5EB
 10
341.176719
 20
2.760006
 30
0.0
  0
VERTEX
  8
0
  6
CONTINUOUS
 62
    80
  5
5EC
 10
341.118655
 20
2.755916
 30
0.0
  0
VERTEX
  8
0
  6
CONTINUOUS
 62
    80
  5
5ED
 10
341.060599
 20
2.751719
 30
0.0
  0
VERTEX
  8
0
  6
CONTINUOUS
 62
    80
  5
5EE
 10
341.002551
 20
2.747423
 30
0.0
  0
VERTEX
  8
0
  6
CONTINUOUS
 62
    80
  5
5EF
 10
340.94451
 20
2.743038
 30
0.0
  0
VERTEX
  8
0
  6
CONTINUOUS
 62
    80
  5
5F0
 10
340.886476
 20
2.738573
 30
0.0
  0
VERTEX
  8
0
  6
CONTINUOUS
 62
    80
  5
5F1
 10
340.828447
 20
2.73404
 30
0.0
  0
VERTEX
  8
0
  6
CONTINUOUS
 62
    80
  5
5F2
 10
340.770422
 20
2.729446
 30
0.0
  0
VERTEX
  8
0
  6
CONTINUOUS
 62
    80
  5
5F3
 10
340.712402
 20
2.724801
 30
0.0
  0
VERTEX
  8
0
  6
CONTINUOUS
 62
    80
  5
5F4
 10
340.654385
 20
2.720116
 30
0.0
  0
VERTEX
  8
0
  6
CONTINUOUS
 62
    80
  5
5F5
 10
340.59637
 20
2.715399
 30
0.0
  0
VERTEX
  8
0
  6
CONTINUOUS
 62
    80
  5
5F6
 10
340.538357
 20
2.710661
 30
0.0
  0
VERTEX
  8
0
  6
CONTINUOUS
 62
    80
  5
5F7
 10
340.480345
 20
2.70591
 30
0.0
  0
VERTEX
  8
0
  6
CONTINUOUS
 62
    80
  5
5F8
 10
340.422332
 20
2.701157
 30
0.0
  0
VERTEX
  8
0
  6
CONTINUOUS
 62
    80
  5
5F9
 10
340.364319
 20
2.696411
 30
0.0
  0
SEQEND
  8
0
  6
CONTINUOUS
 62
    80
  5
5FA
  0
POLYLINE
  8
0
  6
CONTINUOUS
 62
    80
  5
31
 66
     1
 10
0.0
 20
0.0
 30
0.0
  0
VERTEX
  8
0
  6
CONTINUOUS
 62
    80
  5
5FB
 10
343.346321
 20
2.876916
 30
0.0
  0
VERTEX
  8
0
  6
CONTINUOUS
 62
    80
  5
5FC
 10
343.285806
 20
2.867219
 30
0.0
  0
VERTEX
  8
0
  6
CONTINUOUS
 62
    80
  5
5FD
 10
343.225242
 20
2.857715
 30
0.0
  0
VERTEX
  8
0
  6
CONTINUOUS
 62
    80
  5
5FE
 10
343.164629
 20
2.848414
 30
0.0
  0
VERTEX
  8
0
  6
CONTINUOUS
 62
    80
  5
5FF
 10
343.103969
 20
2.839326
 30
0.0
  0
VERTEX
  8
0
  6
CONTINUOUS
 62
    80
  5
600
 10
343.043261
 20
2.83046
 30
0.0
  0
VERTEX
  8
0
  6
CONTINUOUS
 62
    80
  5
601
 10
342.982507
 20
2.821825
 30
0.0
  0
VERTEX
  8
0
  6
CONTINUOUS
 62
    80
  5
602
 10
342.921705
 20
2.813432
 30
0.0
  0
VERTEX
  8
0
  6
CONTINUOUS
 62
    80
  5
603
 10
342.860858
 20
2.805289
 30
0.0
  0
VERTEX
  8
0
  6
CONTINUOUS
 62
    80
  5
604
 10
342.799966
 20
2.797407
 30
0.0
  0
VERTEX
  8
0
  6
CONTINUOUS
 62
    80
  5
605
 10
342.739029
 20
2.789795
 30
0.0
  0
VERTEX
  8
0
  6
CONTINUOUS
 62
    80
  5
606
 10
342.678047
 20
2.782462
 30
0.0
  0
VERTEX
  8
0
  6
CONTINUOUS
 62
    80
  5
607
 10
342.617021
 20
2.775418
 30
0.0
  0
VERTEX
  8
0
  6
CONTINUOUS
 62
    80
  5
608
 10
342.555952
 20
2.768672
 30
0.0
  0
VERTEX
  8
0
  6
CONTINUOUS
 62
    80
  5
609
 10
342.49484
 20
2.762235
 30
0.0
  0
VERTEX
  8
0
  6
CONTINUOUS
 62
    80
  5
60A
 10
342.433686
 20
2.756115
 30
0.0
  0
VERTEX
  8
0
  6
CONTINUOUS
 62
    80
  5
60B
 10
342.372489
 20
2.750322
 30
0.0
  0
VERTEX
  8
0
  6
CONTINUOUS
 62
    80
  5
60C
 10
342.36635
 20
2.74976
 30
0.0
  0
VERTEX
  8
0
  6
CONTINUOUS
 62
    80
  5
60D
 10
342.36021
 20
2.749201
 30
0.0
  0
VERTEX
  8
0
  6
CONTINUOUS
 62
    80
  5
60E
 10
342.35407
 20
2.748645
 30
0.0
  0
VERTEX
  8
0
  6
CONTINUOUS
 62
    80
  5
60F
 10
342.347931
 20
2.748093
 30
0.0
  0
VERTEX
  8
0
  6
CONTINUOUS
 62
    80
  5
610
 10
342.341792
 20
2.747544
 30
0.0
  0
VERTEX
  8
0
  6
CONTINUOUS
 62
    80
  5
611
 10
342.335652
 20
2.746998
 30
0.0
  0
VERTEX
  8
0
  6
CONTINUOUS
 62
    80
  5
612
 10
342.329513
 20
2.746455
 30
0.0
  0
VERTEX
  8
0
  6
CONTINUOUS
 62
    80
  5
613
 10
342.323374
 20
2.745916
 30
0.0
  0
VERTEX
  8
0
  6
CONTINUOUS
 62
    80
  5
614
 10
342.317236
 20
2.74538
 30
0.0
  0
VERTEX
  8
0
  6
CONTINUOUS
 62
    80
  5
615
 10
342.311097
 20
2.744847
 30
0.0
  0
VERTEX
  8
0
  6
CONTINUOUS
 62
    80
  5
616
 10
342.304958
 20
2.744317
 30
0.0
  0
VERTEX
  8
0
  6
CONTINUOUS
 62
    80
  5
617
 10
342.29882
 20
2.743791
 30
0.0
  0
VERTEX
  8
0
  6
CONTINUOUS
 62
    80
  5
618
 10
342.292682
 20
2.743267
 30
0.0
  0
VERTEX
  8
0
  6
CONTINUOUS
 62
    80
  5
619
 10
342.286544
 20
2.742747
 30
0.0
  0
VERTEX
  8
0
  6
CONTINUOUS
 62
    80
  5
61A
 10
342.280406
 20
2.742229
 30
0.0
  0
VERTEX
  8
0
  6
CONTINUOUS
 62
    80
  5
61B
 10
342.274268
 20
2.741715
 30
0.0
  0
SEQEND
  8
0
  6
CONTINUOUS
 62
    80
  5
61C
  0
POLYLINE
  8
0
  6
CONTINUOUS
 62
    80
  5
32
 66
     1
 10
0.0
 20
0.0
 30
0.0
  0
VERTEX
  8
0
  6
CONTINUOUS
 62
    80
  5
61D
 10
343.43576
 20
2.982117
 30
0.0
  0
VERTEX
  8
0
  6
CONTINUOUS
 62
    80
  5
61E
 10
343.369105
 20
2.971088
 30
0.0
  0
VERTEX
  8
0
  6
CONTINUOUS
 62
    80
  5
61F
 10
343.302405
 20
2.960279
 30
0.0
  0
VERTEX
  8
0
  6
CONTINUOUS
 62
    80
  5
620
 10
343.235661
 20
2.949703
 30
0.0
  0
VERTEX
  8
0
  6
CONTINUOUS
 62
    80
  5
621
 10
343.168873
 20
2.939374
 30
0.0
  0
VERTEX
  8
0
  6
CONTINUOUS
 62
    80
  5
622
 10
343.102043
 20
2.929302
 30
0.0
  0
VERTEX
  8
0
  6
CONTINUOUS
 62
    80
  5
623
 10
343.035172
 20
2.919503
 30
0.0
  0
VERTEX
  8
0
  6
CONTINUOUS
 62
    80
  5
624
 10
342.968259
 20
2.909987
 30
0.0
  0
VERTEX
  8
0
  6
CONTINUOUS
 62
    80
  5
625
 10
342.901306
 20
2.900768
 30
0.0
  0
VERTEX
  8
0
  6
CONTINUOUS
 62
    80
  5
626
 10
342.834313
 20
2.891859
 30
0.0
  0
VERTEX
  8
0
  6
CONTINUOUS
 62
    80
  5
627
 10
342.767282
 20
2.883272
 30
0.0
  0
VERTEX
  8
0
  6
CONTINUOUS
 62
    80
  5
628
 10
342.700212
 20
2.87502
 30
0.0
  0
VERTEX
  8
0
  6
CONTINUOUS
 62
    80
  5
629
 10
342.633106
 20
2.867116
 30
0.0
  0
VERTEX
  8
0
  6
CONTINUOUS
 62
    80
  5
62A
 10
342.565962
 20
2.859573
 30
0.0
  0
VERTEX
  8
0
  6
CONTINUOUS
 62
    80
  5
62B
 10
342.498783
 20
2.852403
 30
0.0
  0
VERTEX
  8
0
  6
CONTINUOUS
 62
    80
  5
62C
 10
342.431568
 20
2.845619
 30
0.0
  0
VERTEX
  8
0
  6
CONTINUOUS
 62
    80
  5
62D
 10
342.364319
 20
2.839233
 30
0.0
  0
SEQEND
  8
0
  6
CONTINUOUS
 62
    80
  5
62E
  0
POLYLINE
  8
0
  6
CONTINUOUS
 62
    80
  5
33
 66
     1
 10
0.0
 20
0.0
 30
0.0
  0
VERTEX
  8
0
  6
CONTINUOUS
 62
    80
  5
62F
 10
343.926973
 20
4.714194
 30
0.0
  0
VERTEX
  8
0
  6
CONTINUOUS
 62
    80
  5
630
 10
343.928289
 20
4.710531
 30
0.0
  0
VERTEX
  8
0
  6
CONTINUOUS
 62
    80
  5
631
 10
343.929606
 20
4.706869
 30
0.0
  0
VERTEX
  8
0
  6
CONTINUOUS
 62
    80
  5
632
 10
343.930924
 20
4.703207
 30
0.0
  0
VERTEX
  8
0
  6
CONTINUOUS
 62
    80
  5
633
 10
343.932244
 20
4.699546
 30
0.0
  0
VERTEX
  8
0
  6
CONTINUOUS
 62
    80
  5
634
 10
343.933565
 20
4.695885
 30
0.0
  0
VERTEX
  8
0
  6
CONTINUOUS
 62
    80
  5
635
 10
343.934887
 20
4.692225
 30
0.0
  0
VERTEX
  8
0
  6
CONTINUOUS
 62
    80
  5
636
 10
343.93621
 20
4.688565
 30
0.0
  0
VERTEX
  8
0
  6
CONTINUOUS
 62
    80
  5
637
 10
343.937535
 20
4.684905
 30
0.0
  0
VERTEX
  8
0
  6
CONTINUOUS
 62
    80
  5
638
 10
343.938861
 20
4.681246
 30
0.0
  0
VERTEX
  8
0
  6
CONTINUOUS
 62
    80
  5
639
 10
343.940189
 20
4.677588
 30
0.0
  0
VERTEX
  8
0
  6
CONTINUOUS
 62
    80
  5
63A
 10
343.941517
 20
4.67393
 30
0.0
  0
VERTEX
  8
0
  6
CONTINUOUS
 62
    80
  5
63B
 10
343.942847
 20
4.670272
 30
0.0
  0
VERTEX
  8
0
  6
CONTINUOUS
 62
    80
  5
63C
 10
343.944178
 20
4.666615
 30
0.0
  0
VERTEX
  8
0
  6
CONTINUOUS
 62
    80
  5
63D
 10
343.945511
 20
4.662959
 30
0.0
  0
VERTEX
  8
0
  6
CONTINUOUS
 62
    80
  5
63E
 10
343.946845
 20
4.659302
 30
0.0
  0
VERTEX
  8
0
  6
CONTINUOUS
 62
    80
  5
63F
 10
343.94818
 20
4.655647
 30
0.0
  0
VERTEX
  8
0
  6
CONTINUOUS
 62
    80
  5
640
 10
344.002632
 20
4.509894
 30
0.0
  0
VERTEX
  8
0
  6
CONTINUOUS
 62
    80
  5
641
 10
344.059188
 20
4.364853
 30
0.0
  0
VERTEX
  8
0
  6
CONTINUOUS
 62
    80
  5
642
 10
344.11782
 20
4.220557
 30
0.0
  0
VERTEX
  8
0
  6
CONTINUOUS
 62
    80
  5
643
 10
344.178501
 20
4.07704
 30
0.0
  0
VERTEX
  8
0
  6
CONTINUOUS
 62
    80
  5
644
 10
344.241203
 20
3.934336
 30
0.0
  0
VERTEX
  8
0
  6
CONTINUOUS
 62
    80
  5
645
 10
344.305899
 20
3.792476
 30
0.0
  0
VERTEX
  8
0
  6
CONTINUOUS
 62
    80
  5
646
 10
344.37256
 20
3.651496
 30
0.0
  0
VERTEX
  8
0
  6
CONTINUOUS
 62
    80
  5
647
 10
344.44116
 20
3.511427
 30
0.0
  0
VERTEX
  8
0
  6
CONTINUOUS
 62
    80
  5
648
 10
344.511669
 20
3.372304
 30
0.0
  0
VERTEX
  8
0
  6
CONTINUOUS
 62
    80
  5
649
 10
344.584062
 20
3.23416
 30
0.0
  0
VERTEX
  8
0
  6
CONTINUOUS
 62
    80
  5
64A
 10
344.658309
 20
3.097028
 30
0.0
  0
VERTEX
  8
0
  6
CONTINUOUS
 62
    80
  5
64B
 10
344.734383
 20
2.960941
 30
0.0
  0
VERTEX
  8
0
  6
CONTINUOUS
 62
    80
  5
64C
 10
344.812257
 20
2.825933
 30
0.0
  0
VERTEX
  8
0
  6
CONTINUOUS
 62
    80
  5
64D
 10
344.891901
 20
2.692038
 30
0.0
  0
VERTEX
  8
0
  6
CONTINUOUS
 62
    80
  5
64E
 10
344.973289
 20
2.559287
 30
0.0
  0
VERTEX
  8
0
  6
CONTINUOUS
 62
    80
  5
64F
 10
345.056393
 20
2.427716
 30
0.0
  0
SEQEND
  8
0
  6
CONTINUOUS
 62
    80
  5
650
  0
POLYLINE
  8
0
  6
CONTINUOUS
 62
    80
  5
34
 66
     1
 10
0.0
 20
0.0
 30
0.0
  0
VERTEX
  8
0
  6
CONTINUOUS
 62
    80
  5
651
 10
343.864319
 20
4.625
 30
0.0
  0
VERTEX
  8
0
  6
CONTINUOUS
 62
    80
  5
652
 10
343.920288
 20
4.475248
 30
0.0
  0
VERTEX
  8
0
  6
CONTINUOUS
 62
    80
  5
653
 10
343.978456
 20
4.326252
 30
0.0
  0
VERTEX
  8
0
  6
CONTINUOUS
 62
    80
  5
654
 10
344.038793
 20
4.178047
 30
0.0
  0
VERTEX
  8
0
  6
CONTINUOUS
 62
    80
  5
655
 10
344.10127
 20
4.030668
 30
0.0
  0
VERTEX
  8
0
  6
CONTINUOUS
 62
    80
  5
656
 10
344.165857
 20
3.88415
 30
0.0
  0
VERTEX
  8
0
  6
CONTINUOUS
 62
    80
  5
657
 10
344.232525
 20
3.738527
 30
0.0
  0
VERTEX
  8
0
  6
CONTINUOUS
 62
    80
  5
658
 10
344.301245
 20
3.593835
 30
0.0
  0
VERTEX
  8
0
  6
CONTINUOUS
 62
    80
  5
659
 10
344.371986
 20
3.450107
 30
0.0
  0
VERTEX
  8
0
  6
CONTINUOUS
 62
    80
  5
65A
 10
344.44472
 20
3.307381
 30
0.0
  0
VERTEX
  8
0
  6
CONTINUOUS
 62
    80
  5
65B
 10
344.519417
 20
3.165689
 30
0.0
  0
VERTEX
  8
0
  6
CONTINUOUS
 62
    80
  5
65C
 10
344.596047
 20
3.025068
 30
0.0
  0
VERTEX
  8
0
  6
CONTINUOUS
 62
    80
  5
65D
 10
344.674582
 20
2.885551
 30
0.0
  0
VERTEX
  8
0
  6
CONTINUOUS
 62
    80
  5
65E
 10
344.754991
 20
2.747175
 30
0.0
  0
VERTEX
  8
0
  6
CONTINUOUS
 62
    80
  5
65F
 10
344.837245
 20
2.609973
 30
0.0
  0
VERTEX
  8
0
  6
CONTINUOUS
 62
    80
  5
660
 10
344.921315
 20
2.473981
 30
0.0
  0
VERTEX
  8
0
  6
CONTINUOUS
 62
    80
  5
661
 10
345.007172
 20
2.339233
 30
0.0
  0
SEQEND
  8
0
  6
CONTINUOUS
 62
    80
  5
662
  0
POLYLINE
  8
0
  6
CONTINUOUS
 62
    80
  5
35
 66
     1
 10
0.0
 20
0.0
 30
0.0
  0
VERTEX
  8
0
  6
CONTINUOUS
 62
    80
  5
663
 10
344.807714
 20
4.714227
 30
0.0
  0
VERTEX
  8
0
  6
CONTINUOUS
 62
    80
  5
664
 10
344.811564
 20
4.706172
 30
0.0
  0
VERTEX
  8
0
  6
CONTINUOUS
 62
    80
  5
665
 10
344.815418
 20
4.698121
 30
0.0
  0
VERTEX
  8
0
  6
CONTINUOUS
 62
    80
  5
666
 10
344.819277
 20
4.690073
 30
0.0
  0
VERTEX
  8
0
  6
CONTINUOUS
 62
    80
  5
667
 10
344.823142
 20
4.68203
 30
0.0
  0
VERTEX
  8
0
  6
CONTINUOUS
 62
    80
  5
668
 10
344.82701
 20
4.673991
 30
0.0
  0
VERTEX
  8
0
  6
CONTINUOUS
 62
    80
  5
669
 10
344.830884
 20
4.665955
 30
0.0
  0
VERTEX
  8
0
  6
CONTINUOUS
 62
    80
  5
66A
 10
344.834761
 20
4.657923
 30
0.0
  0
VERTEX
  8
0
  6
CONTINUOUS
 62
    80
  5
66B
 10
344.838643
 20
4.649894
 30
0.0
  0
VERTEX
  8
0
  6
CONTINUOUS
 62
    80
  5
66C
 10
344.842529
 20
4.641869
 30
0.0
  0
VERTEX
  8
0
  6
CONTINUOUS
 62
    80
  5
66D
 10
344.846418
 20
4.633848
 30
0.0
  0
VERTEX
  8
0
  6
CONTINUOUS
 62
    80
  5
66E
 10
344.850312
 20
4.62583
 30
0.0
  0
VERTEX
  8
0
  6
CONTINUOUS
 62
    80
  5
66F
 10
344.854208
 20
4.617815
 30
0.0
  0
VERTEX
  8
0
  6
CONTINUOUS
 62
    80
  5
670
 10
344.858109
 20
4.609803
 30
0.0
  0
VERTEX
  8
0
  6
CONTINUOUS
 62
    80
  5
671
 10
344.862012
 20
4.601795
 30
0.0
  0
VERTEX
  8
0
  6
CONTINUOUS
 62
    80
  5
672
 10
344.865919
 20
4.59379
 30
0.0
  0
VERTEX
  8
0
  6
CONTINUOUS
 62
    80
  5
673
 10
344.869828
 20
4.585788
 30
0.0
  0
VERTEX
  8
0
  6
CONTINUOUS
 62
    80
  5
674
 10
344.93884
 20
4.445975
 30
0.0
  0
VERTEX
  8
0
  6
CONTINUOUS
 62
    80
  5
675
 10
345.008965
 20
4.306665
 30
0.0
  0
VERTEX
  8
0
  6
CONTINUOUS
 62
    80
  5
676
 10
345.080228
 20
4.167892
 30
0.0
  0
VERTEX
  8
0
  6
CONTINUOUS
 62
    80
  5
677
 10
345.152652
 20
4.02969
 30
0.0
  0
VERTEX
  8
0
  6
CONTINUOUS
 62
    80
  5
678
 10
345.226261
 20
3.892093
 30
0.0
  0
VERTEX
  8
0
  6
CONTINUOUS
 62
    80
  5
679
 10
345.30108
 20
3.755135
 30
0.0
  0
VERTEX
  8
0
  6
CONTINUOUS
 62
    80
  5
67A
 10
345.377132
 20
3.618851
 30
0.0
  0
VERTEX
  8
0
  6
CONTINUOUS
 62
    80
  5
67B
 10
345.454442
 20
3.483274
 30
0.0
  0
VERTEX
  8
0
  6
CONTINUOUS
 62
    80
  5
67C
 10
345.533033
 20
3.348439
 30
0.0
  0
VERTEX
  8
0
  6
CONTINUOUS
 62
    80
  5
67D
 10
345.612931
 20
3.21438
 30
0.0
  0
VERTEX
  8
0
  6
CONTINUOUS
 62
    80
  5
67E
 10
345.694158
 20
3.08113
 30
0.0
  0
VERTEX
  8
0
  6
CONTINUOUS
 62
    80
  5
67F
 10
345.776739
 20
2.948725
 30
0.0
  0
VERTEX
  8
0
  6
CONTINUOUS
 62
    80
  5
680
 10
345.860699
 20
2.817199
 30
0.0
  0
VERTEX
  8
0
  6
CONTINUOUS
 62
    80
  5
681
 10
345.94606
 20
2.686585
 30
0.0
  0
VERTEX
  8
0
  6
CONTINUOUS
 62
    80
  5
682
 10
346.032848
 20
2.556919
 30
0.0
  0
VERTEX
  8
0
  6
CONTINUOUS
 62
    80
  5
683
 10
346.121086
 20
2.428234
 30
0.0
  0
SEQEND
  8
0
  6
CONTINUOUS
 62
    80
  5
684
  0
POLYLINE
  8
0
  6
CONTINUOUS
 62
    80
  5
36
 66
     1
 10
0.0
 20
0.0
 30
0.0
  0
VERTEX
  8
0
  6
CONTINUOUS
 62
    80
  5
685
 10
344.950043
 20
4.625
 30
0.0
  0
VERTEX
  8
0
  6
CONTINUOUS
 62
    80
  5
686
 10
345.023529
 20
4.476221
 30
0.0
  0
VERTEX
  8
0
  6
CONTINUOUS
 62
    80
  5
687
 10
345.098274
 20
4.328039
 30
0.0
  0
VERTEX
  8
0
  6
CONTINUOUS
 62
    80
  5
688
 10
345.174306
 20
4.180493
 30
0.0
  0
VERTEX
  8
0
  6
CONTINUOUS
 62
    80
  5
689
 10
345.251653
 20
4.033626
 30
0.0
  0
VERTEX
  8
0
  6
CONTINUOUS
 62
    80
  5
68A
 10
345.330344
 20
3.887478
 30
0.0
  0
VERTEX
  8
0
  6
CONTINUOUS
 62
    80
  5
68B
 10
345.410408
 20
3.742093
 30
0.0
  0
VERTEX
  8
0
  6
CONTINUOUS
 62
    80
  5
68C
 10
345.491873
 20
3.59751
 30
0.0
  0
VERTEX
  8
0
  6
CONTINUOUS
 62
    80
  5
68D
 10
345.574769
 20
3.453771
 30
0.0
  0
VERTEX
  8
0
  6
CONTINUOUS
 62
    80
  5
68E
 10
345.659124
 20
3.310919
 30
0.0
  0
VERTEX
  8
0
  6
CONTINUOUS
 62
    80
  5
68F
 10
345.744967
 20
3.168993
 30
0.0
  0
VERTEX
  8
0
  6
CONTINUOUS
 62
    80
  5
690
 10
345.832326
 20
3.028036
 30
0.0
  0
VERTEX
  8
0
  6
CONTINUOUS
 62
    80
  5
691
 10
345.921231
 20
2.88809
 30
0.0
  0
VERTEX
  8
0
  6
CONTINUOUS
 62
    80
  5
692
 10
346.01171
 20
2.749195
 30
0.0
  0
VERTEX
  8
0
  6
CONTINUOUS
 62
    80
  5
693
 10
346.103791
 20
2.611393
 30
0.0
  0
VERTEX
  8
0
  6
CONTINUOUS
 62
    80
  5
694
 10
346.197504
 20
2.474725
 30
0.0
  0
VERTEX
  8
0
  6
CONTINUOUS
 62
    80
  5
695
 10
346.292877
 20
2.339233
 30
0.0
  0
SEQEND
  8
0
  6
CONTINUOUS
 62
    80
  5
696
  0
POLYLINE
  8
0
  6
CONTINUOUS
 62
    80
  5
37
 66
     1
 10
0.0
 20
0.0
 30
0.0
  0
VERTEX
  8
0
  6
CONTINUOUS
 62
    80
  5
697
 10
344.36428
 20
5.963025
 30
0.0
  0
VERTEX
  8
0
  6
CONTINUOUS
 62
    80
  5
698
 10
344.374913
 20
5.916904
 30
0.0
  0
VERTEX
  8
0
  6
CONTINUOUS
 62
    80
  5
699
 10
344.385909
 20
5.870842
 30
0.0
  0
VERTEX
  8
0
  6
CONTINUOUS
 62
    80
  5
69A
 10
344.397271
 20
5.824848
 30
0.0
  0
VERTEX
  8
0
  6
CONTINUOUS
 62
    80
  5
69B
 10
344.409005
 20
5.778928
 30
0.0
  0
VERTEX
  8
0
  6
CONTINUOUS
 62
    80
  5
69C
 10
344.421117
 20
5.733089
 30
0.0
  0
VERTEX
  8
0
  6
CONTINUOUS
 62
    80
  5
69D
 10
344.433612
 20
5.687338
 30
0.0
  0
VERTEX
  8
0
  6
CONTINUOUS
 62
    80
  5
69E
 10
344.446496
 20
5.641681
 30
0.0
  0
VERTEX
  8
0
  6
CONTINUOUS
 62
    80
  5
69F
 10
344.459773
 20
5.596125
 30
0.0
  0
VERTEX
  8
0
  6
CONTINUOUS
 62
    80
  5
6A0
 10
344.47345
 20
5.550678
 30
0.0
  0
VERTEX
  8
0
  6
CONTINUOUS
 62
    80
  5
6A1
 10
344.487532
 20
5.505346
 30
0.0
  0
VERTEX
  8
0
  6
CONTINUOUS
 62
    80
  5
6A2
 10
344.502023
 20
5.460136
 30
0.0
  0
VERTEX
  8
0
  6
CONTINUOUS
 62
    80
  5
6A3
 10
344.51693
 20
5.415055
 30
0.0
  0
VERTEX
  8
0
  6
CONTINUOUS
 62
    80
  5
6A4
 10
344.532258
 20
5.37011
 30
0.0
  0
VERTEX
  8
0
  6
CONTINUOUS
 62
    80
  5
6A5
 10
344.548013
 20
5.325308
 30
0.0
  0
VERTEX
  8
0
  6
CONTINUOUS
 62
    80
  5
6A6
 10
344.564199
 20
5.280656
 30
0.0
  0
VERTEX
  8
0
  6
CONTINUOUS
 62
    80
  5
6A7
 10
344.580823
 20
5.236161
 30
0.0
  0
VERTEX
  8
0
  6
CONTINUOUS
 62
    80
  5
6A8
 10
344.58219
 20
5.232562
 30
0.0
  0
VERTEX
  8
0
  6
CONTINUOUS
 62
    80
  5
6A9
 10
344.583559
 20
5.228964
 30
0.0
  0
VERTEX
  8
0
  6
CONTINUOUS
 62
    80
  5
6AA
 10
344.584932
 20
5.225367
 30
0.0
  0
VERTEX
  8
0
  6
CONTINUOUS
 62
    80
  5
6AB
 10
344.586307
 20
5.221772
 30
0.0
  0
VERTEX
  8
0
  6
CONTINUOUS
 62
    80
  5
6AC
 10
344.587684
 20
5.218178
 30
0.0
  0
VERTEX
  8
0
  6
CONTINUOUS
 62
    80
  5
6AD
 10
344.589065
 20
5.214586
 30
0.0
  0
VERTEX
  8
0
  6
CONTINUOUS
 62
    80
  5
6AE
 10
344.590448
 20
5.210995
 30
0.0
  0
VERTEX
  8
0
  6
CONTINUOUS
 62
    80
  5
6AF
 10
344.591834
 20
5.207405
 30
0.0
  0
VERTEX
  8
0
  6
CONTINUOUS
 62
    80
  5
6B0
 10
344.593222
 20
5.203817
 30
0.0
  0
VERTEX
  8
0
  6
CONTINUOUS
 62
    80
  5
6B1
 10
344.594613
 20
5.20023
 30
0.0
  0
VERTEX
  8
0
  6
CONTINUOUS
 62
    80
  5
6B2
 10
344.596007
 20
5.196645
 30
0.0
  0
VERTEX
  8
0
  6
CONTINUOUS
 62
    80
  5
6B3
 10
344.597404
 20
5.193061
 30
0.0
  0
VERTEX
  8
0
  6
CONTINUOUS
 62
    80
  5
6B4
 10
344.598803
 20
5.189478
 30
0.0
  0
VERTEX
  8
0
  6
CONTINUOUS
 62
    80
  5
6B5
 10
344.600204
 20
5.185897
 30
0.0
  0
VERTEX
  8
0
  6
CONTINUOUS
 62
    80
  5
6B6
 10
344.601609
 20
5.182318
 30
0.0
  0
VERTEX
  8
0
  6
CONTINUOUS
 62
    80
  5
6B7
 10
344.603016
 20
5.178739
 30
0.0
  0
SEQEND
  8
0
  6
CONTINUOUS
 62
    80
  5
6B8
  0
POLYLINE
  8
0
  6
CONTINUOUS
 62
    80
  5
38
 66
     1
 10
0.0
 20
0.0
 30
0.0
  0
VERTEX
  8
0
  6
CONTINUOUS
 62
    80
  5
6B9
 10
344.43576
 20
6.053528
 30
0.0
  0
VERTEX
  8
0
  6
CONTINUOUS
 62
    80
  5
6BA
 10
344.446685
 20
6.003554
 30
0.0
  0
VERTEX
  8
0
  6
CONTINUOUS
 62
    80
  5
6BB
 10
344.458026
 20
5.953654
 30
0.0
  0
VERTEX
  8
0
  6
CONTINUOUS
 62
    80
  5
6BC
 10
344.46979
 20
5.903836
 30
0.0
  0
VERTEX
  8
0
  6
CONTINUOUS
 62
    80
  5
6BD
 10
344.481985
 20
5.854109
 30
0.0
  0
VERTEX
  8
0
  6
CONTINUOUS
 62
    80
  5
6BE
 10
344.494616
 20
5.804483
 30
0.0
  0
VERTEX
  8
0
  6
CONTINUOUS
 62
    80
  5
6BF
 10
344.507691
 20
5.754966
 30
0.0
  0
VERTEX
  8
0
  6
CONTINUOUS
 62
    80
  5
6C0
 10
344.521217
 20
5.705568
 30
0.0
  0
VERTEX
  8
0
  6
CONTINUOUS
 62
    80
  5
6C1
 10
344.535199
 20
5.656298
 30
0.0
  0
VERTEX
  8
0
  6
CONTINUOUS
 62
    80
  5
6C2
 10
344.549645
 20
5.607165
 30
0.0
  0
VERTEX
  8
0
  6
CONTINUOUS
 62
    80
  5
6C3
 10
344.564561
 20
5.558177
 30
0.0
  0
VERTEX
  8
0
  6
CONTINUOUS
 62
    80
  5
6C4
 10
344.579954
 20
5.509344
 30
0.0
  0
VERTEX
  8
0
  6
CONTINUOUS
 62
    80
  5
6C5
 10
344.59583
 20
5.460676
 30
0.0
  0
VERTEX
  8
0
  6
CONTINUOUS
 62
    80
  5
6C6
 10
344.612197
 20
5.41218
 30
0.0
  0
VERTEX
  8
0
  6
CONTINUOUS
 62
    80
  5
6C7
 10
344.629061
 20
5.363866
 30
0.0
  0
VERTEX
  8
0
  6
CONTINUOUS
 62
    80
  5
6C8
 10
344.646429
 20
5.315744
 30
0.0
  0
VERTEX
  8
0
  6
CONTINUOUS
 62
    80
  5
6C9
 10
344.664307
 20
5.267822
 30
0.0
  0
SEQEND
  8
0
  6
CONTINUOUS
 62
    80
  5
6CA
  0
POLYLINE
  8
0
  6
CONTINUOUS
 62
    80
  5
39
 66
     1
 10
0.0
 20
0.0
 30
0.0
  0
VERTEX
  8
0
  6
CONTINUOUS
 62
    80
  5
6CB
 10
343.549764
 20
5.963467
 30
0.0
  0
VERTEX
  8
0
  6
CONTINUOUS
 62
    80
  5
6CC
 10
343.560355
 20
5.921355
 30
0.0
  0
VERTEX
  8
0
  6
CONTINUOUS
 62
    80
  5
6CD
 10
343.571085
 20
5.879276
 30
0.0
  0
VERTEX
  8
0
  6
CONTINUOUS
 62
    80
  5
6CE
 10
343.581952
 20
5.83723
 30
0.0
  0
VERTEX
  8
0
  6
CONTINUOUS
 62
    80
  5
6CF
 10
343.592957
 20
5.795218
 30
0.0
  0
VERTEX
  8
0
  6
CONTINUOUS
 62
    80
  5
6D0
 10
343.604098
 20
5.753239
 30
0.0
  0
VERTEX
  8
0
  6
CONTINUOUS
 62
    80
  5
6D1
 10
343.615375
 20
5.711295
 30
0.0
  0
VERTEX
  8
0
  6
CONTINUOUS
 62
    80
  5
6D2
 10
343.626787
 20
5.669386
 30
0.0
  0
VERTEX
  8
0
  6
CONTINUOUS
 62
    80
  5
6D3
 10
343.638333
 20
5.627512
 30
0.0
  0
VERTEX
  8
0
  6
CONTINUOUS
 62
    80
  5
6D4
 10
343.650012
 20
5.585673
 30
0.0
  0
VERTEX
  8
0
  6
CONTINUOUS
 62
    80
  5
6D5
 10
343.661824
 20
5.54387
 30
0.0
  0
VERTEX
  8
0
  6
CONTINUOUS
 62
    80
  5
6D6
 10
343.673768
 20
5.502104
 30
0.0
  0
VERTEX
  8
0
  6
CONTINUOUS
 62
    80
  5
6D7
 10
343.685843
 20
5.460375
 30
0.0
  0
VERTEX
  8
0
  6
CONTINUOUS
 62
    80
  5
6D8
 10
343.698048
 20
5.418682
 30
0.0
  0
VERTEX
  8
0
  6
CONTINUOUS
 62
    80
  5
6D9
 10
343.710383
 20
5.377027
 30
0.0
  0
VERTEX
  8
0
  6
CONTINUOUS
 62
    80
  5
6DA
 10
343.722846
 20
5.33541
 30
0.0
  0
VERTEX
  8
0
  6
CONTINUOUS
 62
    80
  5
6DB
 10
343.735438
 20
5.293832
 30
0.0
  0
VERTEX
  8
0
  6
CONTINUOUS
 62
    80
  5
6DC
 10
343.737643
 20
5.286598
 30
0.0
  0
VERTEX
  8
0
  6
CONTINUOUS
 62
    80
  5
6DD
 10
343.739852
 20
5.279365
 30
0.0
  0
VERTEX
  8
0
  6
CONTINUOUS
 62
    80
  5
6DE
 10
343.742064
 20
5.272134
 30
0.0
  0
VERTEX
  8
0
  6
CONTINUOUS
 62
    80
  5
6DF
 10
343.744281
 20
5.264904
 30
0.0
  0
VERTEX
  8
0
  6
CONTINUOUS
 62
    80
  5
6E0
 10
343.746501
 20
5.257675
 30
0.0
  0
VERTEX
  8
0
  6
CONTINUOUS
 62
    80
  5
6E1
 10
343.748725
 20
5.250448
 30
0.0
  0
VERTEX
  8
0
  6
CONTINUOUS
 62
    80
  5
6E2
 10
343.750953
 20
5.243222
 30
0.0
  0
VERTEX
  8
0
  6
CONTINUOUS
 62
    80
  5
6E3
 10
343.753185
 20
5.235998
 30
0.0
  0
VERTEX
  8
0
  6
CONTINUOUS
 62
    80
  5
6E4
 10
343.755421
 20
5.228775
 30
0.0
  0
VERTEX
  8
0
  6
CONTINUOUS
 62
    80
  5
6E5
 10
343.757661
 20
5.221554
 30
0.0
  0
VERTEX
  8
0
  6
CONTINUOUS
 62
    80
  5
6E6
 10
343.759904
 20
5.214334
 30
0.0
  0
VERTEX
  8
0
  6
CONTINUOUS
 62
    80
  5
6E7
 10
343.762152
 20
5.207115
 30
0.0
  0
VERTEX
  8
0
  6
CONTINUOUS
 62
    80
  5
6E8
 10
343.764404
 20
5.199898
 30
0.0
  0
VERTEX
  8
0
  6
CONTINUOUS
 62
    80
  5
6E9
 10
343.766659
 20
5.192683
 30
0.0
  0
VERTEX
  8
0
  6
CONTINUOUS
 62
    80
  5
6EA
 10
343.768919
 20
5.185469
 30
0.0
  0
VERTEX
  8
0
  6
CONTINUOUS
 62
    80
  5
6EB
 10
343.771182
 20
5.178256
 30
0.0
  0
SEQEND
  8
0
  6
CONTINUOUS
 62
    80
  5
6EC
  0
POLYLINE
  8
0
  6
CONTINUOUS
 62
    80
  5
3A
 66
     1
 10
0.0
 20
0.0
 30
0.0
  0
VERTEX
  8
0
  6
CONTINUOUS
 62
    80
  5
6ED
 10
343.43576
 20
6.053528
 30
0.0
  0
VERTEX
  8
0
  6
CONTINUOUS
 62
    80
  5
6EE
 10
343.447758
 20
6.004061
 30
0.0
  0
VERTEX
  8
0
  6
CONTINUOUS
 62
    80
  5
6EF
 10
343.459948
 20
5.954638
 30
0.0
  0
VERTEX
  8
0
  6
CONTINUOUS
 62
    80
  5
6F0
 10
343.472328
 20
5.905262
 30
0.0
  0
VERTEX
  8
0
  6
CONTINUOUS
 62
    80
  5
6F1
 10
343.484897
 20
5.855932
 30
0.0
  0
VERTEX
  8
0
  6
CONTINUOUS
 62
    80
  5
6F2
 10
343.497653
 20
5.80665
 30
0.0
  0
VERTEX
  8
0
  6
CONTINUOUS
 62
    80
  5
6F3
 10
343.510597
 20
5.757414
 30
0.0
  0
VERTEX
  8
0
  6
CONTINUOUS
 62
    80
  5
6F4
 10
343.523725
 20
5.708228
 30
0.0
  0
VERTEX
  8
0
  6
CONTINUOUS
 62
    80
  5
6F5
 10
343.537038
 20
5.65909
 30
0.0
  0
VERTEX
  8
0
  6
CONTINUOUS
 62
    80
  5
6F6
 10
343.550534
 20
5.610001
 30
0.0
  0
VERTEX
  8
0
  6
CONTINUOUS
 62
    80
  5
6F7
 10
343.564212
 20
5.560963
 30
0.0
  0
VERTEX
  8
0
  6
CONTINUOUS
 62
    80
  5
6F8
 10
343.57807
 20
5.511976
 30
0.0
  0
VERTEX
  8
0
  6
CONTINUOUS
 62
    80
  5
6F9
 10
343.592107
 20
5.46304
 30
0.0
  0
VERTEX
  8
0
  6
CONTINUOUS
 62
    80
  5
6FA
 10
343.606322
 20
5.414156
 30
0.0
  0
VERTEX
  8
0
  6
CONTINUOUS
 62
    80
  5
6FB
 10
343.620715
 20
5.365324
 30
0.0
  0
VERTEX
  8
0
  6
CONTINUOUS
 62
    80
  5
6FC
 10
343.635282
 20
5.316546
 30
0.0
  0
VERTEX
  8
0
  6
CONTINUOUS
 62
    80
  5
6FD
 10
343.650024
 20
5.267822
 30
0.0
  0
SEQEND
  8
0
  6
CONTINUOUS
 62
    80
  5
6FE
  0
POLYLINE
  8
0
  6
CONTINUOUS
 62
    80
  5
3B
 66
     1
 10
0.0
 20
0.0
 30
0.0
  0
VERTEX
  8
0
  6
CONTINUOUS
 62
    80
  5
6FF
 10
336.533638
 20
3.53511
 30
0.0
  0
VERTEX
  8
0
  6
CONTINUOUS
 62
    80
  5
700
 10
336.518248
 20
3.512719
 30
0.0
  0
VERTEX
  8
0
  6
CONTINUOUS
 62
    80
  5
701
 10
336.50279
 20
3.490374
 30
0.0
  0
VERTEX
  8
0
  6
CONTINUOUS
 62
    80
  5
702
 10
336.487263
 20
3.468076
 30
0.0
  0
VERTEX
  8
0
  6
CONTINUOUS
 62
    80
  5
703
 10
336.471668
 20
3.445824
 30
0.0
  0
VERTEX
  8
0
  6
CONTINUOUS
 62
    80
  5
704
 10
336.456005
 20
3.42362
 30
0.0
  0
VERTEX
  8
0
  6
CONTINUOUS
 62
    80
  5
705
 10
336.440275
 20
3.401462
 30
0.0
  0
VERTEX
  8
0
  6
CONTINUOUS
 62
    80
  5
706
 10
336.424476
 20
3.379351
 30
0.0
  0
VERTEX
  8
0
  6
CONTINUOUS
 62
    80
  5
707
 10
336.408611
 20
3.357288
 30
0.0
  0
VERTEX
  8
0
  6
CONTINUOUS
 62
    80
  5
708
 10
336.392678
 20
3.335272
 30
0.0
  0
VERTEX
  8
0
  6
CONTINUOUS
 62
    80
  5
709
 10
336.376678
 20
3.313305
 30
0.0
  0
VERTEX
  8
0
  6
CONTINUOUS
 62
    80
  5
70A
 10
336.360612
 20
3.291385
 30
0.0
  0
VERTEX
  8
0
  6
CONTINUOUS
 62
    80
  5
70B
 10
336.344479
 20
3.269514
 30
0.0
  0
VERTEX
  8
0
  6
CONTINUOUS
 62
    80
  5
70C
 10
336.32828
 20
3.247692
 30
0.0
  0
VERTEX
  8
0
  6
CONTINUOUS
 62
    80
  5
70D
 10
336.312015
 20
3.225918
 30
0.0
  0
VERTEX
  8
0
  6
CONTINUOUS
 62
    80
  5
70E
 10
336.295685
 20
3.204193
 30
0.0
  0
VERTEX
  8
0
  6
CONTINUOUS
 62
    80
  5
70F
 10
336.279288
 20
3.182518
 30
0.0
  0
SEQEND
  8
0
  6
CONTINUOUS
 62
    80
  5
710
  0
POLYLINE
  8
0
  6
CONTINUOUS
 62
    80
  5
3C
 66
     1
 10
0.0
 20
0.0
 30
0.0
  0
VERTEX
  8
0
  6
CONTINUOUS
 62
    80
  5
711
 10
337.221466
 20
4.196411
 30
0.0
  0
VERTEX
  8
0
  6
CONTINUOUS
 62
    80
  5
712
 10
337.194878
 20
4.148004
 30
0.0
  0
VERTEX
  8
0
  6
CONTINUOUS
 62
    80
  5
713
 10
337.168002
 20
4.099753
 30
0.0
  0
VERTEX
  8
0
  6
CONTINUOUS
 62
    80
  5
714
 10
337.140838
 20
4.05166
 30
0.0
  0
VERTEX
  8
0
  6
CONTINUOUS
 62
    80
  5
715
 10
337.113388
 20
4.003727
 30
0.0
  0
VERTEX
  8
0
  6
CONTINUOUS
 62
    80
  5
716
 10
337.085651
 20
3.955955
 30
0.0
  0
VERTEX
  8
0
  6
CONTINUOUS
 62
    80
  5
717
 10
337.057629
 20
3.908347
 30
0.0
  0
VERTEX
  8
0
  6
CONTINUOUS
 62
    80
  5
718
 10
337.029322
 20
3.860904
 30
0.0
  0
VERTEX
  8
0
  6
CONTINUOUS
 62
    80
  5
719
 10
337.000731
 20
3.81363
 30
0.0
  0
VERTEX
  8
0
  6
CONTINUOUS
 62
    80
  5
71A
 10
336.971857
 20
3.766525
 30
0.0
  0
VERTEX
  8
0
  6
CONTINUOUS
 62
    80
  5
71B
 10
336.942701
 20
3.719592
 30
0.0
  0
VERTEX
  8
0
  6
CONTINUOUS
 62
    80
  5
71C
 10
336.913263
 20
3.672832
 30
0.0
  0
VERTEX
  8
0
  6
CONTINUOUS
 62
    80
  5
71D
 10
336.883544
 20
3.626249
 30
0.0
  0
VERTEX
  8
0
  6
CONTINUOUS
 62
    80
  5
71E
 10
336.853544
 20
3.579843
 30
0.0
  0
VERTEX
  8
0
  6
CONTINUOUS
 62
    80
  5
71F
 10
336.823265
 20
3.533616
 30
0.0
  0
VERTEX
  8
0
  6
CONTINUOUS
 62
    80
  5
720
 10
336.792707
 20
3.487572
 30
0.0
  0
VERTEX
  8
0
  6
CONTINUOUS
 62
    80
  5
721
 10
336.761871
 20
3.441711
 30
0.0
  0
VERTEX
  8
0
  6
CONTINUOUS
 62
    80
  5
722
 10
336.722367
 20
3.383818
 30
0.0
  0
VERTEX
  8
0
  6
CONTINUOUS
 62
    80
  5
723
 10
336.682418
 20
3.326227
 30
0.0
  0
VERTEX
  8
0
  6
CONTINUOUS
 62
    80
  5
724
 10
336.64203
 20
3.26894
 30
0.0
  0
VERTEX
  8
0
  6
CONTINUOUS
 62
    80
  5
725
 10
336.601206
 20
3.211961
 30
0.0
  0
VERTEX
  8
0
  6
CONTINUOUS
 62
    80
  5
726
 10
336.559949
 20
3.155293
 30
0.0
  0
VERTEX
  8
0
  6
CONTINUOUS
 62
    80
  5
727
 10
336.518263
 20
3.098942
 30
0.0
  0
VERTEX
  8
0
  6
CONTINUOUS
 62
    80
  5
728
 10
336.476151
 20
3.042908
 30
0.0
  0
VERTEX
  8
0
  6
CONTINUOUS
 62
    80
  5
729
 10
336.433618
 20
2.987197
 30
0.0
  0
VERTEX
  8
0
  6
CONTINUOUS
 62
    80
  5
72A
 10
336.390665
 20
2.931812
 30
0.0
  0
VERTEX
  8
0
  6
CONTINUOUS
 62
    80
  5
72B
 10
336.347298
 20
2.876756
 30
0.0
  0
VERTEX
  8
0
  6
CONTINUOUS
 62
    80
  5
72C
 10
336.30352
 20
2.822032
 30
0.0
  0
VERTEX
  8
0
  6
CONTINUOUS
 62
    80
  5
72D
 10
336.259334
 20
2.767645
 30
0.0
  0
VERTEX
  8
0
  6
CONTINUOUS
 62
    80
  5
72E
 10
336.214743
 20
2.713597
 30
0.0
  0
VERTEX
  8
0
  6
CONTINUOUS
 62
    80
  5
72F
 10
336.169752
 20
2.659893
 30
0.0
  0
VERTEX
  8
0
  6
CONTINUOUS
 62
    80
  5
730
 10
336.124364
 20
2.606535
 30
0.0
  0
VERTEX
  8
0
  6
CONTINUOUS
 62
    80
  5
731
 10
336.078583
 20
2.553528
 30
0.0
  0
SEQEND
  8
0
  6
CONTINUOUS
 62
    80
  5
732
  0
INSERT
  8
0
  6
BYBLOCK
 62
    80
  5
4F
  2
*X1
 10
0.0
 20
0.0
 30
0.0
  0
SOLID
  8
0
  6
CONTINUOUS
 62
    80
  5
50
 10
352.678589
 20
5.910706
 30
0.0
 11
355.12146
 21
5.910706
 31
0.0
 12
352.678589
 22
5.839233
 32
0.0
 13
355.12146
 23
5.839233
 33
0.0
  0
INSERT
  8
0
  6
BYBLOCK
 62
    80
  5
64
  2
*X2
 10
0.0
 20
0.0
 30
0.0
  0
INSERT
  8
0
  6
BYBLOCK
 62
    80
  5
6A
  2
*X3
 10
0.0
 20
0.0
 30
0.0
  0
INSERT
  8
0
  6
BYBLOCK
 62
    80
  5
88
  2
*X4
 10
0.0
 20
0.0
 30
0.0
  0
SOLID
  8
0
  6
CONTINUOUS
 62
    80
  5
89
 10
347.807159
 20
4.553528
 30
0.0
 11
350.807159
 21
4.553528
 31
0.0
 12
347.807159
 22
4.482117
 32
0.0
 13
350.807159
 23
4.482117
 33
0.0
  0
INSERT
  8
0
  6
BYBLOCK
 62
    80
  5
9B
  2
*X5
 10
0.0
 20
0.0
 30
0.0
  0
INSERT
  8
0
  6
BYBLOCK
 62
    80
  5
AB
  2
*X6
 10
0.0
 20
0.0
 30
0.0
  0
INSERT
  8
0
  6
BYBLOCK
 62
    80
  5
B1
  2
*X7
 10
0.0
 20
0.0
 30
0.0
  0
INSERT
  8
0
  6
BYBLOCK
 62
    80
  5
C7
  2
*X8
 10
0.0
 20
0.0
 30
0.0
  0
INSERT
  8
0
  6
BYBLOCK
 62
    80
  5
E3
  2
*X9
 10
0.0
 20
0.0
 30
0.0
  0
INSERT
  8
0
  6
BYBLOCK
 62
    80
  5
F7
  2
*X10
 10
0.0
 20
0.0
 30
0.0
  0
INSERT
  8
0
  6
BYBLOCK
 62
    80
  5
FD
  2
*X11
 10
0.0
 20
0.0
 30
0.0
  0
INSERT
  8
0
  6
BYBLOCK
 62
    80
  5
108
  2
*X12
 10
0.0
 20
0.0
 30
0.0
  0
SOLID
  8
0
  6
CONTINUOUS
 62
    80
  5
109
 10
330.650024
 20
4.571411
 30
0.0
 11
331.507172
 21
4.571411
 31
0.0
 12
330.650024
 22
2.339233
 32
0.0
 13
331.507172
 23
2.339233
 33
0.0
  0
INSERT
  8
0
  6
BYBLOCK
 62
    80
  5
10F
  2
*X13
 10
0.0
 20
0.0
 30
0.0
  0
SOLID
  8
0
  6
CONTINUOUS
 62
    80
  5
110
 10
332.255646
 20
5.285645
 30
0.0
 11
332.633636
 21
5.285645
 31
0.0
 12
332.023529
 22
4.821411
 32
0.0
 13
332.40152
 23
4.821411
 33
0.0
  0
SOLID
  8
0
  6
CONTINUOUS
 62
    80
  5
111
 10
329.452148
 20
5.285645
 30
0.0
 11
329.830109
 21
5.285645
 31
0.0
 12
329.684265
 22
4.821411
 32
0.0
 13
330.062225
 23
4.821411
 33
0.0
  0
SOLID
  8
0
  6
CONTINUOUS
 62
    80
  5
112
 10
332.729675
 20
5.839233
 30
0.0
 11
332.911926
 21
5.839233
 31
0.0
 12
332.430695
 22
5.535645
 32
0.0
 13
332.612946
 23
5.535645
 33
0.0
  0
SOLID
  8
0
  6
CONTINUOUS
 62
    80
  5
113
 10
331.650024
 20
5.839233
 30
0.0
 11
332.007172
 21
5.839233
 31
0.0
 12
331.650024
 22
5.535645
 32
0.0
 13
332.007172
 23
5.535645
 33
0.0
  0
SOLID
  8
0
  6
CONTINUOUS
 62
    80
  5
114
 10
330.078583
 20
5.839233
 30
0.0
 11
330.43573
 21
5.839233
 31
0.0
 12
330.078583
 22
5.535645
 32
0.0
 13
330.43573
 23
5.535645
 33
0.0
  0
SOLID
  8
0
  6
CONTINUOUS
 62
    80
  5
115
 10
329.173828
 20
5.839233
 30
0.0
 11
329.356079
 21
5.839233
 31
0.0
 12
329.472778
 22
5.535645
 32
0.0
 13
329.65506
 23
5.535645
 33
0.0
  0
INSERT
  8
0
  6
BYBLOCK
 62
    80
  5
134
  2
*X14
 10
0.0
 20
0.0
 30
0.0
  0
INSERT
  8
0
  6
BYBLOCK
 62
    80
  5
159
  2
*X15
 10
0.0
 20
0.0
 30
0.0
  0
SOLID
  8
0
  6
CONTINUOUS
 62
    80
  5
15A
 10
305.507385
 20
4.268005
 30
0.0
 11
308.935791
 21
4.268005
 31
0.0
 12
305.507385
 22
3.767761
 32
0.0
 13
308.935791
 23
3.767761
 33
0.0
  0
INSERT
  8
0
  6
BYBLOCK
 62
    80
  5
17B
  2
*X16
 10
0.0
 20
0.0
 30
0.0
  0
INSERT
  8
0
  6
BYBLOCK
 62
    80
  5
180
  2
*X17
 10
0.0
 20
0.0
 30
0.0
  0
SOLID
  8
0
  6
CONTINUOUS
 62
    80
  5
181
 10
314.235687
 20
4.064331
 30
0.0
 11
314.721527
 21
4.064331
 31
0.0
 12
314.235687
 22
3.114258
 32
0.0
 13
314.721527
 23
3.114258
 33
0.0
  0
INSERT
  8
0
  6
BYBLOCK
 62
    80
  5
18B
  2
*X18
 10
0.0
 20
0.0
 30
0.0
  0
SOLID
  8
0
  6
CONTINUOUS
 62
    80
  5
18C
 10
309.93573
 20
4.064331
 30
0.0
 11
310.421509
 21
4.064331
 31
0.0
 12
309.93573
 22
3.114258
 32
0.0
 13
310.421509
 23
3.114258
 33
0.0
  0
SOLID
  8
0
  6
CONTINUOUS
 62
    80
  5
18D
 10
314.578491
 20
5.357117
 30
0.0
 11
315.078705
 21
5.357117
 31
0.0
 12
314.578491
 22
4.767761
 32
0.0
 13
315.078705
 23
4.767761
 33
0.0
  0
SOLID
  8
0
  6
CONTINUOUS
 62
    80
  5
18E
 10
311.864319
 20
5.857117
 30
0.0
 11
312.792877
 21
5.857117
 31
0.0
 12
311.864319
 22
4.767761
 32
0.0
 13
312.792877
 23
4.767761
 33
0.0
  0
SOLID
  8
0
  6
CONTINUOUS
 62
    80
  5
18F
 10
309.578644
 20
5.357117
 30
0.0
 11
310.078705
 21
5.357117
 31
0.0
 12
309.578644
 22
4.767761
 32
0.0
 13
310.078705
 23
4.767761
 33
0.0
  0
INSERT
  8
0
  6
BYBLOCK
 62
    80
  5
1AF
  2
*X19
 10
0.0
 20
0.0
 30
0.0
  0
TEXT
  8
0
  6
CONTINUOUS
 62
     3
  5
1B0
 10
228.392361
 20
12.875
 30
0.0
 40
2.5
  1
設計日
 41
0.791667
  7
MX_NOTE_STANDARD
 11
228.392361
 21
14.125
 31
0.0
 73
     2
  0
TEXT
  8
0
  6
CONTINUOUS
 62
     3
  5
1B1
 10
228.392361
 20
2.375
 30
0.0
 40
2.5
  1
設計者
 41
0.791667
  7
MX_NOTE_STANDARD
 11
228.392361
 21
3.625
 31
0.0
 73
     2
  0
TEXT
  8
0
  6
CONTINUOUS
 62
     3
  5
1B2
 10
207.625319
 20
2.625
 30
0.0
 40
2.0
  1
DESIGNED BY
 41
0.817921
  7
MX_NOTE_STANDARD
 11
207.625319
 21
3.625
 31
0.0
 73
     2
  0
TEXT
  8
0
  6
CONTINUOUS
 62
     3
  5
1B3
 10
207.625319
 20
13.125
 30
0.0
 40
2.0
  1
DESIGN DATE
 41
0.817921
  7
MX_NOTE_STANDARD
 11
207.625319
 21
14.125
 31
0.0
 73
     2
  0
TEXT
  8
0
  6
CONTINUOUS
 62
     3
  5
1B4
 10
258.667374
 20
27.440311
 30
0.0
 40
2.5
  1
TYPE　型式
 41
0.875
  7
MX_NOTE_STANDARD
 11
258.667374
 21
28.690311
 31
0.0
 73
     2
  0
TEXT
  8
0
  6
CONTINUOUS
 62
     3
  5
1B5
 10
315.026128
 20
27.362588
 30
0.0
 40
2.5
  1
DRAWING.No.　図番
 41
1.002513
  7
MX_NOTE_STANDARD
 11
315.026128
 21
28.612588
 31
0.0
 73
     2
  0
TEXT
  8
0
  6
CONTINUOUS
 62
     3
  5
1B6
 10
208.79875
 20
27.644767
 30
0.0
 40
2.5
  1
TITLE　図名
 41
0.919355
  7
MX_NOTE_STANDARD
 11
208.79875
 21
28.894767
 31
0.0
 73
     2
  0
TEXT
  8
0
  6
CONTINUOUS
 62
     3
  5
1B7
 10
346.125004
 20
-9.125
 30
0.0
 40
2.5
  1
8
 41
1.05001
  7
MX_NOTE_STANDARD
 11
346.125004
 21
-7.875
 31
0.0
 73
     2
  0
TEXT
  8
0
  6
CONTINUOUS
 62
     3
  5
1B8
 10
299.375004
 20
-9.125
 30
0.0
 40
2.5
  1
7
 41
1.05001
  7
MX_NOTE_STANDARD
 11
299.375004
 21
-7.875
 31
0.0
 73
     2
  0
TEXT
  8
0
  6
CONTINUOUS
 62
     3
  5
1B9
 10
252.625004
 20
-9.125
 30
0.0
 40
2.5
  1
6
 41
1.05001
  7
MX_NOTE_STANDARD
 11
252.625004
 21
-7.875
 31
0.0
 73
     2
  0
TEXT
  8
0
  6
CONTINUOUS
 62
     3
  5
1BA
 10
205.875004
 20
-9.125
 30
0.0
 40
2.5
  1
5
 41
1.05001
  7
MX_NOTE_STANDARD
 11
205.875004
 21
-7.875
 31
0.0
 73
     2
  0
TEXT
  8
0
  6
CONTINUOUS
 62
     3
  5
1BB
 10
159.125004
 20
-9.125
 30
0.0
 40
2.5
  1
4
 41
1.05001
  7
MX_NOTE_STANDARD
 11
159.125004
 21
-7.875
 31
0.0
 73
     2
  0
TEXT
  8
0
  6
CONTINUOUS
 62
     3
  5
1BC
 10
112.375004
 20
-9.125
 30
0.0
 40
2.5
  1
3
 41
1.05001
  7
MX_NOTE_STANDARD
 11
112.375004
 21
-7.875
 31
0.0
 73
     2
  0
TEXT
  8
0
  6
CONTINUOUS
 62
     3
  5
1BD
 10
65.625004
 20
-9.125
 30
0.0
 40
2.5
  1
2
 41
1.05001
  7
MX_NOTE_STANDARD
 11
65.625004
 21
-7.875
 31
0.0
 73
     2
  0
TEXT
  8
0
  6
CONTINUOUS
 62
     3
  5
1BE
 10
19.093756
 20
-9.125
 30
0.0
 40
2.5
  1
1
 41
1.575015
  7
MX_NOTE_STANDARD
 11
19.093756
 21
-7.875
 31
0.0
 73
     2
  0
TEXT
  8
0
  6
CONTINUOUS
 62
     3
  5
1BF
 10
346.125004
 20
260.874985
 30
0.0
 40
2.5
  1
8
 41
1.05001
  7
MX_NOTE_STANDARD
 11
346.125004
 21
262.124985
 31
0.0
 73
     2
  0
TEXT
  8
0
  6
CONTINUOUS
 62
     3
  5
1C0
 10
299.375004
 20
260.874985
 30
0.0
 40
2.5
  1
7
 41
1.05001
  7
MX_NOTE_STANDARD
 11
299.375004
 21
262.124985
 31
0.0
 73
     2
  0
TEXT
  8
0
  6
CONTINUOUS
 62
     3
  5
1C1
 10
252.625004
 20
260.874985
 30
0.0
 40
2.5
  1
6
 41
1.05001
  7
MX_NOTE_STANDARD
 11
252.625004
 21
262.124985
 31
0.0
 73
     2
  0
TEXT
  8
0
  6
CONTINUOUS
 62
     3
  5
1C2
 10
205.875004
 20
260.874985
 30
0.0
 40
2.5
  1
5
 41
1.05001
  7
MX_NOTE_STANDARD
 11
205.875004
 21
262.124985
 31
0.0
 73
     2
  0
TEXT
  8
0
  6
CONTINUOUS
 62
     3
  5
1C3
 10
286.376948
 20
11.625
 30
0.0
 40
3.0
  1
ARROW ELECTRONICS IND. CO.,LTD.
 41
0.998074
  7
MX_NOTE_STANDARD
 11
286.376948
 21
13.125
 31
0.0
 73
     2
  0
TEXT
  8
0
  6
CONTINUOUS
 62
     3
  5
1C4
 10
268.870833
 20
9.125
 30
0.0
 40
3.0
  1
部門長
 41
0.791667
  7
MX_NOTE_STANDARD
 11
268.870833
 21
10.625
 31
0.0
 73
     2
  0
TEXT
  8
0
  6
CONTINUOUS
 62
     3
  5
1C5
 10
249.870833
 20
9.125
 30
0.0
 40
3.0
  1
確認者
 41
0.791667
  7
MX_NOTE_STANDARD
 11
249.870833
 21
10.625
 31
0.0
 73
     2
  0
TEXT
  8
0
  6
CONTINUOUS
 62
     3
  5
1C6
 10
263.860313
 20
13.125
 30
0.0
 40
2.0
  1
SECTION HEAD
 41
0.813081
  7
MX_NOTE_STANDARD
 11
263.860313
 21
14.125
 31
0.0
 73
     2
  0
TEXT
  8
0
  6
CONTINUOUS
 62
     3
  5
1C7
 10
244.860313
 20
13.125
 30
0.0
 40
2.0
  1
CONFIRMED By
 41
0.813081
  7
MX_NOTE_STANDARD
 11
244.860313
 21
14.125
 31
0.0
 73
     2
  0
TEXT
  8
0
  6
CONTINUOUS
 62
     3
  5
1C8
 10
361.112244
 20
255.024985
 30
0.0
 40
3.2
  1
訂正者
 41
0.791667
  7
MX_NOTE_STANDARD
 11
361.112244
 21
256.624985
 31
0.0
 73
     2
  0
TEXT
  8
0
  6
CONTINUOUS
 62
     3
  5
1C9
 10
306.47223
 20
255.024985
 30
0.0
 40
3.2
  1
訂　　正　　事　　項
 41
0.791667
  7
MX_NOTE_STANDARD
 11
306.47223
 21
256.624985
 31
0.0
 73
     2
  0
TEXT
  8
0
  6
CONTINUOUS
 62
     3
  5
1CA
 10
259.632203
 20
255.024985
 30
0.0
 40
3.2
  1
符号
 41
0.791667
  7
MX_NOTE_STANDARD
 11
259.632203
 21
256.624985
 31
0.0
 73
     2
  0
TEXT
  8
0
  6
CONTINUOUS
 62
     3
  5
1CB
 10
245.612244
 20
255.024985
 30
0.0
 40
3.2
  1
日　付
 41
0.791667
  7
MX_NOTE_STANDARD
 11
245.612244
 21
256.624985
 31
0.0
 73
     2
  0
TEXT
  8
0
  6
CONTINUOUS
 62
     3
  5
1CC
 10
372.250004
 20
147.874996
 30
0.0
 40
2.5
  1
C
 41
1.05001
  7
MX_NOTE_STANDARD
 11
372.250004
 21
149.124996
 31
0.0
 73
     2
  0
TEXT
  8
0
  6
CONTINUOUS
 62
     3
  5
1CD
 10
372.250004
 20
15.875
 30
0.0
 40
2.5
  1
F
 41
1.05001
  7
MX_NOTE_STANDARD
 11
372.250004
 21
17.125
 31
0.0
 73
     2
  0
TEXT
  8
0
  6
CONTINUOUS
 62
     3
  5
1CE
 10
372.250004
 20
191.87499
 30
0.0
 40
2.5
  1
B
 41
1.05001
  7
MX_NOTE_STANDARD
 11
372.250004
 21
193.12499
 31
0.0
 73
     2
  0
TEXT
  8
0
  6
CONTINUOUS
 62
     3
  5
1CF
 10
372.250004
 20
103.875
 30
0.0
 40
2.5
  1
D
 41
1.05001
  7
MX_NOTE_STANDARD
 11
372.250004
 21
105.125
 31
0.0
 73
     2
  0
TEXT
  8
0
  6
CONTINUOUS
 62
     3
  5
1D0
 10
372.250004
 20
235.874985
 30
0.0
 40
2.5
  1
A
 41
1.05001
  7
MX_NOTE_STANDARD
 11
372.250004
 21
237.124985
 31
0.0
 73
     2
  0
TEXT
  8
0
  6
CONTINUOUS
 62
     3
  5
1D1
 10
372.250004
 20
59.874992
 30
0.0
 40
2.5
  1
E
 41
1.05001
  7
MX_NOTE_STANDARD
 11
372.250004
 21
61.124992
 31
0.0
 73
     2
  0
TEXT
  8
0
  6
CONTINUOUS
 62
     3
  5
1D2
 10
-7.249996
 20
15.875
 30
0.0
 40
2.5
  1
F
 41
1.05001
  7
MX_NOTE_STANDARD
 11
-7.249996
 21
17.125
 31
0.0
 73
     2
  0
TEXT
  8
0
  6
CONTINUOUS
 62
     3
  5
1D3
 10
-7.249996
 20
59.874992
 30
0.0
 40
2.5
  1
E
 41
1.05001
  7
MX_NOTE_STANDARD
 11
-7.249996
 21
61.124992
 31
0.0
 73
     2
  0
TEXT
  8
0
  6
CONTINUOUS
 62
     3
  5
1D4
 10
-7.249996
 20
103.875
 30
0.0
 40
2.5
  1
D
 41
1.05001
  7
MX_NOTE_STANDARD
 11
-7.249996
 21
105.125
 31
0.0
 73
     2
  0
TEXT
  8
0
  6
CONTINUOUS
 62
     3
  5
1D5
 10
-7.249996
 20
147.874996
 30
0.0
 40
2.5
  1
C
 41
1.05001
  7
MX_NOTE_STANDARD
 11
-7.249996
 21
149.124996
 31
0.0
 73
     2
  0
TEXT
  8
0
  6
CONTINUOUS
 62
     3
  5
1D6
 10
-7.249996
 20
191.87499
 30
0.0
 40
2.5
  1
B
 41
1.05001
  7
MX_NOTE_STANDARD
 11
-7.249996
 21
193.12499
 31
0.0
 73
     2
  0
TEXT
  8
0
  6
CONTINUOUS
 62
     3
  5
1D7
 10
-7.249996
 20
235.874985
 30
0.0
 40
2.5
  1
A
 41
1.05001
  7
MX_NOTE_STANDARD
 11
-7.249996
 21
237.124985
 31
0.0
 73
     2
  0
TEXT
  8
0
  6
CONTINUOUS
 62
     3
  5
1D8
 10
159.125004
 20
260.874985
 30
0.0
 40
2.5
  1
4
 41
1.05001
  7
MX_NOTE_STANDARD
 11
159.125004
 21
262.124985
 31
0.0
 73
     2
  0
TEXT
  8
0
  6
CONTINUOUS
 62
     3
  5
1D9
 10
112.375004
 20
260.874985
 30
0.0
 40
2.5
  1
3
 41
1.05001
  7
MX_NOTE_STANDARD
 11
112.375004
 21
262.124985
 31
0.0
 73
     2
  0
TEXT
  8
0
  6
CONTINUOUS
 62
     3
  5
1DA
 10
65.625004
 20
260.874985
 30
0.0
 40
2.5
  1
2
 41
1.05001
  7
MX_NOTE_STANDARD
 11
65.625004
 21
262.124985
 31
0.0
 73
     2
  0
TEXT
  8
0
  6
CONTINUOUS
 62
     3
  5
1DB
 10
19.093756
 20
260.874985
 30
0.0
 40
2.5
  1
1
 41
1.575015
  7
MX_NOTE_STANDARD
 11
19.093756
 21
262.124985
 31
0.0
 73
     2
  0
TEXT
  8
0
  6
CONTINUOUS
 62
     3
  5
1DC
 10
245.850005
 20
46.125
 30
0.0
 40
3.0
  1
2
 41
1.05001
  7
MX_NOTE_STANDARD
 11
245.850005
 21
47.625
 31
0.0
 73
     2
  0
TEXT
  8
0
  6
CONTINUOUS
 62
     3
  5
1DD
 10
245.850005
 20
64.125
 30
0.0
 40
3.0
  1
5
 41
1.05001
  7
MX_NOTE_STANDARD
 11
245.850005
 21
65.625
 31
0.0
 73
     2
  0
TEXT
  8
0
  6
CONTINUOUS
 62
     3
  5
1DE
 10
245.850005
 20
58.125
 30
0.0
 40
3.0
  1
4
 41
1.05001
  7
MX_NOTE_STANDARD
 11
245.850005
 21
59.625
 31
0.0
 73
     2
  0
TEXT
  8
0
  6
CONTINUOUS
 62
     3
  5
1DF
 10
245.850005
 20
52.125
 30
0.0
 40
3.0
  1
3
 41
1.05001
  7
MX_NOTE_STANDARD
 11
245.850005
 21
53.625
 31
0.0
 73
     2
  0
TEXT
  8
0
  6
CONTINUOUS
 62
     3
  5
1E0
 10
246.112508
 20
40.125
 30
0.0
 40
3.0
  1
1
 41
1.575015
  7
MX_NOTE_STANDARD
 11
246.112508
 21
41.625
 31
0.0
 73
     2
  0
TEXT
  8
0
  6
CONTINUOUS
 62
     3
  5
1E1
 10
330.167399
 20
34.179626
 30
0.0
 40
2.0
  1
ＮＯＴＥ　Ａ　ＲＥＭＡＲＫ
 41
0.78125
  7
MX_NOTE_STANDARD
 11
330.167399
 21
35.179626
 31
0.0
 73
     2
  0
TEXT
  8
0
  6
CONTINUOUS
 62
     3
  5
1E2
 10
303.581645
 20
34.179626
 30
0.0
 40
2.0
  1
ＭＴＲＬ
 41
0.78125
  7
MX_NOTE_STANDARD
 11
303.581645
 21
35.179626
 31
0.0
 73
     2
  0
TEXT
  8
0
  6
CONTINUOUS
 62
     3
  5
1E3
 10
288.073283
 20
36.395111
 30
0.0
 40
2.0
  1
Ｃｏ．Ｎｏ．
 41
0.78125
  7
MX_NOTE_STANDARD
 11
288.073283
 21
37.395111
 31
0.0
 73
     2
  0
TEXT
  8
0
  6
CONTINUOUS
 62
     3
  5
1E4
 10
360.568604
 20
33.956558
 30
0.0
 40
3.0
  1
備考
 41
0.78125
  7
MX_NOTE_STANDARD
 11
360.568604
 21
35.456558
 31
0.0
 73
     2
  0
TEXT
  8
0
  6
CONTINUOUS
 62
     3
  5
1E5
 10
315.151306
 20
33.679626
 30
0.0
 40
3.0
  1
材質
 41
0.78125
  7
MX_NOTE_STANDARD
 11
315.151306
 21
35.179626
 31
0.0
 73
     2
  0
TEXT
  8
0
  6
CONTINUOUS
 62
     3
  5
1E6
 10
290.781067
 20
32.571884
 30
0.0
 40
3.0
  1
数量
 41
0.78125
  7
MX_NOTE_STANDARD
 11
290.781067
 21
34.071884
 31
0.0
 73
     2
  0
TEXT
  8
0
  6
CONTINUOUS
 62
     3
  5
1E7
 10
279.14978
 20
33.679626
 30
0.0
 40
3.0
  1
品名
 41
0.78125
  7
MX_NOTE_STANDARD
 11
279.14978
 21
35.179626
 31
0.0
 73
     2
  0
TEXT
  8
0
  6
CONTINUOUS
 62
     3
  5
1E8
 10
253.182897
 20
33.902695
 30
0.0
 40
2.0
  1
ＮAＭＥ　ＯＦ　ＰＡＲＴＳ
 41
0.791396
  7
MX_NOTE_STANDARD
 11
253.182897
 21
34.902695
 31
0.0
 73
     2
  0
TEXT
  8
0
  6
CONTINUOUS
 62
     3
  5
1E9
 10
243.702118
 20
33.956558
 30
0.0
 40
3.0
  1
ＮＯ．
 41
0.78125
  7
MX_NOTE_STANDARD
 11
243.702118
 21
35.456558
 31
0.0
 73
     2
  0
POLYLINE
  8
0
  6
CONTINUOUS
 62
    80
  5
1EA
 66
     1
 10
0.0
 20
0.0
 30
0.0
  0
VERTEX
  8
0
  6
CONTINUOUS
 62
    80
  5
733
 10
353.601593
 20
4.927612
 30
0.0
  0
VERTEX
  8
0
  6
CONTINUOUS
 62
    80
  5
734
 10
353.58168
 20
4.860297
 30
0.0
  0
VERTEX
  8
0
  6
CONTINUOUS
 62
    80
  5
735
 10
353.560235
 20
4.793329
 30
0.0
  0
VERTEX
  8
0
  6
CONTINUOUS
 62
    80
  5
736
 10
353.537263
 20
4.726764
 30
0.0
  0
VERTEX
  8
0
  6
CONTINUOUS
 62
    80
  5
737
 10
353.512771
 20
4.660656
 30
0.0
  0
VERTEX
  8
0
  6
CONTINUOUS
 62
    80
  5
738
 10
353.486765
 20
4.595057
 30
0.0
  0
VERTEX
  8
0
  6
CONTINUOUS
 62
    80
  5
739
 10
353.45925
 20
4.530022
 30
0.0
  0
VERTEX
  8
0
  6
CONTINUOUS
 62
    80
  5
73A
 10
353.430232
 20
4.465606
 30
0.0
  0
VERTEX
  8
0
  6
CONTINUOUS
 62
    80
  5
73B
 10
353.399719
 20
4.401861
 30
0.0
  0
VERTEX
  8
0
  6
CONTINUOUS
 62
    80
  5
73C
 10
353.367714
 20
4.338841
 30
0.0
  0
VERTEX
  8
0
  6
CONTINUOUS
 62
    80
  5
73D
 10
353.334225
 20
4.276601
 30
0.0
  0
VERTEX
  8
0
  6
CONTINUOUS
 62
    80
  5
73E
 10
353.299258
 20
4.215194
 30
0.0
  0
VERTEX
  8
0
  6
CONTINUOUS
 62
    80
  5
73F
 10
353.262817
 20
4.154675
 30
0.0
  0
VERTEX
  8
0
  6
CONTINUOUS
 62
    80
  5
740
 10
353.22491
 20
4.095097
 30
0.0
  0
VERTEX
  8
0
  6
CONTINUOUS
 62
    80
  5
741
 10
353.185542
 20
4.036513
 30
0.0
  0
VERTEX
  8
0
  6
CONTINUOUS
 62
    80
  5
742
 10
353.144719
 20
3.978978
 30
0.0
  0
VERTEX
  8
0
  6
CONTINUOUS
 62
    80
  5
743
 10
353.102448
 20
3.922546
 30
0.0
  0
VERTEX
  8
0
  6
CONTINUOUS
 62
    80
  5
744
 10
353.072563
 20
3.884431
 30
0.0
  0
VERTEX
  8
0
  6
CONTINUOUS
 62
    80
  5
745
 10
353.042014
 20
3.846865
 30
0.0
  0
VERTEX
  8
0
  6
CONTINUOUS
 62
    80
  5
746
 10
353.010816
 20
3.809855
 30
0.0
  0
VERTEX
  8
0
  6
CONTINUOUS
 62
    80
  5
747
 10
352.978985
 20
3.773402
 30
0.0
  0
VERTEX
  8
0
  6
CONTINUOUS
 62
    80
  5
748
 10
352.946538
 20
3.737511
 30
0.0
  0
VERTEX
  8
0
  6
CONTINUOUS
 62
    80
  5
749
 10
352.913492
 20
3.702185
 30
0.0
  0
VERTEX
  8
0
  6
CONTINUOUS
 62
    80
  5
74A
 10
352.879861
 20
3.667428
 30
0.0
  0
VERTEX
  8
0
  6
CONTINUOUS
 62
    80
  5
74B
 10
352.845663
 20
3.633243
 30
0.0
  0
VERTEX
  8
0
  6
CONTINUOUS
 62
    80
  5
74C
 10
352.810913
 20
3.599634
 30
0.0
  0
VERTEX
  8
0
  6
CONTINUOUS
 62
    80
  5
74D
 10
352.775628
 20
3.566605
 30
0.0
  0
VERTEX
  8
0
  6
CONTINUOUS
 62
    80
  5
74E
 10
352.739824
 20
3.534158
 30
0.0
  0
VERTEX
  8
0
  6
CONTINUOUS
 62
    80
  5
74F
 10
352.703518
 20
3.502299
 30
0.0
  0
VERTEX
  8
0
  6
CONTINUOUS
 62
    80
  5
750
 10
352.666725
 20
3.471029
 30
0.0
  0
VERTEX
  8
0
  6
CONTINUOUS
 62
    80
  5
751
 10
352.629462
 20
3.440354
 30
0.0
  0
VERTEX
  8
0
  6
CONTINUOUS
 62
    80
  5
752
 10
352.591744
 20
3.410275
 30
0.0
  0
VERTEX
  8
0
  6
CONTINUOUS
 62
    80
  5
753
 10
352.553589
 20
3.380798
 30
0.0
  0
SEQEND
  8
0
  6
CONTINUOUS
 62
    80
  5
754
  0
POLYLINE
  8
0
  6
CONTINUOUS
 62
    80
  5
1EB
 66
     1
 10
0.0
 20
0.0
 30
0.0
  0
VERTEX
  8
0
  6
CONTINUOUS
 62
    80
  5
755
 10
334.936589
 20
5.07221
 30
0.0
  0
VERTEX
  8
0
  6
CONTINUOUS
 62
    80
  5
756
 10
334.928751
 20
5.023165
 30
0.0
  0
VERTEX
  8
0
  6
CONTINUOUS
 62
    80
  5
757
 10
334.92026
 20
4.97421
 30
0.0
  0
VERTEX
  8
0
  6
CONTINUOUS
 62
    80
  5
758
 10
334.911117
 20
4.925355
 30
0.0
  0
VERTEX
  8
0
  6
CONTINUOUS
 62
    80
  5
759
 10
334.901319
 20
4.876612
 30
0.0
  0
VERTEX
  8
0
  6
CONTINUOUS
 62
    80
  5
75A
 10
334.890867
 20
4.827993
 30
0.0
  0
VERTEX
  8
0
  6
CONTINUOUS
 62
    80
  5
75B
 10
334.879757
 20
4.779509
 30
0.0
  0
VERTEX
  8
0
  6
CONTINUOUS
 62
    80
  5
75C
 10
334.867991
 20
4.731171
 30
0.0
  0
VERTEX
  8
0
  6
CONTINUOUS
 62
    80
  5
75D
 10
334.855565
 20
4.682992
 30
0.0
  0
VERTEX
  8
0
  6
CONTINUOUS
 62
    80
  5
75E
 10
334.842479
 20
4.634982
 30
0.0
  0
VERTEX
  8
0
  6
CONTINUOUS
 62
    80
  5
75F
 10
334.828733
 20
4.587154
 30
0.0
  0
VERTEX
  8
0
  6
CONTINUOUS
 62
    80
  5
760
 10
334.814323
 20
4.539518
 30
0.0
  0
VERTEX
  8
0
  6
CONTINUOUS
 62
    80
  5
761
 10
334.799251
 20
4.492085
 30
0.0
  0
VERTEX
  8
0
  6
CONTINUOUS
 62
    80
  5
762
 10
334.783513
 20
4.444869
 30
0.0
  0
VERTEX
  8
0
  6
CONTINUOUS
 62
    80
  5
763
 10
334.76711
 20
4.397879
 30
0.0
  0
VERTEX
  8
0
  6
CONTINUOUS
 62
    80
  5
764
 10
334.750039
 20
4.351128
 30
0.0
  0
VERTEX
  8
0
  6
CONTINUOUS
 62
    80
  5
765
 10
334.7323
 20
4.304626
 30
0.0
  0
VERTEX
  8
0
  6
CONTINUOUS
 62
    80
  5
766
 10
334.71173
 20
4.253076
 30
0.0
  0
VERTEX
  8
0
  6
CONTINUOUS
 62
    80
  5
767
 10
334.690339
 20
4.20186
 30
0.0
  0
VERTEX
  8
0
  6
CONTINUOUS
 62
    80
  5
768
 10
334.668139
 20
4.150991
 30
0.0
  0
VERTEX
  8
0
  6
CONTINUOUS
 62
    80
  5
769
 10
334.645143
 20
4.100478
 30
0.0
  0
VERTEX
  8
0
  6
CONTINUOUS
 62
    80
  5
76A
 10
334.621362
 20
4.050332
 30
0.0
  0
VERTEX
  8
0
  6
CONTINUOUS
 62
    80
  5
76B
 10
334.596808
 20
4.000564
 30
0.0
  0
VERTEX
  8
0
  6
CONTINUOUS
 62
    80
  5
76C
 10
334.571494
 20
3.951183
 30
0.0
  0
VERTEX
  8
0
  6
CONTINUOUS
 62
    80
  5
76D
 10
334.54543
 20
3.902201
 30
0.0
  0
VERTEX
  8
0
  6
CONTINUOUS
 62
    80
  5
76E
 10
334.518629
 20
3.853628
 30
0.0
  0
VERTEX
  8
0
  6
CONTINUOUS
 62
    80
  5
76F
 10
334.491103
 20
3.805475
 30
0.0
  0
VERTEX
  8
0
  6
CONTINUOUS
 62
    80
  5
770
 10
334.462865
 20
3.757752
 30
0.0
  0
VERTEX
  8
0
  6
CONTINUOUS
 62
    80
  5
771
 10
334.433925
 20
3.710469
 30
0.0
  0
VERTEX
  8
0
  6
CONTINUOUS
 62
    80
  5
772
 10
334.404295
 20
3.663638
 30
0.0
  0
VERTEX
  8
0
  6
CONTINUOUS
 62
    80
  5
773
 10
334.373989
 20
3.617268
 30
0.0
  0
VERTEX
  8
0
  6
CONTINUOUS
 62
    80
  5
774
 10
334.343017
 20
3.571371
 30
0.0
  0
VERTEX
  8
0
  6
CONTINUOUS
 62
    80
  5
775
 10
334.311393
 20
3.525956
 30
0.0
  0
SEQEND
  8
0
  6
CONTINUOUS
 62
    80
  5
776
  0
POLYLINE
  8
0
  6
CONTINUOUS
 62
    80
  5
1EC
 66
     1
 10
0.0
 20
0.0
 30
0.0
  0
VERTEX
  8
0
  6
CONTINUOUS
 62
    80
  5
777
 10
329.332397
 20
3.696411
 30
0.0
  0
VERTEX
  8
0
  6
CONTINUOUS
 62
    80
  5
778
 10
329.326018
 20
3.683283
 30
0.0
  0
VERTEX
  8
0
  6
CONTINUOUS
 62
    80
  5
779
 10
329.319536
 20
3.670194
 30
0.0
  0
VERTEX
  8
0
  6
CONTINUOUS
 62
    80
  5
77A
 10
329.312949
 20
3.657149
 30
0.0
  0
VERTEX
  8
0
  6
CONTINUOUS
 62
    80
  5
77B
 10
329.306253
 20
3.644152
 30
0.0
  0
VERTEX
  8
0
  6
CONTINUOUS
 62
    80
  5
77C
 10
329.299446
 20
3.63121
 30
0.0
  0
VERTEX
  8
0
  6
CONTINUOUS
 62
    80
  5
77D
 10
329.292525
 20
3.618326
 30
0.0
  0
VERTEX
  8
0
  6
CONTINUOUS
 62
    80
  5
77E
 10
329.285487
 20
3.605506
 30
0.0
  0
VERTEX
  8
0
  6
CONTINUOUS
 62
    80
  5
77F
 10
329.278329
 20
3.592754
 30
0.0
  0
VERTEX
  8
0
  6
CONTINUOUS
 62
    80
  5
780
 10
329.271048
 20
3.580077
 30
0.0
  0
VERTEX
  8
0
  6
CONTINUOUS
 62
    80
  5
781
 10
329.263642
 20
3.567479
 30
0.0
  0
VERTEX
  8
0
  6
CONTINUOUS
 62
    80
  5
782
 10
329.256107
 20
3.554966
 30
0.0
  0
VERTEX
  8
0
  6
CONTINUOUS
 62
    80
  5
783
 10
329.24844
 20
3.542541
 30
0.0
  0
VERTEX
  8
0
  6
CONTINUOUS
 62
    80
  5
784
 10
329.240639
 20
3.53021
 30
0.0
  0
VERTEX
  8
0
  6
CONTINUOUS
 62
    80
  5
785
 10
329.2327
 20
3.517979
 30
0.0
  0
VERTEX
  8
0
  6
CONTINUOUS
 62
    80
  5
786
 10
329.224622
 20
3.505853
 30
0.0
  0
VERTEX
  8
0
  6
CONTINUOUS
 62
    80
  5
787
 10
329.2164
 20
3.493835
 30
0.0
  0
VERTEX
  8
0
  6
CONTINUOUS
 62
    80
  5
788
 10
329.194033
 20
3.462687
 30
0.0
  0
VERTEX
  8
0
  6
CONTINUOUS
 62
    80
  5
789
 10
329.170716
 20
3.432287
 30
0.0
  0
VERTEX
  8
0
  6
CONTINUOUS
 62
    80
  5
78A
 10
329.146513
 20
3.402589
 30
0.0
  0
VERTEX
  8
0
  6
CONTINUOUS
 62
    80
  5
78B
 10
329.121492
 20
3.373543
 30
0.0
  0
VERTEX
  8
0
  6
CONTINUOUS
 62
    80
  5
78C
 10
329.095716
 20
3.345103
 30
0.0
  0
VERTEX
  8
0
  6
CONTINUOUS
 62
    80
  5
78D
 10
329.069252
 20
3.317221
 30
0.0
  0
VERTEX
  8
0
  6
CONTINUOUS
 62
    80
  5
78E
 10
329.042166
 20
3.289849
 30
0.0
  0
VERTEX
  8
0
  6
CONTINUOUS
 62
    80
  5
78F
 10
329.014521
 20
3.262939
 30
0.0
  0
VERTEX
  8
0
  6
CONTINUOUS
 62
    80
  5
790
 10
328.986385
 20
3.236445
 30
0.0
  0
VERTEX
  8
0
  6
CONTINUOUS
 62
    80
  5
791
 10
328.957823
 20
3.210317
 30
0.0
  0
VERTEX
  8
0
  6
CONTINUOUS
 62
    80
  5
792
 10
328.928899
 20
3.184509
 30
0.0
  0
VERTEX
  8
0
  6
CONTINUOUS
 62
    80
  5
793
 10
328.89968
 20
3.158973
 30
0.0
  0
VERTEX
  8
0
  6
CONTINUOUS
 62
    80
  5
794
 10
328.870231
 20
3.133661
 30
0.0
  0
VERTEX
  8
0
  6
CONTINUOUS
 62
    80
  5
795
 10
328.840618
 20
3.108526
 30
0.0
  0
VERTEX
  8
0
  6
CONTINUOUS
 62
    80
  5
796
 10
328.810905
 20
3.083519
 30
0.0
  0
VERTEX
  8
0
  6
CONTINUOUS
 62
    80
  5
797
 10
328.781158
 20
3.058594
 30
0.0
  0
VERTEX
  8
0
  6
CONTINUOUS
 62
    80
  5
798
 10
328.743528
 20
3.027101
 30
0.0
  0
VERTEX
  8
0
  6
CONTINUOUS
 62
    80
  5
799
 10
328.705923
 20
2.995686
 30
0.0
  0
VERTEX
  8
0
  6
CONTINUOUS
 62
    80
  5
79A
 10
328.668319
 20
2.964373
 30
0.0
  0
VERTEX
  8
0
  6
CONTINUOUS
 62
    80
  5
79B
 10
328.630689
 20
2.933187
 30
0.0
  0
VERTEX
  8
0
  6
CONTINUOUS
 62
    80
  5
79C
 10
328.593008
 20
2.902152
 30
0.0
  0
VERTEX
  8
0
  6
CONTINUOUS
 62
    80
  5
79D
 10
328.555251
 20
2.871291
 30
0.0
  0
VERTEX
  8
0
  6
CONTINUOUS
 62
    80
  5
79E
 10
328.517392
 20
2.84063
 30
0.0
  0
VERTEX
  8
0
  6
CONTINUOUS
 62
    80
  5
79F
 10
328.479406
 20
2.810192
 30
0.0
  0
VERTEX
  8
0
  6
CONTINUOUS
 62
    80
  5
7A0
 10
328.441267
 20
2.780002
 30
0.0
  0
VERTEX
  8
0
  6
CONTINUOUS
 62
    80
  5
7A1
 10
328.40295
 20
2.750084
 30
0.0
  0
VERTEX
  8
0
  6
CONTINUOUS
 62
    80
  5
7A2
 10
328.36443
 20
2.720463
 30
0.0
  0
VERTEX
  8
0
  6
CONTINUOUS
 62
    80
  5
7A3
 10
328.32568
 20
2.691162
 30
0.0
  0
VERTEX
  8
0
  6
CONTINUOUS
 62
    80
  5
7A4
 10
328.286676
 20
2.662206
 30
0.0
  0
VERTEX
  8
0
  6
CONTINUOUS
 62
    80
  5
7A5
 10
328.247391
 20
2.633619
 30
0.0
  0
VERTEX
  8
0
  6
CONTINUOUS
 62
    80
  5
7A6
 10
328.207801
 20
2.605426
 30
0.0
  0
VERTEX
  8
0
  6
CONTINUOUS
 62
    80
  5
7A7
 10
328.16788
 20
2.57765
 30
0.0
  0
SEQEND
  8
0
  6
CONTINUOUS
 62
    80
  5
7A8
  0
POLYLINE
  8
0
  6
CONTINUOUS
 62
    80
  5
1ED
 66
     1
 10
0.0
 20
0.0
 30
0.0
  0
VERTEX
  8
0
  6
CONTINUOUS
 62
    80
  5
7A9
 10
353.639313
 20
3.429688
 30
0.0
  0
VERTEX
  8
0
  6
CONTINUOUS
 62
    80
  5
7AA
 10
353.630905
 20
3.424347
 30
0.0
  0
VERTEX
  8
0
  6
CONTINUOUS
 62
    80
  5
7AB
 10
353.622495
 20
3.419011
 30
0.0
  0
VERTEX
  8
0
  6
CONTINUOUS
 62
    80
  5
7AC
 10
353.614082
 20
3.413679
 30
0.0
  0
VERTEX
  8
0
  6
CONTINUOUS
 62
    80
  5
7AD
 10
353.605667
 20
3.40835
 30
0.0
  0
VERTEX
  8
0
  6
CONTINUOUS
 62
    80
  5
7AE
 10
353.597249
 20
3.403025
 30
0.0
  0
VERTEX
  8
0
  6
CONTINUOUS
 62
    80
  5
7AF
 10
353.588829
 20
3.397703
 30
0.0
  0
VERTEX
  8
0
  6
CONTINUOUS
 62
    80
  5
7B0
 10
353.580407
 20
3.392385
 30
0.0
  0
VERTEX
  8
0
  6
CONTINUOUS
 62
    80
  5
7B1
 10
353.571983
 20
3.38707
 30
0.0
  0
VERTEX
  8
0
  6
CONTINUOUS
 62
    80
  5
7B2
 10
353.563557
 20
3.381759
 30
0.0
  0
VERTEX
  8
0
  6
CONTINUOUS
 62
    80
  5
7B3
 10
353.555128
 20
3.37645
 30
0.0
  0
VERTEX
  8
0
  6
CONTINUOUS
 62
    80
  5
7B4
 10
353.546698
 20
3.371145
 30
0.0
  0
VERTEX
  8
0
  6
CONTINUOUS
 62
    80
  5
7B5
 10
353.538265
 20
3.365843
 30
0.0
  0
VERTEX
  8
0
  6
CONTINUOUS
 62
    80
  5
7B6
 10
353.529831
 20
3.360545
 30
0.0
  0
VERTEX
  8
0
  6
CONTINUOUS
 62
    80
  5
7B7
 10
353.521395
 20
3.355249
 30
0.0
  0
VERTEX
  8
0
  6
CONTINUOUS
 62
    80
  5
7B8
 10
353.512957
 20
3.349956
 30
0.0
  0
VERTEX
  8
0
  6
CONTINUOUS
 62
    80
  5
7B9
 10
353.504517
 20
3.344666
 30
0.0
  0
VERTEX
  8
0
  6
CONTINUOUS
 62
    80
  5
7BA
 10
353.445806
 20
3.307992
 30
0.0
  0
VERTEX
  8
0
  6
CONTINUOUS
 62
    80
  5
7BB
 10
353.386993
 20
3.271478
 30
0.0
  0
VERTEX
  8
0
  6
CONTINUOUS
 62
    80
  5
7BC
 10
353.328078
 20
3.235126
 30
0.0
  0
VERTEX
  8
0
  6
CONTINUOUS
 62
    80
  5
7BD
 10
353.269062
 20
3.198936
 30
0.0
  0
VERTEX
  8
0
  6
CONTINUOUS
 62
    80
  5
7BE
 10
353.209946
 20
3.162908
 30
0.0
  0
VERTEX
  8
0
  6
CONTINUOUS
 62
    80
  5
7BF
 10
353.15073
 20
3.127042
 30
0.0
  0
VERTEX
  8
0
  6
CONTINUOUS
 62
    80
  5
7C0
 10
353.091415
 20
3.091339
 30
0.0
  0
VERTEX
  8
0
  6
CONTINUOUS
 62
    80
  5
7C1
 10
353.032002
 20
3.055799
 30
0.0
  0
VERTEX
  8
0
  6
CONTINUOUS
 62
    80
  5
7C2
 10
352.972491
 20
3.020423
 30
0.0
  0
VERTEX
  8
0
  6
CONTINUOUS
 62
    80
  5
7C3
 10
352.912882
 20
2.985212
 30
0.0
  0
VERTEX
  8
0
  6
CONTINUOUS
 62
    80
  5
7C4
 10
352.853177
 20
2.950165
 30
0.0
  0
VERTEX
  8
0
  6
CONTINUOUS
 62
    80
  5
7C5
 10
352.793376
 20
2.915283
 30
0.0
  0
VERTEX
  8
0
  6
CONTINUOUS
 62
    80
  5
7C6
 10
352.733479
 20
2.880566
 30
0.0
  0
VERTEX
  8
0
  6
CONTINUOUS
 62
    80
  5
7C7
 10
352.673488
 20
2.846015
 30
0.0
  0
VERTEX
  8
0
  6
CONTINUOUS
 62
    80
  5
7C8
 10
352.613403
 20
2.811631
 30
0.0
  0
VERTEX
  8
0
  6
CONTINUOUS
 62
    80
  5
7C9
 10
352.553225
 20
2.777413
 30
0.0
  0
SEQEND
  8
0
  6
CONTINUOUS
 62
    80
  5
7CA
  0
POLYLINE
  8
0
  6
CONTINUOUS
 62
    80
  5
1EE
 66
     1
 10
0.0
 20
0.0
 30
0.0
  0
VERTEX
  8
0
  6
CONTINUOUS
 62
    80
  5
7CB
 10
350.022064
 20
3.5
 30
0.0
  0
VERTEX
  8
0
  6
CONTINUOUS
 62
    80
  5
7CC
 10
350.054584
 20
3.439732
 30
0.0
  0
VERTEX
  8
0
  6
CONTINUOUS
 62
    80
  5
7CD
 10
350.087104
 20
3.379464
 30
0.0
  0
VERTEX
  8
0
  6
CONTINUOUS
 62
    80
  5
7CE
 10
350.119624
 20
3.319196
 30
0.0
  0
VERTEX
  8
0
  6
CONTINUOUS
 62
    80
  5
7CF
 10
350.152144
 20
3.258927
 30
0.0
  0
VERTEX
  8
0
  6
CONTINUOUS
 62
    80
  5
7D0
 10
350.184665
 20
3.198659
 30
0.0
  0
VERTEX
  8
0
  6
CONTINUOUS
 62
    80
  5
7D1
 10
350.217185
 20
3.13839
 30
0.0
  0
VERTEX
  8
0
  6
CONTINUOUS
 62
    80
  5
7D2
 10
350.249706
 20
3.078121
 30
0.0
  0
VERTEX
  8
0
  6
CONTINUOUS
 62
    80
  5
7D3
 10
350.282227
 20
3.017853
 30
0.0
  0
VERTEX
  8
0
  6
CONTINUOUS
 62
    80
  5
7D4
 10
350.314747
 20
2.957584
 30
0.0
  0
VERTEX
  8
0
  6
CONTINUOUS
 62
    80
  5
7D5
 10
350.347268
 20
2.897315
 30
0.0
  0
VERTEX
  8
0
  6
CONTINUOUS
 62
    80
  5
7D6
 10
350.379788
 20
2.837047
 30
0.0
  0
VERTEX
  8
0
  6
CONTINUOUS
 62
    80
  5
7D7
 10
350.412309
 20
2.776778
 30
0.0
  0
VERTEX
  8
0
  6
CONTINUOUS
 62
    80
  5
7D8
 10
350.444829
 20
2.71651
 30
0.0
  0
VERTEX
  8
0
  6
CONTINUOUS
 62
    80
  5
7D9
 10
350.477349
 20
2.656242
 30
0.0
  0
VERTEX
  8
0
  6
CONTINUOUS
 62
    80
  5
7DA
 10
350.509869
 20
2.595974
 30
0.0
  0
VERTEX
  8
0
  6
CONTINUOUS
 62
    80
  5
7DB
 10
350.542389
 20
2.535706
 30
0.0
  0
SEQEND
  8
0
  6
CONTINUOUS
 62
    80
  5
7DC
  0
POLYLINE
  8
0
  6
CONTINUOUS
 62
    80
  5
1EF
 66
     1
 10
0.0
 20
0.0
 30
0.0
  0
VERTEX
  8
0
  6
CONTINUOUS
 62
    80
  5
7DD
 10
348.604767
 20
3.5
 30
0.0
  0
VERTEX
  8
0
  6
CONTINUOUS
 62
    80
  5
7DE
 10
348.572247
 20
3.439732
 30
0.0
  0
VERTEX
  8
0
  6
CONTINUOUS
 62
    80
  5
7DF
 10
348.539727
 20
3.379464
 30
0.0
  0
VERTEX
  8
0
  6
CONTINUOUS
 62
    80
  5
7E0
 10
348.507207
 20
3.319196
 30
0.0
  0
VERTEX
  8
0
  6
CONTINUOUS
 62
    80
  5
7E1
 10
348.474687
 20
3.258927
 30
0.0
  0
VERTEX
  8
0
  6
CONTINUOUS
 62
    80
  5
7E2
 10
348.442166
 20
3.198659
 30
0.0
  0
VERTEX
  8
0
  6
CONTINUOUS
 62
    80
  5
7E3
 10
348.409646
 20
3.13839
 30
0.0
  0
VERTEX
  8
0
  6
CONTINUOUS
 62
    80
  5
7E4
 10
348.377125
 20
3.078121
 30
0.0
  0
VERTEX
  8
0
  6
CONTINUOUS
 62
    80
  5
7E5
 10
348.344604
 20
3.017853
 30
0.0
  0
VERTEX
  8
0
  6
CONTINUOUS
 62
    80
  5
7E6
 10
348.312084
 20
2.957584
 30
0.0
  0
VERTEX
  8
0
  6
CONTINUOUS
 62
    80
  5
7E7
 10
348.279563
 20
2.897315
 30
0.0
  0
VERTEX
  8
0
  6
CONTINUOUS
 62
    80
  5
7E8
 10
348.247043
 20
2.837047
 30
0.0
  0
VERTEX
  8
0
  6
CONTINUOUS
 62
    80
  5
7E9
 10
348.214522
 20
2.776778
 30
0.0
  0
VERTEX
  8
0
  6
CONTINUOUS
 62
    80
  5
7EA
 10
348.182002
 20
2.71651
 30
0.0
  0
VERTEX
  8
0
  6
CONTINUOUS
 62
    80
  5
7EB
 10
348.149482
 20
2.656242
 30
0.0
  0
VERTEX
  8
0
  6
CONTINUOUS
 62
    80
  5
7EC
 10
348.116962
 20
2.595974
 30
0.0
  0
VERTEX
  8
0
  6
CONTINUOUS
 62
    80
  5
7ED
 10
348.084442
 20
2.535706
 30
0.0
  0
SEQEND
  8
0
  6
CONTINUOUS
 62
    80
  5
7EE
  0
POLYLINE
  8
0
  6
CONTINUOUS
 62
    80
  5
1F0
 66
     1
 10
0.0
 20
0.0
 30
0.0
  0
VERTEX
  8
0
  6
CONTINUOUS
 62
    80
  5
7EF
 10
351.022552
 20
3.5
 30
0.0
  0
VERTEX
  8
0
  6
CONTINUOUS
 62
    80
  5
7F0
 10
351.083569
 20
3.419634
 30
0.0
  0
VERTEX
  8
0
  6
CONTINUOUS
 62
    80
  5
7F1
 10
351.144585
 20
3.339268
 30
0.0
  0
VERTEX
  8
0
  6
CONTINUOUS
 62
    80
  5
7F2
 10
351.205602
 20
3.258901
 30
0.0
  0
VERTEX
  8
0
  6
CONTINUOUS
 62
    80
  5
7F3
 10
351.266618
 20
3.178533
 30
0.0
  0
VERTEX
  8
0
  6
CONTINUOUS
 62
    80
  5
7F4
 10
351.327634
 20
3.098164
 30
0.0
  0
VERTEX
  8
0
  6
CONTINUOUS
 62
    80
  5
7F5
 10
351.38865
 20
3.017795
 30
0.0
  0
VERTEX
  8
0
  6
CONTINUOUS
 62
    80
  5
7F6
 10
351.449667
 20
2.937426
 30
0.0
  0
VERTEX
  8
0
  6
CONTINUOUS
 62
    80
  5
7F7
 10
351.510683
 20
2.857056
 30
0.0
  0
VERTEX
  8
0
  6
CONTINUOUS
 62
    80
  5
7F8
 10
351.571699
 20
2.776686
 30
0.0
  0
VERTEX
  8
0
  6
CONTINUOUS
 62
    80
  5
7F9
 10
351.632715
 20
2.696317
 30
0.0
  0
VERTEX
  8
0
  6
CONTINUOUS
 62
    80
  5
7FA
 10
351.693731
 20
2.615947
 30
0.0
  0
VERTEX
  8
0
  6
CONTINUOUS
 62
    80
  5
7FB
 10
351.754747
 20
2.535578
 30
0.0
  0
VERTEX
  8
0
  6
CONTINUOUS
 62
    80
  5
7FC
 10
351.815764
 20
2.455209
 30
0.0
  0
VERTEX
  8
0
  6
CONTINUOUS
 62
    80
  5
7FD
 10
351.87678
 20
2.37484
 30
0.0
  0
VERTEX
  8
0
  6
CONTINUOUS
 62
    80
  5
7FE
 10
351.937796
 20
2.294473
 30
0.0
  0
VERTEX
  8
0
  6
CONTINUOUS
 62
    80
  5
7FF
 10
351.998812
 20
2.214105
 30
0.0
  0
SEQEND
  8
0
  6
CONTINUOUS
 62
    80
  5
800
  0
POLYLINE
  8
0
  6
CONTINUOUS
 62
    80
  5
1F1
 66
     1
 10
0.0
 20
0.0
 30
0.0
  0
VERTEX
  8
0
  6
CONTINUOUS
 62
    80
  5
801
 10
347.595764
 20
3.5
 30
0.0
  0
VERTEX
  8
0
  6
CONTINUOUS
 62
    80
  5
802
 10
347.535328
 20
3.419634
 30
0.0
  0
VERTEX
  8
0
  6
CONTINUOUS
 62
    80
  5
803
 10
347.474892
 20
3.339268
 30
0.0
  0
VERTEX
  8
0
  6
CONTINUOUS
 62
    80
  5
804
 10
347.414456
 20
3.258901
 30
0.0
  0
VERTEX
  8
0
  6
CONTINUOUS
 62
    80
  5
805
 10
347.354019
 20
3.178533
 30
0.0
  0
VERTEX
  8
0
  6
CONTINUOUS
 62
    80
  5
806
 10
347.293583
 20
3.098164
 30
0.0
  0
VERTEX
  8
0
  6
CONTINUOUS
 62
    80
  5
807
 10
347.233146
 20
3.017795
 30
0.0
  0
VERTEX
  8
0
  6
CONTINUOUS
 62
    80
  5
808
 10
347.172709
 20
2.937426
 30
0.0
  0
VERTEX
  8
0
  6
CONTINUOUS
 62
    80
  5
809
 10
347.112272
 20
2.857056
 30
0.0
  0
VERTEX
  8
0
  6
CONTINUOUS
 62
    80
  5
80A
 10
347.051836
 20
2.776686
 30
0.0
  0
VERTEX
  8
0
  6
CONTINUOUS
 62
    80
  5
80B
 10
346.991399
 20
2.696317
 30
0.0
  0
VERTEX
  8
0
  6
CONTINUOUS
 62
    80
  5
80C
 10
346.930962
 20
2.615947
 30
0.0
  0
VERTEX
  8
0
  6
CONTINUOUS
 62
    80
  5
80D
 10
346.870525
 20
2.535578
 30
0.0
  0
VERTEX
  8
0
  6
CONTINUOUS
 62
    80
  5
80E
 10
346.810088
 20
2.455209
 30
0.0
  0
VERTEX
  8
0
  6
CONTINUOUS
 62
    80
  5
80F
 10
346.749652
 20
2.37484
 30
0.0
  0
VERTEX
  8
0
  6
CONTINUOUS
 62
    80
  5
810
 10
346.689215
 20
2.294473
 30
0.0
  0
VERTEX
  8
0
  6
CONTINUOUS
 62
    80
  5
811
 10
346.628779
 20
2.214105
 30
0.0
  0
SEQEND
  8
0
  6
CONTINUOUS
 62
    80
  5
812
  0
POLYLINE
  8
0
  6
CONTINUOUS
 62
    80
  5
1F2
 66
     1
 10
0.0
 20
0.0
 30
0.0
  0
VERTEX
  8
0
  6
CONTINUOUS
 62
    80
  5
813
 10
349.314301
 20
5.433716
 30
0.0
  0
VERTEX
  8
0
  6
CONTINUOUS
 62
    80
  5
814
 10
349.316021
 20
5.43312
 30
0.0
  0
VERTEX
  8
0
  6
CONTINUOUS
 62
    80
  5
815
 10
349.317742
 20
5.432524
 30
0.0
  0
VERTEX
  8
0
  6
CONTINUOUS
 62
    80
  5
816
 10
349.319462
 20
5.431928
 30
0.0
  0
VERTEX
  8
0
  6
CONTINUOUS
 62
    80
  5
817
 10
349.321183
 20
5.431333
 30
0.0
  0
VERTEX
  8
0
  6
CONTINUOUS
 62
    80
  5
818
 10
349.322903
 20
5.430738
 30
0.0
  0
VERTEX
  8
0
  6
CONTINUOUS
 62
    80
  5
819
 10
349.324624
 20
5.430143
 30
0.0
  0
VERTEX
  8
0
  6
CONTINUOUS
 62
    80
  5
81A
 10
349.326344
 20
5.429548
 30
0.0
  0
VERTEX
  8
0
  6
CONTINUOUS
 62
    80
  5
81B
 10
349.328065
 20
5.428953
 30
0.0
  0
VERTEX
  8
0
  6
CONTINUOUS
 62
    80
  5
81C
 10
349.329785
 20
5.428359
 30
0.0
  0
VERTEX
  8
0
  6
CONTINUOUS
 62
    80
  5
81D
 10
349.331505
 20
5.427764
 30
0.0
  0
VERTEX
  8
0
  6
CONTINUOUS
 62
    80
  5
81E
 10
349.333226
 20
5.427169
 30
0.0
  0
VERTEX
  8
0
  6
CONTINUOUS
 62
    80
  5
81F
 10
349.334946
 20
5.426575
 30
0.0
  0
VERTEX
  8
0
  6
CONTINUOUS
 62
    80
  5
820
 10
349.336666
 20
5.42598
 30
0.0
  0
VERTEX
  8
0
  6
CONTINUOUS
 62
    80
  5
821
 10
349.338387
 20
5.425385
 30
0.0
  0
VERTEX
  8
0
  6
CONTINUOUS
 62
    80
  5
822
 10
349.340107
 20
5.42479
 30
0.0
  0
VERTEX
  8
0
  6
CONTINUOUS
 62
    80
  5
823
 10
349.341827
 20
5.424194
 30
0.0
  0
VERTEX
  8
0
  6
CONTINUOUS
 62
    80
  5
824
 10
349.512522
 20
5.365326
 30
0.0
  0
VERTEX
  8
0
  6
CONTINUOUS
 62
    80
  5
825
 10
349.683359
 20
5.306861
 30
0.0
  0
VERTEX
  8
0
  6
CONTINUOUS
 62
    80
  5
826
 10
349.854337
 20
5.248801
 30
0.0
  0
VERTEX
  8
0
  6
CONTINUOUS
 62
    80
  5
827
 10
350.025456
 20
5.191146
 30
0.0
  0
VERTEX
  8
0
  6
CONTINUOUS
 62
    80
  5
828
 10
350.196712
 20
5.133896
 30
0.0
  0
VERTEX
  8
0
  6
CONTINUOUS
 62
    80
  5
829
 10
350.368106
 20
5.077053
 30
0.0
  0
VERTEX
  8
0
  6
CONTINUOUS
 62
    80
  5
82A
 10
350.539635
 20
5.020616
 30
0.0
  0
VERTEX
  8
0
  6
CONTINUOUS
 62
    80
  5
82B
 10
350.711299
 20
4.964586
 30
0.0
  0
VERTEX
  8
0
  6
CONTINUOUS
 62
    80
  5
82C
 10
350.883094
 20
4.908963
 30
0.0
  0
VERTEX
  8
0
  6
CONTINUOUS
 62
    80
  5
82D
 10
351.055021
 20
4.853748
 30
0.0
  0
VERTEX
  8
0
  6
CONTINUOUS
 62
    80
  5
82E
 10
351.227078
 20
4.798942
 30
0.0
  0
VERTEX
  8
0
  6
CONTINUOUS
 62
    80
  5
82F
 10
351.399263
 20
4.744544
 30
0.0
  0
VERTEX
  8
0
  6
CONTINUOUS
 62
    80
  5
830
 10
351.571575
 20
4.690556
 30
0.0
  0
VERTEX
  8
0
  6
CONTINUOUS
 62
    80
  5
831
 10
351.744012
 20
4.636978
 30
0.0
  0
VERTEX
  8
0
  6
CONTINUOUS
 62
    80
  5
832
 10
351.916574
 20
4.58381
 30
0.0
  0
VERTEX
  8
0
  6
CONTINUOUS
 62
    80
  5
833
 10
352.089257
 20
4.531053
 30
0.0
  0
SEQEND
  8
0
  6
CONTINUOUS
 62
    80
  5
834
  0
POLYLINE
  8
0
  6
CONTINUOUS
 62
    80
  5
1F3
 66
     1
 10
0.0
 20
0.0
 30
0.0
  0
VERTEX
  8
0
  6
CONTINUOUS
 62
    80
  5
835
 10
346.539538
 20
4.531122
 30
0.0
  0
VERTEX
  8
0
  6
CONTINUOUS
 62
    80
  5
836
 10
346.712193
 20
4.583884
 30
0.0
  0
VERTEX
  8
0
  6
CONTINUOUS
 62
    80
  5
837
 10
346.884718
 20
4.637051
 30
0.0
  0
VERTEX
  8
0
  6
CONTINUOUS
 62
    80
  5
838
 10
347.057114
 20
4.690626
 30
0.0
  0
VERTEX
  8
0
  6
CONTINUOUS
 62
    80
  5
839
 10
347.229382
 20
4.744607
 30
0.0
  0
VERTEX
  8
0
  6
CONTINUOUS
 62
    80
  5
83A
 10
347.401522
 20
4.798996
 30
0.0
  0
VERTEX
  8
0
  6
CONTINUOUS
 62
    80
  5
83B
 10
347.573534
 20
4.853791
 30
0.0
  0
VERTEX
  8
0
  6
CONTINUOUS
 62
    80
  5
83C
 10
347.745419
 20
4.908994
 30
0.0
  0
VERTEX
  8
0
  6
CONTINUOUS
 62
    80
  5
83D
 10
347.917179
 20
4.964605
 30
0.0
  0
VERTEX
  8
0
  6
CONTINUOUS
 62
    80
  5
83E
 10
348.088812
 20
5.020623
 30
0.0
  0
VERTEX
  8
0
  6
CONTINUOUS
 62
    80
  5
83F
 10
348.260321
 20
5.07705
 30
0.0
  0
VERTEX
  8
0
  6
CONTINUOUS
 62
    80
  5
840
 10
348.431704
 20
5.133885
 30
0.0
  0
VERTEX
  8
0
  6
CONTINUOUS
 62
    80
  5
841
 10
348.602964
 20
5.191129
 30
0.0
  0
VERTEX
  8
0
  6
CONTINUOUS
 62
    80
  5
842
 10
348.7741
 20
5.248782
 30
0.0
  0
VERTEX
  8
0
  6
CONTINUOUS
 62
    80
  5
843
 10
348.945114
 20
5.306843
 30
0.0
  0
VERTEX
  8
0
  6
CONTINUOUS
 62
    80
  5
844
 10
349.116005
 20
5.365314
 30
0.0
  0
VERTEX
  8
0
  6
CONTINUOUS
 62
    80
  5
845
 10
349.286774
 20
5.424194
 30
0.0
  0
VERTEX
  8
0
  6
CONTINUOUS
 62
    80
  5
846
 10
349.288495
 20
5.42479
 30
0.0
  0
VERTEX
  8
0
  6
CONTINUOUS
 62
    80
  5
847
 10
349.290216
 20
5.425385
 30
0.0
  0
VERTEX
  8
0
  6
CONTINUOUS
 62
    80
  5
848
 10
349.291936
 20
5.42598
 30
0.0
  0
VERTEX
  8
0
  6
CONTINUOUS
 62
    80
  5
849
 10
349.293657
 20
5.426575
 30
0.0
  0
VERTEX
  8
0
  6
CONTINUOUS
 62
    80
  5
84A
 10
349.295377
 20
5.42717
 30
0.0
  0
VERTEX
  8
0
  6
CONTINUOUS
 62
    80
  5
84B
 10
349.297097
 20
5.427765
 30
0.0
  0
VERTEX
  8
0
  6
CONTINUOUS
 62
    80
  5
84C
 10
349.298817
 20
5.428359
 30
0.0
  0
VERTEX
  8
0
  6
CONTINUOUS
 62
    80
  5
84D
 10
349.300538
 20
5.428954
 30
0.0
  0
VERTEX
  8
0
  6
CONTINUOUS
 62
    80
  5
84E
 10
349.302258
 20
5.429548
 30
0.0
  0
VERTEX
  8
0
  6
CONTINUOUS
 62
    80
  5
84F
 10
349.303978
 20
5.430143
 30
0.0
  0
VERTEX
  8
0
  6
CONTINUOUS
 62
    80
  5
850
 10
349.305698
 20
5.430738
 30
0.0
  0
VERTEX
  8
0
  6
CONTINUOUS
 62
    80
  5
851
 10
349.307418
 20
5.431333
 30
0.0
  0
VERTEX
  8
0
  6
CONTINUOUS
 62
    80
  5
852
 10
349.309138
 20
5.431928
 30
0.0
  0
VERTEX
  8
0
  6
CONTINUOUS
 62
    80
  5
853
 10
349.310859
 20
5.432524
 30
0.0
  0
VERTEX
  8
0
  6
CONTINUOUS
 62
    80
  5
854
 10
349.31258
 20
5.43312
 30
0.0
  0
VERTEX
  8
0
  6
CONTINUOUS
 62
    80
  5
855
 10
349.314301
 20
5.433716
 30
0.0
  0
SEQEND
  8
0
  6
CONTINUOUS
 62
    80
  5
856
  0
POLYLINE
  8
0
  6
CONTINUOUS
 62
    80
  5
1F4
 66
     1
 10
0.0
 20
0.0
 30
0.0
  0
VERTEX
  8
0
  6
CONTINUOUS
 62
    80
  5
857
 10
337.882172
 20
3.268677
 30
0.0
  0
VERTEX
  8
0
  6
CONTINUOUS
 62
    80
  5
858
 10
337.873092
 20
3.259386
 30
0.0
  0
VERTEX
  8
0
  6
CONTINUOUS
 62
    80
  5
859
 10
337.863999
 20
3.250109
 30
0.0
  0
VERTEX
  8
0
  6
CONTINUOUS
 62
    80
  5
85A
 10
337.854892
 20
3.240847
 30
0.0
  0
VERTEX
  8
0
  6
CONTINUOUS
 62
    80
  5
85B
 10
337.845771
 20
3.231598
 30
0.0
  0
VERTEX
  8
0
  6
CONTINUOUS
 62
    80
  5
85C
 10
337.836636
 20
3.222364
 30
0.0
  0
VERTEX
  8
0
  6
CONTINUOUS
 62
    80
  5
85D
 10
337.827488
 20
3.213144
 30
0.0
  0
VERTEX
  8
0
  6
CONTINUOUS
 62
    80
  5
85E
 10
337.818325
 20
3.203937
 30
0.0
  0
VERTEX
  8
0
  6
CONTINUOUS
 62
    80
  5
85F
 10
337.809149
 20
3.194745
 30
0.0
  0
VERTEX
  8
0
  6
CONTINUOUS
 62
    80
  5
860
 10
337.799958
 20
3.185566
 30
0.0
  0
VERTEX
  8
0
  6
CONTINUOUS
 62
    80
  5
861
 10
337.790754
 20
3.176402
 30
0.0
  0
VERTEX
  8
0
  6
CONTINUOUS
 62
    80
  5
862
 10
337.781535
 20
3.167251
 30
0.0
  0
VERTEX
  8
0
  6
CONTINUOUS
 62
    80
  5
863
 10
337.772303
 20
3.158114
 30
0.0
  0
VERTEX
  8
0
  6
CONTINUOUS
 62
    80
  5
864
 10
337.763056
 20
3.148991
 30
0.0
  0
VERTEX
  8
0
  6
CONTINUOUS
 62
    80
  5
865
 10
337.753795
 20
3.139882
 30
0.0
  0
VERTEX
  8
0
  6
CONTINUOUS
 62
    80
  5
866
 10
337.744519
 20
3.130786
 30
0.0
  0
VERTEX
  8
0
  6
CONTINUOUS
 62
    80
  5
867
 10
337.735229
 20
3.121704
 30
0.0
  0
VERTEX
  8
0
  6
CONTINUOUS
 62
    80
  5
868
 10
337.683011
 20
3.071166
 30
0.0
  0
VERTEX
  8
0
  6
CONTINUOUS
 62
    80
  5
869
 10
337.630352
 20
3.021066
 30
0.0
  0
VERTEX
  8
0
  6
CONTINUOUS
 62
    80
  5
86A
 10
337.577257
 20
2.971408
 30
0.0
  0
VERTEX
  8
0
  6
CONTINUOUS
 62
    80
  5
86B
 10
337.523732
 20
2.922197
 30
0.0
  0
VERTEX
  8
0
  6
CONTINUOUS
 62
    80
  5
86C
 10
337.469785
 20
2.873436
 30
0.0
  0
VERTEX
  8
0
  6
CONTINUOUS
 62
    80
  5
86D
 10
337.41542
 20
2.82513
 30
0.0
  0
VERTEX
  8
0
  6
CONTINUOUS
 62
    80
  5
86E
 10
337.360645
 20
2.777283
 30
0.0
  0
VERTEX
  8
0
  6
CONTINUOUS
 62
    80
  5
86F
 10
337.305464
 20
2.729901
 30
0.0
  0
VERTEX
  8
0
  6
CONTINUOUS
 62
    80
  5
870
 10
337.249885
 20
2.682986
 30
0.0
  0
VERTEX
  8
0
  6
CONTINUOUS
 62
    80
  5
871
 10
337.193914
 20
2.636544
 30
0.0
  0
VERTEX
  8
0
  6
CONTINUOUS
 62
    80
  5
872
 10
337.137555
 20
2.590579
 30
0.0
  0
VERTEX
  8
0
  6
CONTINUOUS
 62
    80
  5
873
 10
337.080817
 20
2.545095
 30
0.0
  0
VERTEX
  8
0
  6
CONTINUOUS
 62
    80
  5
874
 10
337.023704
 20
2.500096
 30
0.0
  0
VERTEX
  8
0
  6
CONTINUOUS
 62
    80
  5
875
 10
336.966223
 20
2.455588
 30
0.0
  0
VERTEX
  8
0
  6
CONTINUOUS
 62
    80
  5
876
 10
336.90838
 20
2.411573
 30
0.0
  0
VERTEX
  8
0
  6
CONTINUOUS
 62
    80
  5
877
 10
336.850181
 20
2.368058
 30
0.0
  0
SEQEND
  8
0
  6
CONTINUOUS
 62
    80
  5
878
  0
POLYLINE
  8
0
  6
CONTINUOUS
 62
    80
  5
1F5
 66
     1
 10
0.0
 20
0.0
 30
0.0
  0
VERTEX
  8
0
  6
CONTINUOUS
 62
    80
  5
879
 10
335.703583
 20
4.452271
 30
0.0
  0
VERTEX
  8
0
  6
CONTINUOUS
 62
    80
  5
87A
 10
335.705069
 20
4.450335
 30
0.0
  0
VERTEX
  8
0
  6
CONTINUOUS
 62
    80
  5
87B
 10
335.706557
 20
4.4484
 30
0.0
  0
VERTEX
  8
0
  6
CONTINUOUS
 62
    80
  5
87C
 10
335.708045
 20
4.446466
 30
0.0
  0
VERTEX
  8
0
  6
CONTINUOUS
 62
    80
  5
87D
 10
335.709534
 20
4.444534
 30
0.0
  0
VERTEX
  8
0
  6
CONTINUOUS
 62
    80
  5
87E
 10
335.711024
 20
4.442602
 30
0.0
  0
VERTEX
  8
0
  6
CONTINUOUS
 62
    80
  5
87F
 10
335.712514
 20
4.440671
 30
0.0
  0
VERTEX
  8
0
  6
CONTINUOUS
 62
    80
  5
880
 10
335.714006
 20
4.438741
 30
0.0
  0
VERTEX
  8
0
  6
CONTINUOUS
 62
    80
  5
881
 10
335.715497
 20
4.436811
 30
0.0
  0
VERTEX
  8
0
  6
CONTINUOUS
 62
    80
  5
882
 10
335.71699
 20
4.434882
 30
0.0
  0
VERTEX
  8
0
  6
CONTINUOUS
 62
    80
  5
883
 10
335.718482
 20
4.432953
 30
0.0
  0
VERTEX
  8
0
  6
CONTINUOUS
 62
    80
  5
884
 10
335.719976
 20
4.431025
 30
0.0
  0
VERTEX
  8
0
  6
CONTINUOUS
 62
    80
  5
885
 10
335.721469
 20
4.429097
 30
0.0
  0
VERTEX
  8
0
  6
CONTINUOUS
 62
    80
  5
886
 10
335.722963
 20
4.427169
 30
0.0
  0
VERTEX
  8
0
  6
CONTINUOUS
 62
    80
  5
887
 10
335.724458
 20
4.425242
 30
0.0
  0
VERTEX
  8
0
  6
CONTINUOUS
 62
    80
  5
888
 10
335.725953
 20
4.423314
 30
0.0
  0
VERTEX
  8
0
  6
CONTINUOUS
 62
    80
  5
889
 10
335.727448
 20
4.421387
 30
0.0
  0
VERTEX
  8
0
  6
CONTINUOUS
 62
    80
  5
88A
 10
335.773634
 20
4.362442
 30
0.0
  0
VERTEX
  8
0
  6
CONTINUOUS
 62
    80
  5
88B
 10
335.820415
 20
4.303934
 30
0.0
  0
VERTEX
  8
0
  6
CONTINUOUS
 62
    80
  5
88C
 10
335.867783
 20
4.245869
 30
0.0
  0
VERTEX
  8
0
  6
CONTINUOUS
 62
    80
  5
88D
 10
335.91573
 20
4.188253
 30
0.0
  0
VERTEX
  8
0
  6
CONTINUOUS
 62
    80
  5
88E
 10
335.964248
 20
4.131095
 30
0.0
  0
VERTEX
  8
0
  6
CONTINUOUS
 62
    80
  5
88F
 10
336.01333
 20
4.074401
 30
0.0
  0
VERTEX
  8
0
  6
CONTINUOUS
 62
    80
  5
890
 10
336.062966
 20
4.018178
 30
0.0
  0
VERTEX
  8
0
  6
CONTINUOUS
 62
    80
  5
891
 10
336.113151
 20
3.962433
 30
0.0
  0
VERTEX
  8
0
  6
CONTINUOUS
 62
    80
  5
892
 10
336.163875
 20
3.907174
 30
0.0
  0
VERTEX
  8
0
  6
CONTINUOUS
 62
    80
  5
893
 10
336.215131
 20
3.852407
 30
0.0
  0
VERTEX
  8
0
  6
CONTINUOUS
 62
    80
  5
894
 10
336.266911
 20
3.798139
 30
0.0
  0
VERTEX
  8
0
  6
CONTINUOUS
 62
    80
  5
895
 10
336.319208
 20
3.744377
 30
0.0
  0
VERTEX
  8
0
  6
CONTINUOUS
 62
    80
  5
896
 10
336.372012
 20
3.691129
 30
0.0
  0
VERTEX
  8
0
  6
CONTINUOUS
 62
    80
  5
897
 10
336.425318
 20
3.638401
 30
0.0
  0
VERTEX
  8
0
  6
CONTINUOUS
 62
    80
  5
898
 10
336.479116
 20
3.5862
 30
0.0
  0
VERTEX
  8
0
  6
CONTINUOUS
 62
    80
  5
899
 10
336.533399
 20
3.534534
 30
0.0
  0
SEQEND
  8
0
  6
CONTINUOUS
 62
    80
  5
89A
  0
POLYLINE
  8
0
  6
CONTINUOUS
 62
    80
  5
1F6
 66
     1
 10
0.0
 20
0.0
 30
0.0
  0
VERTEX
  8
0
  6
CONTINUOUS
 62
    80
  5
89B
 10
335.703583
 20
3.681091
 30
0.0
  0
VERTEX
  8
0
  6
CONTINUOUS
 62
    80
  5
89C
 10
335.712762
 20
3.672856
 30
0.0
  0
VERTEX
  8
0
  6
CONTINUOUS
 62
    80
  5
89D
 10
335.721945
 20
3.664626
 30
0.0
  0
VERTEX
  8
0
  6
CONTINUOUS
 62
    80
  5
89E
 10
335.731134
 20
3.656401
 30
0.0
  0
VERTEX
  8
0
  6
CONTINUOUS
 62
    80
  5
89F
 10
335.740326
 20
3.648181
 30
0.0
  0
VERTEX
  8
0
  6
CONTINUOUS
 62
    80
  5
8A0
 10
335.749524
 20
3.639966
 30
0.0
  0
VERTEX
  8
0
  6
CONTINUOUS
 62
    80
  5
8A1
 10
335.758725
 20
3.631756
 30
0.0
  0
VERTEX
  8
0
  6
CONTINUOUS
 62
    80
  5
8A2
 10
335.767931
 20
3.623551
 30
0.0
  0
VERTEX
  8
0
  6
CONTINUOUS
 62
    80
  5
8A3
 10
335.777142
 20
3.615351
 30
0.0
  0
VERTEX
  8
0
  6
CONTINUOUS
 62
    80
  5
8A4
 10
335.786357
 20
3.607156
 30
0.0
  0
VERTEX
  8
0
  6
CONTINUOUS
 62
    80
  5
8A5
 10
335.795576
 20
3.598966
 30
0.0
  0
VERTEX
  8
0
  6
CONTINUOUS
 62
    80
  5
8A6
 10
335.8048
 20
3.59078
 30
0.0
  0
VERTEX
  8
0
  6
CONTINUOUS
 62
    80
  5
8A7
 10
335.814028
 20
3.5826
 30
0.0
  0
VERTEX
  8
0
  6
CONTINUOUS
 62
    80
  5
8A8
 10
335.82326
 20
3.574424
 30
0.0
  0
VERTEX
  8
0
  6
CONTINUOUS
 62
    80
  5
8A9
 10
335.832497
 20
3.566254
 30
0.0
  0
VERTEX
  8
0
  6
CONTINUOUS
 62
    80
  5
8AA
 10
335.841738
 20
3.558088
 30
0.0
  0
VERTEX
  8
0
  6
CONTINUOUS
 62
    80
  5
8AB
 10
335.850983
 20
3.549927
 30
0.0
  0
VERTEX
  8
0
  6
CONTINUOUS
 62
    80
  5
8AC
 10
335.877444
 20
3.526616
 30
0.0
  0
VERTEX
  8
0
  6
CONTINUOUS
 62
    80
  5
8AD
 10
335.903941
 20
3.503346
 30
0.0
  0
VERTEX
  8
0
  6
CONTINUOUS
 62
    80
  5
8AE
 10
335.930474
 20
3.480116
 30
0.0
  0
VERTEX
  8
0
  6
CONTINUOUS
 62
    80
  5
8AF
 10
335.957043
 20
3.456927
 30
0.0
  0
VERTEX
  8
0
  6
CONTINUOUS
 62
    80
  5
8B0
 10
335.983647
 20
3.433778
 30
0.0
  0
VERTEX
  8
0
  6
CONTINUOUS
 62
    80
  5
8B1
 10
336.010287
 20
3.41067
 30
0.0
  0
VERTEX
  8
0
  6
CONTINUOUS
 62
    80
  5
8B2
 10
336.036962
 20
3.387602
 30
0.0
  0
VERTEX
  8
0
  6
CONTINUOUS
 62
    80
  5
8B3
 10
336.063673
 20
3.364575
 30
0.0
  0
VERTEX
  8
0
  6
CONTINUOUS
 62
    80
  5
8B4
 10
336.090419
 20
3.341589
 30
0.0
  0
VERTEX
  8
0
  6
CONTINUOUS
 62
    80
  5
8B5
 10
336.1172
 20
3.318644
 30
0.0
  0
VERTEX
  8
0
  6
CONTINUOUS
 62
    80
  5
8B6
 10
336.144016
 20
3.29574
 30
0.0
  0
VERTEX
  8
0
  6
CONTINUOUS
 62
    80
  5
8B7
 10
336.170867
 20
3.272877
 30
0.0
  0
VERTEX
  8
0
  6
CONTINUOUS
 62
    80
  5
8B8
 10
336.197753
 20
3.250056
 30
0.0
  0
VERTEX
  8
0
  6
CONTINUOUS
 62
    80
  5
8B9
 10
336.224674
 20
3.227276
 30
0.0
  0
VERTEX
  8
0
  6
CONTINUOUS
 62
    80
  5
8BA
 10
336.25163
 20
3.204538
 30
0.0
  0
VERTEX
  8
0
  6
CONTINUOUS
 62
    80
  5
8BB
 10
336.27862
 20
3.181841
 30
0.0
  0
SEQEND
  8
0
  6
CONTINUOUS
 62
    80
  5
8BC
  0
POLYLINE
  8
0
  6
CONTINUOUS
 62
    80
  5
1F7
 66
     1
 10
0.0
 20
0.0
 30
0.0
  0
VERTEX
  8
0
  6
CONTINUOUS
 62
    80
  5
8BD
 10
334.953583
 20
3.586609
 30
0.0
  0
VERTEX
  8
0
  6
CONTINUOUS
 62
    80
  5
8BE
 10
334.943945
 20
3.574807
 30
0.0
  0
VERTEX
  8
0
  6
CONTINUOUS
 62
    80
  5
8BF
 10
334.934295
 20
3.563015
 30
0.0
  0
VERTEX
  8
0
  6
CONTINUOUS
 62
    80
  5
8C0
 10
334.924633
 20
3.551234
 30
0.0
  0
VERTEX
  8
0
  6
CONTINUOUS
 62
    80
  5
8C1
 10
334.914959
 20
3.539463
 30
0.0
  0
VERTEX
  8
0
  6
CONTINUOUS
 62
    80
  5
8C2
 10
334.905273
 20
3.527702
 30
0.0
  0
VERTEX
  8
0
  6
CONTINUOUS
 62
    80
  5
8C3
 10
334.895576
 20
3.515951
 30
0.0
  0
VERTEX
  8
0
  6
CONTINUOUS
 62
    80
  5
8C4
 10
334.885866
 20
3.50421
 30
0.0
  0
VERTEX
  8
0
  6
CONTINUOUS
 62
    80
  5
8C5
 10
334.876145
 20
3.492479
 30
0.0
  0
VERTEX
  8
0
  6
CONTINUOUS
 62
    80
  5
8C6
 10
334.866412
 20
3.480758
 30
0.0
  0
VERTEX
  8
0
  6
CONTINUOUS
 62
    80
  5
8C7
 10
334.856666
 20
3.469047
 30
0.0
  0
VERTEX
  8
0
  6
CONTINUOUS
 62
    80
  5
8C8
 10
334.846909
 20
3.457346
 30
0.0
  0
VERTEX
  8
0
  6
CONTINUOUS
 62
    80
  5
8C9
 10
334.83714
 20
3.445654
 30
0.0
  0
VERTEX
  8
0
  6
CONTINUOUS
 62
    80
  5
8CA
 10
334.827359
 20
3.433973
 30
0.0
  0
VERTEX
  8
0
  6
CONTINUOUS
 62
    80
  5
8CB
 10
334.817566
 20
3.422301
 30
0.0
  0
VERTEX
  8
0
  6
CONTINUOUS
 62
    80
  5
8CC
 10
334.80776
 20
3.410639
 30
0.0
  0
VERTEX
  8
0
  6
CONTINUOUS
 62
    80
  5
8CD
 10
334.797943
 20
3.398987
 30
0.0
  0
VERTEX
  8
0
  6
CONTINUOUS
 62
    80
  5
8CE
 10
334.768362
 20
3.364021
 30
0.0
  0
VERTEX
  8
0
  6
CONTINUOUS
 62
    80
  5
8CF
 10
334.738672
 20
3.329145
 30
0.0
  0
VERTEX
  8
0
  6
CONTINUOUS
 62
    80
  5
8D0
 10
334.708875
 20
3.294359
 30
0.0
  0
VERTEX
  8
0
  6
CONTINUOUS
 62
    80
  5
8D1
 10
334.678971
 20
3.259664
 30
0.0
  0
VERTEX
  8
0
  6
CONTINUOUS
 62
    80
  5
8D2
 10
334.648959
 20
3.22506
 30
0.0
  0
VERTEX
  8
0
  6
CONTINUOUS
 62
    80
  5
8D3
 10
334.618841
 20
3.190547
 30
0.0
  0
VERTEX
  8
0
  6
CONTINUOUS
 62
    80
  5
8D4
 10
334.588617
 20
3.156127
 30
0.0
  0
VERTEX
  8
0
  6
CONTINUOUS
 62
    80
  5
8D5
 10
334.558287
 20
3.121799
 30
0.0
  0
VERTEX
  8
0
  6
CONTINUOUS
 62
    80
  5
8D6
 10
334.527852
 20
3.087564
 30
0.0
  0
VERTEX
  8
0
  6
CONTINUOUS
 62
    80
  5
8D7
 10
334.497312
 20
3.053422
 30
0.0
  0
VERTEX
  8
0
  6
CONTINUOUS
 62
    80
  5
8D8
 10
334.466668
 20
3.019374
 30
0.0
  0
VERTEX
  8
0
  6
CONTINUOUS
 62
    80
  5
8D9
 10
334.435919
 20
2.98542
 30
0.0
  0
VERTEX
  8
0
  6
CONTINUOUS
 62
    80
  5
8DA
 10
334.405067
 20
2.951561
 30
0.0
  0
VERTEX
  8
0
  6
CONTINUOUS
 62
    80
  5
8DB
 10
334.374112
 20
2.917797
 30
0.0
  0
VERTEX
  8
0
  6
CONTINUOUS
 62
    80
  5
8DC
 10
334.343054
 20
2.884129
 30
0.0
  0
VERTEX
  8
0
  6
CONTINUOUS
 62
    80
  5
8DD
 10
334.311893
 20
2.850557
 30
0.0
  0
SEQEND
  8
0
  6
CONTINUOUS
 62
    80
  5
8DE
  0
POLYLINE
  8
0
  6
CONTINUOUS
 62
    80
  5
1F8
 66
     1
 10
0.0
 20
0.0
 30
0.0
  0
VERTEX
  8
0
  6
CONTINUOUS
 62
    80
  5
8DF
 10
330.525024
 20
3.187988
 30
0.0
  0
VERTEX
  8
0
  6
CONTINUOUS
 62
    80
  5
8E0
 10
330.516259
 20
3.179253
 30
0.0
  0
VERTEX
  8
0
  6
CONTINUOUS
 62
    80
  5
8E1
 10
330.507462
 20
3.170547
 30
0.0
  0
VERTEX
  8
0
  6
CONTINUOUS
 62
    80
  5
8E2
 10
330.498632
 20
3.161873
 30
0.0
  0
VERTEX
  8
0
  6
CONTINUOUS
 62
    80
  5
8E3
 10
330.48977
 20
3.153232
 30
0.0
  0
VERTEX
  8
0
  6
CONTINUOUS
 62
    80
  5
8E4
 10
330.480874
 20
3.144623
 30
0.0
  0
VERTEX
  8
0
  6
CONTINUOUS
 62
    80
  5
8E5
 10
330.471945
 20
3.13605
 30
0.0
  0
VERTEX
  8
0
  6
CONTINUOUS
 62
    80
  5
8E6
 10
330.462981
 20
3.127511
 30
0.0
  0
VERTEX
  8
0
  6
CONTINUOUS
 62
    80
  5
8E7
 10
330.453983
 20
3.119009
 30
0.0
  0
VERTEX
  8
0
  6
CONTINUOUS
 62
    80
  5
8E8
 10
330.444951
 20
3.110545
 30
0.0
  0
VERTEX
  8
0
  6
CONTINUOUS
 62
    80
  5
8E9
 10
330.435882
 20
3.102119
 30
0.0
  0
VERTEX
  8
0
  6
CONTINUOUS
 62
    80
  5
8EA
 10
330.426778
 20
3.093732
 30
0.0
  0
VERTEX
  8
0
  6
CONTINUOUS
 62
    80
  5
8EB
 10
330.417638
 20
3.085387
 30
0.0
  0
VERTEX
  8
0
  6
CONTINUOUS
 62
    80
  5
8EC
 10
330.408461
 20
3.077082
 30
0.0
  0
VERTEX
  8
0
  6
CONTINUOUS
 62
    80
  5
8ED
 10
330.399248
 20
3.068821
 30
0.0
  0
VERTEX
  8
0
  6
CONTINUOUS
 62
    80
  5
8EE
 10
330.389996
 20
3.060603
 30
0.0
  0
VERTEX
  8
0
  6
CONTINUOUS
 62
    80
  5
8EF
 10
330.380707
 20
3.052429
 30
0.0
  0
VERTEX
  8
0
  6
CONTINUOUS
 62
    80
  5
8F0
 10
330.329845
 20
3.00904
 30
0.0
  0
VERTEX
  8
0
  6
CONTINUOUS
 62
    80
  5
8F1
 10
330.277911
 20
2.966949
 30
0.0
  0
VERTEX
  8
0
  6
CONTINUOUS
 62
    80
  5
8F2
 10
330.224962
 20
2.926115
 30
0.0
  0
VERTEX
  8
0
  6
CONTINUOUS
 62
    80
  5
8F3
 10
330.171052
 20
2.886499
 30
0.0
  0
VERTEX
  8
0
  6
CONTINUOUS
 62
    80
  5
8F4
 10
330.116237
 20
2.848061
 30
0.0
  0
VERTEX
  8
0
  6
CONTINUOUS
 62
    80
  5
8F5
 10
330.060572
 20
2.810761
 30
0.0
  0
VERTEX
  8
0
  6
CONTINUOUS
 62
    80
  5
8F6
 10
330.004112
 20
2.77456
 30
0.0
  0
VERTEX
  8
0
  6
CONTINUOUS
 62
    80
  5
8F7
 10
329.946914
 20
2.739416
 30
0.0
  0
VERTEX
  8
0
  6
CONTINUOUS
 62
    80
  5
8F8
 10
329.889031
 20
2.705291
 30
0.0
  0
VERTEX
  8
0
  6
CONTINUOUS
 62
    80
  5
8F9
 10
329.830521
 20
2.672144
 30
0.0
  0
VERTEX
  8
0
  6
CONTINUOUS
 62
    80
  5
8FA
 10
329.771437
 20
2.639936
 30
0.0
  0
VERTEX
  8
0
  6
CONTINUOUS
 62
    80
  5
8FB
 10
329.711835
 20
2.608626
 30
0.0
  0
VERTEX
  8
0
  6
CONTINUOUS
 62
    80
  5
8FC
 10
329.651772
 20
2.578175
 30
0.0
  0
VERTEX
  8
0
  6
CONTINUOUS
 62
    80
  5
8FD
 10
329.591301
 20
2.548544
 30
0.0
  0
VERTEX
  8
0
  6
CONTINUOUS
 62
    80
  5
8FE
 10
329.530479
 20
2.519691
 30
0.0
  0
VERTEX
  8
0
  6
CONTINUOUS
 62
    80
  5
8FF
 10
329.46936
 20
2.491577
 30
0.0
  0
VERTEX
  8
0
  6
CONTINUOUS
 62
    80
  5
900
 10
329.422853
 20
2.470734
 30
0.0
  0
VERTEX
  8
0
  6
CONTINUOUS
 62
    80
  5
901
 10
329.376206
 20
2.450304
 30
0.0
  0
VERTEX
  8
0
  6
CONTINUOUS
 62
    80
  5
902
 10
329.329416
 20
2.430296
 30
0.0
  0
VERTEX
  8
0
  6
CONTINUOUS
 62
    80
  5
903
 10
329.282481
 20
2.410722
 30
0.0
  0
VERTEX
  8
0
  6
CONTINUOUS
 62
    80
  5
904
 10
329.235399
 20
2.391593
 30
0.0
  0
VERTEX
  8
0
  6
CONTINUOUS
 62
    80
  5
905
 10
329.188167
 20
2.372918
 30
0.0
  0
VERTEX
  8
0
  6
CONTINUOUS
 62
    80
  5
906
 10
329.140783
 20
2.35471
 30
0.0
  0
VERTEX
  8
0
  6
CONTINUOUS
 62
    80
  5
907
 10
329.093245
 20
2.336978
 30
0.0
  0
VERTEX
  8
0
  6
CONTINUOUS
 62
    80
  5
908
 10
329.04555
 20
2.319733
 30
0.0
  0
VERTEX
  8
0
  6
CONTINUOUS
 62
    80
  5
909
 10
328.997697
 20
2.302985
 30
0.0
  0
VERTEX
  8
0
  6
CONTINUOUS
 62
    80
  5
90A
 10
328.949682
 20
2.286747
 30
0.0
  0
VERTEX
  8
0
  6
CONTINUOUS
 62
    80
  5
90B
 10
328.901503
 20
2.271027
 30
0.0
  0
VERTEX
  8
0
  6
CONTINUOUS
 62
    80
  5
90C
 10
328.853159
 20
2.255838
 30
0.0
  0
VERTEX
  8
0
  6
CONTINUOUS
 62
    80
  5
90D
 10
328.804646
 20
2.241189
 30
0.0
  0
VERTEX
  8
0
  6
CONTINUOUS
 62
    80
  5
90E
 10
328.755963
 20
2.227091
 30
0.0
  0
VERTEX
  8
0
  6
CONTINUOUS
 62
    80
  5
90F
 10
328.707106
 20
2.213555
 30
0.0
  0
SEQEND
  8
0
  6
CONTINUOUS
 62
    80
  5
910
  0
POLYLINE
  8
0
  6
CONTINUOUS
 62
    80
  5
1F9
 66
     1
 10
0.0
 20
0.0
 30
0.0
  0
VERTEX
  8
0
  6
CONTINUOUS
 62
    80
  5
911
 10
321.416962
 20
5.533447
 30
0.0
  0
VERTEX
  8
0
  6
CONTINUOUS
 62
    80
  5
912
 10
321.342057
 20
5.4914
 30
0.0
  0
VERTEX
  8
0
  6
CONTINUOUS
 62
    80
  5
913
 10
321.266817
 20
5.449999
 30
0.0
  0
VERTEX
  8
0
  6
CONTINUOUS
 62
    80
  5
914
 10
321.191255
 20
5.409212
 30
0.0
  0
VERTEX
  8
0
  6
CONTINUOUS
 62
    80
  5
915
 10
321.115385
 20
5.36901
 30
0.0
  0
VERTEX
  8
0
  6
CONTINUOUS
 62
    80
  5
916
 10
321.039223
 20
5.329363
 30
0.0
  0
VERTEX
  8
0
  6
CONTINUOUS
 62
    80
  5
917
 10
320.962781
 20
5.290241
 30
0.0
  0
VERTEX
  8
0
  6
CONTINUOUS
 62
    80
  5
918
 10
320.886074
 20
5.251613
 30
0.0
  0
VERTEX
  8
0
  6
CONTINUOUS
 62
    80
  5
919
 10
320.809117
 20
5.21345
 30
0.0
  0
VERTEX
  8
0
  6
CONTINUOUS
 62
    80
  5
91A
 10
320.731923
 20
5.175721
 30
0.0
  0
VERTEX
  8
0
  6
CONTINUOUS
 62
    80
  5
91B
 10
320.654506
 20
5.138397
 30
0.0
  0
VERTEX
  8
0
  6
CONTINUOUS
 62
    80
  5
91C
 10
320.576882
 20
5.101448
 30
0.0
  0
VERTEX
  8
0
  6
CONTINUOUS
 62
    80
  5
91D
 10
320.499062
 20
5.064843
 30
0.0
  0
VERTEX
  8
0
  6
CONTINUOUS
 62
    80
  5
91E
 10
320.421063
 20
5.028552
 30
0.0
  0
VERTEX
  8
0
  6
CONTINUOUS
 62
    80
  5
91F
 10
320.342898
 20
4.992545
 30
0.0
  0
VERTEX
  8
0
  6
CONTINUOUS
 62
    80
  5
920
 10
320.264581
 20
4.956793
 30
0.0
  0
VERTEX
  8
0
  6
CONTINUOUS
 62
    80
  5
921
 10
320.186127
 20
4.921265
 30
0.0
  0
VERTEX
  8
0
  6
CONTINUOUS
 62
    80
  5
922
 10
320.129668
 20
4.895867
 30
0.0
  0
VERTEX
  8
0
  6
CONTINUOUS
 62
    80
  5
923
 10
320.073127
 20
4.870628
 30
0.0
  0
VERTEX
  8
0
  6
CONTINUOUS
 62
    80
  5
924
 10
320.01649
 20
4.845605
 30
0.0
  0
VERTEX
  8
0
  6
CONTINUOUS
 62
    80
  5
925
 10
319.959739
 20
4.820858
 30
0.0
  0
VERTEX
  8
0
  6
CONTINUOUS
 62
    80
  5
926
 10
319.902859
 20
4.796445
 30
0.0
  0
VERTEX
  8
0
  6
CONTINUOUS
 62
    80
  5
927
 10
319.845835
 20
4.772424
 30
0.0
  0
VERTEX
  8
0
  6
CONTINUOUS
 62
    80
  5
928
 10
319.788649
 20
4.748854
 30
0.0
  0
VERTEX
  8
0
  6
CONTINUOUS
 62
    80
  5
929
 10
319.731288
 20
4.725793
 30
0.0
  0
VERTEX
  8
0
  6
CONTINUOUS
 62
    80
  5
92A
 10
319.673733
 20
4.7033
 30
0.0
  0
VERTEX
  8
0
  6
CONTINUOUS
 62
    80
  5
92B
 10
319.61597
 20
4.681432
 30
0.0
  0
VERTEX
  8
0
  6
CONTINUOUS
 62
    80
  5
92C
 10
319.557983
 20
4.660249
 30
0.0
  0
VERTEX
  8
0
  6
CONTINUOUS
 62
    80
  5
92D
 10
319.499756
 20
4.63981
 30
0.0
  0
VERTEX
  8
0
  6
CONTINUOUS
 62
    80
  5
92E
 10
319.441273
 20
4.620172
 30
0.0
  0
VERTEX
  8
0
  6
CONTINUOUS
 62
    80
  5
92F
 10
319.382518
 20
4.601393
 30
0.0
  0
VERTEX
  8
0
  6
CONTINUOUS
 62
    80
  5
930
 10
319.323476
 20
4.583533
 30
0.0
  0
VERTEX
  8
0
  6
CONTINUOUS
 62
    80
  5
931
 10
319.26413
 20
4.56665
 30
0.0
  0
VERTEX
  8
0
  6
CONTINUOUS
 62
    80
  5
932
 10
319.260354
 20
4.565613
 30
0.0
  0
VERTEX
  8
0
  6
CONTINUOUS
 62
    80
  5
933
 10
319.256577
 20
4.56458
 30
0.0
  0
VERTEX
  8
0
  6
CONTINUOUS
 62
    80
  5
934
 10
319.252798
 20
4.563551
 30
0.0
  0
VERTEX
  8
0
  6
CONTINUOUS
 62
    80
  5
935
 10
319.249018
 20
4.562525
 30
0.0
  0
VERTEX
  8
0
  6
CONTINUOUS
 62
    80
  5
936
 10
319.245236
 20
4.561503
 30
0.0
  0
VERTEX
  8
0
  6
CONTINUOUS
 62
    80
  5
937
 10
319.241454
 20
4.560485
 30
0.0
  0
VERTEX
  8
0
  6
CONTINUOUS
 62
    80
  5
938
 10
319.23767
 20
4.55947
 30
0.0
  0
VERTEX
  8
0
  6
CONTINUOUS
 62
    80
  5
939
 10
319.233886
 20
4.558458
 30
0.0
  0
VERTEX
  8
0
  6
CONTINUOUS
 62
    80
  5
93A
 10
319.2301
 20
4.55745
 30
0.0
  0
VERTEX
  8
0
  6
CONTINUOUS
 62
    80
  5
93B
 10
319.226314
 20
4.556444
 30
0.0
  0
VERTEX
  8
0
  6
CONTINUOUS
 62
    80
  5
93C
 10
319.222526
 20
4.555442
 30
0.0
  0
VERTEX
  8
0
  6
CONTINUOUS
 62
    80
  5
93D
 10
319.218739
 20
4.554443
 30
0.0
  0
VERTEX
  8
0
  6
CONTINUOUS
 62
    80
  5
93E
 10
319.21495
 20
4.553447
 30
0.0
  0
VERTEX
  8
0
  6
CONTINUOUS
 62
    80
  5
93F
 10
319.211161
 20
4.552454
 30
0.0
  0
VERTEX
  8
0
  6
CONTINUOUS
 62
    80
  5
940
 10
319.207372
 20
4.551464
 30
0.0
  0
VERTEX
  8
0
  6
CONTINUOUS
 62
    80
  5
941
 10
319.203583
 20
4.550476
 30
0.0
  0
SEQEND
  8
0
  6
CONTINUOUS
 62
    80
  5
942
  0
POLYLINE
  8
0
  6
CONTINUOUS
 62
    80
  5
1FA
 66
     1
 10
0.0
 20
0.0
 30
0.0
  0
VERTEX
  8
0
  6
CONTINUOUS
 62
    80
  5
943
 10
319.781799
 20
5.571411
 30
0.0
  0
VERTEX
  8
0
  6
CONTINUOUS
 62
    80
  5
944
 10
319.773379
 20
5.560423
 30
0.0
  0
VERTEX
  8
0
  6
CONTINUOUS
 62
    80
  5
945
 10
319.764824
 20
5.549522
 30
0.0
  0
VERTEX
  8
0
  6
CONTINUOUS
 62
    80
  5
946
 10
319.756135
 20
5.538714
 30
0.0
  0
VERTEX
  8
0
  6
CONTINUOUS
 62
    80
  5
947
 10
319.74731
 20
5.528007
 30
0.0
  0
VERTEX
  8
0
  6
CONTINUOUS
 62
    80
  5
948
 10
319.73835
 20
5.517406
 30
0.0
  0
VERTEX
  8
0
  6
CONTINUOUS
 62
    80
  5
949
 10
319.729253
 20
5.506918
 30
0.0
  0
VERTEX
  8
0
  6
CONTINUOUS
 62
    80
  5
94A
 10
319.720021
 20
5.496549
 30
0.0
  0
VERTEX
  8
0
  6
CONTINUOUS
 62
    80
  5
94B
 10
319.710651
 20
5.486305
 30
0.0
  0
VERTEX
  8
0
  6
CONTINUOUS
 62
    80
  5
94C
 10
319.701143
 20
5.476192
 30
0.0
  0
VERTEX
  8
0
  6
CONTINUOUS
 62
    80
  5
94D
 10
319.691498
 20
5.466216
 30
0.0
  0
VERTEX
  8
0
  6
CONTINUOUS
 62
    80
  5
94E
 10
319.681715
 20
5.456385
 30
0.0
  0
VERTEX
  8
0
  6
CONTINUOUS
 62
    80
  5
94F
 10
319.671793
 20
5.446704
 30
0.0
  0
VERTEX
  8
0
  6
CONTINUOUS
 62
    80
  5
950
 10
319.661731
 20
5.437179
 30
0.0
  0
VERTEX
  8
0
  6
CONTINUOUS
 62
    80
  5
951
 10
319.65153
 20
5.427818
 30
0.0
  0
VERTEX
  8
0
  6
CONTINUOUS
 62
    80
  5
952
 10
319.641189
 20
5.418625
 30
0.0
  0
VERTEX
  8
0
  6
CONTINUOUS
 62
    80
  5
953
 10
319.630707
 20
5.409607
 30
0.0
  0
VERTEX
  8
0
  6
CONTINUOUS
 62
    80
  5
954
 10
319.618029
 20
5.399091
 30
0.0
  0
VERTEX
  8
0
  6
CONTINUOUS
 62
    80
  5
955
 10
319.605162
 20
5.38882
 30
0.0
  0
VERTEX
  8
0
  6
CONTINUOUS
 62
    80
  5
956
 10
319.592115
 20
5.37878
 30
0.0
  0
VERTEX
  8
0
  6
CONTINUOUS
 62
    80
  5
957
 10
319.578901
 20
5.368959
 30
0.0
  0
VERTEX
  8
0
  6
CONTINUOUS
 62
    80
  5
958
 10
319.565529
 20
5.359342
 30
0.0
  0
VERTEX
  8
0
  6
CONTINUOUS
 62
    80
  5
959
 10
319.55201
 20
5.349917
 30
0.0
  0
VERTEX
  8
0
  6
CONTINUOUS
 62
    80
  5
95A
 10
319.538355
 20
5.34067
 30
0.0
  0
VERTEX
  8
0
  6
CONTINUOUS
 62
    80
  5
95B
 10
319.524575
 20
5.331587
 30
0.0
  0
VERTEX
  8
0
  6
CONTINUOUS
 62
    80
  5
95C
 10
319.51068
 20
5.322656
 30
0.0
  0
VERTEX
  8
0
  6
CONTINUOUS
 62
    80
  5
95D
 10
319.496681
 20
5.313862
 30
0.0
  0
VERTEX
  8
0
  6
CONTINUOUS
 62
    80
  5
95E
 10
319.482589
 20
5.305193
 30
0.0
  0
VERTEX
  8
0
  6
CONTINUOUS
 62
    80
  5
95F
 10
319.468414
 20
5.296635
 30
0.0
  0
VERTEX
  8
0
  6
CONTINUOUS
 62
    80
  5
960
 10
319.454167
 20
5.288174
 30
0.0
  0
VERTEX
  8
0
  6
CONTINUOUS
 62
    80
  5
961
 10
319.439859
 20
5.279798
 30
0.0
  0
VERTEX
  8
0
  6
CONTINUOUS
 62
    80
  5
962
 10
319.425501
 20
5.271493
 30
0.0
  0
VERTEX
  8
0
  6
CONTINUOUS
 62
    80
  5
963
 10
319.411102
 20
5.263245
 30
0.0
  0
VERTEX
  8
0
  6
CONTINUOUS
 62
    80
  5
964
 10
319.333925
 20
5.220092
 30
0.0
  0
VERTEX
  8
0
  6
CONTINUOUS
 62
    80
  5
965
 10
319.25594
 20
5.178263
 30
0.0
  0
VERTEX
  8
0
  6
CONTINUOUS
 62
    80
  5
966
 10
319.177178
 20
5.137815
 30
0.0
  0
VERTEX
  8
0
  6
CONTINUOUS
 62
    80
  5
967
 10
319.097667
 20
5.098807
 30
0.0
  0
VERTEX
  8
0
  6
CONTINUOUS
 62
    80
  5
968
 10
319.017438
 20
5.061298
 30
0.0
  0
VERTEX
  8
0
  6
CONTINUOUS
 62
    80
  5
969
 10
318.93652
 20
5.025344
 30
0.0
  0
VERTEX
  8
0
  6
CONTINUOUS
 62
    80
  5
96A
 10
318.854942
 20
4.991005
 30
0.0
  0
VERTEX
  8
0
  6
CONTINUOUS
 62
    80
  5
96B
 10
318.772733
 20
4.958337
 30
0.0
  0
VERTEX
  8
0
  6
CONTINUOUS
 62
    80
  5
96C
 10
318.689924
 20
4.927401
 30
0.0
  0
VERTEX
  8
0
  6
CONTINUOUS
 62
    80
  5
96D
 10
318.606542
 20
4.898253
 30
0.0
  0
VERTEX
  8
0
  6
CONTINUOUS
 62
    80
  5
96E
 10
318.522619
 20
4.870951
 30
0.0
  0
VERTEX
  8
0
  6
CONTINUOUS
 62
    80
  5
96F
 10
318.438183
 20
4.845555
 30
0.0
  0
VERTEX
  8
0
  6
CONTINUOUS
 62
    80
  5
970
 10
318.353264
 20
4.822121
 30
0.0
  0
VERTEX
  8
0
  6
CONTINUOUS
 62
    80
  5
971
 10
318.267891
 20
4.800709
 30
0.0
  0
VERTEX
  8
0
  6
CONTINUOUS
 62
    80
  5
972
 10
318.182093
 20
4.781375
 30
0.0
  0
VERTEX
  8
0
  6
CONTINUOUS
 62
    80
  5
973
 10
318.095901
 20
4.764179
 30
0.0
  0
SEQEND
  8
0
  6
CONTINUOUS
 62
    80
  5
974
  0
ARC
  8
0
  6
CONTINUOUS
 62
    80
  5
1FB
 10
314.717926
 20
2.467773
 30
0.0
 40
0.2
 50
269.999997
 51
0.0
  0
ARC
  8
0
  6
CONTINUOUS
 62
    80
  5
1FC
 10
311.939301
 20
2.467773
 30
0.0
 40
0.2
 50
179.999995
 51
269.999997
  0
ARC
  8
0
  6
CONTINUOUS
 62
    80
  5
1FD
 10
313.147888
 20
2.497803
 30
0.0
 40
0.23
 50
179.999995
 51
269.999997
  0
CIRCLE
  8
0
  6
CONTINUOUS
 62
    80
  5
1FE
 10
355.407166
 20
3.410706
 30
0.0
 40
0.375
  0
CIRCLE
  8
0
  6
CONTINUOUS
 62
    80
  5
1FF
 10
345.235748
 20
5.767822
 30
0.0
 40
0.375
  0
CIRCLE
  8
0
  6
CONTINUOUS
 62
    80
  5
200
 10
339.507172
 20
2.982117
 30
0.0
 40
0.375
  0
CIRCLE
  8
0
  6
CONTINUOUS
 62
    80
  5
201
 10
333.43573
 20
2.767822
 30
0.0
 40
0.375
  0
ARC
  8
0
  6
CONTINUOUS
 62
    80
  5
202
 10
317.792877
 20
2.910706
 30
0.0
 40
0.232143
 50
179.999991
 51
270.000001
  0
ARC
  8
0
  6
CONTINUOUS
 62
    80
  5
203
 10
316.93573
 20
2.410706
 30
0.0
 40
0.196429
 50
179.999991
 51
270.000001
  0
ARC
  8
0
  6
CONTINUOUS
 62
    80
  5
204
 10
319.007172
 20
2.410706
 30
0.0
 40
0.196429
 50
269.999997
 51
0.0
  0
ARC
  8
0
  6
CONTINUOUS
 62
    80
  5
205
 10
295.507172
 20
2.767822
 30
0.0
 40
0.553571
 50
269.999997
 51
0.0
  0
ARC
  8
0
  6
CONTINUOUS
 62
    80
  5
206
 10
294.221466
 20
3.053528
 30
0.0
 40
0.375
 50
269.999997
 51
0.0
  0
ARC
  8
0
  6
CONTINUOUS
 62
    80
  5
207
 10
296.93573
 20
4.839233
 30
0.0
 40
0.446429
 50
269.999997
 51
0.0
  0
ARC
  8
0
  6
CONTINUOUS
 62
    80
  5
208
 10
298.007172
 20
4.625
 30
0.0
 40
0.767857
 50
269.999997
 51
0.0
  0
CIRCLE
  8
0
  6
CONTINUOUS
 62
     3
  5
209
 10
252.25
 20
236.624989
 30
0.0
 40
0.2
  0
CIRCLE
  8
0
  6
CONTINUOUS
 62
     3
  5
20A
 10
247.25
 20
236.624989
 30
0.0
 40
0.2
  0
CIRCLE
  8
0
  6
CONTINUOUS
 62
     3
  5
20B
 10
252.25
 20
241.624985
 30
0.0
 40
0.2
  0
CIRCLE
  8
0
  6
CONTINUOUS
 62
     3
  5
20C
 10
247.25
 20
241.624985
 30
0.0
 40
0.2
  0
CIRCLE
  8
0
  6
CONTINUOUS
 62
     3
  5
20D
 10
252.25
 20
246.624985
 30
0.0
 40
0.2
  0
CIRCLE
  8
0
  6
CONTINUOUS
 62
     3
  5
20E
 10
247.25
 20
246.624985
 30
0.0
 40
0.2
  0
CIRCLE
  8
0
  6
CONTINUOUS
 62
     3
  5
20F
 10
252.25
 20
251.624985
 30
0.0
 40
0.2
  0
CIRCLE
  8
0
  6
CONTINUOUS
 62
     3
  5
210
 10
247.25
 20
251.624985
 30
0.0
 40
0.2
  0
LINE
  8
0
  6
CONTINUOUS
 62
    80
  5
211
 10
206.25
 20
1.625
 30
0.0
 11
244.25
 21
1.625
 31
0.0
  0
LINE
  8
0
  6
CONTINUOUS
 62
    80
  5
212
 10
206.25
 20
12.125
 30
0.0
 11
244.25
 21
12.125
 31
0.0
  0
LINE
  8
0
  6
CONTINUOUS
 62
     3
  5
213
 10
206.25
 20
5.625
 30
0.0
 11
244.25
 21
5.625
 31
0.0
  0
LINE
  8
0
  6
CONTINUOUS
 62
     3
  5
214
 10
206.25
 20
31.625
 30
0.0
 11
370.25
 21
31.625
 31
0.0
  0
LINE
  8
0
  6
CONTINUOUS
 62
    80
  5
215
 10
338.56076
 20
4.286438
 30
0.0
 11
338.56076
 21
2.214233
 31
0.0
  0
LINE
  8
0
  6
CONTINUOUS
 62
    80
  5
216
 10
338.56076
 20
5.072144
 30
0.0
 11
338.56076
 21
4.606384
 31
0.0
  0
LINE
  8
0
  6
CONTINUOUS
 62
    80
  5
217
 10
337.882172
 20
5.39209
 30
0.0
 11
337.882172
 21
6.035706
 31
0.0
  0
LINE
  8
0
  6
CONTINUOUS
 62
    80
  5
218
 10
338.56076
 20
5.39209
 30
0.0
 11
339.917877
 21
5.39209
 31
0.0
  0
LINE
  8
0
  6
CONTINUOUS
 62
    80
  5
219
 10
337.882172
 20
4.606384
 30
0.0
 11
336.739319
 21
4.606384
 31
0.0
  0
LINE
  8
0
  6
CONTINUOUS
 62
    80
  5
21A
 10
338.56076
 20
5.072144
 30
0.0
 11
339.917877
 21
5.072144
 31
0.0
  0
LINE
  8
0
  6
CONTINUOUS
 62
    80
  5
21B
 10
337.34259
 20
4.286438
 30
0.0
 11
336.739319
 21
4.286438
 31
0.0
  0
LINE
  8
0
  6
CONTINUOUS
 62
    80
  5
21C
 10
335.703583
 20
5.39209
 30
0.0
 11
336.346466
 21
5.39209
 31
0.0
  0
LINE
  8
0
  6
CONTINUOUS
 62
    80
  5
21D
 10
335.703583
 20
5.072144
 30
0.0
 11
336.346466
 21
5.072144
 31
0.0
  0
LINE
  8
0
  6
CONTINUOUS
 62
    80
  5
21E
 10
336.346466
 20
5.39209
 30
0.0
 11
336.346466
 21
5.072144
 31
0.0
  0
LINE
  8
0
  6
CONTINUOUS
 62
    80
  5
21F
 10
334.31073
 20
5.39209
 30
0.0
 11
334.31073
 21
5.072144
 31
0.0
  0
LINE
  8
0
  6
CONTINUOUS
 62
    80
  5
220
 10
339.917877
 20
5.39209
 30
0.0
 11
339.917877
 21
5.072144
 31
0.0
  0
LINE
  8
0
  6
CONTINUOUS
 62
    80
  5
221
 10
337.489319
 20
5.39209
 30
0.0
 11
337.882172
 21
5.39209
 31
0.0
  0
LINE
  8
0
  6
CONTINUOUS
 62
    80
  5
222
 10
339.917877
 20
4.606384
 30
0.0
 11
339.917877
 21
4.286438
 31
0.0
  0
LINE
  8
0
  6
CONTINUOUS
 62
    80
  5
223
 10
336.739319
 20
4.606384
 30
0.0
 11
336.739319
 21
4.286438
 31
0.0
  0
LINE
  8
0
  6
CONTINUOUS
 62
    80
  5
224
 10
334.31073
 20
5.39209
 30
0.0
 11
334.953583
 21
5.39209
 31
0.0
  0
LINE
  8
0
  6
CONTINUOUS
 62
    80
  5
225
 10
334.31073
 20
5.072144
 30
0.0
 11
334.936523
 21
5.072144
 31
0.0
  0
LINE
  8
0
  6
CONTINUOUS
 62
    80
  5
226
 10
336.739319
 20
5.072144
 30
0.0
 11
337.882172
 21
5.072144
 31
0.0
  0
LINE
  8
0
  6
CONTINUOUS
 62
    80
  5
227
 10
339.917877
 20
4.286438
 30
0.0
 11
338.56076
 21
4.286438
 31
0.0
  0
LINE
  8
0
  6
CONTINUOUS
 62
    80
  5
228
 10
339.917877
 20
4.606384
 30
0.0
 11
338.56076
 21
4.606384
 31
0.0
  0
LINE
  8
0
  6
CONTINUOUS
 62
    80
  5
229
 10
337.882172
 20
4.606384
 30
0.0
 11
337.882172
 21
5.072144
 31
0.0
  0
LINE
  8
0
  6
CONTINUOUS
 62
    80
  5
22A
 10
332.677328
 20
5.964227
 30
0.0
 11
332.132152
 21
5.410624
 31
0.0
  0
LINE
  8
0
  6
CONTINUOUS
 62
    80
  5
22B
 10
329.408406
 20
5.964239
 30
0.0
 11
329.953572
 21
5.410647
 31
0.0
  0
LINE
  8
0
  6
CONTINUOUS
 62
    80
  5
22C
 10
333.846466
 20
3.696411
 30
0.0
 11
328.167877
 21
3.696411
 31
0.0
  0
LINE
  8
0
  6
CONTINUOUS
 62
    80
  5
22D
 10
333.846466
 20
4.196411
 30
0.0
 11
328.167877
 21
4.196411
 31
0.0
  0
LINE
  8
0
  6
CONTINUOUS
 62
    80
  5
22E
 10
328.167877
 20
4.696411
 30
0.0
 11
333.846466
 21
4.696411
 31
0.0
  0
LINE
  8
0
  6
CONTINUOUS
 62
    80
  5
22F
 10
328.167877
 20
5.410645
 30
0.0
 11
333.846466
 21
5.410645
 31
0.0
  0
LINE
  8
0
  6
CONTINUOUS
 62
    80
  5
230
 10
311.939301
 20
2.267822
 30
0.0
 11
314.717926
 21
2.267822
 31
0.0
  0
LINE
  8
0
  6
CONTINUOUS
 62
    80
  5
231
 10
312.917877
 20
2.989258
 30
0.0
 11
314.846527
 21
2.989258
 31
0.0
  0
LINE
  8
0
  6
CONTINUOUS
 62
    80
  5
232
 10
309.81073
 20
2.989258
 30
0.0
 11
311.739319
 21
2.989258
 31
0.0
  0
LINE
  8
0
  6
CONTINUOUS
 62
    80
  5
233
 10
309.81073
 20
3.589233
 30
0.0
 11
314.846527
 21
3.589233
 31
0.0
  0
LINE
  8
0
  6
CONTINUOUS
 62
    80
  5
234
 10
309.81073
 20
4.189331
 30
0.0
 11
314.846527
 21
4.189331
 31
0.0
  0
LINE
  8
0
  6
CONTINUOUS
 62
    80
  5
235
 10
309.453644
 20
5.482117
 30
0.0
 11
315.203705
 21
5.482117
 31
0.0
  0
LINE
  8
0
  6
CONTINUOUS
 62
    80
  5
236
 10
309.739349
 20
5.982117
 30
0.0
 11
314.917877
 21
5.982117
 31
0.0
  0
LINE
  8
0
  6
CONTINUOUS
 62
    80
  5
237
 10
313.551422
 20
5.107117
 30
0.0
 11
313.730927
 21
5.107117
 31
0.0
  0
LINE
  8
0
  6
CONTINUOUS
 62
    80
  5
238
 10
313.551422
 20
5.071472
 30
0.0
 11
313.819946
 21
5.071472
 31
0.0
  0
LINE
  8
0
  6
CONTINUOUS
 62
    80
  5
239
 10
310.83725
 20
4.678406
 30
0.0
 11
311.016754
 21
4.678406
 31
0.0
  0
LINE
  8
0
  6
CONTINUOUS
 62
    80
  5
23A
 10
310.83725
 20
4.642822
 30
0.0
 11
311.105774
 21
4.642822
 31
0.0
  0
LINE
  8
0
  6
CONTINUOUS
 62
    80
  5
23B
 10
310.83725
 20
5.107117
 30
0.0
 11
311.016754
 21
5.107117
 31
0.0
  0
LINE
  8
0
  6
CONTINUOUS
 62
    80
  5
23C
 10
310.83725
 20
5.071472
 30
0.0
 11
311.105774
 21
5.071472
 31
0.0
  0
LINE
  8
0
  6
CONTINUOUS
 62
    80
  5
23D
 10
333.210458
 20
5.964237
 30
0.0
 11
332.665281
 21
5.410634
 31
0.0
  0
LINE
  8
0
  6
CONTINUOUS
 62
    80
  5
23E
 10
328.875255
 20
5.964227
 30
0.0
 11
329.420421
 21
5.410635
 31
0.0
  0
LINE
  8
0
  6
CONTINUOUS
 62
    80
  5
23F
 10
317.56073
 20
2.964233
 30
0.0
 11
317.56073
 21
2.910706
 31
0.0
  0
LINE
  8
0
  6
CONTINUOUS
 62
    80
  5
240
 10
357.317871
 20
2.535706
 30
0.0
 11
358.24646
 21
2.535706
 31
0.0
  0
LINE
  8
0
  6
CONTINUOUS
 62
    80
  5
241
 10
358.24646
 20
2.535706
 30
0.0
 11
358.24646
 21
2.214233
 31
0.0
  0
LINE
  8
0
  6
CONTINUOUS
 62
    80
  5
242
 10
358.24646
 20
2.214233
 30
0.0
 11
355.49646
 21
2.214233
 31
0.0
  0
LINE
  8
0
  6
CONTINUOUS
 62
    80
  5
243
 10
355.49646
 20
2.214233
 30
0.0
 11
355.49646
 21
2.535706
 31
0.0
  0
LINE
  8
0
  6
CONTINUOUS
 62
    80
  5
244
 10
355.49646
 20
2.535706
 30
0.0
 11
356.49646
 21
2.535706
 31
0.0
  0
LINE
  8
0
  6
CONTINUOUS
 62
    80
  5
245
 10
356.49646
 20
4.928528
 30
0.0
 11
356.49646
 21
2.535706
 31
0.0
  0
LINE
  8
0
  6
CONTINUOUS
 62
    80
  5
246
 10
356.49646
 20
4.928528
 30
0.0
 11
355.710724
 21
4.928528
 31
0.0
  0
LINE
  8
0
  6
CONTINUOUS
 62
    80
  5
247
 10
357.317871
 20
4.928528
 30
0.0
 11
357.317871
 21
2.535706
 31
0.0
  0
LINE
  8
0
  6
CONTINUOUS
 62
    80
  5
248
 10
358.24646
 20
4.928528
 30
0.0
 11
357.317871
 21
4.928528
 31
0.0
  0
LINE
  8
0
  6
CONTINUOUS
 62
    80
  5
249
 10
358.24646
 20
4.928528
 30
0.0
 11
358.24646
 21
5.25
 31
0.0
  0
LINE
  8
0
  6
CONTINUOUS
 62
    80
  5
24A
 10
357.317871
 20
5.25
 30
0.0
 11
358.24646
 21
5.25
 31
0.0
  0
LINE
  8
0
  6
CONTINUOUS
 62
    80
  5
24B
 10
357.317871
 20
6.035706
 30
0.0
 11
357.317871
 21
5.25
 31
0.0
  0
LINE
  8
0
  6
CONTINUOUS
 62
    80
  5
24C
 10
356.49646
 20
6.035706
 30
0.0
 11
357.317871
 21
6.035706
 31
0.0
  0
LINE
  8
0
  6
CONTINUOUS
 62
    80
  5
24D
 10
356.49646
 20
5.25
 30
0.0
 11
356.49646
 21
6.035706
 31
0.0
  0
LINE
  8
0
  6
CONTINUOUS
 62
    80
  5
24E
 10
355.710724
 20
5.25
 30
0.0
 11
356.49646
 21
5.25
 31
0.0
  0
LINE
  8
0
  6
CONTINUOUS
 62
    80
  5
24F
 10
355.710724
 20
4.928528
 30
0.0
 11
355.710724
 21
5.25
 31
0.0
  0
LINE
  8
0
  6
CONTINUOUS
 62
    80
  5
250
 10
355.24646
 20
6.035706
 30
0.0
 11
355.24646
 21
5.714233
 31
0.0
  0
LINE
  8
0
  6
CONTINUOUS
 62
    80
  5
251
 10
352.553589
 20
6.035706
 30
0.0
 11
355.24646
 21
6.035706
 31
0.0
  0
LINE
  8
0
  6
CONTINUOUS
 62
    80
  5
252
 10
352.553589
 20
6.035706
 30
0.0
 11
352.553589
 21
5.714233
 31
0.0
  0
LINE
  8
0
  6
CONTINUOUS
 62
    80
  5
253
 10
355.24646
 20
5.714233
 30
0.0
 11
352.553589
 21
5.714233
 31
0.0
  0
LINE
  8
0
  6
CONTINUOUS
 62
    80
  5
254
 10
352.553589
 20
4.928528
 30
0.0
 11
353.601593
 21
4.928528
 31
0.0
  0
LINE
  8
0
  6
CONTINUOUS
 62
    80
  5
255
 10
352.553589
 20
5.25
 30
0.0
 11
355.24646
 21
5.25
 31
0.0
  0
LINE
  8
0
  6
CONTINUOUS
 62
    80
  5
256
 10
355.24646
 20
4.928528
 30
0.0
 11
355.24646
 21
5.25
 31
0.0
  0
LINE
  8
0
  6
CONTINUOUS
 62
    80
  5
257
 10
354.532166
 20
4.928528
 30
0.0
 11
355.24646
 21
4.928528
 31
0.0
  0
LINE
  8
0
  6
CONTINUOUS
 62
    80
  5
258
 10
354.532166
 20
2.214233
 30
0.0
 11
354.532166
 21
4.928528
 31
0.0
  0
LINE
  8
0
  6
CONTINUOUS
 62
    80
  5
259
 10
353.639313
 20
2.214233
 30
0.0
 11
354.532166
 21
2.214233
 31
0.0
  0
LINE
  8
0
  6
CONTINUOUS
 62
    80
  5
25A
 10
353.639313
 20
3.429688
 30
0.0
 11
353.639313
 21
2.214233
 31
0.0
  0
LINE
  8
0
  6
CONTINUOUS
 62
    80
  5
25B
 10
352.553589
 20
3.368347
 30
0.0
 11
352.553589
 21
2.777588
 31
0.0
  0
LINE
  8
0
  6
CONTINUOUS
 62
    80
  5
25C
 10
352.089325
 20
3.5
 30
0.0
 11
352.089325
 21
3.892822
 31
0.0
  0
LINE
  8
0
  6
CONTINUOUS
 62
    80
  5
25D
 10
351.022552
 20
3.5
 30
0.0
 11
352.089325
 21
3.5
 31
0.0
  0
LINE
  8
0
  6
CONTINUOUS
 62
    80
  5
25E
 10
348.604767
 20
3.5
 30
0.0
 11
350.022064
 21
3.5
 31
0.0
  0
LINE
  8
0
  6
CONTINUOUS
 62
    80
  5
25F
 10
348.084442
 20
2.535706
 30
0.0
 11
350.542389
 21
2.535706
 31
0.0
  0
LINE
  8
0
  6
CONTINUOUS
 62
    80
  5
260
 10
346.628418
 20
2.214233
 30
0.0
 11
351.999146
 21
2.214233
 31
0.0
  0
LINE
  8
0
  6
CONTINUOUS
 62
    80
  5
261
 10
346.539307
 20
3.5
 30
0.0
 11
347.595764
 21
3.5
 31
0.0
  0
LINE
  8
0
  6
CONTINUOUS
 62
    80
  5
262
 10
346.539307
 20
3.892822
 30
0.0
 11
346.539307
 21
3.5
 31
0.0
  0
LINE
  8
0
  6
CONTINUOUS
 62
    80
  5
263
 10
346.539307
 20
3.892822
 30
0.0
 11
352.089325
 21
3.892822
 31
0.0
  0
LINE
  8
0
  6
CONTINUOUS
 62
    80
  5
264
 10
350.932159
 20
4.678528
 30
0.0
 11
350.932159
 21
4.357117
 31
0.0
  0
LINE
  8
0
  6
CONTINUOUS
 62
    80
  5
265
 10
347.682159
 20
4.357117
 30
0.0
 11
350.932159
 21
4.357117
 31
0.0
  0
LINE
  8
0
  6
CONTINUOUS
 62
    80
  5
266
 10
347.682159
 20
4.678528
 30
0.0
 11
347.682159
 21
4.357117
 31
0.0
  0
LINE
  8
0
  6
CONTINUOUS
 62
    80
  5
267
 10
347.682159
 20
4.678528
 30
0.0
 11
350.932159
 21
4.678528
 31
0.0
  0
LINE
  8
0
  6
CONTINUOUS
 62
    80
  5
268
 10
346.539307
 20
4.531006
 30
0.0
 11
346.539307
 21
5.13147
 31
0.0
  0
LINE
  8
0
  6
CONTINUOUS
 62
    80
  5
269
 10
352.089325
 20
4.531067
 30
0.0
 11
352.089325
 21
5.13147
 31
0.0
  0
LINE
  8
0
  6
CONTINUOUS
 62
    80
  5
26A
 10
352.553589
 20
5.25
 30
0.0
 11
352.553589
 21
4.928528
 31
0.0
  0
LINE
  8
0
  6
CONTINUOUS
 62
    80
  5
26B
 10
340.453613
 20
2.614197
 30
0.0
 11
340.453613
 21
2.147766
 31
0.0
  0
LINE
  8
0
  6
CONTINUOUS
 62
    80
  5
26C
 10
343.346466
 20
2.876953
 30
0.0
 11
343.346466
 21
2.553101
 31
0.0
  0
LINE
  8
0
  6
CONTINUOUS
 62
    80
  5
26D
 10
343.346466
 20
4.035706
 30
0.0
 11
343.346466
 21
3.714233
 31
0.0
  0
LINE
  8
0
  6
CONTINUOUS
 62
    80
  5
26E
 10
343.346466
 20
3.714233
 30
0.0
 11
342.275024
 21
3.714233
 31
0.0
  0
LINE
  8
0
  6
CONTINUOUS
 62
    80
  5
26F
 10
342.275024
 20
3.714233
 30
0.0
 11
342.275024
 21
2.741821
 31
0.0
  0
LINE
  8
0
  6
CONTINUOUS
 62
    80
  5
270
 10
341.382172
 20
3.714233
 30
0.0
 11
341.382172
 21
2.684021
 31
0.0
  0
LINE
  8
0
  6
CONTINUOUS
 62
    80
  5
271
 10
341.382172
 20
3.714233
 30
0.0
 11
340.453613
 21
3.714233
 31
0.0
  0
LINE
  8
0
  6
CONTINUOUS
 62
    80
  5
272
 10
340.453613
 20
4.035706
 30
0.0
 11
340.453613
 21
3.714233
 31
0.0
  0
LINE
  8
0
  6
CONTINUOUS
 62
    80
  5
273
 10
340.453613
 20
4.035706
 30
0.0
 11
343.346466
 21
4.035706
 31
0.0
  0
LINE
  8
0
  6
CONTINUOUS
 62
    80
  5
274
 10
345.056152
 20
2.428528
 30
0.0
 11
346.120911
 21
2.428528
 31
0.0
  0
LINE
  8
0
  6
CONTINUOUS
 62
    80
  5
275
 10
346.003601
 20
4.714233
 30
0.0
 11
344.808014
 21
4.714233
 31
0.0
  0
LINE
  8
0
  6
CONTINUOUS
 62
    80
  5
276
 10
346.003601
 20
4.714233
 30
0.0
 11
346.003601
 21
5.178528
 31
0.0
  0
LINE
  8
0
  6
CONTINUOUS
 62
    80
  5
277
 10
344.60321
 20
5.178528
 30
0.0
 11
346.003601
 21
5.178528
 31
0.0
  0
LINE
  8
0
  6
CONTINUOUS
 62
    80
  5
278
 10
343.549561
 20
5.964233
 30
0.0
 11
344.364075
 21
5.964233
 31
0.0
  0
LINE
  8
0
  6
CONTINUOUS
 62
    80
  5
279
 10
343.926941
 20
4.714233
 30
0.0
 11
340.453613
 21
4.714233
 31
0.0
  0
LINE
  8
0
  6
CONTINUOUS
 62
    80
  5
27A
 10
340.453613
 20
5.178528
 30
0.0
 11
340.453613
 21
4.714233
 31
0.0
  0
LINE
  8
0
  6
CONTINUOUS
 62
    80
  5
27B
 10
340.453613
 20
5.178528
 30
0.0
 11
343.771118
 21
5.178528
 31
0.0
  0
LINE
  8
0
  6
CONTINUOUS
 62
    80
  5
27C
 10
337.882172
 20
2.214233
 30
0.0
 11
338.56076
 21
2.214233
 31
0.0
  0
LINE
  8
0
  6
CONTINUOUS
 62
    80
  5
27D
 10
337.882172
 20
2.214233
 30
0.0
 11
337.882172
 21
3.268677
 31
0.0
  0
LINE
  8
0
  6
CONTINUOUS
 62
    80
  5
27E
 10
336.229791
 20
2.593561
 30
0.0
 11
336.849886
 21
2.368072
 31
0.0
  0
LINE
  8
0
  6
CONTINUOUS
 62
    80
  5
27F
 10
338.56076
 20
6.035706
 30
0.0
 11
338.56076
 21
5.39209
 31
0.0
  0
LINE
  8
0
  6
CONTINUOUS
 62
    80
  5
280
 10
337.882172
 20
6.035706
 30
0.0
 11
338.56076
 21
6.035706
 31
0.0
  0
LINE
  8
0
  6
CONTINUOUS
 62
    80
  5
281
 10
337.489319
 20
6.035706
 30
0.0
 11
337.489319
 21
5.39209
 31
0.0
  0
LINE
  8
0
  6
CONTINUOUS
 62
    80
  5
282
 10
336.739319
 20
6.035706
 30
0.0
 11
337.489319
 21
6.035706
 31
0.0
  0
LINE
  8
0
  6
CONTINUOUS
 62
    80
  5
283
 10
336.739319
 20
6.035706
 30
0.0
 11
336.739319
 21
5.072144
 31
0.0
  0
LINE
  8
0
  6
CONTINUOUS
 62
    80
  5
284
 10
334.953583
 20
2.214233
 30
0.0
 11
335.703583
 21
2.214233
 31
0.0
  0
LINE
  8
0
  6
CONTINUOUS
 62
    80
  5
285
 10
334.953583
 20
3.586609
 30
0.0
 11
334.953583
 21
2.214233
 31
0.0
  0
LINE
  8
0
  6
CONTINUOUS
 62
    80
  5
286
 10
334.31073
 20
3.5271
 30
0.0
 11
334.31073
 21
2.850037
 31
0.0
  0
LINE
  8
0
  6
CONTINUOUS
 62
    80
  5
287
 10
335.703583
 20
3.681091
 30
0.0
 11
335.703583
 21
2.214233
 31
0.0
  0
LINE
  8
0
  6
CONTINUOUS
 62
    80
  5
288
 10
335.703583
 20
5.072144
 30
0.0
 11
335.703583
 21
4.452271
 31
0.0
  0
LINE
  8
0
  6
CONTINUOUS
 62
    80
  5
289
 10
335.703583
 20
6.035706
 30
0.0
 11
335.703583
 21
5.39209
 31
0.0
  0
LINE
  8
0
  6
CONTINUOUS
 62
    80
  5
28A
 10
334.953583
 20
6.035706
 30
0.0
 11
335.703583
 21
6.035706
 31
0.0
  0
LINE
  8
0
  6
CONTINUOUS
 62
    80
  5
28B
 10
334.953583
 20
6.035706
 30
0.0
 11
334.953583
 21
5.39209
 31
0.0
  0
LINE
  8
0
  6
CONTINUOUS
 62
    80
  5
28C
 10
328.706787
 20
2.214233
 30
0.0
 11
328.167877
 21
2.214233
 31
0.0
  0
LINE
  8
0
  6
CONTINUOUS
 62
    80
  5
28D
 10
328.167877
 20
2.577515
 30
0.0
 11
328.167877
 21
2.214233
 31
0.0
  0
LINE
  8
0
  6
CONTINUOUS
 62
    80
  5
28E
 10
330.525024
 20
2.214233
 30
0.0
 11
330.525024
 21
4.696411
 31
0.0
  0
LINE
  8
0
  6
CONTINUOUS
 62
    80
  5
28F
 10
330.525024
 20
2.214233
 30
0.0
 11
331.632172
 21
2.214233
 31
0.0
  0
LINE
  8
0
  6
CONTINUOUS
 62
    80
  5
290
 10
331.632172
 20
4.696411
 30
0.0
 11
331.632172
 21
2.214233
 31
0.0
  0
LINE
  8
0
  6
CONTINUOUS
 62
    80
  5
291
 10
332.835908
 20
5.410679
 30
0.0
 11
332.478771
 21
4.696404
 31
0.0
  0
LINE
  8
0
  6
CONTINUOUS
 62
    80
  5
292
 10
332.178402
 20
5.410655
 30
0.0
 11
331.821291
 21
4.696435
 31
0.0
  0
LINE
  8
0
  6
CONTINUOUS
 62
    80
  5
293
 10
329.249874
 20
5.410649
 30
0.0
 11
329.606998
 21
4.696401
 31
0.0
  0
LINE
  8
0
  6
CONTINUOUS
 62
    80
  5
294
 10
329.90736
 20
5.410649
 30
0.0
 11
330.264484
 21
4.696401
 31
0.0
  0
LINE
  8
0
  6
CONTINUOUS
 62
    80
  5
295
 10
332.677338
 20
5.964233
 30
0.0
 11
333.210449
 21
5.964233
 31
0.0
  0
LINE
  8
0
  6
CONTINUOUS
 62
    80
  5
296
 10
332.132172
 20
5.964233
 30
0.0
 11
332.132172
 21
5.410645
 31
0.0
  0
LINE
  8
0
  6
CONTINUOUS
 62
    80
  5
297
 10
331.525024
 20
5.964233
 30
0.0
 11
332.132172
 21
5.964233
 31
0.0
  0
LINE
  8
0
  6
CONTINUOUS
 62
    80
  5
298
 10
331.525024
 20
5.964233
 30
0.0
 11
331.525024
 21
5.410645
 31
0.0
  0
LINE
  8
0
  6
CONTINUOUS
 62
    80
  5
299
 10
330.56073
 20
5.964233
 30
0.0
 11
330.56073
 21
5.410645
 31
0.0
  0
LINE
  8
0
  6
CONTINUOUS
 62
    80
  5
29A
 10
329.953583
 20
5.964233
 30
0.0
 11
330.56073
 21
5.964233
 31
0.0
  0
LINE
  8
0
  6
CONTINUOUS
 62
    80
  5
29B
 10
329.953583
 20
5.964233
 30
0.0
 11
329.953583
 21
5.410645
 31
0.0
  0
LINE
  8
0
  6
CONTINUOUS
 62
    80
  5
29C
 10
328.875305
 20
5.964233
 30
0.0
 11
329.408417
 21
5.964233
 31
0.0
  0
LINE
  8
0
  6
CONTINUOUS
 62
    80
  5
29D
 10
321.953613
 20
2.67865
 30
0.0
 11
321.953613
 21
2.214233
 31
0.0
  0
LINE
  8
0
  6
CONTINUOUS
 62
    80
  5
29E
 10
321.953613
 20
2.67865
 30
0.0
 11
324.239197
 21
2.67865
 31
0.0
  0
LINE
  8
0
  6
CONTINUOUS
 62
    80
  5
29F
 10
321.953613
 20
2.214233
 30
0.0
 11
327.632294
 21
2.214233
 31
0.0
  0
LINE
  8
0
  6
CONTINUOUS
 62
    80
  5
2A0
 10
327.632294
 20
2.67865
 30
0.0
 11
327.632294
 21
2.214233
 31
0.0
  0
LINE
  8
0
  6
CONTINUOUS
 62
    80
  5
2A1
 10
325.41803
 20
2.67865
 30
0.0
 11
327.632294
 21
2.67865
 31
0.0
  0
LINE
  8
0
  6
CONTINUOUS
 62
    80
  5
2A2
 10
327.632294
 20
6.035706
 30
0.0
 11
327.632294
 21
5.571411
 31
0.0
  0
LINE
  8
0
  6
CONTINUOUS
 62
    80
  5
2A3
 10
325.41803
 20
5.571411
 30
0.0
 11
327.632294
 21
5.571411
 31
0.0
  0
LINE
  8
0
  6
CONTINUOUS
 62
    80
  5
2A4
 10
325.41803
 20
5.571411
 30
0.0
 11
325.41803
 21
2.67865
 31
0.0
  0
LINE
  8
0
  6
CONTINUOUS
 62
    80
  5
2A5
 10
324.239197
 20
5.571411
 30
0.0
 11
324.239197
 21
2.67865
 31
0.0
  0
LINE
  8
0
  6
CONTINUOUS
 62
    80
  5
2A6
 10
321.953613
 20
5.571411
 30
0.0
 11
324.239197
 21
5.571411
 31
0.0
  0
LINE
  8
0
  6
CONTINUOUS
 62
    80
  5
2A7
 10
321.953613
 20
6.035706
 30
0.0
 11
321.953613
 21
5.571411
 31
0.0
  0
LINE
  8
0
  6
CONTINUOUS
 62
    80
  5
2A8
 10
327.632294
 20
6.035706
 30
0.0
 11
321.953613
 21
6.035706
 31
0.0
  0
LINE
  8
0
  6
CONTINUOUS
 62
    80
  5
2A9
 10
315.739319
 20
4.25
 30
0.0
 11
315.739319
 21
3.785583
 31
0.0
  0
LINE
  8
0
  6
CONTINUOUS
 62
    80
  5
2AA
 10
315.739319
 20
3.785583
 30
0.0
 11
318.096466
 21
3.785583
 31
0.0
  0
LINE
  8
0
  6
CONTINUOUS
 62
    80
  5
2AB
 10
318.096466
 20
3.785583
 30
0.0
 11
318.096466
 21
2.678528
 31
0.0
  0
LINE
  8
0
  6
CONTINUOUS
 62
    80
  5
2AC
 10
317.792877
 20
2.678528
 30
0.0
 11
318.096466
 21
2.678528
 31
0.0
  0
LINE
  8
0
  6
CONTINUOUS
 62
    80
  5
2AD
 10
316.739319
 20
2.964233
 30
0.0
 11
317.56073
 21
2.964233
 31
0.0
  0
LINE
  8
0
  6
CONTINUOUS
 62
    80
  5
2AE
 10
316.739319
 20
2.964233
 30
0.0
 11
316.739319
 21
2.410706
 31
0.0
  0
LINE
  8
0
  6
CONTINUOUS
 62
    80
  5
2AF
 10
316.93573
 20
2.214233
 30
0.0
 11
319.007172
 21
2.214233
 31
0.0
  0
LINE
  8
0
  6
CONTINUOUS
 62
    80
  5
2B0
 10
319.203583
 20
3.785583
 30
0.0
 11
319.203583
 21
2.410706
 31
0.0
  0
LINE
  8
0
  6
CONTINUOUS
 62
    80
  5
2B1
 10
319.203583
 20
3.785583
 30
0.0
 11
321.417877
 21
3.785583
 31
0.0
  0
LINE
  8
0
  6
CONTINUOUS
 62
    80
  5
2B2
 10
321.417877
 20
4.25
 30
0.0
 11
321.417877
 21
3.785583
 31
0.0
  0
LINE
  8
0
  6
CONTINUOUS
 62
    80
  5
2B3
 10
319.203583
 20
4.25
 30
0.0
 11
321.417877
 21
4.25
 31
0.0
  0
LINE
  8
0
  6
CONTINUOUS
 62
    80
  5
2B4
 10
315.739319
 20
4.25
 30
0.0
 11
318.096466
 21
4.25
 31
0.0
  0
LINE
  8
0
  6
CONTINUOUS
 62
    80
  5
2B5
 10
318.096466
 20
4.76416
 30
0.0
 11
318.096466
 21
4.25
 31
0.0
  0
LINE
  8
0
  6
CONTINUOUS
 62
    80
  5
2B6
 10
319.203583
 20
4.550476
 30
0.0
 11
319.203583
 21
4.25
 31
0.0
  0
LINE
  8
0
  6
CONTINUOUS
 62
    80
  5
2B7
 10
321.417877
 20
6.035706
 30
0.0
 11
321.417877
 21
5.533447
 31
0.0
  0
LINE
  8
0
  6
CONTINUOUS
 62
    80
  5
2B8
 10
315.739319
 20
5.571411
 30
0.0
 11
319.781799
 21
5.571411
 31
0.0
  0
LINE
  8
0
  6
CONTINUOUS
 62
    80
  5
2B9
 10
315.739319
 20
6.035706
 30
0.0
 11
315.739319
 21
5.571411
 31
0.0
  0
LINE
  8
0
  6
CONTINUOUS
 62
    80
  5
2BA
 10
315.739319
 20
6.035706
 30
0.0
 11
321.417877
 21
6.035706
 31
0.0
  0
LINE
  8
0
  6
CONTINUOUS
 62
    80
  5
2BB
 10
314.917938
 20
2.607178
 30
0.0
 11
314.917938
 21
2.467773
 31
0.0
  0
LINE
  8
0
  6
CONTINUOUS
 62
    80
  5
2BC
 10
314.239197
 20
2.607178
 30
0.0
 11
314.917938
 21
2.607178
 31
0.0
  0
LINE
  8
0
  6
CONTINUOUS
 62
    80
  5
2BD
 10
314.239197
 20
2.607178
 30
0.0
 11
314.239197
 21
2.267822
 31
0.0
  0
LINE
  8
0
  6
CONTINUOUS
 62
    80
  5
2BE
 10
311.739319
 20
4.189331
 30
0.0
 11
311.739319
 21
2.467773
 31
0.0
  0
LINE
  8
0
  6
CONTINUOUS
 62
    80
  5
2BF
 10
314.846527
 20
4.189331
 30
0.0
 11
314.846527
 21
2.989258
 31
0.0
  0
LINE
  8
0
  6
CONTINUOUS
 62
    80
  5
2C0
 10
314.110687
 20
4.189331
 30
0.0
 11
314.110687
 21
2.989258
 31
0.0
  0
LINE
  8
0
  6
CONTINUOUS
 62
    80
  5
2C1
 10
312.917877
 20
4.189331
 30
0.0
 11
312.917877
 21
2.497803
 31
0.0
  0
LINE
  8
0
  6
CONTINUOUS
 62
    80
  5
2C2
 10
309.81073
 20
4.189331
 30
0.0
 11
309.81073
 21
2.989258
 31
0.0
  0
LINE
  8
0
  6
CONTINUOUS
 62
    80
  5
2C3
 10
310.546509
 20
4.189331
 30
0.0
 11
310.546509
 21
2.989258
 31
0.0
  0
LINE
  8
0
  6
CONTINUOUS
 62
    80
  5
2C4
 10
313.551422
 20
4.678406
 30
0.0
 11
313.730927
 21
4.678406
 31
0.0
  0
LINE
  8
0
  6
CONTINUOUS
 62
    80
  5
2C5
 10
313.551422
 20
4.642822
 30
0.0
 11
313.819946
 21
4.642822
 31
0.0
  0
LINE
  8
0
  6
CONTINUOUS
 62
    80
  5
2C6
 10
309.453644
 20
4.642761
 30
0.0
 11
310.203705
 21
4.642761
 31
0.0
  0
LINE
  8
0
  6
CONTINUOUS
 62
    80
  5
2C7
 10
310.203705
 20
5.482117
 30
0.0
 11
310.203705
 21
4.642761
 31
0.0
  0
LINE
  8
0
  6
CONTINUOUS
 62
    80
  5
2C8
 10
309.453644
 20
5.482117
 30
0.0
 11
309.453644
 21
4.642761
 31
0.0
  0
LINE
  8
0
  6
CONTINUOUS
 62
    80
  5
2C9
 10
311.739319
 20
4.642761
 30
0.0
 11
312.917877
 21
4.642761
 31
0.0
  0
LINE
  8
0
  6
CONTINUOUS
 62
    80
  5
2CA
 10
314.453491
 20
5.482117
 30
0.0
 11
314.453491
 21
4.642761
 31
0.0
  0
LINE
  8
0
  6
CONTINUOUS
 62
    80
  5
2CB
 10
314.453491
 20
4.642761
 30
0.0
 11
315.203705
 21
4.642761
 31
0.0
  0
LINE
  8
0
  6
CONTINUOUS
 62
    80
  5
2CC
 10
315.203705
 20
5.482117
 30
0.0
 11
315.203705
 21
4.642761
 31
0.0
  0
LINE
  8
0
  6
CONTINUOUS
 62
    80
  5
2CD
 10
312.917877
 20
5.982117
 30
0.0
 11
312.917877
 21
4.642761
 31
0.0
  0
LINE
  8
0
  6
CONTINUOUS
 62
    80
  5
2CE
 10
311.739319
 20
5.982117
 30
0.0
 11
311.739319
 21
4.642761
 31
0.0
  0
LINE
  8
0
  6
CONTINUOUS
 62
    80
  5
2CF
 10
309.060791
 20
4.393005
 30
0.0
 11
309.060791
 21
3.642761
 31
0.0
  0
LINE
  8
0
  6
CONTINUOUS
 62
    80
  5
2D0
 10
305.382385
 20
3.642761
 30
0.0
 11
309.060791
 21
3.642761
 31
0.0
  0
LINE
  8
0
  6
CONTINUOUS
 62
    80
  5
2D1
 10
305.382385
 20
4.393005
 30
0.0
 11
305.382385
 21
3.642761
 31
0.0
  0
LINE
  8
0
  6
CONTINUOUS
 62
    80
  5
2D2
 10
305.382385
 20
4.393005
 30
0.0
 11
309.060791
 21
4.393005
 31
0.0
  0
LINE
  8
0
  6
CONTINUOUS
 62
    80
  5
2D3
 10
304.830439
 20
5.821658
 30
0.0
 11
304.253043
 21
2.357113
 31
0.0
  0
LINE
  8
0
  6
CONTINUOUS
 62
    80
  5
2D4
 10
299.832703
 20
2.357117
 30
0.0
 11
304.253052
 21
2.357117
 31
0.0
  0
LINE
  8
0
  6
CONTINUOUS
 62
    80
  5
2D5
 10
299.2552
 20
5.821645
 30
0.0
 11
299.832701
 21
2.357117
 31
0.0
  0
LINE
  8
0
  6
CONTINUOUS
 62
    80
  5
2D6
 10
301.000763
 20
2.820496
 30
0.0
 11
303.085022
 21
2.820496
 31
0.0
  0
LINE
  8
0
  6
CONTINUOUS
 62
    80
  5
2D7
 10
300.655017
 20
5.356976
 30
0.0
 11
301.000765
 21
2.820495
 31
0.0
  0
LINE
  8
0
  6
CONTINUOUS
 62
    80
  5
2D8
 10
303.430761
 20
5.357009
 30
0.0
 11
303.085014
 21
2.820467
 31
0.0
  0
LINE
  8
0
  6
CONTINUOUS
 62
    80
  5
2D9
 10
300.654999
 20
5.356995
 30
0.0
 11
303.430756
 21
5.356995
 31
0.0
  0
LINE
  8
0
  6
CONTINUOUS
 62
    80
  5
2DA
 10
299.255219
 20
5.821655
 30
0.0
 11
304.830444
 21
5.821655
 31
0.0
  0
LINE
  8
0
  6
CONTINUOUS
 62
    80
  5
2DB
 10
296.06073
 20
3.857117
 30
0.0
 11
296.06073
 21
2.767822
 31
0.0
  0
LINE
  8
0
  6
CONTINUOUS
 62
    80
  5
2DC
 10
293.096436
 20
2.214233
 30
0.0
 11
295.507172
 21
2.214233
 31
0.0
  0
LINE
  8
0
  6
CONTINUOUS
 62
    80
  5
2DD
 10
293.096436
 20
2.678528
 30
0.0
 11
293.096436
 21
2.214233
 31
0.0
  0
LINE
  8
0
  6
CONTINUOUS
 62
    80
  5
2DE
 10
293.096436
 20
2.678528
 30
0.0
 11
294.221466
 21
2.678528
 31
0.0
  0
LINE
  8
0
  6
CONTINUOUS
 62
    80
  5
2DF
 10
294.596466
 20
5.035767
 30
0.0
 11
294.596466
 21
3.053528
 31
0.0
  0
LINE
  8
0
  6
CONTINUOUS
 62
    80
  5
2E0
 10
294.596466
 20
5.035767
 30
0.0
 11
296.06073
 21
5.035767
 31
0.0
  0
LINE
  8
0
  6
CONTINUOUS
 62
    80
  5
2E1
 10
296.06073
 20
5.035767
 30
0.0
 11
296.06073
 21
4.392822
 31
0.0
  0
LINE
  8
0
  6
CONTINUOUS
 62
    80
  5
2E2
 10
296.06073
 20
4.392822
 30
0.0
 11
296.93573
 21
4.392822
 31
0.0
  0
LINE
  8
0
  6
CONTINUOUS
 62
    80
  5
2E3
 10
296.06073
 20
3.857117
 30
0.0
 11
298.007172
 21
3.857117
 31
0.0
  0
LINE
  8
0
  6
CONTINUOUS
 62
    80
  5
2E4
 10
298.775024
 20
6.035706
 30
0.0
 11
298.775024
 21
4.625
 31
0.0
  0
LINE
  8
0
  6
CONTINUOUS
 62
    80
  5
2E5
 10
297.382172
 20
5.571411
 30
0.0
 11
297.382172
 21
4.839233
 31
0.0
  0
LINE
  8
0
  6
CONTINUOUS
 62
    80
  5
2E6
 10
293.096436
 20
5.571411
 30
0.0
 11
297.382172
 21
5.571411
 31
0.0
  0
LINE
  8
0
  6
CONTINUOUS
 62
    80
  5
2E7
 10
293.096436
 20
6.035706
 30
0.0
 11
293.096436
 21
5.571411
 31
0.0
  0
LINE
  8
0
  6
CONTINUOUS
 62
    80
  5
2E8
 10
293.096436
 20
6.035706
 30
0.0
 11
298.775024
 21
6.035706
 31
0.0
  0
LINE
  8
0
  6
CONTINUOUS
 62
     3
  5
2E9
 10
230.0
 20
-4.875
 30
0.0
 11
230.0
 21
-8.875
 31
0.0
  0
LINE
  8
0
  6
CONTINUOUS
 62
     3
  5
2EA
 10
276.75
 20
-4.875
 30
0.0
 11
276.75
 21
-8.875
 31
0.0
  0
LINE
  8
0
  6
CONTINUOUS
 62
     3
  5
2EB
 10
323.5
 20
-4.875
 30
0.0
 11
323.5
 21
-8.875
 31
0.0
  0
LINE
  8
0
  6
CONTINUOUS
 62
     3
  5
2EC
 10
136.5
 20
-4.875
 30
0.0
 11
136.5
 21
-8.875
 31
0.0
  0
LINE
  8
0
  6
CONTINUOUS
 62
     3
  5
2ED
 10
183.25
 20
-4.875
 30
0.0
 11
183.25
 21
-8.875
 31
0.0
  0
LINE
  8
0
  6
CONTINUOUS
 62
     3
  5
2EE
 10
89.75
 20
-4.875
 30
0.0
 11
89.75
 21
-8.875
 31
0.0
  0
LINE
  8
0
  6
CONTINUOUS
 62
     3
  5
2EF
 10
43.0
 20
-4.875
 30
0.0
 11
43.0
 21
-8.875
 31
0.0
  0
LINE
  8
0
  6
CONTINUOUS
 62
     3
  5
2F0
 10
323.5
 20
259.124985
 30
0.0
 11
323.5
 21
263.124985
 31
0.0
  0
LINE
  8
0
  6
CONTINUOUS
 62
     3
  5
2F1
 10
230.0
 20
259.124985
 30
0.0
 11
230.0
 21
263.124985
 31
0.0
  0
LINE
  8
0
  6
CONTINUOUS
 62
     3
  5
2F2
 10
276.75
 20
259.124985
 30
0.0
 11
276.75
 21
263.124985
 31
0.0
  0
LINE
  8
0
  6
CONTINUOUS
 62
     3
  5
2F3
 10
136.5
 20
259.124985
 30
0.0
 11
136.5
 21
263.124985
 31
0.0
  0
LINE
  8
0
  6
CONTINUOUS
 62
     3
  5
2F4
 10
43.0
 20
259.124985
 30
0.0
 11
43.0
 21
263.124985
 31
0.0
  0
LINE
  8
0
  6
CONTINUOUS
 62
     3
  5
2F5
 10
89.75
 20
259.124985
 30
0.0
 11
89.75
 21
263.124985
 31
0.0
  0
LINE
  8
0
  6
CONTINUOUS
 62
     3
  5
2F6
 10
183.25
 20
259.124985
 30
0.0
 11
183.25
 21
263.124985
 31
0.0
  0
LINE
  8
0
  6
CONTINUOUS
 62
     3
  5
2F7
 10
206.25
 20
31.625
 30
0.0
 11
206.25
 21
-4.875
 31
0.0
  0
LINE
  8
0
  6
CONTINUOUS
 62
     3
  5
2F8
 10
393.25
 20
275.624992
 30
0.0
 11
393.25
 21
-21.375
 31
0.0
  0
LINE
  8
0
  6
CONTINUOUS
 62
     3
  5
2F9
 10
-3.75
 20
39.125
 30
0.0
 11
-7.75
 21
39.125
 31
0.0
  0
LINE
  8
0
  6
CONTINUOUS
 62
    80
  5
2FA
 10
259.749975
 20
243.140553
 30
0.0
 11
257.999975
 21
240.109464
 31
0.0
  0
LINE
  8
0
  6
CONTINUOUS
 62
    80
  5
2FB
 10
258.0
 20
240.109444
 30
0.0
 11
261.5
 21
240.109444
 31
0.0
  0
LINE
  8
0
  6
CONTINUOUS
 62
    80
  5
2FC
 10
259.749976
 20
243.14051
 30
0.0
 11
261.499976
 21
240.109421
 31
0.0
  0
LINE
  8
0
  6
CONTINUOUS
 62
    80
  5
2FD
 10
259.749981
 20
248.140564
 30
0.0
 11
257.999981
 21
245.109475
 31
0.0
  0
LINE
  8
0
  6
CONTINUOUS
 62
    80
  5
2FE
 10
258.0
 20
245.109444
 30
0.0
 11
261.5
 21
245.109444
 31
0.0
  0
LINE
  8
0
  6
CONTINUOUS
 62
    80
  5
2FF
 10
259.749969
 20
248.140521
 30
0.0
 11
261.499969
 21
245.109432
 31
0.0
  0
LINE
  8
0
  6
CONTINUOUS
 62
    80
  5
300
 10
259.749972
 20
253.140548
 30
0.0
 11
257.999972
 21
250.109459
 31
0.0
  0
LINE
  8
0
  6
CONTINUOUS
 62
    80
  5
301
 10
258.0
 20
250.109444
 30
0.0
 11
261.5
 21
250.109444
 31
0.0
  0
LINE
  8
0
  6
CONTINUOUS
 62
    80
  5
302
 10
259.749963
 20
253.140531
 30
0.0
 11
261.499963
 21
250.109442
 31
0.0
  0
LINE
  8
0
  6
CONTINUOUS
 62
    80
  5
303
 10
259.749982
 20
238.1405
 30
0.0
 11
261.499982
 21
235.109411
 31
0.0
  0
LINE
  8
0
  6
CONTINUOUS
 62
    80
  5
304
 10
259.749969
 20
238.140543
 30
0.0
 11
257.999969
 21
235.109454
 31
0.0
  0
LINE
  8
0
  6
CONTINUOUS
 62
    80
  5
305
 10
258.0
 20
235.109444
 30
0.0
 11
261.5
 21
235.109444
 31
0.0
  0
LINE
  8
0
  6
CONTINUOUS
 62
    80
  5
306
 10
242.25
 20
239.124989
 30
0.0
 11
370.25
 21
239.124989
 31
0.0
  0
LINE
  8
0
  6
CONTINUOUS
 62
    80
  5
307
 10
242.25
 20
244.124985
 30
0.0
 11
370.25
 21
244.124985
 31
0.0
  0
LINE
  8
0
  6
CONTINUOUS
 62
    80
  5
308
 10
242.25
 20
249.124985
 30
0.0
 11
370.25
 21
249.124985
 31
0.0
  0
LINE
  8
0
  6
CONTINUOUS
 62
     3
  5
309
 10
242.25
 20
254.124985
 30
0.0
 11
370.25
 21
254.124985
 31
0.0
  0
LINE
  8
0
  6
CONTINUOUS
 62
     3
  5
30A
 10
-26.75
 20
-21.375
 30
0.0
 11
393.25
 21
-21.375
 31
0.0
  0
LINE
  8
0
  6
CONTINUOUS
 62
     3
  5
30B
 10
393.25
 20
275.624992
 30
0.0
 11
393.25
 21
-21.375
 31
0.0
  0
LINE
  8
0
  6
CONTINUOUS
 62
     3
  5
30C
 10
-26.75
 20
275.624992
 30
0.0
 11
-26.75
 21
-21.375
 31
0.0
  0
LINE
  8
0
  6
CONTINUOUS
 62
     3
  5
30D
 10
-3.75
 20
83.124992
 30
0.0
 11
-7.75
 21
83.124992
 31
0.0
  0
LINE
  8
0
  6
CONTINUOUS
 62
     3
  5
30E
 10
-3.75
 20
127.124996
 30
0.0
 11
-7.75
 21
127.124996
 31
0.0
  0
LINE
  8
0
  6
CONTINUOUS
 62
     3
  5
30F
 10
-3.75
 20
171.124994
 30
0.0
 11
-7.75
 21
171.124994
 31
0.0
  0
LINE
  8
0
  6
CONTINUOUS
 62
     3
  5
310
 10
-3.75
 20
215.124989
 30
0.0
 11
-7.75
 21
215.124989
 31
0.0
  0
LINE
  8
0
  6
CONTINUOUS
 62
     3
  5
311
 10
247.25
 20
259.124985
 30
0.0
 11
243.25
 21
259.124985
 31
0.0
  0
LINE
  8
0
  6
CONTINUOUS
 62
     3
  5
312
 10
370.25
 20
39.125
 30
0.0
 11
374.25
 21
39.125
 31
0.0
  0
LINE
  8
0
  6
CONTINUOUS
 62
     3
  5
313
 10
370.25
 20
83.124992
 30
0.0
 11
374.25
 21
83.124992
 31
0.0
  0
LINE
  8
0
  6
CONTINUOUS
 62
     3
  5
314
 10
370.25
 20
127.124996
 30
0.0
 11
374.25
 21
127.124996
 31
0.0
  0
LINE
  8
0
  6
CONTINUOUS
 62
     3
  5
315
 10
370.25
 20
171.124994
 30
0.0
 11
374.25
 21
171.124994
 31
0.0
  0
LINE
  8
0
  6
CONTINUOUS
 62
     3
  5
316
 10
370.25
 20
215.124989
 30
0.0
 11
374.25
 21
215.124989
 31
0.0
  0
LINE
  8
0
  6
CONTINUOUS
 62
     3
  5
317
 10
370.25
 20
259.124985
 30
0.0
 11
370.25
 21
-4.875
 31
0.0
  0
LINE
  8
0
  6
CONTINUOUS
 62
     3
  5
318
 10
242.25
 20
259.124985
 30
0.0
 11
242.25
 21
234.124989
 31
0.0
  0
LINE
  8
0
  6
CONTINUOUS
 62
    80
  5
319
 10
257.25
 20
259.124985
 30
0.0
 11
257.25
 21
234.124989
 31
0.0
  0
LINE
  8
0
  6
CONTINUOUS
 62
    80
  5
31A
 10
267.25
 20
259.124985
 30
0.0
 11
267.25
 21
234.124989
 31
0.0
  0
LINE
  8
0
  6
CONTINUOUS
 62
    80
  5
31B
 10
360.25
 20
259.124985
 30
0.0
 11
360.25
 21
234.124989
 31
0.0
  0
LINE
  8
0
  6
CONTINUOUS
 62
    80
  5
31C
 10
242.25
 20
234.124989
 30
0.0
 11
370.25
 21
234.124989
 31
0.0
  0
LINE
  8
0
  6
CONTINUOUS
 62
     3
  5
31D
 10
-3.75
 20
259.124985
 30
0.0
 11
370.25
 21
259.124985
 31
0.0
  0
LINE
  8
0
  6
CONTINUOUS
 62
     3
  5
31E
 10
282.25
 20
16.125
 30
0.0
 11
282.25
 21
-4.875
 31
0.0
  0
LINE
  8
0
  6
CONTINUOUS
 62
     3
  5
31F
 10
263.25
 20
16.125
 30
0.0
 11
263.25
 21
-4.875
 31
0.0
  0
LINE
  8
0
  6
CONTINUOUS
 62
     3
  5
320
 10
244.25
 20
16.125
 30
0.0
 11
244.25
 21
-4.875
 31
0.0
  0
LINE
  8
0
  6
CONTINUOUS
 62
     3
  5
321
 10
206.25
 20
16.125
 30
0.0
 11
370.25
 21
16.125
 31
0.0
  0
LINE
  8
0
  6
CONTINUOUS
 62
     3
  5
322
 10
-3.75
 20
-4.875
 30
0.0
 11
370.25
 21
-4.875
 31
0.0
  0
LINE
  8
0
  6
CONTINUOUS
 62
     3
  5
323
 10
-3.75
 20
259.124985
 30
0.0
 11
-3.75
 21
-4.875
 31
0.0
  0
LINE
  8
0
  6
CONTINUOUS
 62
     3
  5
324
 10
242.25
 20
68.625
 30
0.0
 11
242.25
 21
31.625
 31
0.0
  0
LINE
  8
0
  6
CONTINUOUS
 62
    80
  5
325
 10
242.25
 20
68.625
 30
0.0
 11
370.25
 21
68.625
 31
0.0
  0
LINE
  8
0
  6
CONTINUOUS
 62
    80
  5
326
 10
242.25
 20
62.625
 30
0.0
 11
370.25
 21
62.625
 31
0.0
  0
LINE
  8
0
  6
CONTINUOUS
 62
    80
  5
327
 10
242.25
 20
56.625
 30
0.0
 11
370.25
 21
56.625
 31
0.0
  0
LINE
  8
0
  6
CONTINUOUS
 62
    80
  5
328
 10
242.25
 20
50.625
 30
0.0
 11
370.25
 21
50.625
 31
0.0
  0
LINE
  8
0
  6
CONTINUOUS
 62
    80
  5
329
 10
242.25
 20
44.625
 30
0.0
 11
370.25
 21
44.625
 31
0.0
  0
LINE
  8
0
  6
CONTINUOUS
 62
    80
  5
32A
 10
325.25
 20
68.625
 30
0.0
 11
325.25
 21
31.625
 31
0.0
  0
LINE
  8
0
  6
CONTINUOUS
 62
    80
  5
32B
 10
299.25
 20
68.625
 30
0.0
 11
299.25
 21
31.625
 31
0.0
  0
LINE
  8
0
  6
CONTINUOUS
 62
    80
  5
32C
 10
287.25
 20
68.625
 30
0.0
 11
287.25
 21
31.625
 31
0.0
  0
LINE
  8
0
  6
CONTINUOUS
 62
    80
  5
32D
 10
251.25
 20
68.625
 30
0.0
 11
251.25
 21
31.625
 31
0.0
  0
LINE
  8
0
  6
CONTINUOUS
 62
     3
  5
32E
 10
242.25
 20
38.625
 30
0.0
 11
370.25
 21
38.625
 31
0.0
  0
ENDBLK
  8
0
  5
32F
  0
BLOCK
  8
0
  6
BYBLOCK
 62
     0
  5
3E
  2
*X1
 70
     1
 10
0.0
 20
0.0
 30
0.0
  3
*X1
  0
LINE
  8
0
  6
CONTINUOUS
 62
     0
  5
3F
 10
353.764313
 20
2.5
 30
0.0
 11
354.407166
 21
2.5
 31
0.0
  0
LINE
  8
0
  6
CONTINUOUS
 62
     0
  5
40
 10
352.677889
 20
3.0
 30
0.0
 11
352.690284
 21
3.0
 31
0.0
  0
LINE
  8
0
  6
CONTINUOUS
 62
     0
  5
41
 10
353.764314
 20
3.0
 30
0.0
 11
354.407166
 21
3.0
 31
0.0
  0
LINE
  8
0
  6
CONTINUOUS
 62
     0
  5
42
 10
352.893621
 20
3.5
 30
0.0
 11
353.51742
 21
3.5
 31
0.0
  0
LINE
  8
0
  6
CONTINUOUS
 62
     0
  5
43
 10
353.764314
 20
3.5
 30
0.0
 11
354.407166
 21
3.5
 31
0.0
  0
LINE
  8
0
  6
CONTINUOUS
 62
     0
  5
44
 10
353.309631
 20
4.0
 30
0.0
 11
354.407166
 21
4.0
 31
0.0
  0
LINE
  8
0
  6
CONTINUOUS
 62
     0
  5
45
 10
353.580776
 20
4.5
 30
0.0
 11
354.407166
 21
4.5
 31
0.0
  0
LINE
  8
0
  6
CONTINUOUS
 62
     0
  5
46
 10
353.75127
 20
5.0
 30
0.0
 11
354.407166
 21
5.0
 31
0.0
  0
LINE
  8
0
  6
CONTINUOUS
 62
     0
  5
47
 10
353.0
 20
3.183055
 30
0.0
 11
353.0
 21
3.608343
 31
0.0
  0
LINE
  8
0
  6
CONTINUOUS
 62
     0
  5
48
 10
353.0
 20
5.053529
 30
0.0
 11
353.0
 21
5.125
 31
0.0
  0
LINE
  8
0
  6
CONTINUOUS
 62
     0
  5
49
 10
353.5
 20
3.488991
 30
0.0
 11
353.5
 21
4.327878
 31
0.0
  0
LINE
  8
0
  6
CONTINUOUS
 62
     0
  5
4A
 10
353.5
 20
5.05353
 30
0.0
 11
353.5
 21
5.125
 31
0.0
  0
LINE
  8
0
  6
CONTINUOUS
 62
     0
  5
4B
 10
354.0
 20
2.339233
 30
0.0
 11
354.0
 21
5.125
 31
0.0
  0
LINE
  8
0
  6
CONTINUOUS
 62
     0
  5
4C
 10
354.5
 20
5.053528
 30
0.0
 11
354.5
 21
5.125
 31
0.0
  0
LINE
  8
0
  6
CONTINUOUS
 62
     0
  5
4D
 10
355.0
 20
5.053528
 30
0.0
 11
355.0
 21
5.125
 31
0.0
  0
ENDBLK
  8
0
  6
BYBLOCK
 62
     0
  5
4E
  0
BLOCK
  8
0
  6
BYBLOCK
 62
     0
  5
52
  2
*X2
 70
     1
 10
0.0
 20
0.0
 30
0.0
  3
*X2
  0
LINE
  8
0
  6
CONTINUOUS
 62
     0
  5
53
 10
356.62146
 20
2.5
 30
0.0
 11
357.192871
 21
2.5
 31
0.0
  0
LINE
  8
0
  6
CONTINUOUS
 62
     0
  5
54
 10
356.62146
 20
3.0
 30
0.0
 11
357.192871
 21
3.0
 31
0.0
  0
LINE
  8
0
  6
CONTINUOUS
 62
     0
  5
55
 10
356.62146
 20
3.5
 30
0.0
 11
357.192871
 21
3.5
 31
0.0
  0
LINE
  8
0
  6
CONTINUOUS
 62
     0
  5
56
 10
356.62146
 20
4.0
 30
0.0
 11
357.192871
 21
4.0
 31
0.0
  0
LINE
  8
0
  6
CONTINUOUS
 62
     0
  5
57
 10
356.62146
 20
4.5
 30
0.0
 11
357.192871
 21
4.5
 31
0.0
  0
LINE
  8
0
  6
CONTINUOUS
 62
     0
  5
58
 10
356.62146
 20
5.0
 30
0.0
 11
357.192871
 21
5.0
 31
0.0
  0
LINE
  8
0
  6
CONTINUOUS
 62
     0
  5
59
 10
356.62146
 20
5.5
 30
0.0
 11
357.192871
 21
5.5
 31
0.0
  0
LINE
  8
0
  6
CONTINUOUS
 62
     0
  5
5A
 10
356.0
 20
2.339233
 30
0.0
 11
356.0
 21
2.410706
 31
0.0
  0
LINE
  8
0
  6
CONTINUOUS
 62
     0
  5
5B
 10
356.0
 20
5.053528
 30
0.0
 11
356.0
 21
5.125
 31
0.0
  0
LINE
  8
0
  6
CONTINUOUS
 62
     0
  5
5C
 10
356.5
 20
2.339233
 30
0.0
 11
356.5
 21
2.410706
 31
0.0
  0
LINE
  8
0
  6
CONTINUOUS
 62
     0
  5
5D
 10
356.5
 20
5.053528
 30
0.0
 11
356.5
 21
5.125
 31
0.0
  0
LINE
  8
0
  6
CONTINUOUS
 62
     0
  5
5E
 10
357.0
 20
2.339233
 30
0.0
 11
357.0
 21
5.910706
 31
0.0
  0
LINE
  8
0
  6
CONTINUOUS
 62
     0
  5
5F
 10
357.5
 20
2.339233
 30
0.0
 11
357.5
 21
2.410706
 31
0.0
  0
LINE
  8
0
  6
CONTINUOUS
 62
     0
  5
60
 10
357.5
 20
5.053528
 30
0.0
 11
357.5
 21
5.125
 31
0.0
  0
LINE
  8
0
  6
CONTINUOUS
 62
     0
  5
61
 10
358.0
 20
2.339233
 30
0.0
 11
358.0
 21
2.410706
 31
0.0
  0
LINE
  8
0
  6
CONTINUOUS
 62
     0
  5
62
 10
358.0
 20
5.053528
 30
0.0
 11
358.0
 21
5.125
 31
0.0
  0
ENDBLK
  8
0
  6
BYBLOCK
 62
     0
  5
63
  0
BLOCK
  8
0
  6
BYBLOCK
 62
     0
  5
66
  2
*X3
 70
     1
 10
0.0
 20
0.0
 30
0.0
  3
*X3
  0
LINE
  8
0
  6
CONTINUOUS
 62
     0
  5
67
 10
355.173656
 20
3.5
 30
0.0
 11
355.640675
 21
3.5
 31
0.0
  0
LINE
  8
0
  6
CONTINUOUS
 62
     0
  5
68
 10
355.5
 20
3.178581
 30
0.0
 11
355.5
 21
3.64283
 31
0.0
  0
ENDBLK
  8
0
  6
BYBLOCK
 62
     0
  5
69
  0
BLOCK
  8
0
  6
BYBLOCK
 62
     0
  5
6C
  2
*X4
 70
     1
 10
0.0
 20
0.0
 30
0.0
  3
*X4
  0
LINE
  8
0
  6
CONTINUOUS
 62
     0
  5
6D
 10
347.003142
 20
2.5
 30
0.0
 11
347.917909
 21
2.5
 31
0.0
  0
LINE
  8
0
  6
CONTINUOUS
 62
     0
  5
6E
 10
350.720458
 20
2.5
 30
0.0
 11
351.624851
 21
2.5
 31
0.0
  0
LINE
  8
0
  6
CONTINUOUS
 62
     0
  5
6F
 10
347.388356
 20
3.0
 30
0.0
 11
348.186884
 21
3.0
 31
0.0
  0
LINE
  8
0
  6
CONTINUOUS
 62
     0
  5
70
 10
350.44892
 20
3.0
 30
0.0
 11
351.244451
 21
3.0
 31
0.0
  0
LINE
  8
0
  6
CONTINUOUS
 62
     0
  5
71
 10
347.77357
 20
3.5
 30
0.0
 11
348.455858
 21
3.5
 31
0.0
  0
LINE
  8
0
  6
CONTINUOUS
 62
     0
  5
72
 10
350.177382
 20
3.5
 30
0.0
 11
350.864051
 21
3.5
 31
0.0
  0
LINE
  8
0
  6
CONTINUOUS
 62
     0
  5
73
 10
347.0
 20
2.338757
 30
0.0
 11
347.0
 21
2.495922
 31
0.0
  0
LINE
  8
0
  6
CONTINUOUS
 62
     0
  5
74
 10
347.0
 20
3.625
 30
0.0
 11
347.0
 21
3.767822
 31
0.0
  0
LINE
  8
0
  6
CONTINUOUS
 62
     0
  5
75
 10
347.5
 20
2.338807
 30
0.0
 11
347.5
 21
3.144912
 31
0.0
  0
LINE
  8
0
  6
CONTINUOUS
 62
     0
  5
76
 10
347.5
 20
3.625
 30
0.0
 11
347.5
 21
3.767822
 31
0.0
  0
LINE
  8
0
  6
CONTINUOUS
 62
     0
  5
77
 10
348.0
 20
2.338858
 30
0.0
 11
348.0
 21
2.410706
 31
0.0
  0
LINE
  8
0
  6
CONTINUOUS
 62
     0
  5
78
 10
348.0
 20
2.6526
 30
0.0
 11
348.0
 21
3.767822
 31
0.0
  0
LINE
  8
0
  6
CONTINUOUS
 62
     0
  5
79
 10
348.5
 20
2.338908
 30
0.0
 11
348.5
 21
2.410706
 31
0.0
  0
LINE
  8
0
  6
CONTINUOUS
 62
     0
  5
7A
 10
348.5
 20
3.582056
 30
0.0
 11
348.5
 21
3.767822
 31
0.0
  0
LINE
  8
0
  6
CONTINUOUS
 62
     0
  5
7B
 10
349.0
 20
2.338958
 30
0.0
 11
349.0
 21
2.410706
 31
0.0
  0
LINE
  8
0
  6
CONTINUOUS
 62
     0
  5
7C
 10
349.0
 20
3.625
 30
0.0
 11
349.0
 21
3.767822
 31
0.0
  0
LINE
  8
0
  6
CONTINUOUS
 62
     0
  5
7D
 10
349.5
 20
2.339008
 30
0.0
 11
349.5
 21
2.410706
 31
0.0
  0
LINE
  8
0
  6
CONTINUOUS
 62
     0
  5
7E
 10
349.5
 20
3.625
 30
0.0
 11
349.5
 21
3.767822
 31
0.0
  0
LINE
  8
0
  6
CONTINUOUS
 62
     0
  5
7F
 10
350.0
 20
2.339058
 30
0.0
 11
350.0
 21
2.410706
 31
0.0
  0
LINE
  8
0
  6
CONTINUOUS
 62
     0
  5
80
 10
350.0
 20
3.625
 30
0.0
 11
350.0
 21
3.767822
 31
0.0
  0
LINE
  8
0
  6
CONTINUOUS
 62
     0
  5
81
 10
350.5
 20
2.339108
 30
0.0
 11
350.5
 21
2.410706
 31
0.0
  0
LINE
  8
0
  6
CONTINUOUS
 62
     0
  5
82
 10
350.5
 20
2.905943
 30
0.0
 11
350.5
 21
3.767822
 31
0.0
  0
LINE
  8
0
  6
CONTINUOUS
 62
     0
  5
83
 10
351.0
 20
2.339158
 30
0.0
 11
351.0
 21
3.321308
 31
0.0
  0
LINE
  8
0
  6
CONTINUOUS
 62
     0
  5
84
 10
351.0
 20
3.625
 30
0.0
 11
351.0
 21
3.767822
 31
0.0
  0
LINE
  8
0
  6
CONTINUOUS
 62
     0
  5
85
 10
351.5
 20
2.339209
 30
0.0
 11
351.5
 21
2.664105
 31
0.0
  0
LINE
  8
0
  6
CONTINUOUS
 62
     0
  5
86
 10
351.5
 20
3.625
 30
0.0
 11
351.5
 21
3.767822
 31
0.0
  0
ENDBLK
  8
0
  6
BYBLOCK
 62
     0
  5
87
  0
BLOCK
  8
0
  6
BYBLOCK
 62
     0
  5
8B
  2
*X5
 70
     1
 10
0.0
 20
0.0
 30
0.0
  3
*X5
  0
LINE
  8
0
  6
CONTINUOUS
 62
     0
  5
8C
 10
346.664211
 20
5.0
 30
0.0
 11
347.570156
 21
5.0
 31
0.0
  0
LINE
  8
0
  6
CONTINUOUS
 62
     0
  5
8D
 10
351.058445
 20
5.0
 30
0.0
 11
351.964417
 21
5.0
 31
0.0
  0
LINE
  8
0
  6
CONTINUOUS
 62
     0
  5
8E
 10
348.081265
 20
5.5
 30
0.0
 11
349.108654
 21
5.5
 31
0.0
  0
LINE
  8
0
  6
CONTINUOUS
 62
     0
  5
8F
 10
349.519947
 20
5.5
 30
0.0
 11
350.54784
 21
5.5
 31
0.0
  0
LINE
  8
0
  6
CONTINUOUS
 62
     0
  5
90
 10
347.0
 20
4.814704
 30
0.0
 11
347.0
 21
5.149451
 31
0.0
  0
LINE
  8
0
  6
CONTINUOUS
 62
     0
  5
91
 10
347.5
 20
4.9772
 30
0.0
 11
347.5
 21
5.311552
 31
0.0
  0
LINE
  8
0
  6
CONTINUOUS
 62
     0
  5
92
 10
348.0
 20
5.139696
 30
0.0
 11
348.0
 21
5.473654
 31
0.0
  0
LINE
  8
0
  6
CONTINUOUS
 62
     0
  5
93
 10
348.5
 20
5.302192
 30
0.0
 11
348.5
 21
5.635755
 31
0.0
  0
LINE
  8
0
  6
CONTINUOUS
 62
     0
  5
94
 10
349.0
 20
5.464688
 30
0.0
 11
349.0
 21
5.797857
 31
0.0
  0
LINE
  8
0
  6
CONTINUOUS
 62
     0
  5
95
 10
349.5
 20
5.506483
 30
0.0
 11
349.5
 21
5.839826
 31
0.0
  0
LINE
  8
0
  6
CONTINUOUS
 62
     0
  5
96
 10
350.0
 20
5.343987
 30
0.0
 11
350.0
 21
5.677671
 31
0.0
  0
LINE
  8
0
  6
CONTINUOUS
 62
     0
  5
97
 10
350.5
 20
5.18149
 30
0.0
 11
350.5
 21
5.515515
 31
0.0
  0
LINE
  8
0
  6
CONTINUOUS
 62
     0
  5
98
 10
351.0
 20
5.018994
 30
0.0
 11
351.0
 21
5.35336
 31
0.0
  0
LINE
  8
0
  6
CONTINUOUS
 62
     0
  5
99
 10
351.5
 20
4.856498
 30
0.0
 11
351.5
 21
5.191204
 31
0.0
  0
ENDBLK
  8
0
  6
BYBLOCK
 62
     0
  5
9A
  0
BLOCK
  8
0
  6
BYBLOCK
 62
     0
  5
9D
  2
*X6
 70
     1
 10
0.0
 20
0.0
 30
0.0
  3
*X6
  0
LINE
  8
0
  6
CONTINUOUS
 62
     0
  5
9E
 10
340.591198
 20
2.5
 30
0.0
 11
342.451466
 21
2.5
 31
0.0
  0
LINE
  8
0
  6
CONTINUOUS
 62
     0
  5
9F
 10
341.506751
 20
3.0
 30
0.0
 11
342.150894
 21
3.0
 31
0.0
  0
LINE
  8
0
  6
CONTINUOUS
 62
     0
  5
A0
 10
341.507002
 20
3.5
 30
0.0
 11
342.150376
 21
3.5
 31
0.0
  0
LINE
  8
0
  6
CONTINUOUS
 62
     0
  5
A1
 10
341.0
 20
2.31239
 30
0.0
 11
341.0
 21
2.532275
 31
0.0
  0
LINE
  8
0
  6
CONTINUOUS
 62
     0
  5
A2
 10
341.0
 20
3.839233
 30
0.0
 11
341.0
 21
3.910706
 31
0.0
  0
LINE
  8
0
  6
CONTINUOUS
 62
     0
  5
A3
 10
341.5
 20
2.363014
 30
0.0
 11
341.5
 21
2.565954
 31
0.0
  0
LINE
  8
0
  6
CONTINUOUS
 62
     0
  5
A4
 10
341.5
 20
3.839233
 30
0.0
 11
341.5
 21
3.910706
 31
0.0
  0
LINE
  8
0
  6
CONTINUOUS
 62
     0
  5
A5
 10
342.0
 20
2.428147
 30
0.0
 11
342.0
 21
3.910706
 31
0.0
  0
LINE
  8
0
  6
CONTINUOUS
 62
     0
  5
A6
 10
342.5
 20
2.508512
 30
0.0
 11
342.5
 21
2.637263
 31
0.0
  0
LINE
  8
0
  6
CONTINUOUS
 62
     0
  5
A7
 10
342.5
 20
3.839233
 30
0.0
 11
342.5
 21
3.910706
 31
0.0
  0
LINE
  8
0
  6
CONTINUOUS
 62
     0
  5
A8
 10
343.0
 20
2.605008
 30
0.0
 11
343.0
 21
2.697852
 31
0.0
  0
LINE
  8
0
  6
CONTINUOUS
 62
     0
  5
A9
 10
343.0
 20
3.839233
 30
0.0
 11
343.0
 21
3.910706
 31
0.0
  0
ENDBLK
  8
0
  6
BYBLOCK
 62
     0
  5
AA
  0
BLOCK
  8
0
  6
BYBLOCK
 62
     0
  5
AD
  2
*X7
 70
     1
 10
0.0
 20
0.0
 30
0.0
  3
*X7
  0
LINE
  8
0
  6
CONTINUOUS
 62
     0
  5
AE
 10
345.143047
 20
6.0
 30
0.0
 11
345.328449
 21
6.0
 31
0.0
  0
LINE
  8
0
  6
CONTINUOUS
 62
     0
  5
AF
 10
345.0
 20
5.684619
 30
0.0
 11
345.0
 21
5.851025
 31
0.0
  0
ENDBLK
  8
0
  6
BYBLOCK
 62
     0
  5
B0
  0
BLOCK
  8
0
  6
BYBLOCK
 62
     0
  5
B3
  2
*X8
 70
     1
 10
0.0
 20
0.0
 30
0.0
  3
*X8
  0
LINE
  8
0
  6
CONTINUOUS
 62
     0
  5
B4
 10
344.855644
 20
3.0
 30
0.0
 11
345.598429
 21
3.0
 31
0.0
  0
LINE
  8
0
  6
CONTINUOUS
 62
     0
  5
B5
 10
344.586688
 20
3.5
 30
0.0
 11
345.300874
 21
3.5
 31
0.0
  0
LINE
  8
0
  6
CONTINUOUS
 62
     0
  5
B6
 10
344.349059
 20
4.0
 30
0.0
 11
345.025978
 21
4.0
 31
0.0
  0
LINE
  8
0
  6
CONTINUOUS
 62
     0
  5
B7
 10
344.140629
 20
4.5
 30
0.0
 11
344.772511
 21
4.5
 31
0.0
  0
LINE
  8
0
  6
CONTINUOUS
 62
     0
  5
B8
 10
340.578613
 20
5.0
 30
0.0
 11
345.878601
 21
5.0
 31
0.0
  0
LINE
  8
0
  6
CONTINUOUS
 62
     0
  5
B9
 10
343.804491
 20
5.5
 30
0.0
 11
344.358282
 21
5.5
 31
0.0
  0
LINE
  8
0
  6
CONTINUOUS
 62
     0
  5
BA
 10
341.0
 20
4.839313
 30
0.0
 11
341.0
 21
5.053494
 31
0.0
  0
LINE
  8
0
  6
CONTINUOUS
 62
     0
  5
BB
 10
341.5
 20
4.839408
 30
0.0
 11
341.5
 21
5.053455
 31
0.0
  0
LINE
  8
0
  6
CONTINUOUS
 62
     0
  5
BC
 10
342.0
 20
4.839503
 30
0.0
 11
342.0
 21
5.053415
 31
0.0
  0
LINE
  8
0
  6
CONTINUOUS
 62
     0
  5
BD
 10
342.5
 20
4.839598
 30
0.0
 11
342.5
 21
5.053375
 31
0.0
  0
LINE
  8
0
  6
CONTINUOUS
 62
     0
  5
BE
 10
343.0
 20
4.839693
 30
0.0
 11
343.0
 21
5.053335
 31
0.0
  0
LINE
  8
0
  6
CONTINUOUS
 62
     0
  5
BF
 10
343.5
 20
4.839788
 30
0.0
 11
343.5
 21
5.053296
 31
0.0
  0
LINE
  8
0
  6
CONTINUOUS
 62
     0
  5
C0
 10
344.0
 20
4.839883
 30
0.0
 11
344.0
 21
5.83929
 31
0.0
  0
LINE
  8
0
  6
CONTINUOUS
 62
     0
  5
C1
 10
344.5
 20
3.675151
 30
0.0
 11
344.5
 21
5.099513
 31
0.0
  0
LINE
  8
0
  6
CONTINUOUS
 62
     0
  5
C2
 10
345.0
 20
2.754427
 30
0.0
 11
345.0
 21
4.0494
 31
0.0
  0
LINE
  8
0
  6
CONTINUOUS
 62
     0
  5
C3
 10
345.0
 20
4.839279
 30
0.0
 11
345.0
 21
5.053004
 31
0.0
  0
LINE
  8
0
  6
CONTINUOUS
 62
     0
  5
C4
 10
345.5
 20
2.553904
 30
0.0
 11
345.5
 21
3.161098
 31
0.0
  0
LINE
  8
0
  6
CONTINUOUS
 62
     0
  5
C5
 10
345.5
 20
4.839253
 30
0.0
 11
345.5
 21
5.053302
 31
0.0
  0
ENDBLK
  8
0
  6
BYBLOCK
 62
     0
  5
C6
  0
BLOCK
  8
0
  6
BYBLOCK
 62
     0
  5
C9
  2
*X9
 70
     1
 10
0.0
 20
0.0
 30
0.0
  3
*X9
  0
LINE
  8
0
  6
CONTINUOUS
 62
     0
  5
CA
 10
338.007135
 20
2.5
 30
0.0
 11
338.43576
 21
2.5
 31
0.0
  0
LINE
  8
0
  6
CONTINUOUS
 62
     0
  5
CB
 10
336.704246
 20
3.0
 30
0.0
 11
337.424306
 21
3.0
 31
0.0
  0
LINE
  8
0
  6
CONTINUOUS
 62
     0
  5
CC
 10
338.007022
 20
3.0
 30
0.0
 11
338.43576
 21
3.0
 31
0.0
  0
LINE
  8
0
  6
CONTINUOUS
 62
     0
  5
CD
 10
337.074293
 20
3.5
 30
0.0
 11
337.938328
 21
3.5
 31
0.0
  0
LINE
  8
0
  6
CONTINUOUS
 62
     0
  5
CE
 10
338.006909
 20
3.5
 30
0.0
 11
338.43576
 21
3.5
 31
0.0
  0
LINE
  8
0
  6
CONTINUOUS
 62
     0
  5
CF
 10
337.366819
 20
4.0
 30
0.0
 11
338.43576
 21
4.0
 31
0.0
  0
LINE
  8
0
  6
CONTINUOUS
 62
     0
  5
D0
 10
338.007172
 20
4.5
 30
0.0
 11
338.43576
 21
4.5
 31
0.0
  0
LINE
  8
0
  6
CONTINUOUS
 62
     0
  5
D1
 10
338.007172
 20
5.0
 30
0.0
 11
338.43576
 21
5.0
 31
0.0
  0
LINE
  8
0
  6
CONTINUOUS
 62
     0
  5
D2
 10
336.864319
 20
5.5
 30
0.0
 11
337.364319
 21
5.5
 31
0.0
  0
LINE
  8
0
  6
CONTINUOUS
 62
     0
  5
D3
 10
338.007172
 20
5.5
 30
0.0
 11
338.43576
 21
5.5
 31
0.0
  0
LINE
  8
0
  6
CONTINUOUS
 62
     0
  5
D4
 10
336.5
 20
2.627539
 30
0.0
 11
336.5
 21
2.730907
 31
0.0
  0
LINE
  8
0
  6
CONTINUOUS
 62
     0
  5
D5
 10
337.0
 20
2.639926
 30
0.0
 11
337.0
 21
3.398553
 31
0.0
  0
LINE
  8
0
  6
CONTINUOUS
 62
     0
  5
D6
 10
337.0
 20
4.411309
 30
0.0
 11
337.0
 21
4.481384
 31
0.0
  0
LINE
  8
0
  6
CONTINUOUS
 62
     0
  5
D7
 10
337.0
 20
5.197144
 30
0.0
 11
337.0
 21
5.910706
 31
0.0
  0
LINE
  8
0
  6
CONTINUOUS
 62
     0
  5
D8
 10
337.5
 20
3.069706
 30
0.0
 11
337.5
 21
4.481384
 31
0.0
  0
LINE
  8
0
  6
CONTINUOUS
 62
     0
  5
D9
 10
337.5
 20
5.197144
 30
0.0
 11
337.5
 21
5.26709
 31
0.0
  0
LINE
  8
0
  6
CONTINUOUS
 62
     0
  5
DA
 10
338.0
 20
3.560128
 30
0.0
 11
338.0
 21
4.481384
 31
0.0
  0
LINE
  8
0
  6
CONTINUOUS
 62
     0
  5
DB
 10
338.0
 20
5.197144
 30
0.0
 11
338.0
 21
5.26709
 31
0.0
  0
LINE
  8
0
  6
CONTINUOUS
 62
     0
  5
DC
 10
338.5
 20
4.411438
 30
0.0
 11
338.5
 21
4.481384
 31
0.0
  0
LINE
  8
0
  6
CONTINUOUS
 62
     0
  5
DD
 10
338.5
 20
5.197144
 30
0.0
 11
338.5
 21
5.26709
 31
0.0
  0
LINE
  8
0
  6
CONTINUOUS
 62
     0
  5
DE
 10
339.0
 20
4.411438
 30
0.0
 11
339.0
 21
4.481384
 31
0.0
  0
LINE
  8
0
  6
CONTINUOUS
 62
     0
  5
DF
 10
339.0
 20
5.197144
 30
0.0
 11
339.0
 21
5.26709
 31
0.0
  0
LINE
  8
0
  6
CONTINUOUS
 62
     0
  5
E0
 10
339.5
 20
4.411438
 30
0.0
 11
339.5
 21
4.481384
 31
0.0
  0
LINE
  8
0
  6
CONTINUOUS
 62
     0
  5
E1
 10
339.5
 20
5.197144
 30
0.0
 11
339.5
 21
5.26709
 31
0.0
  0
ENDBLK
  8
0
  6
BYBLOCK
 62
     0
  5
E2
  0
BLOCK
  8
0
  6
BYBLOCK
 62
     0
  5
E5
  2
*X10
 70
     1
 10
0.0
 20
0.0
 30
0.0
  3
*X10
  0
LINE
  8
0
  6
CONTINUOUS
 62
     0
  5
E6
 10
335.078588
 20
2.5
 30
0.0
 11
335.57867
 21
2.5
 31
0.0
  0
LINE
  8
0
  6
CONTINUOUS
 62
     0
  5
E7
 10
335.078606
 20
3.0
 30
0.0
 11
335.57894
 21
3.0
 31
0.0
  0
LINE
  8
0
  6
CONTINUOUS
 62
     0
  5
E8
 10
334.445993
 20
3.5
 30
0.0
 11
334.719669
 21
3.5
 31
0.0
  0
LINE
  8
0
  6
CONTINUOUS
 62
     0
  5
E9
 10
335.078624
 20
3.5
 30
0.0
 11
335.57921
 21
3.5
 31
0.0
  0
LINE
  8
0
  6
CONTINUOUS
 62
     0
  5
EA
 10
336.098355
 20
3.5
 30
0.0
 11
336.356929
 21
3.5
 31
0.0
  0
LINE
  8
0
  6
CONTINUOUS
 62
     0
  5
EB
 10
334.736507
 20
4.0
 30
0.0
 11
335.912043
 21
4.0
 31
0.0
  0
LINE
  8
0
  6
CONTINUOUS
 62
     0
  5
EC
 10
334.931363
 20
4.5
 30
0.0
 11
335.579323
 21
4.5
 31
0.0
  0
LINE
  8
0
  6
CONTINUOUS
 62
     0
  5
ED
 10
335.046309
 20
5.0
 30
0.0
 11
335.578792
 21
5.0
 31
0.0
  0
LINE
  8
0
  6
CONTINUOUS
 62
     0
  5
EE
 10
335.078583
 20
5.5
 30
0.0
 11
335.578583
 21
5.5
 31
0.0
  0
LINE
  8
0
  6
CONTINUOUS
 62
     0
  5
EF
 10
334.5
 20
3.244746
 30
0.0
 11
334.5
 21
3.580281
 31
0.0
  0
LINE
  8
0
  6
CONTINUOUS
 62
     0
  5
F0
 10
334.5
 20
5.19717
 30
0.0
 11
334.5
 21
5.26709
 31
0.0
  0
LINE
  8
0
  6
CONTINUOUS
 62
     0
  5
F1
 10
335.0
 20
3.848394
 30
0.0
 11
335.0
 21
4.758649
 31
0.0
  0
LINE
  8
0
  6
CONTINUOUS
 62
     0
  5
F2
 10
335.0
 20
5.197374
 30
0.0
 11
335.0
 21
5.26709
 31
0.0
  0
LINE
  8
0
  6
CONTINUOUS
 62
     0
  5
F3
 10
335.5
 20
2.339233
 30
0.0
 11
335.5
 21
5.910706
 31
0.0
  0
LINE
  8
0
  6
CONTINUOUS
 62
     0
  5
F4
 10
336.0
 20
3.585507
 30
0.0
 11
336.0
 21
3.90071
 31
0.0
  0
LINE
  8
0
  6
CONTINUOUS
 62
     0
  5
F5
 10
336.0
 20
5.197144
 30
0.0
 11
336.0
 21
5.26709
 31
0.0
  0
ENDBLK
  8
0
  6
BYBLOCK
 62
     0
  5
F6
  0
BLOCK
  8
0
  6
BYBLOCK
 62
     0
  5
F9
  2
*X11
 70
     1
 10
0.0
 20
0.0
 30
0.0
  3
*X11
  0
LINE
  8
0
  6
CONTINUOUS
 62
     0
  5
FA
 10
339.257812
 20
3.0
 30
0.0
 11
339.756531
 21
3.0
 31
0.0
  0
LINE
  8
0
  6
CONTINUOUS
 62
     0
  5
FB
 10
339.5
 20
2.73222
 30
0.0
 11
339.5
 21
3.232014
 31
0.0
  0
ENDBLK
  8
0
  6
BYBLOCK
 62
     0
  5
FC
  0
BLOCK
  8
0
  6
BYBLOCK
 62
     0
  5
FF
  2
*X12
 70
     1
 10
0.0
 20
0.0
 30
0.0
  3
*X12
  0
LINE
  8
0
  6
CONTINUOUS
 62
     0
  5
100
 10
328.292609
 20
2.5
 30
0.0
 11
329.170451
 21
2.5
 31
0.0
  0
LINE
  8
0
  6
CONTINUOUS
 62
     0
  5
101
 10
328.906565
 20
3.0
 30
0.0
 11
330.111028
 21
3.0
 31
0.0
  0
LINE
  8
0
  6
CONTINUOUS
 62
     0
  5
102
 10
329.37446
 20
3.5
 30
0.0
 11
330.400226
 21
3.5
 31
0.0
  0
LINE
  8
0
  6
CONTINUOUS
 62
     0
  5
103
 10
328.5
 20
2.339339
 30
0.0
 11
328.5
 21
2.666433
 31
0.0
  0
LINE
  8
0
  6
CONTINUOUS
 62
     0
  5
104
 10
329.0
 20
2.436353
 30
0.0
 11
329.0
 21
3.081849
 31
0.0
  0
LINE
  8
0
  6
CONTINUOUS
 62
     0
  5
105
 10
329.5
 20
2.641916
 30
0.0
 11
329.5
 21
3.571678
 31
0.0
  0
LINE
  8
0
  6
CONTINUOUS
 62
     0
  5
106
 10
330.0
 20
2.922235
 30
0.0
 11
330.0
 21
3.57153
 31
0.0
  0
ENDBLK
  8
0
  6
BYBLOCK
 62
     0
  5
107
  0
BLOCK
  8
0
  6
BYBLOCK
 62
     0
  5
10B
  2
*X13
 70
     1
 10
0.0
 20
0.0
 30
0.0
  3
*X13
  0
LINE
  8
0
  6
CONTINUOUS
 62
     0
  5
10C
 10
333.343029
 20
3.0
 30
0.0
 11
333.528431
 21
3.0
 31
0.0
  0
LINE
  8
0
  6
CONTINUOUS
 62
     0
  5
10D
 10
333.5
 20
2.526225
 30
0.0
 11
333.5
 21
3.00942
 31
0.0
  0
ENDBLK
  8
0
  6
BYBLOCK
 62
     0
  5
10E
  0
BLOCK
  8
0
  6
BYBLOCK
 62
     0
  5
117
  2
*X14
 70
     1
 10
0.0
 20
0.0
 30
0.0
  3
*X14
  0
LINE
  8
0
  6
CONTINUOUS
 62
     0
  5
118
 10
322.078613
 20
2.5
 30
0.0
 11
327.507294
 21
2.5
 31
0.0
  0
LINE
  8
0
  6
CONTINUOUS
 62
     0
  5
119
 10
324.364197
 20
3.0
 30
0.0
 11
325.29303
 21
3.0
 31
0.0
  0
LINE
  8
0
  6
CONTINUOUS
 62
     0
  5
11A
 10
324.364197
 20
3.5
 30
0.0
 11
325.29303
 21
3.5
 31
0.0
  0
LINE
  8
0
  6
CONTINUOUS
 62
     0
  5
11B
 10
324.364197
 20
4.0
 30
0.0
 11
325.29303
 21
4.0
 31
0.0
  0
LINE
  8
0
  6
CONTINUOUS
 62
     0
  5
11C
 10
324.364197
 20
4.5
 30
0.0
 11
325.29303
 21
4.5
 31
0.0
  0
LINE
  8
0
  6
CONTINUOUS
 62
     0
  5
11D
 10
324.364197
 20
5.0
 30
0.0
 11
325.29303
 21
5.0
 31
0.0
  0
LINE
  8
0
  6
CONTINUOUS
 62
     0
  5
11E
 10
324.364197
 20
5.5
 30
0.0
 11
325.29303
 21
5.5
 31
0.0
  0
LINE
  8
0
  6
CONTINUOUS
 62
     0
  5
11F
 10
322.5
 20
2.339233
 30
0.0
 11
322.5
 21
2.55365
 31
0.0
  0
LINE
  8
0
  6
CONTINUOUS
 62
     0
  5
120
 10
322.5
 20
5.696411
 30
0.0
 11
322.5
 21
5.910706
 31
0.0
  0
LINE
  8
0
  6
CONTINUOUS
 62
     0
  5
121
 10
323.0
 20
2.339233
 30
0.0
 11
323.0
 21
2.55365
 31
0.0
  0
LINE
  8
0
  6
CONTINUOUS
 62
     0
  5
122
 10
323.0
 20
5.696411
 30
0.0
 11
323.0
 21
5.910706
 31
0.0
  0
LINE
  8
0
  6
CONTINUOUS
 62
     0
  5
123
 10
323.5
 20
2.339233
 30
0.0
 11
323.5
 21
2.55365
 31
0.0
  0
LINE
  8
0
  6
CONTINUOUS
 62
     0
  5
124
 10
323.5
 20
5.696411
 30
0.0
 11
323.5
 21
5.910706
 31
0.0
  0
LINE
  8
0
  6
CONTINUOUS
 62
     0
  5
125
 10
324.0
 20
2.339233
 30
0.0
 11
324.0
 21
2.55365
 31
0.0
  0
LINE
  8
0
  6
CONTINUOUS
 62
     0
  5
126
 10
324.0
 20
5.696411
 30
0.0
 11
324.0
 21
5.910706
 31
0.0
  0
LINE
  8
0
  6
CONTINUOUS
 62
     0
  5
127
 10
324.5
 20
2.339233
 30
0.0
 11
324.5
 21
5.910706
 31
0.0
  0
LINE
  8
0
  6
CONTINUOUS
 62
     0
  5
128
 10
325.0
 20
2.339233
 30
0.0
 11
325.0
 21
5.910706
 31
0.0
  0
LINE
  8
0
  6
CONTINUOUS
 62
     0
  5
129
 10
325.5
 20
2.339233
 30
0.0
 11
325.5
 21
2.55365
 31
0.0
  0
LINE
  8
0
  6
CONTINUOUS
 62
     0
  5
12A
 10
325.5
 20
5.696411
 30
0.0
 11
325.5
 21
5.910706
 31
0.0
  0
LINE
  8
0
  6
CONTINUOUS
 62
     0
  5
12B
 10
326.0
 20
2.339233
 30
0.0
 11
326.0
 21
2.55365
 31
0.0
  0
LINE
  8
0
  6
CONTINUOUS
 62
     0
  5
12C
 10
326.0
 20
5.696411
 30
0.0
 11
326.0
 21
5.910706
 31
0.0
  0
LINE
  8
0
  6
CONTINUOUS
 62
     0
  5
12D
 10
326.5
 20
2.339233
 30
0.0
 11
326.5
 21
2.55365
 31
0.0
  0
LINE
  8
0
  6
CONTINUOUS
 62
     0
  5
12E
 10
326.5
 20
5.696411
 30
0.0
 11
326.5
 21
5.910706
 31
0.0
  0
LINE
  8
0
  6
CONTINUOUS
 62
     0
  5
12F
 10
327.0
 20
2.339233
 30
0.0
 11
327.0
 21
2.55365
 31
0.0
  0
LINE
  8
0
  6
CONTINUOUS
 62
     0
  5
130
 10
327.0
 20
5.696411
 30
0.0
 11
327.0
 21
5.910706
 31
0.0
  0
LINE
  8
0
  6
CONTINUOUS
 62
     0
  5
131
 10
327.5
 20
2.339233
 30
0.0
 11
327.5
 21
2.55365
 31
0.0
  0
LINE
  8
0
  6
CONTINUOUS
 62
     0
  5
132
 10
327.5
 20
5.696411
 30
0.0
 11
327.5
 21
5.910706
 31
0.0
  0
ENDBLK
  8
0
  6
BYBLOCK
 62
     0
  5
133
  0
BLOCK
  8
0
  6
BYBLOCK
 62
     0
  5
136
  2
*X15
 70
     1
 10
0.0
 20
0.0
 30
0.0
  3
*X15
  0
LINE
  8
0
  6
CONTINUOUS
 62
     0
  5
137
 10
316.864305
 20
2.5
 30
0.0
 11
319.078599
 21
2.5
 31
0.0
  0
LINE
  8
0
  6
CONTINUOUS
 62
     0
  5
138
 10
318.221466
 20
3.0
 30
0.0
 11
319.078593
 21
3.0
 31
0.0
  0
LINE
  8
0
  6
CONTINUOUS
 62
     0
  5
139
 10
318.221466
 20
3.5
 30
0.0
 11
319.078588
 21
3.5
 31
0.0
  0
LINE
  8
0
  6
CONTINUOUS
 62
     0
  5
13A
 10
315.864319
 20
4.0
 30
0.0
 11
321.292877
 21
4.0
 31
0.0
  0
LINE
  8
0
  6
CONTINUOUS
 62
     0
  5
13B
 10
318.221396
 20
4.5
 30
0.0
 11
319.078177
 21
4.5
 31
0.0
  0
LINE
  8
0
  6
CONTINUOUS
 62
     0
  5
13C
 10
319.185237
 20
5.0
 30
0.0
 11
320.059613
 21
5.0
 31
0.0
  0
LINE
  8
0
  6
CONTINUOUS
 62
     0
  5
13D
 10
319.88431
 20
5.5
 30
0.0
 11
321.093877
 21
5.5
 31
0.0
  0
LINE
  8
0
  6
CONTINUOUS
 62
     0
  5
13E
 10
316.0
 20
3.910583
 30
0.0
 11
316.0
 21
4.125
 31
0.0
  0
LINE
  8
0
  6
CONTINUOUS
 62
     0
  5
13F
 10
316.0
 20
5.696414
 30
0.0
 11
316.0
 21
5.910706
 31
0.0
  0
LINE
  8
0
  6
CONTINUOUS
 62
     0
  5
140
 10
316.5
 20
3.910583
 30
0.0
 11
316.5
 21
4.125
 31
0.0
  0
LINE
  8
0
  6
CONTINUOUS
 62
     0
  5
141
 10
316.5
 20
5.696422
 30
0.0
 11
316.5
 21
5.910706
 31
0.0
  0
LINE
  8
0
  6
CONTINUOUS
 62
     0
  5
142
 10
317.0
 20
2.339277
 30
0.0
 11
317.0
 21
2.839235
 31
0.0
  0
LINE
  8
0
  6
CONTINUOUS
 62
     0
  5
143
 10
317.0
 20
3.910583
 30
0.0
 11
317.0
 21
4.125
 31
0.0
  0
LINE
  8
0
  6
CONTINUOUS
 62
     0
  5
144
 10
317.0
 20
5.696431
 30
0.0
 11
317.0
 21
5.910706
 31
0.0
  0
LINE
  8
0
  6
CONTINUOUS
 62
     0
  5
145
 10
317.5
 20
2.339277
 30
0.0
 11
317.5
 21
2.706319
 31
0.0
  0
LINE
  8
0
  6
CONTINUOUS
 62
     0
  5
146
 10
317.5
 20
3.910583
 30
0.0
 11
317.5
 21
4.125
 31
0.0
  0
LINE
  8
0
  6
CONTINUOUS
 62
     0
  5
147
 10
317.5
 20
5.69644
 30
0.0
 11
317.5
 21
5.910706
 31
0.0
  0
LINE
  8
0
  6
CONTINUOUS
 62
     0
  5
148
 10
318.0
 20
2.339277
 30
0.0
 11
318.0
 21
2.553546
 31
0.0
  0
LINE
  8
0
  6
CONTINUOUS
 62
     0
  5
149
 10
318.0
 20
3.910583
 30
0.0
 11
318.0
 21
4.125
 31
0.0
  0
LINE
  8
0
  6
CONTINUOUS
 62
     0
  5
14A
 10
318.0
 20
5.696449
 30
0.0
 11
318.0
 21
5.910706
 31
0.0
  0
LINE
  8
0
  6
CONTINUOUS
 62
     0
  5
14B
 10
318.5
 20
2.339277
 30
0.0
 11
318.5
 21
4.733819
 31
0.0
  0
LINE
  8
0
  6
CONTINUOUS
 62
     0
  5
14C
 10
318.5
 20
5.696458
 30
0.0
 11
318.5
 21
5.910706
 31
0.0
  0
LINE
  8
0
  6
CONTINUOUS
 62
     0
  5
14D
 10
319.0
 20
2.339277
 30
0.0
 11
319.0
 21
4.914629
 31
0.0
  0
LINE
  8
0
  6
CONTINUOUS
 62
     0
  5
14E
 10
319.0
 20
5.696467
 30
0.0
 11
319.0
 21
5.910706
 31
0.0
  0
LINE
  8
0
  6
CONTINUOUS
 62
     0
  5
14F
 10
319.5
 20
3.910583
 30
0.0
 11
319.5
 21
4.125
 31
0.0
  0
LINE
  8
0
  6
CONTINUOUS
 62
     0
  5
150
 10
319.5
 20
4.774231
 30
0.0
 11
319.5
 21
5.169884
 31
0.0
  0
LINE
  8
0
  6
CONTINUOUS
 62
     0
  5
151
 10
319.5
 20
5.696476
 30
0.0
 11
319.5
 21
5.910706
 31
0.0
  0
LINE
  8
0
  6
CONTINUOUS
 62
     0
  5
152
 10
320.0
 20
3.910583
 30
0.0
 11
320.0
 21
4.125
 31
0.0
  0
LINE
  8
0
  6
CONTINUOUS
 62
     0
  5
153
 10
320.0
 20
4.972928
 30
0.0
 11
320.0
 21
5.910706
 31
0.0
  0
LINE
  8
0
  6
CONTINUOUS
 62
     0
  5
154
 10
320.5
 20
3.910583
 30
0.0
 11
320.5
 21
4.125
 31
0.0
  0
LINE
  8
0
  6
CONTINUOUS
 62
     0
  5
155
 10
320.5
 20
5.202463
 30
0.0
 11
320.5
 21
5.910706
 31
0.0
  0
LINE
  8
0
  6
CONTINUOUS
 62
     0
  5
156
 10
321.0
 20
3.910583
 30
0.0
 11
321.0
 21
4.125
 31
0.0
  0
LINE
  8
0
  6
CONTINUOUS
 62
     0
  5
157
 10
321.0
 20
5.450793
 30
0.0
 11
321.0
 21
5.910706
 31
0.0
  0
ENDBLK
  8
0
  6
BYBLOCK
 62
     0
  5
158
  0
BLOCK
  8
0
  6
BYBLOCK
 62
     0
  5
15C
  2
*X16
 70
     1
 10
0.0
 20
0.0
 30
0.0
  3
*X16
  0
LINE
  8
0
  6
CONTINUOUS
 62
     0
  5
15D
 10
299.935618
 20
2.5
 30
0.0
 11
304.150136
 21
2.5
 31
0.0
  0
LINE
  8
0
  6
CONTINUOUS
 62
     0
  5
15E
 10
299.852273
 20
3.0
 30
0.0
 11
300.850126
 21
3.0
 31
0.0
  0
LINE
  8
0
  6
CONTINUOUS
 62
     0
  5
15F
 10
303.235629
 20
3.0
 30
0.0
 11
304.233466
 21
3.0
 31
0.0
  0
LINE
  8
0
  6
CONTINUOUS
 62
     0
  5
160
 10
299.768929
 20
3.5
 30
0.0
 11
300.781972
 21
3.5
 31
0.0
  0
LINE
  8
0
  6
CONTINUOUS
 62
     0
  5
161
 10
303.303783
 20
3.5
 30
0.0
 11
304.316797
 21
3.5
 31
0.0
  0
LINE
  8
0
  6
CONTINUOUS
 62
     0
  5
162
 10
299.685584
 20
4.0
 30
0.0
 11
300.713818
 21
4.0
 31
0.0
  0
LINE
  8
0
  6
CONTINUOUS
 62
     0
  5
163
 10
303.371937
 20
4.0
 30
0.0
 11
304.400127
 21
4.0
 31
0.0
  0
LINE
  8
0
  6
CONTINUOUS
 62
     0
  5
164
 10
299.60224
 20
4.5
 30
0.0
 11
300.645664
 21
4.5
 31
0.0
  0
LINE
  8
0
  6
CONTINUOUS
 62
     0
  5
165
 10
303.44009
 20
4.5
 30
0.0
 11
304.483457
 21
4.5
 31
0.0
  0
LINE
  8
0
  6
CONTINUOUS
 62
     0
  5
166
 10
299.518896
 20
5.0
 30
0.0
 11
300.57751
 21
5.0
 31
0.0
  0
LINE
  8
0
  6
CONTINUOUS
 62
     0
  5
167
 10
303.508244
 20
5.0
 30
0.0
 11
304.566787
 21
5.0
 31
0.0
  0
LINE
  8
0
  6
CONTINUOUS
 62
     0
  5
168
 10
299.435551
 20
5.5
 30
0.0
 11
304.650117
 21
5.5
 31
0.0
  0
LINE
  8
0
  6
CONTINUOUS
 62
     0
  5
169
 10
299.5
 20
5.113359
 30
0.0
 11
299.5
 21
5.696655
 31
0.0
  0
LINE
  8
0
  6
CONTINUOUS
 62
     0
  5
16A
 10
300.0
 20
2.482117
 30
0.0
 11
300.0
 21
5.696655
 31
0.0
  0
LINE
  8
0
  6
CONTINUOUS
 62
     0
  5
16B
 10
300.5
 20
2.482117
 30
0.0
 11
300.5
 21
5.696655
 31
0.0
  0
LINE
  8
0
  6
CONTINUOUS
 62
     0
  5
16C
 10
301.0
 20
2.482117
 30
0.0
 11
301.0
 21
2.695496
 31
0.0
  0
LINE
  8
0
  6
CONTINUOUS
 62
     0
  5
16D
 10
301.0
 20
5.481995
 30
0.0
 11
301.0
 21
5.696655
 31
0.0
  0
LINE
  8
0
  6
CONTINUOUS
 62
     0
  5
16E
 10
301.5
 20
2.482117
 30
0.0
 11
301.5
 21
2.695496
 31
0.0
  0
LINE
  8
0
  6
CONTINUOUS
 62
     0
  5
16F
 10
301.5
 20
5.481995
 30
0.0
 11
301.5
 21
5.696655
 31
0.0
  0
LINE
  8
0
  6
CONTINUOUS
 62
     0
  5
170
 10
302.0
 20
2.482117
 30
0.0
 11
302.0
 21
2.695496
 31
0.0
  0
LINE
  8
0
  6
CONTINUOUS
 62
     0
  5
171
 10
302.0
 20
5.481995
 30
0.0
 11
302.0
 21
5.696655
 31
0.0
  0
LINE
  8
0
  6
CONTINUOUS
 62
     0
  5
172
 10
302.5
 20
2.482117
 30
0.0
 11
302.5
 21
2.695496
 31
0.0
  0
LINE
  8
0
  6
CONTINUOUS
 62
     0
  5
173
 10
302.5
 20
5.481995
 30
0.0
 11
302.5
 21
5.696655
 31
0.0
  0
LINE
  8
0
  6
CONTINUOUS
 62
     0
  5
174
 10
303.0
 20
2.482117
 30
0.0
 11
303.0
 21
2.695496
 31
0.0
  0
LINE
  8
0
  6
CONTINUOUS
 62
     0
  5
175
 10
303.0
 20
5.481995
 30
0.0
 11
303.0
 21
5.696655
 31
0.0
  0
LINE
  8
0
  6
CONTINUOUS
 62
     0
  5
176
 10
303.5
 20
2.482117
 30
0.0
 11
303.5
 21
4.939516
 31
0.0
  0
LINE
  8
0
  6
CONTINUOUS
 62
     0
  5
177
 10
303.5
 20
5.481995
 30
0.0
 11
303.5
 21
5.696655
 31
0.0
  0
LINE
  8
0
  6
CONTINUOUS
 62
     0
  5
178
 10
304.0
 20
2.482117
 30
0.0
 11
304.0
 21
5.696655
 31
0.0
  0
LINE
  8
0
  6
CONTINUOUS
 62
     0
  5
179
 10
304.5
 20
4.599263
 30
0.0
 11
304.5
 21
5.696655
 31
0.0
  0
ENDBLK
  8
0
  6
BYBLOCK
 62
     0
  5
17A
  0
BLOCK
  8
0
  6
BYBLOCK
 62
     0
  5
17D
  2
*X17
 70
     1
 10
0.0
 20
0.0
 30
0.0
  3
*X17
  0
LINE
  8
0
  6
CONTINUOUS
 62
     0
  5
17E
 10
314.5
 20
2.392804
 30
0.0
 11
314.5
 21
2.482165
 31
0.0
  0
ENDBLK
  8
0
  6
BYBLOCK
 62
     0
  5
17F
  0
BLOCK
  8
0
  6
BYBLOCK
 62
     0
  5
183
  2
*X18
 70
     1
 10
0.0
 20
0.0
 30
0.0
  3
*X18
  0
LINE
  8
0
  6
CONTINUOUS
 62
     0
  5
184
 10
311.864301
 20
2.5
 30
0.0
 11
312.792877
 21
2.5
 31
0.0
  0
LINE
  8
0
  6
CONTINUOUS
 62
     0
  5
185
 10
311.864307
 20
3.0
 30
0.0
 11
312.792877
 21
3.0
 31
0.0
  0
LINE
  8
0
  6
CONTINUOUS
 62
     0
  5
186
 10
311.864312
 20
3.5
 30
0.0
 11
312.792877
 21
3.5
 31
0.0
  0
LINE
  8
0
  6
CONTINUOUS
 62
     0
  5
187
 10
311.864318
 20
4.0
 30
0.0
 11
312.792877
 21
4.0
 31
0.0
  0
LINE
  8
0
  6
CONTINUOUS
 62
     0
  5
188
 10
312.0
 20
2.392777
 30
0.0
 11
312.0
 21
4.064331
 31
0.0
  0
LINE
  8
0
  6
CONTINUOUS
 62
     0
  5
189
 10
312.5
 20
2.392806
 30
0.0
 11
312.5
 21
4.064331
 31
0.0
  0
ENDBLK
  8
0
  6
BYBLOCK
 62
     0
  5
18A
  0
BLOCK
  8
0
  6
BYBLOCK
 62
     0
  5
191
  2
*X19
 70
     1
 10
0.0
 20
0.0
 30
0.0
  3
*X19
  0
LINE
  8
0
  6
CONTINUOUS
 62
     0
  5
192
 10
293.221436
 20
2.5
 30
0.0
 11
295.841753
 21
2.5
 31
0.0
  0
LINE
  8
0
  6
CONTINUOUS
 62
     0
  5
193
 10
294.718593
 20
3.0
 30
0.0
 11
295.935741
 21
3.0
 31
0.0
  0
LINE
  8
0
  6
CONTINUOUS
 62
     0
  5
194
 10
294.721466
 20
3.5
 30
0.0
 11
295.935735
 21
3.5
 31
0.0
  0
LINE
  8
0
  6
CONTINUOUS
 62
     0
  5
195
 10
294.721466
 20
4.0
 30
0.0
 11
298.157639
 21
4.0
 31
0.0
  0
LINE
  8
0
  6
CONTINUOUS
 62
     0
  5
196
 10
294.721466
 20
4.5
 30
0.0
 11
295.93573
 21
4.5
 31
0.0
  0
LINE
  8
0
  6
CONTINUOUS
 62
     0
  5
197
 10
297.395568
 20
4.5
 30
0.0
 11
298.637759
 21
4.5
 31
0.0
  0
LINE
  8
0
  6
CONTINUOUS
 62
     0
  5
198
 10
297.507161
 20
5.0
 30
0.0
 11
298.650027
 21
5.0
 31
0.0
  0
LINE
  8
0
  6
CONTINUOUS
 62
     0
  5
199
 10
297.507169
 20
5.5
 30
0.0
 11
298.650026
 21
5.5
 31
0.0
  0
LINE
  8
0
  6
CONTINUOUS
 62
     0
  5
19A
 10
293.5
 20
2.339236
 30
0.0
 11
293.5
 21
2.553528
 31
0.0
  0
LINE
  8
0
  6
CONTINUOUS
 62
     0
  5
19B
 10
293.5
 20
5.696411
 30
0.0
 11
293.5
 21
5.910706
 31
0.0
  0
LINE
  8
0
  6
CONTINUOUS
 62
     0
  5
19C
 10
294.0
 20
2.339239
 30
0.0
 11
294.0
 21
2.553528
 31
0.0
  0
LINE
  8
0
  6
CONTINUOUS
 62
     0
  5
19D
 10
294.0
 20
5.696411
 30
0.0
 11
294.0
 21
5.910706
 31
0.0
  0
LINE
  8
0
  6
CONTINUOUS
 62
     0
  5
19E
 10
294.5
 20
2.339243
 30
0.0
 11
294.5
 21
2.638294
 31
0.0
  0
LINE
  8
0
  6
CONTINUOUS
 62
     0
  5
19F
 10
294.5
 20
5.696411
 30
0.0
 11
294.5
 21
5.910706
 31
0.0
  0
LINE
  8
0
  6
CONTINUOUS
 62
     0
  5
1A0
 10
295.0
 20
2.339247
 30
0.0
 11
295.0
 21
4.910767
 31
0.0
  0
LINE
  8
0
  6
CONTINUOUS
 62
     0
  5
1A1
 10
295.0
 20
5.696411
 30
0.0
 11
295.0
 21
5.910706
 31
0.0
  0
LINE
  8
0
  6
CONTINUOUS
 62
     0
  5
1A2
 10
295.5
 20
2.339251
 30
0.0
 11
295.5
 21
4.910767
 31
0.0
  0
LINE
  8
0
  6
CONTINUOUS
 62
     0
  5
1A3
 10
295.5
 20
5.696411
 30
0.0
 11
295.5
 21
5.910706
 31
0.0
  0
LINE
  8
0
  6
CONTINUOUS
 62
     0
  5
1A4
 10
296.0
 20
3.982118
 30
0.0
 11
296.0
 21
4.267821
 31
0.0
  0
LINE
  8
0
  6
CONTINUOUS
 62
     0
  5
1A5
 10
296.0
 20
5.696411
 30
0.0
 11
296.0
 21
5.910706
 31
0.0
  0
LINE
  8
0
  6
CONTINUOUS
 62
     0
  5
1A6
 10
296.5
 20
3.982124
 30
0.0
 11
296.5
 21
4.267812
 31
0.0
  0
LINE
  8
0
  6
CONTINUOUS
 62
     0
  5
1A7
 10
296.5
 20
5.696411
 30
0.0
 11
296.5
 21
5.910706
 31
0.0
  0
LINE
  8
0
  6
CONTINUOUS
 62
     0
  5
1A8
 10
297.0
 20
3.98213
 30
0.0
 11
297.0
 21
4.271431
 31
0.0
  0
LINE
  8
0
  6
CONTINUOUS
 62
     0
  5
1A9
 10
297.0
 20
5.696411
 30
0.0
 11
297.0
 21
5.910706
 31
0.0
  0
LINE
  8
0
  6
CONTINUOUS
 62
     0
  5
1AA
 10
297.5
 20
3.982136
 30
0.0
 11
297.5
 21
4.749067
 31
0.0
  0
LINE
  8
0
  6
CONTINUOUS
 62
     0
  5
1AB
 10
297.5
 20
5.696411
 30
0.0
 11
297.5
 21
5.910706
 31
0.0
  0
LINE
  8
0
  6
CONTINUOUS
 62
     0
  5
1AC
 10
298.0
 20
3.982143
 30
0.0
 11
298.0
 21
5.910706
 31
0.0
  0
LINE
  8
0
  6
CONTINUOUS
 62
     0
  5
1AD
 10
298.5
 20
4.212222
 30
0.0
 11
298.5
 21
5.910706
 31
0.0
  0
ENDBLK
  8
0
  6
BYBLOCK
 62
     0
  5
1AE
  0
ENDSEC
  0
SECTION
  2
ENTITIES
  0
LINE
  8
LY_1
  6
DASHED
 62
    80
  5
331
 10
93.225
 20
228.589833
 30
0.0
 11
93.225
 21
258.589833
 31
0.0
  0
LINE
  8
LY_1
  6
DASHED
 62
    80
  5
332
 10
118.625
 20
236.789833
 30
0.0
 11
124.625
 21
236.789833
 31
0.0
  0
LINE
  8
LY_1
  6
DASHED
 62
    80
  5
333
 10
118.625
 20
250.389833
 30
0.0
 11
124.625
 21
250.389833
 31
0.0
  0
LINE
  8
LY_1
  6
DASHED
 62
    80
  5
334
 10
118.625
 20
235.589833
 30
0.0
 11
124.625
 21
235.589833
 31
0.0
  0
LINE
  8
LY_1
  6
DASHED
 62
    80
  5
335
 10
118.625
 20
251.589833
 30
0.0
 11
124.625
 21
251.589833
 31
0.0
  0
LINE
  8
LY_1
  6
DASHED
 62
    80
  5
336
 10
118.625
 20
235.589833
 30
0.0
 11
118.625
 21
251.589833
 31
0.0
  0
LINE
  8
LY_1
  6
DASHED
 62
    80
  5
337
 10
124.625
 20
235.589833
 30
0.0
 11
124.625
 21
251.589833
 31
0.0
  0
LINE
  8
LY_1
  6
CENTER
 62
    80
  5
339
 10
88.280849
 20
243.589833
 30
0.0
 11
94.969151
 21
243.589833
 31
0.0
  0
LINE
  8
LY_1
  6
CONTINUOUS
 62
     3
  5
33A
 10
94.625
 20
236.089833
 30
0.0
 11
91.625
 21
236.089833
 31
0.0
  0
LINE
  8
LY_1
  6
CONTINUOUS
 62
     3
  5
33B
 10
94.625
 20
236.089832
 30
0.0
 11
91.625
 21
234.357782
 31
0.0
  0
LINE
  8
LY_1
  6
CONTINUOUS
 62
     3
  5
33C
 10
94.625
 20
236.089833
 30
0.0
 11
91.625
 21
237.821883
 31
0.0
  0
LINE
  8
LY_1
  6
CONTINUOUS
 62
     3
  5
33D
 10
94.625
 20
251.089833
 30
0.0
 11
91.625
 21
251.089833
 31
0.0
  0
LINE
  8
LY_1
  6
CONTINUOUS
 62
     3
  5
33E
 10
94.625
 20
251.089833
 30
0.0
 11
91.625
 21
252.821883
 31
0.0
  0
LINE
  8
LY_1
  6
CONTINUOUS
 62
     3
  5
33F
 10
94.625
 20
251.089832
 30
0.0
 11
91.625
 21
249.357782
 31
0.0
  0
LINE
  8
LY_1
  6
CONTINUOUS
 62
     3
  5
340
 10
196.525
 20
237.564833
 30
0.0
 11
196.525
 21
236.814833
 31
0.0
  0
LINE
  8
LY_1
  6
CONTINUOUS
 62
     3
  5
341
 10
197.65
 20
238.689833
 30
0.0
 11
198.4
 21
238.689833
 31
0.0
  0
LINE
  8
LY_1
  6
CONTINUOUS
 62
     3
  5
342
 10
197.65
 20
238.689833
 30
0.0
 11
197.65
 21
238.164869
 31
0.0
  0
LINE
  8
LY_1
  6
CONTINUOUS
 62
     3
  5
343
 10
196.525
 20
237.564833
 30
0.0
 11
197.050024
 21
237.564833
 31
0.0
  0
LINE
  8
LY_1
  6
CONTINUOUS
 62
     3
  5
344
 10
199.525
 20
237.564833
 30
0.0
 11
199.525
 21
236.814833
 31
0.0
  0
LINE
  8
LY_1
  6
CONTINUOUS
 62
     3
  5
345
 10
198.4
 20
238.689833
 30
0.0
 11
198.4
 21
238.164869
 31
0.0
  0
LINE
  8
LY_1
  6
CONTINUOUS
 62
     3
  5
346
 10
199.000037
 20
237.564833
 30
0.0
 11
199.525
 21
237.564833
 31
0.0
  0
LINE
  8
LY_1
  6
CONTINUOUS
 62
     3
  5
347
 10
197.65
 20
235.689833
 30
0.0
 11
198.4
 21
235.689833
 31
0.0
  0
LINE
  8
LY_1
  6
CONTINUOUS
 62
     3
  5
348
 10
198.4
 20
236.214857
 30
0.0
 11
198.4
 21
235.689833
 31
0.0
  0
LINE
  8
LY_1
  6
CONTINUOUS
 62
     3
  5
349
 10
199.000037
 20
236.814833
 30
0.0
 11
199.525
 21
236.814833
 31
0.0
  0
LINE
  8
LY_1
  6
CONTINUOUS
 62
     3
  5
34A
 10
196.525
 20
236.814833
 30
0.0
 11
197.050024
 21
236.814833
 31
0.0
  0
LINE
  8
LY_1
  6
CONTINUOUS
 62
     3
  5
34B
 10
197.65
 20
236.214857
 30
0.0
 11
197.65
 21
235.689833
 31
0.0
  0
ARC
  8
LY_1
  6
CONTINUOUS
 62
     3
  5
34C
 10
198.025
 20
237.189833
 30
0.0
 40
2.75
 50
170.587965
 51
99.412035
  0
ARC
  8
LY_1
  6
CONTINUOUS
 62
     3
  5
34D
 10
197.050024
 20
238.164869
 30
0.0
 40
0.6
 50
269.999997
 51
0.0
  0
ARC
  8
LY_1
  6
CONTINUOUS
 62
     3
  5
34E
 10
199.000037
 20
238.164869
 30
0.0
 40
0.6
 50
179.999995
 51
269.999997
  0
ARC
  8
LY_1
  6
CONTINUOUS
 62
     3
  5
34F
 10
199.000037
 20
236.214857
 30
0.0
 40
0.6
 50
90.000003
 51
180.000005
  0
ARC
  8
LY_1
  6
CONTINUOUS
 62
     3
  5
350
 10
197.050024
 20
236.214857
 30
0.0
 40
0.6
 50
0.0
 51
90.000003
  0
LINE
  8
LY_1
  6
CONTINUOUS
 62
     3
  5
351
 10
183.725
 20
237.564833
 30
0.0
 11
183.725
 21
236.814833
 31
0.0
  0
LINE
  8
LY_1
  6
CONTINUOUS
 62
     3
  5
352
 10
184.85
 20
238.689833
 30
0.0
 11
185.6
 21
238.689833
 31
0.0
  0
LINE
  8
LY_1
  6
CONTINUOUS
 62
     3
  5
353
 10
184.85
 20
238.689833
 30
0.0
 11
184.85
 21
238.164869
 31
0.0
  0
LINE
  8
LY_1
  6
CONTINUOUS
 62
     3
  5
354
 10
183.725
 20
237.564833
 30
0.0
 11
184.250024
 21
237.564833
 31
0.0
  0
LINE
  8
LY_1
  6
CONTINUOUS
 62
     3
  5
355
 10
186.725
 20
237.564833
 30
0.0
 11
186.725
 21
236.814833
 31
0.0
  0
LINE
  8
LY_1
  6
CONTINUOUS
 62
     3
  5
356
 10
185.6
 20
238.689833
 30
0.0
 11
185.6
 21
238.164869
 31
0.0
  0
LINE
  8
LY_1
  6
CONTINUOUS
 62
     3
  5
357
 10
186.200037
 20
237.564833
 30
0.0
 11
186.725
 21
237.564833
 31
0.0
  0
LINE
  8
LY_1
  6
CONTINUOUS
 62
     3
  5
358
 10
184.85
 20
235.689833
 30
0.0
 11
185.6
 21
235.689833
 31
0.0
  0
LINE
  8
LY_1
  6
CONTINUOUS
 62
     3
  5
359
 10
185.6
 20
236.214857
 30
0.0
 11
185.6
 21
235.689833
 31
0.0
  0
LINE
  8
LY_1
  6
CONTINUOUS
 62
     3
  5
35A
 10
186.200037
 20
236.814833
 30
0.0
 11
186.725
 21
236.814833
 31
0.0
  0
LINE
  8
LY_1
  6
CONTINUOUS
 62
     3
  5
35B
 10
183.725
 20
236.814833
 30
0.0
 11
184.250024
 21
236.814833
 31
0.0
  0
LINE
  8
LY_1
  6
CONTINUOUS
 62
     3
  5
35C
 10
184.85
 20
236.214857
 30
0.0
 11
184.85
 21
235.689833
 31
0.0
  0
ARC
  8
LY_1
  6
CONTINUOUS
 62
     3
  5
35D
 10
185.225
 20
237.189833
 30
0.0
 40
2.75
 50
80.587965
 51
9.412035
  0
ARC
  8
LY_1
  6
CONTINUOUS
 62
     3
  5
35E
 10
184.250024
 20
238.164869
 30
0.0
 40
0.6
 50
269.999997
 51
0.0
  0
ARC
  8
LY_1
  6
CONTINUOUS
 62
     3
  5
35F
 10
186.200037
 20
238.164869
 30
0.0
 40
0.6
 50
179.999995
 51
269.999997
  0
ARC
  8
LY_1
  6
CONTINUOUS
 62
     3
  5
360
 10
186.200037
 20
236.214857
 30
0.0
 40
0.6
 50
90.000003
 51
180.000005
  0
ARC
  8
LY_1
  6
CONTINUOUS
 62
     3
  5
361
 10
184.250024
 20
236.214857
 30
0.0
 40
0.6
 50
0.0
 51
90.000003
  0
LINE
  8
LY_1
  6
CONTINUOUS
 62
     3
  5
362
 10
183.725
 20
250.364833
 30
0.0
 11
183.725
 21
249.614833
 31
0.0
  0
LINE
  8
LY_1
  6
CONTINUOUS
 62
     3
  5
363
 10
184.85
 20
251.489833
 30
0.0
 11
185.6
 21
251.489833
 31
0.0
  0
LINE
  8
LY_1
  6
CONTINUOUS
 62
     3
  5
364
 10
184.85
 20
251.489833
 30
0.0
 11
184.85
 21
250.964869
 31
0.0
  0
LINE
  8
LY_1
  6
CONTINUOUS
 62
     3
  5
365
 10
183.725
 20
250.364833
 30
0.0
 11
184.250024
 21
250.364833
 31
0.0
  0
LINE
  8
LY_1
  6
CONTINUOUS
 62
     3
  5
366
 10
186.725
 20
250.364833
 30
0.0
 11
186.725
 21
249.614833
 31
0.0
  0
LINE
  8
LY_1
  6
CONTINUOUS
 62
     3
  5
367
 10
185.6
 20
251.489833
 30
0.0
 11
185.6
 21
250.964869
 31
0.0
  0
LINE
  8
LY_1
  6
CONTINUOUS
 62
     3
  5
368
 10
186.200037
 20
250.364833
 30
0.0
 11
186.725
 21
250.364833
 31
0.0
  0
LINE
  8
LY_1
  6
CONTINUOUS
 62
     3
  5
369
 10
184.85
 20
248.489833
 30
0.0
 11
185.6
 21
248.489833
 31
0.0
  0
LINE
  8
LY_1
  6
CONTINUOUS
 62
     3
  5
36A
 10
185.6
 20
249.014857
 30
0.0
 11
185.6
 21
248.489833
 31
0.0
  0
LINE
  8
LY_1
  6
CONTINUOUS
 62
     3
  5
36B
 10
186.200037
 20
249.614833
 30
0.0
 11
186.725
 21
249.614833
 31
0.0
  0
LINE
  8
LY_1
  6
CONTINUOUS
 62
     3
  5
36C
 10
183.725
 20
249.614833
 30
0.0
 11
184.250024
 21
249.614833
 31
0.0
  0
LINE
  8
LY_1
  6
CONTINUOUS
 62
     3
  5
36D
 10
184.85
 20
249.014857
 30
0.0
 11
184.85
 21
248.489833
 31
0.0
  0
ARC
  8
LY_1
  6
CONTINUOUS
 62
     3
  5
36E
 10
185.225
 20
249.989833
 30
0.0
 40
2.75
 50
350.587965
 51
279.412035
  0
ARC
  8
LY_1
  6
CONTINUOUS
 62
     3
  5
36F
 10
184.250024
 20
250.964869
 30
0.0
 40
0.6
 50
269.999997
 51
0.0
  0
ARC
  8
LY_1
  6
CONTINUOUS
 62
     3
  5
370
 10
186.200037
 20
250.964869
 30
0.0
 40
0.6
 50
179.999995
 51
269.999997
  0
ARC
  8
LY_1
  6
CONTINUOUS
 62
     3
  5
371
 10
186.200037
 20
249.014857
 30
0.0
 40
0.6
 50
90.000003
 51
180.000005
  0
ARC
  8
LY_1
  6
CONTINUOUS
 62
     3
  5
372
 10
184.250024
 20
249.014857
 30
0.0
 40
0.6
 50
0.0
 51
90.000003
  0
LINE
  8
LY_1
  6
CONTINUOUS
 62
     3
  5
373
 10
196.525
 20
250.364833
 30
0.0
 11
196.525
 21
249.614833
 31
0.0
  0
LINE
  8
LY_1
  6
CONTINUOUS
 62
     3
  5
374
 10
197.65
 20
251.489833
 30
0.0
 11
198.4
 21
251.489833
 31
0.0
  0
LINE
  8
LY_1
  6
CONTINUOUS
 62
     3
  5
375
 10
197.65
 20
251.489833
 30
0.0
 11
197.65
 21
250.964869
 31
0.0
  0
LINE
  8
LY_1
  6
CONTINUOUS
 62
     3
  5
376
 10
196.525
 20
250.364833
 30
0.0
 11
197.050024
 21
250.364833
 31
0.0
  0
LINE
  8
LY_1
  6
CONTINUOUS
 62
     3
  5
377
 10
199.525
 20
250.364833
 30
0.0
 11
199.525
 21
249.614833
 31
0.0
  0
LINE
  8
LY_1
  6
CONTINUOUS
 62
     3
  5
378
 10
198.4
 20
251.489833
 30
0.0
 11
198.4
 21
250.964869
 31
0.0
  0
LINE
  8
LY_1
  6
CONTINUOUS
 62
     3
  5
379
 10
199.000037
 20
250.364833
 30
0.0
 11
199.525
 21
250.364833
 31
0.0
  0
LINE
  8
LY_1
  6
CONTINUOUS
 62
     3
  5
37A
 10
197.65
 20
248.489833
 30
0.0
 11
198.4
 21
248.489833
 31
0.0
  0
LINE
  8
LY_1
  6
CONTINUOUS
 62
     3
  5
37B
 10
198.4
 20
249.014857
 30
0.0
 11
198.4
 21
248.489833
 31
0.0
  0
LINE
  8
LY_1
  6
CONTINUOUS
 62
     3
  5
37C
 10
199.000037
 20
249.614833
 30
0.0
 11
199.525
 21
249.614833
 31
0.0
  0
LINE
  8
LY_1
  6
CONTINUOUS
 62
     3
  5
37D
 10
196.525
 20
249.614833
 30
0.0
 11
197.050024
 21
249.614833
 31
0.0
  0
LINE
  8
LY_1
  6
CONTINUOUS
 62
     3
  5
37E
 10
197.65
 20
249.014857
 30
0.0
 11
197.65
 21
248.489833
 31
0.0
  0
ARC
  8
LY_1
  6
CONTINUOUS
 62
     3
  5
37F
 10
198.025
 20
249.989833
 30
0.0
 40
2.75
 50
260.587965
 51
189.412035
  0
ARC
  8
LY_1
  6
CONTINUOUS
 62
     3
  5
380
 10
197.050024
 20
250.964869
 30
0.0
 40
0.6
 50
269.999997
 51
0.0
  0
ARC
  8
LY_1
  6
CONTINUOUS
 62
     3
  5
381
 10
199.000037
 20
250.964869
 30
0.0
 40
0.6
 50
179.999995
 51
269.999997
  0
ARC
  8
LY_1
  6
CONTINUOUS
 62
     3
  5
382
 10
199.000037
 20
249.014857
 30
0.0
 40
0.6
 50
90.000003
 51
180.000005
  0
ARC
  8
LY_1
  6
CONTINUOUS
 62
     3
  5
383
 10
197.050024
 20
249.014857
 30
0.0
 40
0.6
 50
0.0
 51
90.000003
  0
LINE
  8
LY_1
  6
CONTINUOUS
 62
     3
  5
384
 10
181.925
 20
233.889833
 30
0.0
 11
201.325
 21
233.889833
 31
0.0
  0
LINE
  8
LY_1
  6
CONTINUOUS
 62
     3
  5
385
 10
181.925
 20
253.289833
 30
0.0
 11
181.925
 21
233.889833
 31
0.0
  0
LINE
  8
LY_1
  6
CONTINUOUS
 62
     3
  5
386
 10
201.325
 20
253.289833
 30
0.0
 11
181.925
 21
253.289833
 31
0.0
  0
LINE
  8
LY_1
  6
CONTINUOUS
 62
     3
  5
387
 10
201.325
 20
233.889833
 30
0.0
 11
201.325
 21
253.289833
 31
0.0
  0
CIRCLE
  8
LY_1
  6
CONTINUOUS
 62
     3
  5
388
 10
121.625
 20
243.589833
 30
0.0
 40
2.5
  0
CIRCLE
  8
LY_1
  6
CONTINUOUS
 62
     3
  5
389
 10
191.625
 20
243.589833
 30
0.0
 40
1.0
  0
CIRCLE
  8
LY_1
  6
CONTINUOUS
 62
     3
  5
38A
 10
191.625
 20
243.589833
 30
0.0
 40
1.5
  0
CIRCLE
  8
LY_1
  6
CONTINUOUS
 62
     3
  5
38B
 10
191.625
 20
243.589833
 30
0.0
 40
7.0
  0
CIRCLE
  8
LY_1
  6
CONTINUOUS
 62
     3
  5
38C
 10
191.625
 20
243.589833
 30
0.0
 40
6.5
  0
CIRCLE
  8
LY_1
  6
CONTINUOUS
 62
     3
  5
38D
 10
191.625
 20
243.589833
 30
0.0
 40
5.0
  0
CIRCLE
  8
LY_1
  6
CONTINUOUS
 62
     3
  5
38E
 10
191.625
 20
243.589833
 30
0.0
 40
2.5
  0
LINE
  8
LY_1
  6
CONTINUOUS
 62
     3
  5
38F
 10
211.625
 20
230.589833
 30
0.0
 11
209.625
 21
228.589833
 31
0.0
  0
LINE
  8
LY_1
  6
CONTINUOUS
 62
     3
  5
390
 10
209.625
 20
258.589833
 30
0.0
 11
211.625
 21
256.589833
 31
0.0
  0
LINE
  8
LY_1
  6
CONTINUOUS
 62
     3
  5
391
 10
91.625
 20
228.589833
 30
0.0
 11
209.625
 21
228.589833
 31
0.0
  0
LINE
  8
LY_1
  6
CONTINUOUS
 62
     3
  5
392
 10
91.625
 20
258.589833
 30
0.0
 11
209.625
 21
258.589833
 31
0.0
  0
LINE
  8
LY_1
  6
CONTINUOUS
 62
     3
  5
393
 10
91.625
 20
228.589833
 30
0.0
 11
91.625
 21
258.589833
 31
0.0
  0
LINE
  8
LY_1
  6
CONTINUOUS
 62
     3
  5
394
 10
211.625
 20
230.589833
 30
0.0
 11
211.625
 21
256.589833
 31
0.0
  0
LINE
  8
LY_1
  6
CENTER
 62
    80
  5
395
 10
0.0
 20
-86.5
 30
0.0
 11
0.0
 21
182.5
 31
0.0
  0
LINE
  8
LY_1
  6
CONTINUOUS
 62
     3
  5
396
 10
190.625
 20
31.5
 30
0.0
 11
190.625
 21
175.0
 31
0.0
  0
LINE
  8
LY_1
  6
CONTINUOUS
 62
     3
  5
397
 10
1.0
 20
31.5
 30
0.0
 11
1.0
 21
175.0
 31
0.0
  0
ARC
  8
LY_1
  6
PHANTOM
 62
    80
  5
399
 10
94.125
 20
-47.5
 30
0.0
 40
10.0
 50
270.0
 51
0.0
  0
ARC
  8
LY_1
  6
CENTER
 62
    80
  5
39A
 10
94.125
 20
-47.5
 30
0.0
 40
5.0
 50
270.0
 51
0.0
  0
LINE
  8
LY_1
  6
CENTER
 62
    80
  5
39B
 10
87.264387
 20
-57.5
 30
0.0
 11
94.125
 21
-57.5
 31
0.0
  0
LINE
  8
LY_1
  6
CENTER
 62
    80
  5
39C
 10
87.264387
 20
-52.5
 30
0.0
 11
94.125
 21
-52.5
 31
0.0
  0
LINE
  8
LY_1
  6
PHANTOM
 62
    80
  5
39D
 10
104.125
 20
-47.5
 30
0.0
 11
104.125
 21
-28.503765
 31
0.0
  0
LINE
  8
LY_1
  6
PHANTOM
 62
    80
  5
39E
 10
99.125
 20
-47.5
 30
0.0
 11
99.125
 21
-28.503765
 31
0.0
  0
ARC
  8
LY_1
  6
PHANTOM
 62
    80
  5
39F
 10
166.625
 20
-48.786687
 30
0.0
 40
27.5
 50
180.0
 51
0.0
  0
ARC
  8
LY_1
  6
PHANTOM
 62
    80
  5
3A0
 10
166.625
 20
-48.786687
 30
0.0
 40
22.5
 50
180.0
 51
0.0
  0
LINE
  8
LY_1
  6
CENTER
 62
    80
  5
3A1
 10
194.125
 20
-48.786687
 30
0.0
 11
194.125
 21
-44.839854
 31
0.0
  0
LINE
  8
LY_1
  6
CENTER
 62
    80
  5
3A2
 10
189.125
 20
-48.786687
 30
0.0
 11
189.125
 21
-44.839854
 31
0.0
  0
LINE
  8
LY_1
  6
PHANTOM
 62
    80
  5
3A3
 10
144.125
 20
-48.786687
 30
0.0
 11
144.125
 21
-28.503765
 31
0.0
  0
LINE
  8
LY_1
  6
PHANTOM
 62
    80
  5
3A4
 10
139.125
 20
-48.786687
 30
0.0
 11
139.125
 21
-28.503765
 31
0.0
  0
ARC
  8
LY_1
  6
PHANTOM
 62
    80
  5
3A5
 10
121.625
 20
-28.503765
 30
0.0
 40
17.5
 50
0.0
 51
180.0
  0
ARC
  8
LY_1
  6
PHANTOM
 62
    80
  5
3A6
 10
121.625
 20
-28.503765
 30
0.0
 40
22.5
 50
0.0
 51
180.0
  0
LINE
  8
LY_1
  6
PHANTOM
 62
    80
  5
3A7
 10
185.125
 20
-22.839854
 30
0.0
 11
184.625
 21
-22.839854
 31
0.0
  0
LINE
  8
LY_1
  6
PHANTOM
 62
    80
  5
3A8
 10
185.125
 20
-28.839854
 30
0.0
 11
184.625
 21
-28.839854
 31
0.0
  0
LINE
  8
LY_1
  6
PHANTOM
 62
    80
  5
3A9
 10
184.625
 20
-28.839854
 30
0.0
 11
184.625
 21
-22.839854
 31
0.0
  0
LINE
  8
LY_1
  6
PHANTOM
 62
    80
  5
3AA
 10
186.125
 20
-21.839854
 30
0.0
 11
186.125
 21
-16.839854
 31
0.0
  0
LINE
  8
LY_1
  6
PHANTOM
 62
    80
  5
3AB
 10
184.625
 20
-16.339854
 30
0.0
 11
184.625
 21
-15.039854
 31
0.0
  0
LINE
  8
LY_1
  6
PHANTOM
 62
    80
  5
3AC
 10
185.125
 20
-16.839854
 30
0.0
 11
184.625
 21
-16.339854
 31
0.0
  0
ARC
  8
LY_1
  6
PHANTOM
 62
    80
  5
3AD
 10
186.125
 20
-22.839854
 30
0.0
 40
1.0
 50
90.0
 51
180.0
  0
ARC
  8
LY_1
  6
PHANTOM
 62
    80
  5
3AE
 10
186.125
 20
-28.839854
 30
0.0
 40
1.0
 50
180.0
 51
270.0
  0
LINE
  8
LY_1
  6
PHANTOM
 62
    80
  5
3AF
 10
188.125
 20
-44.839854
 30
0.0
 11
187.125
 21
-29.839854
 31
0.0
  0
LINE
  8
LY_1
  6
PHANTOM
 62
    80
  5
3B0
 10
191.625
 20
-44.839854
 30
0.0
 11
188.125
 21
-44.839854
 31
0.0
  0
LINE
  8
LY_1
  6
PHANTOM
 62
    80
  5
3B1
 10
191.625
 20
-29.839854
 30
0.0
 11
186.125
 21
-29.839854
 31
0.0
  0
LINE
  8
LY_1
  6
PHANTOM
 62
    80
  5
3B2
 10
191.625
 20
-21.839854
 30
0.0
 11
186.125
 21
-21.839854
 31
0.0
  0
LINE
  8
LY_1
  6
PHANTOM
 62
    80
  5
3B3
 10
191.625
 20
-16.839854
 30
0.0
 11
185.125
 21
-16.839854
 31
0.0
  0
LINE
  8
LY_1
  6
PHANTOM
 62
    80
  5
3B4
 10
191.625
 20
-15.039854
 30
0.0
 11
184.625
 21
-15.039854
 31
0.0
  0
LINE
  8
LY_1
  6
PHANTOM
 62
    80
  5
3B5
 10
195.125
 20
-44.839854
 30
0.0
 11
196.125
 21
-29.839854
 31
0.0
  0
ARC
  8
LY_1
  6
PHANTOM
 62
    80
  5
3B6
 10
197.125
 20
-28.839854
 30
0.0
 40
1.0
 50
270.0
 51
0.0
  0
ARC
  8
LY_1
  6
PHANTOM
 62
    80
  5
3B7
 10
197.125
 20
-22.839854
 30
0.0
 40
1.0
 50
0.0
 51
90.0
  0
LINE
  8
LY_1
  6
PHANTOM
 62
    80
  5
3B8
 10
198.125
 20
-16.839854
 30
0.0
 11
198.625
 21
-16.339854
 31
0.0
  0
LINE
  8
LY_1
  6
PHANTOM
 62
    80
  5
3B9
 10
198.625
 20
-16.339854
 30
0.0
 11
198.625
 21
-15.039854
 31
0.0
  0
LINE
  8
LY_1
  6
PHANTOM
 62
    80
  5
3BA
 10
197.125
 20
-21.839854
 30
0.0
 11
197.125
 21
-16.839854
 31
0.0
  0
LINE
  8
LY_1
  6
PHANTOM
 62
    80
  5
3BB
 10
198.625
 20
-28.839854
 30
0.0
 11
198.625
 21
-22.839854
 31
0.0
  0
LINE
  8
LY_1
  6
PHANTOM
 62
    80
  5
3BC
 10
191.625
 20
-44.839854
 30
0.0
 11
195.125
 21
-44.839854
 31
0.0
  0
LINE
  8
LY_1
  6
PHANTOM
 62
    80
  5
3BD
 10
191.625
 20
-29.839854
 30
0.0
 11
197.125
 21
-29.839854
 31
0.0
  0
LINE
  8
LY_1
  6
PHANTOM
 62
    80
  5
3BE
 10
198.125
 20
-28.839854
 30
0.0
 11
198.625
 21
-28.839854
 31
0.0
  0
LINE
  8
LY_1
  6
PHANTOM
 62
    80
  5
3BF
 10
198.125
 20
-22.839854
 30
0.0
 11
198.625
 21
-22.839854
 31
0.0
  0
LINE
  8
LY_1
  6
PHANTOM
 62
    80
  5
3C0
 10
191.625
 20
-21.839854
 30
0.0
 11
197.125
 21
-21.839854
 31
0.0
  0
LINE
  8
LY_1
  6
PHANTOM
 62
    80
  5
3C1
 10
191.625
 20
-16.839854
 30
0.0
 11
198.125
 21
-16.839854
 31
0.0
  0
LINE
  8
LY_1
  6
PHANTOM
 62
    80
  5
3C2
 10
191.625
 20
-15.039854
 30
0.0
 11
198.625
 21
-15.039854
 31
0.0
  0
LINE
  8
LY_1
  6
CONTINUOUS
 62
     3
  5
3C3
 10
198.025
 20
13.3
 30
0.0
 11
198.025
 21
19.3
 31
0.0
  0
LINE
  8
LY_1
  6
CONTINUOUS
 62
     3
  5
3C4
 10
185.225
 20
13.3
 30
0.0
 11
185.225
 21
19.3
 31
0.0
  0
LINE
  8
LY_1
  6
CONTINUOUS
 62
     3
  5
3C5
 10
197.225
 20
13.3
 30
0.0
 11
197.225
 21
19.3
 31
0.0
  0
LINE
  8
LY_1
  6
CONTINUOUS
 62
     3
  5
3C6
 10
186.025
 20
13.3
 30
0.0
 11
186.025
 21
19.3
 31
0.0
  0
LINE
  8
LY_1
  6
CONTINUOUS
 62
     3
  5
3C7
 10
196.425
 20
13.3
 30
0.0
 11
196.425
 21
19.3
 31
0.0
  0
LINE
  8
LY_1
  6
CONTINUOUS
 62
     3
  5
3C8
 10
186.825
 20
13.3
 30
0.0
 11
186.825
 21
19.3
 31
0.0
  0
LINE
  8
LY_1
  6
CONTINUOUS
 62
     3
  5
3C9
 10
195.625
 20
13.3
 30
0.0
 11
195.625
 21
19.3
 31
0.0
  0
LINE
  8
LY_1
  6
CONTINUOUS
 62
     3
  5
3CA
 10
187.625
 20
13.3
 30
0.0
 11
187.625
 21
19.3
 31
0.0
  0
LINE
  8
LY_1
  6
CONTINUOUS
 62
     3
  5
3CB
 10
194.825
 20
13.3
 30
0.0
 11
194.825
 21
19.3
 31
0.0
  0
LINE
  8
LY_1
  6
CONTINUOUS
 62
     3
  5
3CC
 10
188.425
 20
13.3
 30
0.0
 11
188.425
 21
19.3
 31
0.0
  0
LINE
  8
LY_1
  6
CONTINUOUS
 62
     3
  5
3CD
 10
194.025
 20
13.3
 30
0.0
 11
194.025
 21
19.3
 31
0.0
  0
LINE
  8
LY_1
  6
CONTINUOUS
 62
     3
  5
3CE
 10
189.225
 20
13.3
 30
0.0
 11
189.225
 21
19.3
 31
0.0
  0
LINE
  8
LY_1
  6
CONTINUOUS
 62
     3
  5
3CF
 10
193.225
 20
13.3
 30
0.0
 11
193.225
 21
19.3
 31
0.0
  0
LINE
  8
LY_1
  6
CONTINUOUS
 62
     3
  5
3D0
 10
190.025
 20
13.3
 30
0.0
 11
190.025
 21
19.3
 31
0.0
  0
LINE
  8
LY_1
  6
CONTINUOUS
 62
     3
  5
3D1
 10
192.425
 20
13.3
 30
0.0
 11
192.425
 21
19.3
 31
0.0
  0
LINE
  8
LY_1
  6
CONTINUOUS
 62
     3
  5
3D2
 10
190.825
 20
13.3
 30
0.0
 11
190.825
 21
19.3
 31
0.0
  0
LINE
  8
LY_1
  6
CONTINUOUS
 62
     3
  5
3D3
 10
191.625
 20
13.3
 30
0.0
 11
191.625
 21
19.3
 31
0.0
  0
LINE
  8
LY_1
  6
CONTINUOUS
 62
     3
  5
3D4
 10
6.4
 20
13.3
 30
0.0
 11
6.4
 21
19.3
 31
0.0
  0
LINE
  8
LY_1
  6
CONTINUOUS
 62
     3
  5
3D5
 10
-6.4
 20
13.3
 30
0.0
 11
-6.4
 21
19.3
 31
0.0
  0
LINE
  8
LY_1
  6
CONTINUOUS
 62
     3
  5
3D6
 10
5.6
 20
13.3
 30
0.0
 11
5.6
 21
19.3
 31
0.0
  0
LINE
  8
LY_1
  6
CONTINUOUS
 62
     3
  5
3D7
 10
-5.6
 20
13.3
 30
0.0
 11
-5.6
 21
19.3
 31
0.0
  0
LINE
  8
LY_1
  6
CONTINUOUS
 62
     3
  5
3D8
 10
4.8
 20
13.3
 30
0.0
 11
4.8
 21
19.3
 31
0.0
  0
LINE
  8
LY_1
  6
CONTINUOUS
 62
     3
  5
3D9
 10
-4.8
 20
13.3
 30
0.0
 11
-4.8
 21
19.3
 31
0.0
  0
LINE
  8
LY_1
  6
CONTINUOUS
 62
     3
  5
3DA
 10
4.0
 20
13.3
 30
0.0
 11
4.0
 21
19.3
 31
0.0
  0
LINE
  8
LY_1
  6
CONTINUOUS
 62
     3
  5
3DB
 10
-4.0
 20
13.3
 30
0.0
 11
-4.0
 21
19.3
 31
0.0
  0
LINE
  8
LY_1
  6
CONTINUOUS
 62
     3
  5
3DC
 10
3.2
 20
13.3
 30
0.0
 11
3.2
 21
19.3
 31
0.0
  0
LINE
  8
LY_1
  6
CONTINUOUS
 62
     3
  5
3DD
 10
-3.2
 20
13.3
 30
0.0
 11
-3.2
 21
19.3
 31
0.0
  0
LINE
  8
LY_1
  6
CONTINUOUS
 62
     3
  5
3DE
 10
2.4
 20
13.3
 30
0.0
 11
2.4
 21
19.3
 31
0.0
  0
LINE
  8
LY_1
  6
CONTINUOUS
 62
     3
  5
3DF
 10
-2.4
 20
13.3
 30
0.0
 11
-2.4
 21
19.3
 31
0.0
  0
LINE
  8
LY_1
  6
CONTINUOUS
 62
     3
  5
3E0
 10
1.6
 20
13.3
 30
0.0
 11
1.6
 21
19.3
 31
0.0
  0
LINE
  8
LY_1
  6
CONTINUOUS
 62
     3
  5
3E1
 10
-1.6
 20
13.3
 30
0.0
 11
-1.6
 21
19.3
 31
0.0
  0
LINE
  8
LY_1
  6
CONTINUOUS
 62
     3
  5
3E2
 10
0.8
 20
13.3
 30
0.0
 11
0.8
 21
19.3
 31
0.0
  0
LINE
  8
LY_1
  6
CONTINUOUS
 62
     3
  5
3E3
 10
-0.8
 20
13.3
 30
0.0
 11
-0.8
 21
19.3
 31
0.0
  0
LINE
  8
LY_1
  6
CONTINUOUS
 62
     3
  5
3E4
 10
0.0
 20
13.3
 30
0.0
 11
0.0
 21
19.3
 31
0.0
  0
LINE
  8
LY_1
  6
DASHED
 62
    80
  5
3E5
 10
6.8
 20
-2.8
 30
0.0
 11
0.0
 21
-2.8
 31
0.0
  0
LINE
  8
LY_1
  6
DASHED
 62
    80
  5
3E6
 10
8.0
 20
-13.6
 30
0.0
 11
1.280823
 21
-11.799602
 31
0.0
  0
LINE
  8
LY_1
  6
DASHED
 62
    80
  5
3E7
 10
6.8
 20
-12.03613
 30
0.0
 11
1.591406
 21
-10.640491
 31
0.0
  0
LINE
  8
LY_1
  6
DASHED
 62
    80
  5
3E8
 10
1.280823
 20
-11.799602
 30
0.0
 11
1.591406
 21
-10.640491
 31
0.0
  0
LINE
  8
LY_1
  6
DASHED
 62
    80
  5
3E9
 10
6.8
 20
-12.03613
 30
0.0
 11
6.8
 21
-2.8
 31
0.0
  0
LINE
  8
LY_1
  6
DASHED
 62
    80
  5
3EA
 10
8.0
 20
-13.6
 30
0.0
 11
8.0
 21
-1.6
 31
0.0
  0
LINE
  8
LY_1
  6
DASHED
 62
    80
  5
3EB
 10
-6.8
 20
-2.8
 30
0.0
 11
0.0
 21
-2.8
 31
0.0
  0
LINE
  8
LY_1
  6
DASHED
 62
    80
  5
3EC
 10
-1.280823
 20
-11.799602
 30
0.0
 11
-1.591406
 21
-10.640491
 31
0.0
  0
LINE
  8
LY_1
  6
DASHED
 62
    80
  5
3ED
 10
-6.8
 20
-12.03613
 30
0.0
 11
-1.591406
 21
-10.640491
 31
0.0
  0
LINE
  8
LY_1
  6
DASHED
 62
    80
  5
3EE
 10
-6.8
 20
-12.03613
 30
0.0
 11
-6.8
 21
-2.8
 31
0.0
  0
LINE
  8
LY_1
  6
DASHED
 62
    80
  5
3EF
 10
-8.0
 20
-13.6
 30
0.0
 11
-1.280823
 21
-11.799602
 31
0.0
  0
LINE
  8
LY_1
  6
DASHED
 62
    80
  5
3F0
 10
-8.0
 20
-13.6
 30
0.0
 11
-8.0
 21
-1.6
 31
0.0
  0
CIRCLE
  8
LY_1
  6
CONTINUOUS
 62
     3
  5
3F1
 10
192.125
 20
-9.096515
 30
0.0
 40
0.5
  0
LINE
  8
LY_1
  6
CONTINUOUS
 62
     3
  5
3F2
 10
196.625
 20
-7.1
 30
0.0
 11
196.625
 21
-1.6
 31
0.0
  0
LINE
  8
LY_1
  6
CONTINUOUS
 62
     3
  5
3F3
 10
186.625
 20
-7.1
 30
0.0
 11
186.625
 21
-1.6
 31
0.0
  0
ARC
  8
LY_1
  6
CONTINUOUS
 62
     3
  5
3F4
 10
200.375
 20
-9.1
 30
0.0
 40
4.25
 50
151.927513
 51
208.072487
  0
ARC
  8
LY_1
  6
CONTINUOUS
 62
     3
  5
3F5
 10
182.875
 20
-9.1
 30
0.0
 40
4.25
 50
331.927513
 51
28.072487
  0
LINE
  8
LY_1
  6
CONTINUOUS
 62
     3
  5
3F6
 10
186.625
 20
-7.1
 30
0.0
 11
196.625
 21
-7.1
 31
0.0
  0
LINE
  8
LY_1
  6
CONTINUOUS
 62
     3
  5
3F7
 10
186.625
 20
-11.1
 30
0.0
 11
196.625
 21
-11.1
 31
0.0
  0
LINE
  8
LY_1
  6
CONTINUOUS
 62
     3
  5
3F8
 10
196.625
 20
-12.6
 30
0.0
 11
196.625
 21
-11.1
 31
0.0
  0
LINE
  8
LY_1
  6
CONTINUOUS
 62
     3
  5
3F9
 10
186.625
 20
-12.6
 30
0.0
 11
186.625
 21
-11.1
 31
0.0
  0
LINE
  8
LY_1
  6
CONTINUOUS
 62
     3
  5
3FA
 10
186.625
 20
-12.6
 30
0.0
 11
196.625
 21
-12.6
 31
0.0
  0
LINE
  8
LY_1
  6
CONTINUOUS
 62
     3
  5
3FB
 10
1.211839
 20
5.5
 30
0.0
 11
7.0
 21
5.5
 31
0.0
  0
LINE
  8
LY_1
  6
CONTINUOUS
 62
     3
  5
3FC
 10
2.23551
 20
1.5
 30
0.0
 11
9.7
 21
1.5
 31
0.0
  0
LINE
  8
LY_1
  6
CONTINUOUS
 62
     3
  5
3FD
 10
1.882856
 20
3.5
 30
0.0
 11
9.7
 21
3.5
 31
0.0
  0
LINE
  8
LY_1
  6
CONTINUOUS
 62
     3
  5
3FE
 10
-9.7
 20
1.5
 30
0.0
 11
-2.23551
 21
1.5
 31
0.0
  0
LINE
  8
LY_1
  6
CONTINUOUS
 62
     3
  5
3FF
 10
-9.7
 20
3.5
 30
0.0
 11
-1.882856
 21
3.5
 31
0.0
  0
LINE
  8
LY_1
  6
CONTINUOUS
 62
     3
  5
400
 10
-5.0
 20
5.151358
 30
0.0
 11
-5.0
 21
5.5
 31
0.0
  0
LINE
  8
LY_1
  6
CONTINUOUS
 62
     3
  5
401
 10
5.0
 20
5.151358
 30
0.0
 11
5.0
 21
5.5
 31
0.0
  0
LINE
  8
LY_1
  6
CONTINUOUS
 62
     3
  5
402
 10
-7.0
 20
5.5
 30
0.0
 11
-1.211839
 21
5.5
 31
0.0
  0
LINE
  8
LY_1
  6
CONTINUOUS
 62
     3
  5
403
 10
-7.0
 20
5.5
 30
0.0
 11
-7.0
 21
6.8
 31
0.0
  0
LINE
  8
LY_1
  6
CONTINUOUS
 62
     3
  5
404
 10
7.0
 20
5.5
 30
0.0
 11
7.0
 21
6.8
 31
0.0
  0
LINE
  8
LY_1
  6
CONTINUOUS
 62
     3
  5
405
 10
-6.5
 20
7.3
 30
0.0
 11
6.5
 21
7.3
 31
0.0
  0
LINE
  8
LY_1
  6
CONTINUOUS
 62
     3
  5
406
 10
-6.5
 20
7.3
 30
0.0
 11
-7.0
 21
6.8
 31
0.0
  0
LINE
  8
LY_1
  6
CONTINUOUS
 62
     3
  5
407
 10
6.5
 20
7.3
 30
0.0
 11
7.0
 21
6.8
 31
0.0
  0
LINE
  8
LY_1
  6
CONTINUOUS
 62
     3
  5
408
 10
-7.0
 20
6.8
 30
0.0
 11
7.0
 21
6.8
 31
0.0
  0
LINE
  8
LY_1
  6
CONTINUOUS
 62
     3
  5
409
 10
-5.5
 20
7.3
 30
0.0
 11
-5.5
 21
12.3
 31
0.0
  0
LINE
  8
LY_1
  6
CONTINUOUS
 62
     3
  5
40A
 10
5.5
 20
7.3
 30
0.0
 11
5.5
 21
12.3
 31
0.0
  0
LINE
  8
LY_1
  6
CONTINUOUS
 62
     3
  5
40B
 10
-5.5
 20
12.3
 30
0.0
 11
0.0
 21
12.3
 31
0.0
  0
LINE
  8
LY_1
  6
CONTINUOUS
 62
     3
  5
40C
 10
-7.0
 20
13.3
 30
0.0
 11
0.0
 21
13.3
 31
0.0
  0
LINE
  8
LY_1
  6
CONTINUOUS
 62
     3
  5
40D
 10
-7.0
 20
19.3
 30
0.0
 11
0.0
 21
19.3
 31
0.0
  0
LINE
  8
LY_1
  6
CONTINUOUS
 62
     3
  5
40E
 10
-5.5
 20
20.3
 30
0.0
 11
0.0
 21
20.3
 31
0.0
  0
LINE
  8
LY_1
  6
CONTINUOUS
 62
     3
  5
40F
 10
-7.0
 20
13.3
 30
0.0
 11
-7.0
 21
19.3
 31
0.0
  0
ARC
  8
LY_1
  6
CONTINUOUS
 62
     3
  5
410
 10
-5.5
 20
19.3
 30
0.0
 40
1.0
 50
90.0
 51
180.0
  0
ARC
  8
LY_1
  6
CONTINUOUS
 62
     3
  5
411
 10
-5.5
 20
13.3
 30
0.0
 40
1.0
 50
180.0
 51
270.0
  0
LINE
  8
LY_1
  6
CONTINUOUS
 62
     3
  5
412
 10
5.5
 20
12.3
 30
0.0
 11
0.0
 21
12.3
 31
0.0
  0
LINE
  8
LY_1
  6
CONTINUOUS
 62
     3
  5
413
 10
7.0
 20
13.3
 30
0.0
 11
0.0
 21
13.3
 31
0.0
  0
LINE
  8
LY_1
  6
CONTINUOUS
 62
     3
  5
414
 10
7.0
 20
19.3
 30
0.0
 11
0.0
 21
19.3
 31
0.0
  0
LINE
  8
LY_1
  6
CONTINUOUS
 62
     3
  5
415
 10
5.5
 20
20.3
 30
0.0
 11
0.0
 21
20.3
 31
0.0
  0
ARC
  8
LY_1
  6
CONTINUOUS
 62
     3
  5
416
 10
5.5
 20
19.3
 30
0.0
 40
1.0
 50
0.0
 51
90.0
  0
LINE
  8
LY_1
  6
CONTINUOUS
 62
     3
  5
417
 10
7.0
 20
13.3
 30
0.0
 11
7.0
 21
19.3
 31
0.0
  0
ARC
  8
LY_1
  6
CONTINUOUS
 62
     3
  5
418
 10
5.5
 20
13.3
 30
0.0
 40
1.0
 50
270.0
 51
0.0
  0
LINE
  8
LY_1
  6
CONTINUOUS
 62
     3
  5
419
 10
-2.5
 20
31.5
 30
0.0
 11
0.0
 21
31.5
 31
0.0
  0
LINE
  8
LY_1
  6
CONTINUOUS
 62
     3
  5
41A
 10
-5.0
 20
20.3
 30
0.0
 11
-5.0
 21
23.3
 31
0.0
  0
LINE
  8
LY_1
  6
CONTINUOUS
 62
     3
  5
41B
 10
-5.0
 20
22.3
 30
0.0
 11
0.0
 21
22.3
 31
0.0
  0
LINE
  8
LY_1
  6
CONTINUOUS
 62
     3
  5
41C
 10
-5.0
 20
23.3
 30
0.0
 11
0.0
 21
23.3
 31
0.0
  0
LINE
  8
LY_1
  6
CONTINUOUS
 62
     3
  5
41D
 10
-1.0
 20
31.5
 30
0.0
 11
-1.0
 21
175.0
 31
0.0
  0
LINE
  8
LY_1
  6
CONTINUOUS
 62
     3
  5
41E
 10
-5.0
 20
23.3
 30
0.0
 11
-2.5
 21
31.5
 31
0.0
  0
LINE
  8
LY_1
  6
CONTINUOUS
 62
     3
  5
41F
 10
2.5
 20
31.5
 30
0.0
 11
0.0
 21
31.5
 31
0.0
  0
LINE
  8
LY_1
  6
CONTINUOUS
 62
     3
  5
420
 10
5.0
 20
20.3
 30
0.0
 11
5.0
 21
23.3
 31
0.0
  0
LINE
  8
LY_1
  6
CONTINUOUS
 62
     3
  5
421
 10
5.0
 20
22.3
 30
0.0
 11
0.0
 21
22.3
 31
0.0
  0
LINE
  8
LY_1
  6
CONTINUOUS
 62
     3
  5
422
 10
5.0
 20
23.3
 30
0.0
 11
0.0
 21
23.3
 31
0.0
  0
LINE
  8
LY_1
  6
CONTINUOUS
 62
     3
  5
423
 10
5.0
 20
23.3
 30
0.0
 11
2.5
 21
31.5
 31
0.0
  0
LINE
  8
LY_1
  6
CONTINUOUS
 62
     3
  5
424
 10
-1.5
 20
175.0
 30
0.0
 11
-1.5
 21
179.5
 31
0.0
  0
LINE
  8
LY_1
  6
CONTINUOUS
 62
     3
  5
425
 10
1.5
 20
175.0
 30
0.0
 11
1.5
 21
179.5
 31
0.0
  0
LINE
  8
LY_1
  6
CONTINUOUS
 62
     3
  5
426
 10
-1.5
 20
175.0
 30
0.0
 11
1.5
 21
175.0
 31
0.0
  0
LINE
  8
LY_1
  6
CONTINUOUS
 62
     3
  5
427
 10
-1.5
 20
179.5
 30
0.0
 11
1.5
 21
179.5
 31
0.0
  0
ARC
  8
LY_1
  6
CONTINUOUS
 62
     3
  5
428
 10
-6.4
 20
-1.821138
 30
0.0
 40
7.121138
 50
90.0
 51
100.141852
  0
ARC
  8
LY_1
  6
CONTINUOUS
 62
     3
  5
429
 10
-7.473111
 20
4.177887
 30
0.0
 40
1.026889
 50
100.141852
 51
221.310268
  0
ARC
  8
LY_1
  6
CONTINUOUS
 62
     3
  5
42A
 10
-6.4
 20
-1.821138
 30
0.0
 40
7.121138
 50
79.858148
 51
90.0
  0
ARC
  8
LY_1
  6
CONTINUOUS
 62
     3
  5
42B
 10
-5.326889
 20
4.177887
 30
0.0
 40
1.026889
 50
318.689732
 51
79.858148
  0
ARC
  8
LY_1
  6
CONTINUOUS
 62
     3
  5
42C
 10
7.473111
 20
4.177887
 30
0.0
 40
1.026889
 50
318.689732
 51
79.858148
  0
ARC
  8
LY_1
  6
CONTINUOUS
 62
     3
  5
42D
 10
6.4
 20
-1.821138
 30
0.0
 40
7.121138
 50
90.0
 51
100.141852
  0
ARC
  8
LY_1
  6
CONTINUOUS
 62
     3
  5
42E
 10
5.326889
 20
4.177887
 30
0.0
 40
1.026889
 50
100.141852
 51
221.310268
  0
ARC
  8
LY_1
  6
CONTINUOUS
 62
     3
  5
42F
 10
6.4
 20
-1.821138
 30
0.0
 40
7.121138
 50
79.858148
 51
90.0
  0
LINE
  8
LY_1
  6
CONTINUOUS
 62
     3
  5
430
 10
9.7
 20
0.0
 30
0.0
 11
9.7
 21
3.5
 31
0.0
  0
LINE
  8
LY_1
  6
CONTINUOUS
 62
     3
  5
431
 10
-9.7
 20
0.0
 30
0.0
 11
-9.7
 21
3.5
 31
0.0
  0
ARC
  8
LY_1
  6
CONTINUOUS
 62
     3
  5
432
 10
198.025
 20
-1.821138
 30
0.0
 40
7.121138
 50
79.858148
 51
90.0
  0
ARC
  8
LY_1
  6
CONTINUOUS
 62
     3
  5
433
 10
196.951889
 20
4.177887
 30
0.0
 40
1.026889
 50
100.141852
 51
221.310268
  0
ARC
  8
LY_1
  6
CONTINUOUS
 62
     3
  5
434
 10
198.025
 20
-1.821138
 30
0.0
 40
7.121138
 50
90.0
 51
100.141852
  0
ARC
  8
LY_1
  6
CONTINUOUS
 62
     3
  5
435
 10
199.098111
 20
4.177887
 30
0.0
 40
1.026889
 50
318.689732
 51
79.858148
  0
ARC
  8
LY_1
  6
CONTINUOUS
 62
     3
  5
436
 10
186.298111
 20
4.177887
 30
0.0
 40
1.026889
 50
318.689732
 51
79.858148
  0
ARC
  8
LY_1
  6
CONTINUOUS
 62
     3
  5
437
 10
185.225
 20
-1.821138
 30
0.0
 40
7.121138
 50
79.858148
 51
90.0
  0
ARC
  8
LY_1
  6
CONTINUOUS
 62
     3
  5
438
 10
184.151889
 20
4.177887
 30
0.0
 40
1.026889
 50
100.141852
 51
221.310268
  0
ARC
  8
LY_1
  6
CONTINUOUS
 62
     3
  5
439
 10
185.225
 20
-1.821138
 30
0.0
 40
7.121138
 50
90.0
 51
100.141852
  0
LINE
  8
LY_1
  6
CONTINUOUS
 62
     3
  5
43A
 10
190.125
 20
179.5
 30
0.0
 11
193.125
 21
179.5
 31
0.0
  0
LINE
  8
LY_1
  6
CONTINUOUS
 62
     3
  5
43B
 10
190.625
 20
180.0
 30
0.0
 11
190.125
 21
179.5
 31
0.0
  0
LINE
  8
LY_1
  6
CONTINUOUS
 62
     3
  5
43C
 10
192.625
 20
180.0
 30
0.0
 11
193.125
 21
179.5
 31
0.0
  0
LINE
  8
LY_1
  6
CONTINUOUS
 62
     3
  5
43D
 10
190.125
 20
175.0
 30
0.0
 11
193.125
 21
175.0
 31
0.0
  0
LINE
  8
LY_1
  6
CONTINUOUS
 62
     3
  5
43E
 10
193.125
 20
175.0
 30
0.0
 11
193.125
 21
179.5
 31
0.0
  0
LINE
  8
LY_1
  6
CONTINUOUS
 62
     3
  5
43F
 10
190.125
 20
175.0
 30
0.0
 11
190.125
 21
179.5
 31
0.0
  0
LINE
  8
LY_1
  6
CONTINUOUS
 62
     3
  5
440
 10
192.625
 20
31.5
 30
0.0
 11
192.625
 21
175.0
 31
0.0
  0
LINE
  8
LY_1
  6
CONTINUOUS
 62
     3
  5
441
 10
190.625
 20
180.0
 30
0.0
 11
192.625
 21
180.0
 31
0.0
  0
LINE
  8
LY_1
  6
CONTINUOUS
 62
     3
  5
442
 10
196.625
 20
23.3
 30
0.0
 11
194.125
 21
31.5
 31
0.0
  0
LINE
  8
LY_1
  6
CONTINUOUS
 62
     3
  5
443
 10
196.625
 20
23.3
 30
0.0
 11
191.625
 21
23.3
 31
0.0
  0
LINE
  8
LY_1
  6
CONTINUOUS
 62
     3
  5
444
 10
196.625
 20
22.3
 30
0.0
 11
191.625
 21
22.3
 31
0.0
  0
LINE
  8
LY_1
  6
CONTINUOUS
 62
     3
  5
445
 10
196.625
 20
20.3
 30
0.0
 11
196.625
 21
23.3
 31
0.0
  0
LINE
  8
LY_1
  6
CONTINUOUS
 62
     3
  5
446
 10
194.125
 20
31.5
 30
0.0
 11
191.625
 21
31.5
 31
0.0
  0
LINE
  8
LY_1
  6
CONTINUOUS
 62
     3
  5
447
 10
186.625
 20
23.3
 30
0.0
 11
189.125
 21
31.5
 31
0.0
  0
LINE
  8
LY_1
  6
CONTINUOUS
 62
     3
  5
448
 10
186.625
 20
23.3
 30
0.0
 11
191.625
 21
23.3
 31
0.0
  0
LINE
  8
LY_1
  6
CONTINUOUS
 62
     3
  5
449
 10
186.625
 20
22.3
 30
0.0
 11
191.625
 21
22.3
 31
0.0
  0
LINE
  8
LY_1
  6
CONTINUOUS
 62
     3
  5
44A
 10
186.625
 20
20.3
 30
0.0
 11
186.625
 21
23.3
 31
0.0
  0
LINE
  8
LY_1
  6
CONTINUOUS
 62
     3
  5
44B
 10
189.125
 20
31.5
 30
0.0
 11
191.625
 21
31.5
 31
0.0
  0
ARC
  8
LY_1
  6
CONTINUOUS
 62
     3
  5
44C
 10
197.125
 20
13.3
 30
0.0
 40
1.0
 50
270.0
 51
0.0
  0
LINE
  8
LY_1
  6
CONTINUOUS
 62
     3
  5
44D
 10
198.625
 20
13.3
 30
0.0
 11
198.625
 21
19.3
 31
0.0
  0
ARC
  8
LY_1
  6
CONTINUOUS
 62
     3
  5
44E
 10
197.125
 20
19.3
 30
0.0
 40
1.0
 50
0.0
 51
90.0
  0
LINE
  8
LY_1
  6
CONTINUOUS
 62
     3
  5
44F
 10
197.125
 20
20.3
 30
0.0
 11
191.625
 21
20.3
 31
0.0
  0
LINE
  8
LY_1
  6
CONTINUOUS
 62
     3
  5
450
 10
198.625
 20
19.3
 30
0.0
 11
191.625
 21
19.3
 31
0.0
  0
LINE
  8
LY_1
  6
CONTINUOUS
 62
     3
  5
451
 10
198.625
 20
13.3
 30
0.0
 11
191.625
 21
13.3
 31
0.0
  0
LINE
  8
LY_1
  6
CONTINUOUS
 62
     3
  5
452
 10
197.125
 20
12.3
 30
0.0
 11
191.625
 21
12.3
 31
0.0
  0
ARC
  8
LY_1
  6
CONTINUOUS
 62
     3
  5
453
 10
186.125
 20
13.3
 30
0.0
 40
1.0
 50
180.0
 51
270.0
  0
ARC
  8
LY_1
  6
CONTINUOUS
 62
     3
  5
454
 10
186.125
 20
19.3
 30
0.0
 40
1.0
 50
90.0
 51
180.0
  0
LINE
  8
LY_1
  6
CONTINUOUS
 62
     3
  5
455
 10
184.625
 20
13.3
 30
0.0
 11
184.625
 21
19.3
 31
0.0
  0
LINE
  8
LY_1
  6
CONTINUOUS
 62
     3
  5
456
 10
186.125
 20
20.3
 30
0.0
 11
191.625
 21
20.3
 31
0.0
  0
LINE
  8
LY_1
  6
CONTINUOUS
 62
     3
  5
457
 10
184.625
 20
19.3
 30
0.0
 11
191.625
 21
19.3
 31
0.0
  0
LINE
  8
LY_1
  6
CONTINUOUS
 62
     3
  5
458
 10
184.625
 20
13.3
 30
0.0
 11
191.625
 21
13.3
 31
0.0
  0
LINE
  8
LY_1
  6
CONTINUOUS
 62
     3
  5
459
 10
186.125
 20
12.3
 30
0.0
 11
191.625
 21
12.3
 31
0.0
  0
LINE
  8
LY_1
  6
CONTINUOUS
 62
     3
  5
45A
 10
197.125
 20
7.3
 30
0.0
 11
197.125
 21
12.3
 31
0.0
  0
LINE
  8
LY_1
  6
CONTINUOUS
 62
     3
  5
45B
 10
186.125
 20
7.3
 30
0.0
 11
186.125
 21
12.3
 31
0.0
  0
LINE
  8
LY_1
  6
CONTINUOUS
 62
     3
  5
45C
 10
184.625
 20
6.8
 30
0.0
 11
198.625
 21
6.8
 31
0.0
  0
LINE
  8
LY_1
  6
CONTINUOUS
 62
     3
  5
45D
 10
198.125
 20
7.3
 30
0.0
 11
198.625
 21
6.8
 31
0.0
  0
LINE
  8
LY_1
  6
CONTINUOUS
 62
     3
  5
45E
 10
185.125
 20
7.3
 30
0.0
 11
184.625
 21
6.8
 31
0.0
  0
LINE
  8
LY_1
  6
CONTINUOUS
 62
     3
  5
45F
 10
185.125
 20
7.3
 30
0.0
 11
198.125
 21
7.3
 31
0.0
  0
LINE
  8
LY_1
  6
CONTINUOUS
 62
     3
  5
460
 10
198.625
 20
5.5
 30
0.0
 11
198.625
 21
6.8
 31
0.0
  0
LINE
  8
LY_1
  6
CONTINUOUS
 62
     3
  5
461
 10
184.625
 20
5.5
 30
0.0
 11
184.625
 21
6.8
 31
0.0
  0
LINE
  8
LY_1
  6
CONTINUOUS
 62
     3
  5
462
 10
184.625
 20
5.5
 30
0.0
 11
198.625
 21
5.5
 31
0.0
  0
LINE
  8
LY_1
  6
CONTINUOUS
 62
     3
  5
463
 10
196.625
 20
5.151358
 30
0.0
 11
196.625
 21
5.5
 31
0.0
  0
LINE
  8
LY_1
  6
CONTINUOUS
 62
     3
  5
464
 10
186.625
 20
5.151358
 30
0.0
 11
186.625
 21
5.5
 31
0.0
  0
LINE
  8
LY_1
  6
CONTINUOUS
 62
     3
  5
465
 10
181.925
 20
3.5
 30
0.0
 11
201.325
 21
3.5
 31
0.0
  0
LINE
  8
LY_1
  6
CONTINUOUS
 62
     3
  5
466
 10
9.7
 20
0.0
 30
0.0
 11
9.7
 21
1.5
 31
0.0
  0
LINE
  8
LY_1
  6
CONTINUOUS
 62
     3
  5
467
 10
-9.7
 20
1.5
 30
0.0
 11
9.7
 21
1.5
 31
0.0
  0
LINE
  8
LY_1
  6
CONTINUOUS
 62
     3
  5
468
 10
-9.7
 20
0.0
 30
0.0
 11
-9.7
 21
1.5
 31
0.0
  0
LINE
  8
LY_1
  6
CONTINUOUS
 62
     3
  5
469
 10
2.5
 20
0.0
 30
0.0
 11
1.692445
 21
4.57987
 31
0.0
  0
ARC
  8
LY_1
  6
CONTINUOUS
 62
     3
  5
46A
 10
0.0
 20
4.281446
 30
0.0
 40
1.718554
 50
10.0
 51
170.0
  0
LINE
  8
LY_1
  6
CONTINUOUS
 62
     3
  5
46B
 10
-2.5
 20
0.0
 30
0.0
 11
-1.692445
 21
4.57987
 31
0.0
  0
ARC
  8
LY_1
  6
CONTINUOUS
 62
     3
  5
46C
 10
121.625
 20
4.281446
 30
0.0
 40
1.718554
 50
10.0
 51
170.0
  0
LINE
  8
LY_1
  6
CONTINUOUS
 62
     3
  5
46D
 10
124.125
 20
0.0
 30
0.0
 11
123.317445
 21
4.57987
 31
0.0
  0
LINE
  8
LY_1
  6
CONTINUOUS
 62
     3
  5
46E
 10
119.125
 20
0.0
 30
0.0
 11
119.932555
 21
4.57987
 31
0.0
  0
LINE
  8
LY_1
  6
CONTINUOUS
 62
     3
  5
46F
 10
181.925
 20
1.5
 30
0.0
 11
201.325
 21
1.5
 31
0.0
  0
LINE
  8
LY_1
  6
CONTINUOUS
 62
     3
  5
470
 10
118.625
 20
-13.6
 30
0.0
 11
124.625
 21
-13.6
 31
0.0
  0
LINE
  8
LY_1
  6
CONTINUOUS
 62
     3
  5
471
 10
124.625
 20
-13.6
 30
0.0
 11
124.625
 21
-1.6
 31
0.0
  0
LINE
  8
LY_1
  6
CONTINUOUS
 62
     3
  5
472
 10
118.625
 20
-13.6
 30
0.0
 11
118.625
 21
-1.6
 31
0.0
  0
LINE
  8
LY_1
  6
CONTINUOUS
 62
     3
  5
473
 10
201.325
 20
0.0
 30
0.0
 11
201.325
 21
3.5
 31
0.0
  0
LINE
  8
LY_1
  6
CONTINUOUS
 62
     3
  5
474
 10
181.925
 20
0.0
 30
0.0
 11
181.925
 21
3.5
 31
0.0
  0
LINE
  8
LY_1
  6
CENTER
 62
    80
  5
475
 10
121.625
 20
-16.724121
 30
0.0
 11
121.625
 21
7.911572
 31
0.0
  0
ARC
  8
LY_1
  6
CONTINUOUS
 62
     3
  5
476
 10
93.225
 20
-1.6
 30
0.0
 40
1.6
 50
90.0
 51
180.0
  0
LINE
  8
LY_1
  6
CONTINUOUS
 62
     3
  5
477
 10
93.225
 20
-3.662742
 30
0.0
 11
95.287742
 21
-1.6
 31
0.0
  0
LINE
  8
LY_1
  6
CONTINUOUS
 62
     3
  5
478
 10
-7.5
 20
-3.0
 30
0.0
 11
-5.767949
 21
0.0
 31
0.0
  0
LINE
  8
LY_1
  6
CONTINUOUS
 62
     3
  5
479
 10
-7.5
 20
-3.0
 30
0.0
 11
-9.232051
 21
0.0
 31
0.0
  0
LINE
  8
LY_1
  6
CONTINUOUS
 62
     3
  5
47A
 10
-7.5
 20
-3.0
 30
0.0
 11
-7.5
 21
0.0
 31
0.0
  0
LINE
  8
LY_1
  6
CONTINUOUS
 62
     3
  5
47B
 10
7.5
 20
-3.0
 30
0.0
 11
5.767949
 21
0.0
 31
0.0
  0
LINE
  8
LY_1
  6
CONTINUOUS
 62
     3
  5
47C
 10
7.5
 20
-3.0
 30
0.0
 11
9.232051
 21
0.0
 31
0.0
  0
LINE
  8
LY_1
  6
CONTINUOUS
 62
     3
  5
47D
 10
7.5
 20
-3.0
 30
0.0
 11
7.5
 21
0.0
 31
0.0
  0
CIRCLE
  8
LY_1
  6
CONTINUOUS
 62
     3
  5
47E
 10
0.0
 20
-80.0
 30
0.0
 40
2.5
  0
CIRCLE
  8
LY_1
  6
CONTINUOUS
 62
     3
  5
47F
 10
0.0
 20
-30.0
 30
0.0
 40
2.5
  0
CIRCLE
  8
LY_1
  6
CONTINUOUS
 62
     3
  5
480
 10
0.0
 20
-55.0
 30
0.0
 40
8.0
  0
LINE
  8
LY_1
  6
CENTER
 62
    80
  5
481
 10
89.308035
 20
-80.0
 30
0.0
 11
95.996336
 21
-80.0
 31
0.0
  0
LINE
  8
LY_1
  6
CENTER
 62
    80
  5
482
 10
87.264387
 20
-55.0
 30
0.0
 11
98.859002
 21
-55.0
 31
0.0
  0
LINE
  8
LY_1
  6
CENTER
 62
    80
  5
483
 10
89.308035
 20
-30.0
 30
0.0
 11
95.996336
 21
-30.0
 31
0.0
  0
LINE
  8
LY_1
  6
CONTINUOUS
 62
     3
  5
484
 10
93.225
 20
-1.6
 30
0.0
 11
211.625
 21
-1.6
 31
0.0
  0
LINE
  8
LY_1
  6
CONTINUOUS
 62
     3
  5
485
 10
93.225
 20
0.0
 30
0.0
 11
211.625
 21
0.0
 31
0.0
  0
LINE
  8
LY_1
  6
CONTINUOUS
 62
     3
  5
486
 10
91.625
 20
-100.0
 30
0.0
 11
93.225
 21
-100.0
 31
0.0
  0
LINE
  8
LY_1
  6
CONTINUOUS
 62
     3
  5
487
 10
15.0
 20
-98.0
 30
0.0
 11
13.0
 21
-100.0
 31
0.0
  0
LINE
  8
LY_1
  6
CONTINUOUS
 62
     3
  5
488
 10
-13.0
 20
-100.0
 30
0.0
 11
-15.0
 21
-98.0
 31
0.0
  0
LINE
  8
LY_1
  6
CONTINUOUS
 62
     3
  5
489
 10
91.625
 20
-98.0
 30
0.0
 11
93.225
 21
-98.0
 31
0.0
  0
LINE
  8
LY_1
  6
CONTINUOUS
 62
     3
  5
48A
 10
209.625
 20
-1.6
 30
0.0
 11
209.625
 21
0.0
 31
0.0
  0
LINE
  8
LY_1
  6
CONTINUOUS
 62
     3
  5
48B
 10
93.225
 20
-100.0
 30
0.0
 11
93.225
 21
-1.6
 31
0.0
  0
LINE
  8
LY_1
  6
CENTER
 62
    80
  5
48C
 10
-12.329324
 20
-55.0
 30
0.0
 11
11.079733
 21
-55.0
 31
0.0
  0
LINE
  8
LY_1
  6
CENTER
 62
    80
  5
48D
 10
-5.26945
 20
-30.0
 30
0.0
 11
4.948789
 21
-30.0
 31
0.0
  0
LINE
  8
LY_1
  6
CENTER
 62
    80
  5
48E
 10
-5.26945
 20
-80.0
 30
0.0
 11
4.948789
 21
-80.0
 31
0.0
  0
LINE
  8
LY_1
  6
CONTINUOUS
 62
     3
  5
48F
 10
-13.0
 20
-100.0
 30
0.0
 11
13.0
 21
-100.0
 31
0.0
  0
LINE
  8
LY_1
  6
CONTINUOUS
 62
     3
  5
490
 10
211.625
 20
-1.6
 30
0.0
 11
211.625
 21
0.0
 31
0.0
  0
LINE
  8
LY_1
  6
CONTINUOUS
 62
     3
  5
491
 10
91.625
 20
-100.0
 30
0.0
 11
91.625
 21
-1.6
 31
0.0
  0
LINE
  8
LY_1
  6
DASHED
 62
    80
  5
492
 10
-15.0
 20
-1.6
 30
0.0
 11
15.0
 21
-1.6
 31
0.0
  0
LINE
  8
LY_1
  6
CONTINUOUS
 62
     3
  5
493
 10
15.0
 20
-98.0
 30
0.0
 11
15.0
 21
0.0
 31
0.0
  0
LINE
  8
LY_1
  6
CONTINUOUS
 62
     3
  5
494
 10
-15.0
 20
-98.0
 30
0.0
 11
-15.0
 21
0.0
 31
0.0
  0
LINE
  8
LY_1
  6
CONTINUOUS
 62
     3
  5
495
 10
-15.0
 20
0.0
 30
0.0
 11
15.0
 21
0.0
 31
0.0
  0
ENDSEC
  0
EOF
