  0
SECTION
  2
HEADER
  9
$ACADVER
  1
AC1009
  9
$DWGCODEPAGE
  3
dos932
  9
$INSBASE
 10
0.0
 20
0.0
 30
0.0
  9
$EXTMIN
 10
-109.4
 20
-60.9
 30
0.0
  9
$EXTMAX
 10
109.5
 20
253.116553
 30
0.0
  9
$LIMMIN
 10
-109.4
 20
-60.9
  9
$LIMMAX
 10
109.5
 20
253.116553
  9
$ORTHOMODE
 70
     0
  9
$REGENMODE
 70
     1
  9
$FILLMODE
 70
     1
  9
$QTEXTMODE
 70
     0
  9
$MIRRTEXT
 70
     1
  9
$DRAGMODE
 70
     2
  9
$LTSCALE
 40
1.0
  9
$OSMODE
 70
     0
  9
$ATTMODE
 70
     1
  9
$TEXTSIZE
 40
4.1656
  9
$TRACEWID
 40
0.05
  9
$TEXTSTYLE
  7
MX_NOTE_STANDARD
  9
$CLAYER
  8
LY_1
  9
$CELTYPE
  6
CONTINUOUS
  9
$CECOLOR
 62
   256
  9
$DIMSCALE
 40
1.0
  9
$DIMASZ
 40
2.5
  9
$DIMEXO
 40
0.5
  9
$DIMDLI
 40
3.75
  9
$DIMRND
 40
0.0
  9
$DIMDLE
 40
0.0
  9
$DIMEXE
 40
1.0
  9
$DIMTP
 40
0.0
  9
$DIMTM
 40
0.0
  9
$DIMTXT
 40
2.5
  9
$DIMCEN
 40
2.5
  9
$DIMTSZ
 40
0.0
  9
$DIMTOL
 70
     0
  9
$DIMLIM
 70
     0
  9
$DIMTIH
 70
     0
  9
$DIMTOH
 70
     0
  9
$DIMSE1
 70
     0
  9
$DIMSE2
 70
     0
  9
$DIMTAD
 70
     1
  9
$DIMZIN
 70
     8
  9
$DIMBLK
  1

  9
$DIMASO
 70
     1
  9
$DIMSHO
 70
     1
  9
$DIMPOST
  1

  9
$DIMAPOST
  1

  9
$DIMALT
 70
     0
  9
$DIMALTD
 70
     4
  9
$DIMALTF
 40
0.03937
  9
$DIMLFAC
 40
1.0
  9
$DIMTOFL
 70
     1
  9
$DIMTVP
 40
0.0
  9
$DIMTIX
 70
     0
  9
$DIMSOXD
 70
     0
  9
$DIMSAH
 70
     0
  9
$DIMBLK1
  1

  9
$DIMBLK2
  1

  9
$DIMSTYLE
  2
MXDIMSTYLE
  9
$DIMCLRD
 70
     0
  9
$DIMCLRE
 70
     0
  9
$DIMCLRT
 70
     0
  9
$DIMTFAC
 40
1.0
  9
$DIMGAP
 40
1.0
  9
$LUNITS
 70
     2
  9
$LUPREC
 70
     4
  9
$AXISMODE
 70
     0
  9
$AXISUNIT
 10
0.0
 20
0.0
  9
$SKETCHINC
 40
0.1
  9
$FILLETRAD
 40
0.0
  9
$AUNITS
 70
     0
  9
$AUPREC
 70
     0
  9
$MENU
  1
acad
  9
$ELEVATION
 40
0.0
  9
$PELEVATION
 40
0.0
  9
$THICKNESS
 40
0.0
  9
$LIMCHECK
 70
     0
  9
$BLIPMODE
 70
     1
  9
$CHAMFERA
 40
0.0
  9
$CHAMFERB
 40
0.0
  9
$SKPOLY
 70
     0
  9
$TDCREATE
 40
2453885.424525463
  9
$TDUPDATE
 40
2453885.424525463
  9
$TDINDWG
 40
0.0000000000
  9
$TDUSRTIMER
 40
0.0000000000
  9
$USRTIMER
 70
     1
  9
$ANGBASE
 50
0.0
  9
$ANGDIR
 70
     0
  9
$PDMODE
 70
     0
  9
$PDSIZE
 40
0.0
  9
$PLINEWID
 40
0.0
  9
$COORDS
 70
     1
  9
$SPLFRAME
 70
     0
  9
$SPLINETYPE
 70
     6
  9
$SPLINESEGS
 70
     8
  9
$ATTDIA
 70
     0
  9
$ATTREQ
 70
     1
  9
$HANDLING
 70
     1
  9
$HANDSEED
  5
A84
  9
$SURFTAB1
 70
     6
  9
$SURFTAB2
 70
     6
  9
$SURFTYPE
 70
     6
  9
$SURFU
 70
     6
  9
$SURFV
 70
     6
  9
$UCSNAME
  2

  9
$UCSORG
 10
0.0
 20
0.0
 30
0.0
  9
$UCSXDIR
 10
1.0
 20
0.0
 30
0.0
  9
$UCSYDIR
 10
0.0
 20
1.0
 30
0.0
  9
$PUCSNAME
  2

  9
$PUCSORG
 10
0.0
 20
0.0
 30
0.0
  9
$PUCSXDIR
 10
1.0
 20
0.0
 30
0.0
  9
$PUCSYDIR
 10
0.0
 20
1.0
 30
0.0
  9
$USERI1
 70
     0
  9
$USERI2
 70
     0
  9
$USERI3
 70
     0
  9
$USERI4
 70
     0
  9
$USERI5
 70
     0
  9
$USERR1
 40
0.0
  9
$USERR2
 40
0.0
  9
$USERR3
 40
0.0
  9
$USERR4
 40
0.0
  9
$USERR5
 40
0.0
  9
$WORLDVIEW
 70
     1
  9
$SHADEDGE
 70
     3
  9
$SHADEDIF
 70
    70
  9
$TILEMODE
 70
     1
  9
$MAXACTVP
 70
    16
  9
$PINSBASE
 10
0.0
 20
0.0
 30
0.0
  9
$PLIMCHECK
 70
     0
  9
$PEXTMIN
 10
1.000000E+20
 20
1.000000E+20
 30
1.000000E+20
  9
$PEXTMAX
 10
-1.000000E+20
 20
-1.000000E+20
 30
-1.000000E+20
  9
$PLIMMIN
 10
0.0
 20
0.0
  9
$PLIMMAX
 10
12.0
 20
9.0
  9
$UNITMODE
 70
     0
  9
$VISRETAIN
 70
     0
  9
$PLINEGEN
 70
     1
  9
$PSLTSCALE
 70
     0
  9
$TREEDEPTH
 70
  3020
  9
$DWGCODEPAGE
  3
dos932
  0
ENDSEC
  0
SECTION
  2
TABLES
  0
TABLE
  2
VPORT
 70
     1
  0
VPORT
  2
*ACTIVE
 70
     0
 10
0.0
 20
0.0
 11
1.0
 21
1.0
 12
0.05
 22
96.108276
 13
0.0
 23
0.0
 14
1.0
 24
1.0
 15
0.0
 25
0.0
 16
0.0
 26
0.0
 36
1.0
 17
0.0
 27
0.0
 37
0.0
 40
317.156718
 41
1.732051
 42
50.0
 43
0.0
 44
0.0
 50
0.0
 51
0.0
 71
     0
 72
   100
 73
     1
 74
     1
 75
     0
 76
     0
 77
     0
 78
     0
  0
ENDTAB
  0
TABLE
  2
LTYPE
 70
     2
  0
LTYPE
  2
CONTINUOUS
 70
    64
  3
Solid line
 72
    65
 73
     0
 40
0.0
  0
LTYPE
  2
CENTER
 70
    64
  3
Center ____ _ ____ _ ____ _ ____ _ ____ _ ____
 72
    65
 73
     4
 40
50.8
 49
31.75
 49
-6.35
 49
6.35
 49
-6.35
  0
ENDTAB
  0
TABLE
  2
LAYER
 70
     3
  0
LAYER
  2
0
 70
     0
 62
     7
  6
CONTINUOUS
  0
LAYER
  2
LY_1
 70
     0
 62
     7
  6
CONTINUOUS
  0
LAYER
  2
DEFPOINTS
 70
     0
 62
     7
  6
CONTINUOUS
  0
ENDTAB
  0
TABLE
  2
STYLE
 70
     1
  0
STYLE
  2
MX_NOTE_STANDARD
 70
     0
 40
0.0
 41
1.0
 50
0.0
 71
     0
 42
4.1656
  3
txt.shx
  4
extfont.shx
  0
ENDTAB
  0
TABLE
  2
VIEW
 70
     0
  0
ENDTAB
  0
TABLE
  2
UCS
 70
     0
  0
ENDTAB
  0
TABLE
  2
APPID
 70
     1
  0
APPID
  2
ACAD
 70
     0
  0
ENDTAB
  0
TABLE
  2
DIMSTYLE
 70
     1
  0
DIMSTYLE
  2
MXDIMSTYLE
 70
     0
  3

  4

  5

  6

  7

 40
1.0
 41
2.5
 42
0.5
 43
3.75
 44
1.0
 45
0.0
 46
0.0
 47
0.0
 48
0.0
 71
     0
 72
     0
 73
     0
 74
     0
 75
     0
 76
     0
 77
     1
 78
     8
140
2.5
141
2.5
142
0.0
143
0.03937
144
1.0
145
0.0
146
1.0
147
1.0
170
     0
171
     4
172
     1
173
     0
174
     0
175
     0
176
     0
177
     0
178
     0
  0
ENDTAB
  0
ENDSEC
  0
SECTION
  2
BLOCKS
  0
BLOCK
  8
0
  5
22
  2
MS_1
 70
     0
 10
0.0
 20
0.0
 30
0.0
  3
MS_1
  0
LINE
  8
0
  6
CONTINUOUS
 62
    80
  5
23
 10
-18.0
 20
144.0
 30
0.0
 11
238.0
 21
144.0
 31
0.0
  0
LINE
  8
0
  6
CONTINUOUS
 62
    80
  5
24
 10
-18.0
 20
132.0
 30
0.0
 11
238.0
 21
132.0
 31
0.0
  0
LINE
  8
0
  6
CONTINUOUS
 62
    80
  5
25
 10
-18.0
 20
120.0
 30
0.0
 11
238.0
 21
120.0
 31
0.0
  0
LINE
  8
0
  6
CONTINUOUS
 62
    80
  5
26
 10
-18.0
 20
108.0
 30
0.0
 11
238.0
 21
108.0
 31
0.0
  0
LINE
  8
0
  6
CONTINUOUS
 62
    80
  5
27
 10
-18.0
 20
96.0
 30
0.0
 11
238.0
 21
96.0
 31
0.0
  0
TEXT
  8
0
  6
CONTINUOUS
 62
     3
  5
28
 10
-13.56
 20
135.0
 30
0.0
 40
6.0
  1
12
 41
1.14
  7
MX_NOTE_STANDARD
 11
-13.56
 21
138.0
 31
0.0
 73
     2
  0
TEXT
  8
0
  6
CONTINUOUS
 62
     3
  5
29
 10
-13.275
 20
123.0
 30
0.0
 40
6.0
  1
11
 41
1.425
  7
MX_NOTE_STANDARD
 11
-13.275
 21
126.0
 31
0.0
 73
     2
  0
TEXT
  8
0
  6
CONTINUOUS
 62
     3
  5
2A
 10
-13.433333
 20
111.0
 30
0.0
 40
6.0
  1
10
 41
1.266667
  7
MX_NOTE_STANDARD
 11
-13.433333
 21
114.0
 31
0.0
 73
     2
  0
TEXT
  8
0
  6
CONTINUOUS
 62
     3
  5
2B
 10
-10.79999
 20
99.0
 30
0.0
 40
6.0
  1
9
 41
1.05001
  7
MX_NOTE_STANDARD
 11
-10.79999
 21
102.0
 31
0.0
 73
     2
  0
TEXT
  8
0
  6
CONTINUOUS
 62
     3
  5
2C
 10
-10.79999
 20
87.0
 30
0.0
 40
6.0
  1
8
 41
1.05001
  7
MX_NOTE_STANDARD
 11
-10.79999
 21
90.0
 31
0.0
 73
     2
  0
LINE
  8
0
  6
CONTINUOUS
 62
     3
  5
2D
 10
-556.0
 20
474.0
 30
0.0
 11
284.0
 21
474.0
 31
0.0
  0
TEXT
  8
0
  6
CONTINUOUS
 62
     3
  5
2E
 10
189.953243
 20
-83.91916
 30
0.0
 40
6.0
  1
様式　D-094
 41
0.823605
  7
MX_NOTE_STANDARD
 11
189.953243
 21
-80.91916
 31
0.0
 73
     2
  0
LINE
  8
0
  6
CONTINUOUS
 62
     3
  5
2F
 10
124.0
 20
-14.0
 30
0.0
 11
124.0
 21
-45.0
 31
0.0
  0
LINE
  8
0
  6
CONTINUOUS
 62
     3
  5
30
 10
10.0
 20
-14.0
 30
0.0
 11
10.0
 21
-45.0
 31
0.0
  0
TEXT
  8
0
  6
CONTINUOUS
 62
     3
  5
31
 10
33.833333
 20
432.799969
 30
0.0
 40
6.4
  1
訂正数
 41
0.78125
  7
MX_NOTE_STANDARD
 11
33.833333
 21
435.999969
 31
0.0
 73
     2
  0
LINE
  8
0
  6
CONTINUOUS
 62
    80
  5
32
 10
52.0
 20
440.999969
 30
0.0
 11
52.0
 21
390.999977
 31
0.0
  0
POLYLINE
  8
0
  6
CONTINUOUS
 62
    80
  5
33
 66
     1
 10
0.0
 20
0.0
 30
0.0
  0
VERTEX
  8
0
  6
CONTINUOUS
 62
    80
  5
5A5
 10
172.185137
 20
-68.677603
 30
0.0
  0
VERTEX
  8
0
  6
CONTINUOUS
 62
    80
  5
5A6
 10
172.185049
 20
-68.67793
 30
0.0
  0
VERTEX
  8
0
  6
CONTINUOUS
 62
    80
  5
5A7
 10
172.184961
 20
-68.678258
 30
0.0
  0
VERTEX
  8
0
  6
CONTINUOUS
 62
    80
  5
5A8
 10
172.184874
 20
-68.678586
 30
0.0
  0
VERTEX
  8
0
  6
CONTINUOUS
 62
    80
  5
5A9
 10
172.184786
 20
-68.678914
 30
0.0
  0
VERTEX
  8
0
  6
CONTINUOUS
 62
    80
  5
5AA
 10
172.184698
 20
-68.679241
 30
0.0
  0
VERTEX
  8
0
  6
CONTINUOUS
 62
    80
  5
5AB
 10
172.18461
 20
-68.679569
 30
0.0
  0
VERTEX
  8
0
  6
CONTINUOUS
 62
    80
  5
5AC
 10
172.184522
 20
-68.679897
 30
0.0
  0
VERTEX
  8
0
  6
CONTINUOUS
 62
    80
  5
5AD
 10
172.184434
 20
-68.680225
 30
0.0
  0
VERTEX
  8
0
  6
CONTINUOUS
 62
    80
  5
5AE
 10
172.184346
 20
-68.680552
 30
0.0
  0
VERTEX
  8
0
  6
CONTINUOUS
 62
    80
  5
5AF
 10
172.184258
 20
-68.68088
 30
0.0
  0
VERTEX
  8
0
  6
CONTINUOUS
 62
    80
  5
5B0
 10
172.18417
 20
-68.681208
 30
0.0
  0
VERTEX
  8
0
  6
CONTINUOUS
 62
    80
  5
5B1
 10
172.184082
 20
-68.681535
 30
0.0
  0
VERTEX
  8
0
  6
CONTINUOUS
 62
    80
  5
5B2
 10
172.183994
 20
-68.681863
 30
0.0
  0
VERTEX
  8
0
  6
CONTINUOUS
 62
    80
  5
5B3
 10
172.183906
 20
-68.68219
 30
0.0
  0
VERTEX
  8
0
  6
CONTINUOUS
 62
    80
  5
5B4
 10
172.183817
 20
-68.682518
 30
0.0
  0
VERTEX
  8
0
  6
CONTINUOUS
 62
    80
  5
5B5
 10
172.183729
 20
-68.682846
 30
0.0
  0
VERTEX
  8
0
  6
CONTINUOUS
 62
    80
  5
5B6
 10
172.179284
 20
-68.699123
 30
0.0
  0
VERTEX
  8
0
  6
CONTINUOUS
 62
    80
  5
5B7
 10
172.174732
 20
-68.715383
 30
0.0
  0
VERTEX
  8
0
  6
CONTINUOUS
 62
    80
  5
5B8
 10
172.170075
 20
-68.731624
 30
0.0
  0
VERTEX
  8
0
  6
CONTINUOUS
 62
    80
  5
5B9
 10
172.165312
 20
-68.747846
 30
0.0
  0
VERTEX
  8
0
  6
CONTINUOUS
 62
    80
  5
5BA
 10
172.160446
 20
-68.764047
 30
0.0
  0
VERTEX
  8
0
  6
CONTINUOUS
 62
    80
  5
5BB
 10
172.155477
 20
-68.780229
 30
0.0
  0
VERTEX
  8
0
  6
CONTINUOUS
 62
    80
  5
5BC
 10
172.150407
 20
-68.796389
 30
0.0
  0
VERTEX
  8
0
  6
CONTINUOUS
 62
    80
  5
5BD
 10
172.145235
 20
-68.812528
 30
0.0
  0
VERTEX
  8
0
  6
CONTINUOUS
 62
    80
  5
5BE
 10
172.139965
 20
-68.828645
 30
0.0
  0
VERTEX
  8
0
  6
CONTINUOUS
 62
    80
  5
5BF
 10
172.134595
 20
-68.844739
 30
0.0
  0
VERTEX
  8
0
  6
CONTINUOUS
 62
    80
  5
5C0
 10
172.129129
 20
-68.86081
 30
0.0
  0
VERTEX
  8
0
  6
CONTINUOUS
 62
    80
  5
5C1
 10
172.123566
 20
-68.876857
 30
0.0
  0
VERTEX
  8
0
  6
CONTINUOUS
 62
    80
  5
5C2
 10
172.117907
 20
-68.892879
 30
0.0
  0
VERTEX
  8
0
  6
CONTINUOUS
 62
    80
  5
5C3
 10
172.112155
 20
-68.908876
 30
0.0
  0
VERTEX
  8
0
  6
CONTINUOUS
 62
    80
  5
5C4
 10
172.106309
 20
-68.924848
 30
0.0
  0
VERTEX
  8
0
  6
CONTINUOUS
 62
    80
  5
5C5
 10
172.100372
 20
-68.940793
 30
0.0
  0
VERTEX
  8
0
  6
CONTINUOUS
 62
    80
  5
5C6
 10
172.061011
 20
-69.040314
 30
0.0
  0
VERTEX
  8
0
  6
CONTINUOUS
 62
    80
  5
5C7
 10
172.018197
 20
-69.13886
 30
0.0
  0
VERTEX
  8
0
  6
CONTINUOUS
 62
    80
  5
5C8
 10
171.972114
 20
-69.236536
 30
0.0
  0
VERTEX
  8
0
  6
CONTINUOUS
 62
    80
  5
5C9
 10
171.922955
 20
-69.333438
 30
0.0
  0
VERTEX
  8
0
  6
CONTINUOUS
 62
    80
  5
5CA
 10
171.87092
 20
-69.429657
 30
0.0
  0
VERTEX
  8
0
  6
CONTINUOUS
 62
    80
  5
5CB
 10
171.816212
 20
-69.52528
 30
0.0
  0
VERTEX
  8
0
  6
CONTINUOUS
 62
    80
  5
5CC
 10
171.759044
 20
-69.620391
 30
0.0
  0
VERTEX
  8
0
  6
CONTINUOUS
 62
    80
  5
5CD
 10
171.699631
 20
-69.715073
 30
0.0
  0
VERTEX
  8
0
  6
CONTINUOUS
 62
    80
  5
5CE
 10
171.638196
 20
-69.809409
 30
0.0
  0
VERTEX
  8
0
  6
CONTINUOUS
 62
    80
  5
5CF
 10
171.574965
 20
-69.903483
 30
0.0
  0
VERTEX
  8
0
  6
CONTINUOUS
 62
    80
  5
5D0
 10
171.51017
 20
-69.997381
 30
0.0
  0
VERTEX
  8
0
  6
CONTINUOUS
 62
    80
  5
5D1
 10
171.444043
 20
-70.091191
 30
0.0
  0
VERTEX
  8
0
  6
CONTINUOUS
 62
    80
  5
5D2
 10
171.376821
 20
-70.185005
 30
0.0
  0
VERTEX
  8
0
  6
CONTINUOUS
 62
    80
  5
5D3
 10
171.308745
 20
-70.278917
 30
0.0
  0
VERTEX
  8
0
  6
CONTINUOUS
 62
    80
  5
5D4
 10
171.240056
 20
-70.373025
 30
0.0
  0
VERTEX
  8
0
  6
CONTINUOUS
 62
    80
  5
5D5
 10
171.170996
 20
-70.46743
 30
0.0
  0
VERTEX
  8
0
  6
CONTINUOUS
 62
    80
  5
5D6
 10
171.095809
 20
-70.570371
 30
0.0
  0
VERTEX
  8
0
  6
CONTINUOUS
 62
    80
  5
5D7
 10
171.020886
 20
-70.673082
 30
0.0
  0
VERTEX
  8
0
  6
CONTINUOUS
 62
    80
  5
5D8
 10
170.946155
 20
-70.775522
 30
0.0
  0
VERTEX
  8
0
  6
CONTINUOUS
 62
    80
  5
5D9
 10
170.87154
 20
-70.877651
 30
0.0
  0
VERTEX
  8
0
  6
CONTINUOUS
 62
    80
  5
5DA
 10
170.796967
 20
-70.979429
 30
0.0
  0
VERTEX
  8
0
  6
CONTINUOUS
 62
    80
  5
5DB
 10
170.722364
 20
-71.080815
 30
0.0
  0
VERTEX
  8
0
  6
CONTINUOUS
 62
    80
  5
5DC
 10
170.647656
 20
-71.181772
 30
0.0
  0
VERTEX
  8
0
  6
CONTINUOUS
 62
    80
  5
5DD
 10
170.572769
 20
-71.282259
 30
0.0
  0
VERTEX
  8
0
  6
CONTINUOUS
 62
    80
  5
5DE
 10
170.497632
 20
-71.382238
 30
0.0
  0
VERTEX
  8
0
  6
CONTINUOUS
 62
    80
  5
5DF
 10
170.42217
 20
-71.48167
 30
0.0
  0
VERTEX
  8
0
  6
CONTINUOUS
 62
    80
  5
5E0
 10
170.346312
 20
-71.580517
 30
0.0
  0
VERTEX
  8
0
  6
CONTINUOUS
 62
    80
  5
5E1
 10
170.269983
 20
-71.678742
 30
0.0
  0
VERTEX
  8
0
  6
CONTINUOUS
 62
    80
  5
5E2
 10
170.193112
 20
-71.776306
 30
0.0
  0
VERTEX
  8
0
  6
CONTINUOUS
 62
    80
  5
5E3
 10
170.115627
 20
-71.873173
 30
0.0
  0
VERTEX
  8
0
  6
CONTINUOUS
 62
    80
  5
5E4
 10
170.037454
 20
-71.969307
 30
0.0
  0
VERTEX
  8
0
  6
CONTINUOUS
 62
    80
  5
5E5
 10
169.958522
 20
-72.06467
 30
0.0
  0
SEQEND
  8
0
  6
CONTINUOUS
 62
    80
  5
5E6
  0
POLYLINE
  8
0
  6
CONTINUOUS
 62
    80
  5
34
 66
     1
 10
0.0
 20
0.0
 30
0.0
  0
VERTEX
  8
0
  6
CONTINUOUS
 62
    80
  5
5E7
 10
172.443523
 20
-68.675994
 30
0.0
  0
VERTEX
  8
0
  6
CONTINUOUS
 62
    80
  5
5E8
 10
172.442426
 20
-68.680504
 30
0.0
  0
VERTEX
  8
0
  6
CONTINUOUS
 62
    80
  5
5E9
 10
172.441321
 20
-68.685012
 30
0.0
  0
VERTEX
  8
0
  6
CONTINUOUS
 62
    80
  5
5EA
 10
172.440209
 20
-68.689518
 30
0.0
  0
VERTEX
  8
0
  6
CONTINUOUS
 62
    80
  5
5EB
 10
172.439091
 20
-68.694023
 30
0.0
  0
VERTEX
  8
0
  6
CONTINUOUS
 62
    80
  5
5EC
 10
172.437965
 20
-68.698525
 30
0.0
  0
VERTEX
  8
0
  6
CONTINUOUS
 62
    80
  5
5ED
 10
172.436832
 20
-68.703026
 30
0.0
  0
VERTEX
  8
0
  6
CONTINUOUS
 62
    80
  5
5EE
 10
172.435692
 20
-68.707525
 30
0.0
  0
VERTEX
  8
0
  6
CONTINUOUS
 62
    80
  5
5EF
 10
172.434544
 20
-68.712021
 30
0.0
  0
VERTEX
  8
0
  6
CONTINUOUS
 62
    80
  5
5F0
 10
172.43339
 20
-68.716516
 30
0.0
  0
VERTEX
  8
0
  6
CONTINUOUS
 62
    80
  5
5F1
 10
172.432228
 20
-68.721009
 30
0.0
  0
VERTEX
  8
0
  6
CONTINUOUS
 62
    80
  5
5F2
 10
172.43106
 20
-68.7255
 30
0.0
  0
VERTEX
  8
0
  6
CONTINUOUS
 62
    80
  5
5F3
 10
172.429884
 20
-68.729989
 30
0.0
  0
VERTEX
  8
0
  6
CONTINUOUS
 62
    80
  5
5F4
 10
172.428701
 20
-68.734476
 30
0.0
  0
VERTEX
  8
0
  6
CONTINUOUS
 62
    80
  5
5F5
 10
172.427511
 20
-68.738961
 30
0.0
  0
VERTEX
  8
0
  6
CONTINUOUS
 62
    80
  5
5F6
 10
172.426314
 20
-68.743444
 30
0.0
  0
VERTEX
  8
0
  6
CONTINUOUS
 62
    80
  5
5F7
 10
172.42511
 20
-68.747925
 30
0.0
  0
VERTEX
  8
0
  6
CONTINUOUS
 62
    80
  5
5F8
 10
172.420242
 20
-68.765751
 30
0.0
  0
VERTEX
  8
0
  6
CONTINUOUS
 62
    80
  5
5F9
 10
172.415262
 20
-68.783541
 30
0.0
  0
VERTEX
  8
0
  6
CONTINUOUS
 62
    80
  5
5FA
 10
172.41017
 20
-68.801297
 30
0.0
  0
VERTEX
  8
0
  6
CONTINUOUS
 62
    80
  5
5FB
 10
172.404968
 20
-68.819017
 30
0.0
  0
VERTEX
  8
0
  6
CONTINUOUS
 62
    80
  5
5FC
 10
172.399657
 20
-68.8367
 30
0.0
  0
VERTEX
  8
0
  6
CONTINUOUS
 62
    80
  5
5FD
 10
172.394238
 20
-68.854347
 30
0.0
  0
VERTEX
  8
0
  6
CONTINUOUS
 62
    80
  5
5FE
 10
172.388713
 20
-68.871956
 30
0.0
  0
VERTEX
  8
0
  6
CONTINUOUS
 62
    80
  5
5FF
 10
172.383082
 20
-68.889528
 30
0.0
  0
VERTEX
  8
0
  6
CONTINUOUS
 62
    80
  5
600
 10
172.377348
 20
-68.907061
 30
0.0
  0
VERTEX
  8
0
  6
CONTINUOUS
 62
    80
  5
601
 10
172.371511
 20
-68.924556
 30
0.0
  0
VERTEX
  8
0
  6
CONTINUOUS
 62
    80
  5
602
 10
172.365574
 20
-68.942012
 30
0.0
  0
VERTEX
  8
0
  6
CONTINUOUS
 62
    80
  5
603
 10
172.359536
 20
-68.959428
 30
0.0
  0
VERTEX
  8
0
  6
CONTINUOUS
 62
    80
  5
604
 10
172.3534
 20
-68.976804
 30
0.0
  0
VERTEX
  8
0
  6
CONTINUOUS
 62
    80
  5
605
 10
172.347166
 20
-68.994139
 30
0.0
  0
VERTEX
  8
0
  6
CONTINUOUS
 62
    80
  5
606
 10
172.340836
 20
-69.011434
 30
0.0
  0
VERTEX
  8
0
  6
CONTINUOUS
 62
    80
  5
607
 10
172.334412
 20
-69.028687
 30
0.0
  0
VERTEX
  8
0
  6
CONTINUOUS
 62
    80
  5
608
 10
172.291895
 20
-69.136193
 30
0.0
  0
VERTEX
  8
0
  6
CONTINUOUS
 62
    80
  5
609
 10
172.245883
 20
-69.242103
 30
0.0
  0
VERTEX
  8
0
  6
CONTINUOUS
 62
    80
  5
60A
 10
172.196621
 20
-69.346519
 30
0.0
  0
VERTEX
  8
0
  6
CONTINUOUS
 62
    80
  5
60B
 10
172.144358
 20
-69.449545
 30
0.0
  0
VERTEX
  8
0
  6
CONTINUOUS
 62
    80
  5
60C
 10
172.089339
 20
-69.551285
 30
0.0
  0
VERTEX
  8
0
  6
CONTINUOUS
 62
    80
  5
60D
 10
172.031811
 20
-69.65184
 30
0.0
  0
VERTEX
  8
0
  6
CONTINUOUS
 62
    80
  5
60E
 10
171.97202
 20
-69.751315
 30
0.0
  0
VERTEX
  8
0
  6
CONTINUOUS
 62
    80
  5
60F
 10
171.910214
 20
-69.849812
 30
0.0
  0
VERTEX
  8
0
  6
CONTINUOUS
 62
    80
  5
610
 10
171.846639
 20
-69.947435
 30
0.0
  0
VERTEX
  8
0
  6
CONTINUOUS
 62
    80
  5
611
 10
171.781542
 20
-70.044288
 30
0.0
  0
VERTEX
  8
0
  6
CONTINUOUS
 62
    80
  5
612
 10
171.715169
 20
-70.140472
 30
0.0
  0
VERTEX
  8
0
  6
CONTINUOUS
 62
    80
  5
613
 10
171.647767
 20
-70.236092
 30
0.0
  0
VERTEX
  8
0
  6
CONTINUOUS
 62
    80
  5
614
 10
171.579583
 20
-70.331251
 30
0.0
  0
VERTEX
  8
0
  6
CONTINUOUS
 62
    80
  5
615
 10
171.510863
 20
-70.426051
 30
0.0
  0
VERTEX
  8
0
  6
CONTINUOUS
 62
    80
  5
616
 10
171.441854
 20
-70.520596
 30
0.0
  0
VERTEX
  8
0
  6
CONTINUOUS
 62
    80
  5
617
 10
171.372803
 20
-70.61499
 30
0.0
  0
VERTEX
  8
0
  6
CONTINUOUS
 62
    80
  5
618
 10
171.310968
 20
-70.699637
 30
0.0
  0
VERTEX
  8
0
  6
CONTINUOUS
 62
    80
  5
619
 10
171.249256
 20
-70.784221
 30
0.0
  0
VERTEX
  8
0
  6
CONTINUOUS
 62
    80
  5
61A
 10
171.187625
 20
-70.868722
 30
0.0
  0
VERTEX
  8
0
  6
CONTINUOUS
 62
    80
  5
61B
 10
171.126034
 20
-70.953117
 30
0.0
  0
VERTEX
  8
0
  6
CONTINUOUS
 62
    80
  5
61C
 10
171.064441
 20
-71.037384
 30
0.0
  0
VERTEX
  8
0
  6
CONTINUOUS
 62
    80
  5
61D
 10
171.002804
 20
-71.121499
 30
0.0
  0
VERTEX
  8
0
  6
CONTINUOUS
 62
    80
  5
61E
 10
170.941081
 20
-71.205442
 30
0.0
  0
VERTEX
  8
0
  6
CONTINUOUS
 62
    80
  5
61F
 10
170.879231
 20
-71.28919
 30
0.0
  0
VERTEX
  8
0
  6
CONTINUOUS
 62
    80
  5
620
 10
170.817211
 20
-71.37272
 30
0.0
  0
VERTEX
  8
0
  6
CONTINUOUS
 62
    80
  5
621
 10
170.754981
 20
-71.45601
 30
0.0
  0
VERTEX
  8
0
  6
CONTINUOUS
 62
    80
  5
622
 10
170.692497
 20
-71.539038
 30
0.0
  0
VERTEX
  8
0
  6
CONTINUOUS
 62
    80
  5
623
 10
170.62972
 20
-71.621782
 30
0.0
  0
VERTEX
  8
0
  6
CONTINUOUS
 62
    80
  5
624
 10
170.566606
 20
-71.704219
 30
0.0
  0
VERTEX
  8
0
  6
CONTINUOUS
 62
    80
  5
625
 10
170.503114
 20
-71.786327
 30
0.0
  0
VERTEX
  8
0
  6
CONTINUOUS
 62
    80
  5
626
 10
170.439203
 20
-71.868084
 30
0.0
  0
VERTEX
  8
0
  6
CONTINUOUS
 62
    80
  5
627
 10
170.37483
 20
-71.949467
 30
0.0
  0
SEQEND
  8
0
  6
CONTINUOUS
 62
    80
  5
628
  0
POLYLINE
  8
0
  6
CONTINUOUS
 62
    80
  5
35
 66
     1
 10
0.0
 20
0.0
 30
0.0
  0
VERTEX
  8
0
  6
CONTINUOUS
 62
    80
  5
629
 10
196.127237
 20
-65.187279
 30
0.0
  0
VERTEX
  8
0
  6
CONTINUOUS
 62
    80
  5
62A
 10
196.474291
 20
-65.29979
 30
0.0
  0
VERTEX
  8
0
  6
CONTINUOUS
 62
    80
  5
62B
 10
196.821345
 20
-65.412303
 30
0.0
  0
VERTEX
  8
0
  6
CONTINUOUS
 62
    80
  5
62C
 10
197.1684
 20
-65.524816
 30
0.0
  0
VERTEX
  8
0
  6
CONTINUOUS
 62
    80
  5
62D
 10
197.515454
 20
-65.637329
 30
0.0
  0
VERTEX
  8
0
  6
CONTINUOUS
 62
    80
  5
62E
 10
197.862509
 20
-65.749843
 30
0.0
  0
VERTEX
  8
0
  6
CONTINUOUS
 62
    80
  5
62F
 10
198.209563
 20
-65.862357
 30
0.0
  0
VERTEX
  8
0
  6
CONTINUOUS
 62
    80
  5
630
 10
198.556618
 20
-65.974872
 30
0.0
  0
VERTEX
  8
0
  6
CONTINUOUS
 62
    80
  5
631
 10
198.903673
 20
-66.087386
 30
0.0
  0
VERTEX
  8
0
  6
CONTINUOUS
 62
    80
  5
632
 10
199.250727
 20
-66.199901
 30
0.0
  0
VERTEX
  8
0
  6
CONTINUOUS
 62
    80
  5
633
 10
199.597782
 20
-66.312415
 30
0.0
  0
VERTEX
  8
0
  6
CONTINUOUS
 62
    80
  5
634
 10
199.944837
 20
-66.42493
 30
0.0
  0
VERTEX
  8
0
  6
CONTINUOUS
 62
    80
  5
635
 10
200.291892
 20
-66.537444
 30
0.0
  0
VERTEX
  8
0
  6
CONTINUOUS
 62
    80
  5
636
 10
200.638947
 20
-66.649957
 30
0.0
  0
VERTEX
  8
0
  6
CONTINUOUS
 62
    80
  5
637
 10
200.986001
 20
-66.762471
 30
0.0
  0
VERTEX
  8
0
  6
CONTINUOUS
 62
    80
  5
638
 10
201.333056
 20
-66.874983
 30
0.0
  0
VERTEX
  8
0
  6
CONTINUOUS
 62
    80
  5
639
 10
201.680111
 20
-66.987495
 30
0.0
  0
SEQEND
  8
0
  6
CONTINUOUS
 62
    80
  5
63A
  0
POLYLINE
  8
0
  6
CONTINUOUS
 62
    80
  5
36
 66
     1
 10
0.0
 20
0.0
 30
0.0
  0
VERTEX
  8
0
  6
CONTINUOUS
 62
    80
  5
63B
 10
196.128601
 20
-65.0
 30
0.0
  0
VERTEX
  8
0
  6
CONTINUOUS
 62
    80
  5
63C
 10
196.486637
 20
-65.116072
 30
0.0
  0
VERTEX
  8
0
  6
CONTINUOUS
 62
    80
  5
63D
 10
196.844673
 20
-65.232144
 30
0.0
  0
VERTEX
  8
0
  6
CONTINUOUS
 62
    80
  5
63E
 10
197.202709
 20
-65.348217
 30
0.0
  0
VERTEX
  8
0
  6
CONTINUOUS
 62
    80
  5
63F
 10
197.560745
 20
-65.464291
 30
0.0
  0
VERTEX
  8
0
  6
CONTINUOUS
 62
    80
  5
640
 10
197.918781
 20
-65.580365
 30
0.0
  0
VERTEX
  8
0
  6
CONTINUOUS
 62
    80
  5
641
 10
198.276817
 20
-65.69644
 30
0.0
  0
VERTEX
  8
0
  6
CONTINUOUS
 62
    80
  5
642
 10
198.634853
 20
-65.812514
 30
0.0
  0
VERTEX
  8
0
  6
CONTINUOUS
 62
    80
  5
643
 10
198.992889
 20
-65.928589
 30
0.0
  0
VERTEX
  8
0
  6
CONTINUOUS
 62
    80
  5
644
 10
199.350926
 20
-66.044664
 30
0.0
  0
VERTEX
  8
0
  6
CONTINUOUS
 62
    80
  5
645
 10
199.708962
 20
-66.160738
 30
0.0
  0
VERTEX
  8
0
  6
CONTINUOUS
 62
    80
  5
646
 10
200.066998
 20
-66.276813
 30
0.0
  0
VERTEX
  8
0
  6
CONTINUOUS
 62
    80
  5
647
 10
200.425034
 20
-66.392887
 30
0.0
  0
VERTEX
  8
0
  6
CONTINUOUS
 62
    80
  5
648
 10
200.78307
 20
-66.50896
 30
0.0
  0
VERTEX
  8
0
  6
CONTINUOUS
 62
    80
  5
649
 10
201.141106
 20
-66.625033
 30
0.0
  0
VERTEX
  8
0
  6
CONTINUOUS
 62
    80
  5
64A
 10
201.499142
 20
-66.741106
 30
0.0
  0
VERTEX
  8
0
  6
CONTINUOUS
 62
    80
  5
64B
 10
201.857178
 20
-66.857178
 30
0.0
  0
SEQEND
  8
0
  6
CONTINUOUS
 62
    80
  5
64C
  0
POLYLINE
  8
0
  6
CONTINUOUS
 62
    80
  5
37
 66
     1
 10
0.0
 20
0.0
 30
0.0
  0
VERTEX
  8
0
  6
CONTINUOUS
 62
    80
  5
64D
 10
196.129965
 20
-65.187279
 30
0.0
  0
VERTEX
  8
0
  6
CONTINUOUS
 62
    80
  5
64E
 10
195.782912
 20
-65.29979
 30
0.0
  0
VERTEX
  8
0
  6
CONTINUOUS
 62
    80
  5
64F
 10
195.43586
 20
-65.412303
 30
0.0
  0
VERTEX
  8
0
  6
CONTINUOUS
 62
    80
  5
650
 10
195.088809
 20
-65.524816
 30
0.0
  0
VERTEX
  8
0
  6
CONTINUOUS
 62
    80
  5
651
 10
194.741758
 20
-65.637329
 30
0.0
  0
VERTEX
  8
0
  6
CONTINUOUS
 62
    80
  5
652
 10
194.394708
 20
-65.749843
 30
0.0
  0
VERTEX
  8
0
  6
CONTINUOUS
 62
    80
  5
653
 10
194.047659
 20
-65.862357
 30
0.0
  0
VERTEX
  8
0
  6
CONTINUOUS
 62
    80
  5
654
 10
193.70061
 20
-65.974872
 30
0.0
  0
VERTEX
  8
0
  6
CONTINUOUS
 62
    80
  5
655
 10
193.35356
 20
-66.087386
 30
0.0
  0
VERTEX
  8
0
  6
CONTINUOUS
 62
    80
  5
656
 10
193.006511
 20
-66.199901
 30
0.0
  0
VERTEX
  8
0
  6
CONTINUOUS
 62
    80
  5
657
 10
192.659462
 20
-66.312415
 30
0.0
  0
VERTEX
  8
0
  6
CONTINUOUS
 62
    80
  5
658
 10
192.312412
 20
-66.424929
 30
0.0
  0
VERTEX
  8
0
  6
CONTINUOUS
 62
    80
  5
659
 10
191.965362
 20
-66.537443
 30
0.0
  0
VERTEX
  8
0
  6
CONTINUOUS
 62
    80
  5
65A
 10
191.618311
 20
-66.649957
 30
0.0
  0
VERTEX
  8
0
  6
CONTINUOUS
 62
    80
  5
65B
 10
191.271259
 20
-66.76247
 30
0.0
  0
VERTEX
  8
0
  6
CONTINUOUS
 62
    80
  5
65C
 10
190.924206
 20
-66.874983
 30
0.0
  0
VERTEX
  8
0
  6
CONTINUOUS
 62
    80
  5
65D
 10
190.577152
 20
-66.987495
 30
0.0
  0
SEQEND
  8
0
  6
CONTINUOUS
 62
    80
  5
65E
  0
POLYLINE
  8
0
  6
CONTINUOUS
 62
    80
  5
38
 66
     1
 10
0.0
 20
0.0
 30
0.0
  0
VERTEX
  8
0
  6
CONTINUOUS
 62
    80
  5
65F
 10
196.128601
 20
-65.0
 30
0.0
  0
VERTEX
  8
0
  6
CONTINUOUS
 62
    80
  5
660
 10
195.770566
 20
-65.116072
 30
0.0
  0
VERTEX
  8
0
  6
CONTINUOUS
 62
    80
  5
661
 10
195.412532
 20
-65.232144
 30
0.0
  0
VERTEX
  8
0
  6
CONTINUOUS
 62
    80
  5
662
 10
195.054499
 20
-65.348217
 30
0.0
  0
VERTEX
  8
0
  6
CONTINUOUS
 62
    80
  5
663
 10
194.696467
 20
-65.464291
 30
0.0
  0
VERTEX
  8
0
  6
CONTINUOUS
 62
    80
  5
664
 10
194.338435
 20
-65.580365
 30
0.0
  0
VERTEX
  8
0
  6
CONTINUOUS
 62
    80
  5
665
 10
193.980404
 20
-65.69644
 30
0.0
  0
VERTEX
  8
0
  6
CONTINUOUS
 62
    80
  5
666
 10
193.622374
 20
-65.812514
 30
0.0
  0
VERTEX
  8
0
  6
CONTINUOUS
 62
    80
  5
667
 10
193.264343
 20
-65.928589
 30
0.0
  0
VERTEX
  8
0
  6
CONTINUOUS
 62
    80
  5
668
 10
192.906313
 20
-66.044664
 30
0.0
  0
VERTEX
  8
0
  6
CONTINUOUS
 62
    80
  5
669
 10
192.548282
 20
-66.160738
 30
0.0
  0
VERTEX
  8
0
  6
CONTINUOUS
 62
    80
  5
66A
 10
192.190251
 20
-66.276813
 30
0.0
  0
VERTEX
  8
0
  6
CONTINUOUS
 62
    80
  5
66B
 10
191.83222
 20
-66.392887
 30
0.0
  0
VERTEX
  8
0
  6
CONTINUOUS
 62
    80
  5
66C
 10
191.474187
 20
-66.50896
 30
0.0
  0
VERTEX
  8
0
  6
CONTINUOUS
 62
    80
  5
66D
 10
191.116154
 20
-66.625033
 30
0.0
  0
VERTEX
  8
0
  6
CONTINUOUS
 62
    80
  5
66E
 10
190.758121
 20
-66.741106
 30
0.0
  0
VERTEX
  8
0
  6
CONTINUOUS
 62
    80
  5
66F
 10
190.400085
 20
-66.857178
 30
0.0
  0
SEQEND
  8
0
  6
CONTINUOUS
 62
    80
  5
670
  0
POLYLINE
  8
0
  6
CONTINUOUS
 62
    80
  5
39
 66
     1
 10
0.0
 20
0.0
 30
0.0
  0
VERTEX
  8
0
  6
CONTINUOUS
 62
    80
  5
671
 10
178.405882
 20
-72.9546
 30
0.0
  0
VERTEX
  8
0
  6
CONTINUOUS
 62
    80
  5
672
 10
178.509879
 20
-72.948588
 30
0.0
  0
VERTEX
  8
0
  6
CONTINUOUS
 62
    80
  5
673
 10
178.613861
 20
-72.94227
 30
0.0
  0
VERTEX
  8
0
  6
CONTINUOUS
 62
    80
  5
674
 10
178.717827
 20
-72.935648
 30
0.0
  0
VERTEX
  8
0
  6
CONTINUOUS
 62
    80
  5
675
 10
178.821777
 20
-72.928724
 30
0.0
  0
VERTEX
  8
0
  6
CONTINUOUS
 62
    80
  5
676
 10
178.925708
 20
-72.921497
 30
0.0
  0
VERTEX
  8
0
  6
CONTINUOUS
 62
    80
  5
677
 10
179.029621
 20
-72.913969
 30
0.0
  0
VERTEX
  8
0
  6
CONTINUOUS
 62
    80
  5
678
 10
179.133515
 20
-72.906141
 30
0.0
  0
VERTEX
  8
0
  6
CONTINUOUS
 62
    80
  5
679
 10
179.237389
 20
-72.898014
 30
0.0
  0
VERTEX
  8
0
  6
CONTINUOUS
 62
    80
  5
67A
 10
179.341241
 20
-72.889589
 30
0.0
  0
VERTEX
  8
0
  6
CONTINUOUS
 62
    80
  5
67B
 10
179.445072
 20
-72.880868
 30
0.0
  0
VERTEX
  8
0
  6
CONTINUOUS
 62
    80
  5
67C
 10
179.54888
 20
-72.87185
 30
0.0
  0
VERTEX
  8
0
  6
CONTINUOUS
 62
    80
  5
67D
 10
179.652664
 20
-72.862538
 30
0.0
  0
VERTEX
  8
0
  6
CONTINUOUS
 62
    80
  5
67E
 10
179.756423
 20
-72.852931
 30
0.0
  0
VERTEX
  8
0
  6
CONTINUOUS
 62
    80
  5
67F
 10
179.860157
 20
-72.843032
 30
0.0
  0
VERTEX
  8
0
  6
CONTINUOUS
 62
    80
  5
680
 10
179.963864
 20
-72.832841
 30
0.0
  0
VERTEX
  8
0
  6
CONTINUOUS
 62
    80
  5
681
 10
180.067545
 20
-72.822359
 30
0.0
  0
VERTEX
  8
0
  6
CONTINUOUS
 62
    80
  5
682
 10
180.201308
 20
-72.808403
 30
0.0
  0
VERTEX
  8
0
  6
CONTINUOUS
 62
    80
  5
683
 10
180.335014
 20
-72.793959
 30
0.0
  0
VERTEX
  8
0
  6
CONTINUOUS
 62
    80
  5
684
 10
180.46866
 20
-72.779023
 30
0.0
  0
VERTEX
  8
0
  6
CONTINUOUS
 62
    80
  5
685
 10
180.602243
 20
-72.763592
 30
0.0
  0
VERTEX
  8
0
  6
CONTINUOUS
 62
    80
  5
686
 10
180.735761
 20
-72.747661
 30
0.0
  0
VERTEX
  8
0
  6
CONTINUOUS
 62
    80
  5
687
 10
180.869211
 20
-72.731225
 30
0.0
  0
VERTEX
  8
0
  6
CONTINUOUS
 62
    80
  5
688
 10
181.002591
 20
-72.714281
 30
0.0
  0
VERTEX
  8
0
  6
CONTINUOUS
 62
    80
  5
689
 10
181.135898
 20
-72.696824
 30
0.0
  0
VERTEX
  8
0
  6
CONTINUOUS
 62
    80
  5
68A
 10
181.269129
 20
-72.67885
 30
0.0
  0
VERTEX
  8
0
  6
CONTINUOUS
 62
    80
  5
68B
 10
181.402283
 20
-72.660354
 30
0.0
  0
VERTEX
  8
0
  6
CONTINUOUS
 62
    80
  5
68C
 10
181.535355
 20
-72.641333
 30
0.0
  0
VERTEX
  8
0
  6
CONTINUOUS
 62
    80
  5
68D
 10
181.668345
 20
-72.621781
 30
0.0
  0
VERTEX
  8
0
  6
CONTINUOUS
 62
    80
  5
68E
 10
181.801249
 20
-72.601696
 30
0.0
  0
VERTEX
  8
0
  6
CONTINUOUS
 62
    80
  5
68F
 10
181.934065
 20
-72.581072
 30
0.0
  0
VERTEX
  8
0
  6
CONTINUOUS
 62
    80
  5
690
 10
182.066789
 20
-72.559905
 30
0.0
  0
VERTEX
  8
0
  6
CONTINUOUS
 62
    80
  5
691
 10
182.199421
 20
-72.53819
 30
0.0
  0
VERTEX
  8
0
  6
CONTINUOUS
 62
    80
  5
692
 10
182.324798
 20
-72.517143
 30
0.0
  0
VERTEX
  8
0
  6
CONTINUOUS
 62
    80
  5
693
 10
182.450097
 20
-72.495605
 30
0.0
  0
VERTEX
  8
0
  6
CONTINUOUS
 62
    80
  5
694
 10
182.575314
 20
-72.473576
 30
0.0
  0
VERTEX
  8
0
  6
CONTINUOUS
 62
    80
  5
695
 10
182.700448
 20
-72.451059
 30
0.0
  0
VERTEX
  8
0
  6
CONTINUOUS
 62
    80
  5
696
 10
182.825496
 20
-72.428056
 30
0.0
  0
VERTEX
  8
0
  6
CONTINUOUS
 62
    80
  5
697
 10
182.950457
 20
-72.404568
 30
0.0
  0
VERTEX
  8
0
  6
CONTINUOUS
 62
    80
  5
698
 10
183.075328
 20
-72.380598
 30
0.0
  0
VERTEX
  8
0
  6
CONTINUOUS
 62
    80
  5
699
 10
183.200107
 20
-72.356146
 30
0.0
  0
VERTEX
  8
0
  6
CONTINUOUS
 62
    80
  5
69A
 10
183.324793
 20
-72.331216
 30
0.0
  0
VERTEX
  8
0
  6
CONTINUOUS
 62
    80
  5
69B
 10
183.449383
 20
-72.305808
 30
0.0
  0
VERTEX
  8
0
  6
CONTINUOUS
 62
    80
  5
69C
 10
183.573874
 20
-72.279925
 30
0.0
  0
VERTEX
  8
0
  6
CONTINUOUS
 62
    80
  5
69D
 10
183.698266
 20
-72.253568
 30
0.0
  0
VERTEX
  8
0
  6
CONTINUOUS
 62
    80
  5
69E
 10
183.822555
 20
-72.226739
 30
0.0
  0
VERTEX
  8
0
  6
CONTINUOUS
 62
    80
  5
69F
 10
183.946741
 20
-72.19944
 30
0.0
  0
VERTEX
  8
0
  6
CONTINUOUS
 62
    80
  5
6A0
 10
184.070819
 20
-72.171673
 30
0.0
  0
VERTEX
  8
0
  6
CONTINUOUS
 62
    80
  5
6A1
 10
184.19479
 20
-72.14344
 30
0.0
  0
SEQEND
  8
0
  6
CONTINUOUS
 62
    80
  5
6A2
  0
POLYLINE
  8
0
  6
CONTINUOUS
 62
    80
  5
3A
 66
     1
 10
0.0
 20
0.0
 30
0.0
  0
VERTEX
  8
0
  6
CONTINUOUS
 62
    80
  5
6A3
 10
178.228638
 20
-73.142944
 30
0.0
  0
VERTEX
  8
0
  6
CONTINUOUS
 62
    80
  5
6A4
 10
178.344892
 20
-73.136819
 30
0.0
  0
VERTEX
  8
0
  6
CONTINUOUS
 62
    80
  5
6A5
 10
178.461127
 20
-73.130313
 30
0.0
  0
VERTEX
  8
0
  6
CONTINUOUS
 62
    80
  5
6A6
 10
178.577341
 20
-73.123427
 30
0.0
  0
VERTEX
  8
0
  6
CONTINUOUS
 62
    80
  5
6A7
 10
178.693535
 20
-73.116163
 30
0.0
  0
VERTEX
  8
0
  6
CONTINUOUS
 62
    80
  5
6A8
 10
178.809706
 20
-73.108522
 30
0.0
  0
VERTEX
  8
0
  6
CONTINUOUS
 62
    80
  5
6A9
 10
178.925853
 20
-73.100505
 30
0.0
  0
VERTEX
  8
0
  6
CONTINUOUS
 62
    80
  5
6AA
 10
179.041975
 20
-73.092114
 30
0.0
  0
VERTEX
  8
0
  6
CONTINUOUS
 62
    80
  5
6AB
 10
179.158071
 20
-73.083351
 30
0.0
  0
VERTEX
  8
0
  6
CONTINUOUS
 62
    80
  5
6AC
 10
179.274139
 20
-73.074216
 30
0.0
  0
VERTEX
  8
0
  6
CONTINUOUS
 62
    80
  5
6AD
 10
179.39018
 20
-73.064712
 30
0.0
  0
VERTEX
  8
0
  6
CONTINUOUS
 62
    80
  5
6AE
 10
179.50619
 20
-73.054839
 30
0.0
  0
VERTEX
  8
0
  6
CONTINUOUS
 62
    80
  5
6AF
 10
179.622169
 20
-73.044599
 30
0.0
  0
VERTEX
  8
0
  6
CONTINUOUS
 62
    80
  5
6B0
 10
179.738117
 20
-73.033994
 30
0.0
  0
VERTEX
  8
0
  6
CONTINUOUS
 62
    80
  5
6B1
 10
179.854031
 20
-73.023025
 30
0.0
  0
VERTEX
  8
0
  6
CONTINUOUS
 62
    80
  5
6B2
 10
179.96991
 20
-73.011693
 30
0.0
  0
VERTEX
  8
0
  6
CONTINUOUS
 62
    80
  5
6B3
 10
180.085754
 20
-73.0
 30
0.0
  0
VERTEX
  8
0
  6
CONTINUOUS
 62
    80
  5
6B4
 10
180.220162
 20
-72.985976
 30
0.0
  0
VERTEX
  8
0
  6
CONTINUOUS
 62
    80
  5
6B5
 10
180.354519
 20
-72.971462
 30
0.0
  0
VERTEX
  8
0
  6
CONTINUOUS
 62
    80
  5
6B6
 10
180.488821
 20
-72.956453
 30
0.0
  0
VERTEX
  8
0
  6
CONTINUOUS
 62
    80
  5
6B7
 10
180.623066
 20
-72.940945
 30
0.0
  0
VERTEX
  8
0
  6
CONTINUOUS
 62
    80
  5
6B8
 10
180.757252
 20
-72.924934
 30
0.0
  0
VERTEX
  8
0
  6
CONTINUOUS
 62
    80
  5
6B9
 10
180.891376
 20
-72.908416
 30
0.0
  0
VERTEX
  8
0
  6
CONTINUOUS
 62
    80
  5
6BA
 10
181.025435
 20
-72.891385
 30
0.0
  0
VERTEX
  8
0
  6
CONTINUOUS
 62
    80
  5
6BB
 10
181.159427
 20
-72.873838
 30
0.0
  0
VERTEX
  8
0
  6
CONTINUOUS
 62
    80
  5
6BC
 10
181.29335
 20
-72.855771
 30
0.0
  0
VERTEX
  8
0
  6
CONTINUOUS
 62
    80
  5
6BD
 10
181.4272
 20
-72.837179
 30
0.0
  0
VERTEX
  8
0
  6
CONTINUOUS
 62
    80
  5
6BE
 10
181.560975
 20
-72.818057
 30
0.0
  0
VERTEX
  8
0
  6
CONTINUOUS
 62
    80
  5
6BF
 10
181.694673
 20
-72.798401
 30
0.0
  0
VERTEX
  8
0
  6
CONTINUOUS
 62
    80
  5
6C0
 10
181.828291
 20
-72.778208
 30
0.0
  0
VERTEX
  8
0
  6
CONTINUOUS
 62
    80
  5
6C1
 10
181.961826
 20
-72.757472
 30
0.0
  0
VERTEX
  8
0
  6
CONTINUOUS
 62
    80
  5
6C2
 10
182.095276
 20
-72.736189
 30
0.0
  0
VERTEX
  8
0
  6
CONTINUOUS
 62
    80
  5
6C3
 10
182.228638
 20
-72.714355
 30
0.0
  0
VERTEX
  8
0
  6
CONTINUOUS
 62
    80
  5
6C4
 10
182.363357
 20
-72.691722
 30
0.0
  0
VERTEX
  8
0
  6
CONTINUOUS
 62
    80
  5
6C5
 10
182.497984
 20
-72.668524
 30
0.0
  0
VERTEX
  8
0
  6
CONTINUOUS
 62
    80
  5
6C6
 10
182.632514
 20
-72.644764
 30
0.0
  0
VERTEX
  8
0
  6
CONTINUOUS
 62
    80
  5
6C7
 10
182.766946
 20
-72.620444
 30
0.0
  0
VERTEX
  8
0
  6
CONTINUOUS
 62
    80
  5
6C8
 10
182.901277
 20
-72.595567
 30
0.0
  0
VERTEX
  8
0
  6
CONTINUOUS
 62
    80
  5
6C9
 10
183.035504
 20
-72.570135
 30
0.0
  0
VERTEX
  8
0
  6
CONTINUOUS
 62
    80
  5
6CA
 10
183.169625
 20
-72.544149
 30
0.0
  0
VERTEX
  8
0
  6
CONTINUOUS
 62
    80
  5
6CB
 10
183.303638
 20
-72.517613
 30
0.0
  0
VERTEX
  8
0
  6
CONTINUOUS
 62
    80
  5
6CC
 10
183.437539
 20
-72.490529
 30
0.0
  0
VERTEX
  8
0
  6
CONTINUOUS
 62
    80
  5
6CD
 10
183.571326
 20
-72.462898
 30
0.0
  0
VERTEX
  8
0
  6
CONTINUOUS
 62
    80
  5
6CE
 10
183.704997
 20
-72.434723
 30
0.0
  0
VERTEX
  8
0
  6
CONTINUOUS
 62
    80
  5
6CF
 10
183.83855
 20
-72.406007
 30
0.0
  0
VERTEX
  8
0
  6
CONTINUOUS
 62
    80
  5
6D0
 10
183.971981
 20
-72.37675
 30
0.0
  0
VERTEX
  8
0
  6
CONTINUOUS
 62
    80
  5
6D1
 10
184.105288
 20
-72.346957
 30
0.0
  0
VERTEX
  8
0
  6
CONTINUOUS
 62
    80
  5
6D2
 10
184.238469
 20
-72.316628
 30
0.0
  0
VERTEX
  8
0
  6
CONTINUOUS
 62
    80
  5
6D3
 10
184.371521
 20
-72.285767
 30
0.0
  0
SEQEND
  8
0
  6
CONTINUOUS
 62
    80
  5
6D4
  0
POLYLINE
  8
0
  6
CONTINUOUS
 62
    80
  5
3B
 66
     1
 10
0.0
 20
0.0
 30
0.0
  0
VERTEX
  8
0
  6
CONTINUOUS
 62
    80
  5
6D5
 10
180.264279
 20
-71.881956
 30
0.0
  0
VERTEX
  8
0
  6
CONTINUOUS
 62
    80
  5
6D6
 10
180.25384
 20
-71.882605
 30
0.0
  0
VERTEX
  8
0
  6
CONTINUOUS
 62
    80
  5
6D7
 10
180.243402
 20
-71.883255
 30
0.0
  0
VERTEX
  8
0
  6
CONTINUOUS
 62
    80
  5
6D8
 10
180.232964
 20
-71.883907
 30
0.0
  0
VERTEX
  8
0
  6
CONTINUOUS
 62
    80
  5
6D9
 10
180.222527
 20
-71.88456
 30
0.0
  0
VERTEX
  8
0
  6
CONTINUOUS
 62
    80
  5
6DA
 10
180.212091
 20
-71.885215
 30
0.0
  0
VERTEX
  8
0
  6
CONTINUOUS
 62
    80
  5
6DB
 10
180.201656
 20
-71.885873
 30
0.0
  0
VERTEX
  8
0
  6
CONTINUOUS
 62
    80
  5
6DC
 10
180.191221
 20
-71.886531
 30
0.0
  0
VERTEX
  8
0
  6
CONTINUOUS
 62
    80
  5
6DD
 10
180.180787
 20
-71.887192
 30
0.0
  0
VERTEX
  8
0
  6
CONTINUOUS
 62
    80
  5
6DE
 10
180.170354
 20
-71.887855
 30
0.0
  0
VERTEX
  8
0
  6
CONTINUOUS
 62
    80
  5
6DF
 10
180.159922
 20
-71.88852
 30
0.0
  0
VERTEX
  8
0
  6
CONTINUOUS
 62
    80
  5
6E0
 10
180.14949
 20
-71.889186
 30
0.0
  0
VERTEX
  8
0
  6
CONTINUOUS
 62
    80
  5
6E1
 10
180.139059
 20
-71.889855
 30
0.0
  0
VERTEX
  8
0
  6
CONTINUOUS
 62
    80
  5
6E2
 10
180.128629
 20
-71.890526
 30
0.0
  0
VERTEX
  8
0
  6
CONTINUOUS
 62
    80
  5
6E3
 10
180.1182
 20
-71.891199
 30
0.0
  0
VERTEX
  8
0
  6
CONTINUOUS
 62
    80
  5
6E4
 10
180.107771
 20
-71.891873
 30
0.0
  0
VERTEX
  8
0
  6
CONTINUOUS
 62
    80
  5
6E5
 10
180.097343
 20
-71.89255
 30
0.0
  0
VERTEX
  8
0
  6
CONTINUOUS
 62
    80
  5
6E6
 10
179.991763
 20
-71.899528
 30
0.0
  0
VERTEX
  8
0
  6
CONTINUOUS
 62
    80
  5
6E7
 10
179.886176
 20
-71.90672
 30
0.0
  0
VERTEX
  8
0
  6
CONTINUOUS
 62
    80
  5
6E8
 10
179.780581
 20
-71.914112
 30
0.0
  0
VERTEX
  8
0
  6
CONTINUOUS
 62
    80
  5
6E9
 10
179.674975
 20
-71.921688
 30
0.0
  0
VERTEX
  8
0
  6
CONTINUOUS
 62
    80
  5
6EA
 10
179.569359
 20
-71.929436
 30
0.0
  0
VERTEX
  8
0
  6
CONTINUOUS
 62
    80
  5
6EB
 10
179.46373
 20
-71.93734
 30
0.0
  0
VERTEX
  8
0
  6
CONTINUOUS
 62
    80
  5
6EC
 10
179.358089
 20
-71.945385
 30
0.0
  0
VERTEX
  8
0
  6
CONTINUOUS
 62
    80
  5
6ED
 10
179.252432
 20
-71.953558
 30
0.0
  0
VERTEX
  8
0
  6
CONTINUOUS
 62
    80
  5
6EE
 10
179.14676
 20
-71.961844
 30
0.0
  0
VERTEX
  8
0
  6
CONTINUOUS
 62
    80
  5
6EF
 10
179.041071
 20
-71.970228
 30
0.0
  0
VERTEX
  8
0
  6
CONTINUOUS
 62
    80
  5
6F0
 10
178.935364
 20
-71.978696
 30
0.0
  0
VERTEX
  8
0
  6
CONTINUOUS
 62
    80
  5
6F1
 10
178.829638
 20
-71.987234
 30
0.0
  0
VERTEX
  8
0
  6
CONTINUOUS
 62
    80
  5
6F2
 10
178.723891
 20
-71.995827
 30
0.0
  0
VERTEX
  8
0
  6
CONTINUOUS
 62
    80
  5
6F3
 10
178.618123
 20
-72.00446
 30
0.0
  0
VERTEX
  8
0
  6
CONTINUOUS
 62
    80
  5
6F4
 10
178.512331
 20
-72.013118
 30
0.0
  0
VERTEX
  8
0
  6
CONTINUOUS
 62
    80
  5
6F5
 10
178.406516
 20
-72.021789
 30
0.0
  0
SEQEND
  8
0
  6
CONTINUOUS
 62
    80
  5
6F6
  0
POLYLINE
  8
0
  6
CONTINUOUS
 62
    80
  5
3C
 66
     1
 10
0.0
 20
0.0
 30
0.0
  0
VERTEX
  8
0
  6
CONTINUOUS
 62
    80
  5
6F7
 10
180.085754
 20
-71.714355
 30
0.0
  0
VERTEX
  8
0
  6
CONTINUOUS
 62
    80
  5
6F8
 10
179.969586
 20
-71.722045
 30
0.0
  0
VERTEX
  8
0
  6
CONTINUOUS
 62
    80
  5
6F9
 10
179.853438
 20
-71.729988
 30
0.0
  0
VERTEX
  8
0
  6
CONTINUOUS
 62
    80
  5
6FA
 10
179.737309
 20
-71.738168
 30
0.0
  0
VERTEX
  8
0
  6
CONTINUOUS
 62
    80
  5
6FB
 10
179.621197
 20
-71.746563
 30
0.0
  0
VERTEX
  8
0
  6
CONTINUOUS
 62
    80
  5
6FC
 10
179.505102
 20
-71.755155
 30
0.0
  0
VERTEX
  8
0
  6
CONTINUOUS
 62
    80
  5
6FD
 10
179.38902
 20
-71.763925
 30
0.0
  0
VERTEX
  8
0
  6
CONTINUOUS
 62
    80
  5
6FE
 10
179.272951
 20
-71.772853
 30
0.0
  0
VERTEX
  8
0
  6
CONTINUOUS
 62
    80
  5
6FF
 10
179.156893
 20
-71.781921
 30
0.0
  0
VERTEX
  8
0
  6
CONTINUOUS
 62
    80
  5
700
 10
179.040845
 20
-71.791109
 30
0.0
  0
VERTEX
  8
0
  6
CONTINUOUS
 62
    80
  5
701
 10
178.924804
 20
-71.800398
 30
0.0
  0
VERTEX
  8
0
  6
CONTINUOUS
 62
    80
  5
702
 10
178.80877
 20
-71.809768
 30
0.0
  0
VERTEX
  8
0
  6
CONTINUOUS
 62
    80
  5
703
 10
178.69274
 20
-71.819202
 30
0.0
  0
VERTEX
  8
0
  6
CONTINUOUS
 62
    80
  5
704
 10
178.576714
 20
-71.828679
 30
0.0
  0
VERTEX
  8
0
  6
CONTINUOUS
 62
    80
  5
705
 10
178.460689
 20
-71.83818
 30
0.0
  0
VERTEX
  8
0
  6
CONTINUOUS
 62
    80
  5
706
 10
178.344664
 20
-71.847686
 30
0.0
  0
VERTEX
  8
0
  6
CONTINUOUS
 62
    80
  5
707
 10
178.228638
 20
-71.857178
 30
0.0
  0
SEQEND
  8
0
  6
CONTINUOUS
 62
    80
  5
708
  0
POLYLINE
  8
0
  6
CONTINUOUS
 62
    80
  5
3D
 66
     1
 10
0.0
 20
0.0
 30
0.0
  0
VERTEX
  8
0
  6
CONTINUOUS
 62
    80
  5
709
 10
184.192642
 20
-71.496168
 30
0.0
  0
VERTEX
  8
0
  6
CONTINUOUS
 62
    80
  5
70A
 10
184.071611
 20
-71.515563
 30
0.0
  0
VERTEX
  8
0
  6
CONTINUOUS
 62
    80
  5
70B
 10
183.950483
 20
-71.534571
 30
0.0
  0
VERTEX
  8
0
  6
CONTINUOUS
 62
    80
  5
70C
 10
183.829259
 20
-71.553172
 30
0.0
  0
VERTEX
  8
0
  6
CONTINUOUS
 62
    80
  5
70D
 10
183.707938
 20
-71.571349
 30
0.0
  0
VERTEX
  8
0
  6
CONTINUOUS
 62
    80
  5
70E
 10
183.586522
 20
-71.589081
 30
0.0
  0
VERTEX
  8
0
  6
CONTINUOUS
 62
    80
  5
70F
 10
183.465013
 20
-71.60635
 30
0.0
  0
VERTEX
  8
0
  6
CONTINUOUS
 62
    80
  5
710
 10
183.343411
 20
-71.623136
 30
0.0
  0
VERTEX
  8
0
  6
CONTINUOUS
 62
    80
  5
711
 10
183.221717
 20
-71.639421
 30
0.0
  0
VERTEX
  8
0
  6
CONTINUOUS
 62
    80
  5
712
 10
183.099932
 20
-71.655186
 30
0.0
  0
VERTEX
  8
0
  6
CONTINUOUS
 62
    80
  5
713
 10
182.978057
 20
-71.670411
 30
0.0
  0
VERTEX
  8
0
  6
CONTINUOUS
 62
    80
  5
714
 10
182.856094
 20
-71.685077
 30
0.0
  0
VERTEX
  8
0
  6
CONTINUOUS
 62
    80
  5
715
 10
182.734042
 20
-71.699165
 30
0.0
  0
VERTEX
  8
0
  6
CONTINUOUS
 62
    80
  5
716
 10
182.611904
 20
-71.712656
 30
0.0
  0
VERTEX
  8
0
  6
CONTINUOUS
 62
    80
  5
717
 10
182.48968
 20
-71.725531
 30
0.0
  0
VERTEX
  8
0
  6
CONTINUOUS
 62
    80
  5
718
 10
182.367371
 20
-71.73777
 30
0.0
  0
VERTEX
  8
0
  6
CONTINUOUS
 62
    80
  5
719
 10
182.244979
 20
-71.749355
 30
0.0
  0
VERTEX
  8
0
  6
CONTINUOUS
 62
    80
  5
71A
 10
182.232699
 20
-71.75048
 30
0.0
  0
VERTEX
  8
0
  6
CONTINUOUS
 62
    80
  5
71B
 10
182.22042
 20
-71.751599
 30
0.0
  0
VERTEX
  8
0
  6
CONTINUOUS
 62
    80
  5
71C
 10
182.208141
 20
-71.75271
 30
0.0
  0
VERTEX
  8
0
  6
CONTINUOUS
 62
    80
  5
71D
 10
182.195862
 20
-71.753815
 30
0.0
  0
VERTEX
  8
0
  6
CONTINUOUS
 62
    80
  5
71E
 10
182.183583
 20
-71.754913
 30
0.0
  0
VERTEX
  8
0
  6
CONTINUOUS
 62
    80
  5
71F
 10
182.171305
 20
-71.756004
 30
0.0
  0
VERTEX
  8
0
  6
CONTINUOUS
 62
    80
  5
720
 10
182.159027
 20
-71.757089
 30
0.0
  0
VERTEX
  8
0
  6
CONTINUOUS
 62
    80
  5
721
 10
182.146749
 20
-71.758168
 30
0.0
  0
VERTEX
  8
0
  6
CONTINUOUS
 62
    80
  5
722
 10
182.134471
 20
-71.75924
 30
0.0
  0
VERTEX
  8
0
  6
CONTINUOUS
 62
    80
  5
723
 10
182.122194
 20
-71.760306
 30
0.0
  0
VERTEX
  8
0
  6
CONTINUOUS
 62
    80
  5
724
 10
182.109917
 20
-71.761365
 30
0.0
  0
VERTEX
  8
0
  6
CONTINUOUS
 62
    80
  5
725
 10
182.09764
 20
-71.762418
 30
0.0
  0
VERTEX
  8
0
  6
CONTINUOUS
 62
    80
  5
726
 10
182.085364
 20
-71.763465
 30
0.0
  0
VERTEX
  8
0
  6
CONTINUOUS
 62
    80
  5
727
 10
182.073088
 20
-71.764506
 30
0.0
  0
VERTEX
  8
0
  6
CONTINUOUS
 62
    80
  5
728
 10
182.060812
 20
-71.765541
 30
0.0
  0
VERTEX
  8
0
  6
CONTINUOUS
 62
    80
  5
729
 10
182.048537
 20
-71.76657
 30
0.0
  0
SEQEND
  8
0
  6
CONTINUOUS
 62
    80
  5
72A
  0
POLYLINE
  8
0
  6
CONTINUOUS
 62
    80
  5
3E
 66
     1
 10
0.0
 20
0.0
 30
0.0
  0
VERTEX
  8
0
  6
CONTINUOUS
 62
    80
  5
72B
 10
184.371521
 20
-71.285767
 30
0.0
  0
VERTEX
  8
0
  6
CONTINUOUS
 62
    80
  5
72C
 10
184.23821
 20
-71.307825
 30
0.0
  0
VERTEX
  8
0
  6
CONTINUOUS
 62
    80
  5
72D
 10
184.10481
 20
-71.329442
 30
0.0
  0
VERTEX
  8
0
  6
CONTINUOUS
 62
    80
  5
72E
 10
183.971321
 20
-71.350593
 30
0.0
  0
VERTEX
  8
0
  6
CONTINUOUS
 62
    80
  5
72F
 10
183.837746
 20
-71.371253
 30
0.0
  0
VERTEX
  8
0
  6
CONTINUOUS
 62
    80
  5
730
 10
183.704087
 20
-71.391395
 30
0.0
  0
VERTEX
  8
0
  6
CONTINUOUS
 62
    80
  5
731
 10
183.570343
 20
-71.410995
 30
0.0
  0
VERTEX
  8
0
  6
CONTINUOUS
 62
    80
  5
732
 10
183.436518
 20
-71.430026
 30
0.0
  0
VERTEX
  8
0
  6
CONTINUOUS
 62
    80
  5
733
 10
183.302612
 20
-71.448464
 30
0.0
  0
VERTEX
  8
0
  6
CONTINUOUS
 62
    80
  5
734
 10
183.168627
 20
-71.466282
 30
0.0
  0
VERTEX
  8
0
  6
CONTINUOUS
 62
    80
  5
735
 10
183.034564
 20
-71.483456
 30
0.0
  0
VERTEX
  8
0
  6
CONTINUOUS
 62
    80
  5
736
 10
182.900425
 20
-71.49996
 30
0.0
  0
VERTEX
  8
0
  6
CONTINUOUS
 62
    80
  5
737
 10
182.766211
 20
-71.515768
 30
0.0
  0
VERTEX
  8
0
  6
CONTINUOUS
 62
    80
  5
738
 10
182.631924
 20
-71.530855
 30
0.0
  0
VERTEX
  8
0
  6
CONTINUOUS
 62
    80
  5
739
 10
182.497565
 20
-71.545195
 30
0.0
  0
VERTEX
  8
0
  6
CONTINUOUS
 62
    80
  5
73A
 10
182.363136
 20
-71.558763
 30
0.0
  0
VERTEX
  8
0
  6
CONTINUOUS
 62
    80
  5
73B
 10
182.228638
 20
-71.571533
 30
0.0
  0
SEQEND
  8
0
  6
CONTINUOUS
 62
    80
  5
73C
  0
POLYLINE
  8
0
  6
CONTINUOUS
 62
    80
  5
3F
 66
     1
 10
0.0
 20
0.0
 30
0.0
  0
VERTEX
  8
0
  6
CONTINUOUS
 62
    80
  5
73D
 10
185.353946
 20
-67.821612
 30
0.0
  0
VERTEX
  8
0
  6
CONTINUOUS
 62
    80
  5
73E
 10
185.356578
 20
-67.828938
 30
0.0
  0
VERTEX
  8
0
  6
CONTINUOUS
 62
    80
  5
73F
 10
185.359212
 20
-67.836262
 30
0.0
  0
VERTEX
  8
0
  6
CONTINUOUS
 62
    80
  5
740
 10
185.361848
 20
-67.843586
 30
0.0
  0
VERTEX
  8
0
  6
CONTINUOUS
 62
    80
  5
741
 10
185.364488
 20
-67.850908
 30
0.0
  0
VERTEX
  8
0
  6
CONTINUOUS
 62
    80
  5
742
 10
185.367129
 20
-67.85823
 30
0.0
  0
VERTEX
  8
0
  6
CONTINUOUS
 62
    80
  5
743
 10
185.369774
 20
-67.865551
 30
0.0
  0
VERTEX
  8
0
  6
CONTINUOUS
 62
    80
  5
744
 10
185.372421
 20
-67.87287
 30
0.0
  0
VERTEX
  8
0
  6
CONTINUOUS
 62
    80
  5
745
 10
185.37507
 20
-67.880189
 30
0.0
  0
VERTEX
  8
0
  6
CONTINUOUS
 62
    80
  5
746
 10
185.377722
 20
-67.887507
 30
0.0
  0
VERTEX
  8
0
  6
CONTINUOUS
 62
    80
  5
747
 10
185.380377
 20
-67.894824
 30
0.0
  0
VERTEX
  8
0
  6
CONTINUOUS
 62
    80
  5
748
 10
185.383034
 20
-67.90214
 30
0.0
  0
VERTEX
  8
0
  6
CONTINUOUS
 62
    80
  5
749
 10
185.385694
 20
-67.909455
 30
0.0
  0
VERTEX
  8
0
  6
CONTINUOUS
 62
    80
  5
74A
 10
185.388357
 20
-67.91677
 30
0.0
  0
VERTEX
  8
0
  6
CONTINUOUS
 62
    80
  5
74B
 10
185.391022
 20
-67.924083
 30
0.0
  0
VERTEX
  8
0
  6
CONTINUOUS
 62
    80
  5
74C
 10
185.39369
 20
-67.931395
 30
0.0
  0
VERTEX
  8
0
  6
CONTINUOUS
 62
    80
  5
74D
 10
185.39636
 20
-67.938707
 30
0.0
  0
VERTEX
  8
0
  6
CONTINUOUS
 62
    80
  5
74E
 10
185.505264
 20
-68.230213
 30
0.0
  0
VERTEX
  8
0
  6
CONTINUOUS
 62
    80
  5
74F
 10
185.618376
 20
-68.520294
 30
0.0
  0
VERTEX
  8
0
  6
CONTINUOUS
 62
    80
  5
750
 10
185.73564
 20
-68.808886
 30
0.0
  0
VERTEX
  8
0
  6
CONTINUOUS
 62
    80
  5
751
 10
185.857002
 20
-69.095919
 30
0.0
  0
VERTEX
  8
0
  6
CONTINUOUS
 62
    80
  5
752
 10
185.982407
 20
-69.381329
 30
0.0
  0
VERTEX
  8
0
  6
CONTINUOUS
 62
    80
  5
753
 10
186.111798
 20
-69.665048
 30
0.0
  0
VERTEX
  8
0
  6
CONTINUOUS
 62
    80
  5
754
 10
186.24512
 20
-69.947009
 30
0.0
  0
VERTEX
  8
0
  6
CONTINUOUS
 62
    80
  5
755
 10
186.382319
 20
-70.227146
 30
0.0
  0
VERTEX
  8
0
  6
CONTINUOUS
 62
    80
  5
756
 10
186.523339
 20
-70.505392
 30
0.0
  0
VERTEX
  8
0
  6
CONTINUOUS
 62
    80
  5
757
 10
186.668124
 20
-70.78168
 30
0.0
  0
VERTEX
  8
0
  6
CONTINUOUS
 62
    80
  5
758
 10
186.816618
 20
-71.055944
 30
0.0
  0
VERTEX
  8
0
  6
CONTINUOUS
 62
    80
  5
759
 10
186.968767
 20
-71.328118
 30
0.0
  0
VERTEX
  8
0
  6
CONTINUOUS
 62
    80
  5
75A
 10
187.124513
 20
-71.598133
 30
0.0
  0
VERTEX
  8
0
  6
CONTINUOUS
 62
    80
  5
75B
 10
187.283802
 20
-71.865925
 30
0.0
  0
VERTEX
  8
0
  6
CONTINUOUS
 62
    80
  5
75C
 10
187.446578
 20
-72.131425
 30
0.0
  0
VERTEX
  8
0
  6
CONTINUOUS
 62
    80
  5
75D
 10
187.612785
 20
-72.394568
 30
0.0
  0
SEQEND
  8
0
  6
CONTINUOUS
 62
    80
  5
75E
  0
POLYLINE
  8
0
  6
CONTINUOUS
 62
    80
  5
40
 66
     1
 10
0.0
 20
0.0
 30
0.0
  0
VERTEX
  8
0
  6
CONTINUOUS
 62
    80
  5
75F
 10
185.228638
 20
-68.0
 30
0.0
  0
VERTEX
  8
0
  6
CONTINUOUS
 62
    80
  5
760
 10
185.340576
 20
-68.299504
 30
0.0
  0
VERTEX
  8
0
  6
CONTINUOUS
 62
    80
  5
761
 10
185.456912
 20
-68.597495
 30
0.0
  0
VERTEX
  8
0
  6
CONTINUOUS
 62
    80
  5
762
 10
185.577586
 20
-68.893905
 30
0.0
  0
VERTEX
  8
0
  6
CONTINUOUS
 62
    80
  5
763
 10
185.70254
 20
-69.188663
 30
0.0
  0
VERTEX
  8
0
  6
CONTINUOUS
 62
    80
  5
764
 10
185.831714
 20
-69.4817
 30
0.0
  0
VERTEX
  8
0
  6
CONTINUOUS
 62
    80
  5
765
 10
185.96505
 20
-69.772946
 30
0.0
  0
VERTEX
  8
0
  6
CONTINUOUS
 62
    80
  5
766
 10
186.102489
 20
-70.062331
 30
0.0
  0
VERTEX
  8
0
  6
CONTINUOUS
 62
    80
  5
767
 10
186.243972
 20
-70.349785
 30
0.0
  0
VERTEX
  8
0
  6
CONTINUOUS
 62
    80
  5
768
 10
186.38944
 20
-70.635239
 30
0.0
  0
VERTEX
  8
0
  6
CONTINUOUS
 62
    80
  5
769
 10
186.538833
 20
-70.918622
 30
0.0
  0
VERTEX
  8
0
  6
CONTINUOUS
 62
    80
  5
76A
 10
186.692094
 20
-71.199865
 30
0.0
  0
VERTEX
  8
0
  6
CONTINUOUS
 62
    80
  5
76B
 10
186.849163
 20
-71.478897
 30
0.0
  0
VERTEX
  8
0
  6
CONTINUOUS
 62
    80
  5
76C
 10
187.009982
 20
-71.755651
 30
0.0
  0
VERTEX
  8
0
  6
CONTINUOUS
 62
    80
  5
76D
 10
187.17449
 20
-72.030054
 30
0.0
  0
VERTEX
  8
0
  6
CONTINUOUS
 62
    80
  5
76E
 10
187.342631
 20
-72.302038
 30
0.0
  0
VERTEX
  8
0
  6
CONTINUOUS
 62
    80
  5
76F
 10
187.514343
 20
-72.571533
 30
0.0
  0
SEQEND
  8
0
  6
CONTINUOUS
 62
    80
  5
770
  0
POLYLINE
  8
0
  6
CONTINUOUS
 62
    80
  5
41
 66
     1
 10
0.0
 20
0.0
 30
0.0
  0
VERTEX
  8
0
  6
CONTINUOUS
 62
    80
  5
771
 10
187.115429
 20
-67.821547
 30
0.0
  0
VERTEX
  8
0
  6
CONTINUOUS
 62
    80
  5
772
 10
187.123127
 20
-67.837657
 30
0.0
  0
VERTEX
  8
0
  6
CONTINUOUS
 62
    80
  5
773
 10
187.130836
 20
-67.853759
 30
0.0
  0
VERTEX
  8
0
  6
CONTINUOUS
 62
    80
  5
774
 10
187.138555
 20
-67.869853
 30
0.0
  0
VERTEX
  8
0
  6
CONTINUOUS
 62
    80
  5
775
 10
187.146283
 20
-67.88594
 30
0.0
  0
VERTEX
  8
0
  6
CONTINUOUS
 62
    80
  5
776
 10
187.154021
 20
-67.902019
 30
0.0
  0
VERTEX
  8
0
  6
CONTINUOUS
 62
    80
  5
777
 10
187.161767
 20
-67.91809
 30
0.0
  0
VERTEX
  8
0
  6
CONTINUOUS
 62
    80
  5
778
 10
187.169523
 20
-67.934154
 30
0.0
  0
VERTEX
  8
0
  6
CONTINUOUS
 62
    80
  5
779
 10
187.177286
 20
-67.950211
 30
0.0
  0
VERTEX
  8
0
  6
CONTINUOUS
 62
    80
  5
77A
 10
187.185057
 20
-67.966261
 30
0.0
  0
VERTEX
  8
0
  6
CONTINUOUS
 62
    80
  5
77B
 10
187.192837
 20
-67.982305
 30
0.0
  0
VERTEX
  8
0
  6
CONTINUOUS
 62
    80
  5
77C
 10
187.200623
 20
-67.998341
 30
0.0
  0
VERTEX
  8
0
  6
CONTINUOUS
 62
    80
  5
77D
 10
187.208417
 20
-68.01437
 30
0.0
  0
VERTEX
  8
0
  6
CONTINUOUS
 62
    80
  5
77E
 10
187.216217
 20
-68.030393
 30
0.0
  0
VERTEX
  8
0
  6
CONTINUOUS
 62
    80
  5
77F
 10
187.224024
 20
-68.04641
 30
0.0
  0
VERTEX
  8
0
  6
CONTINUOUS
 62
    80
  5
780
 10
187.231837
 20
-68.06242
 30
0.0
  0
VERTEX
  8
0
  6
CONTINUOUS
 62
    80
  5
781
 10
187.239656
 20
-68.078424
 30
0.0
  0
VERTEX
  8
0
  6
CONTINUOUS
 62
    80
  5
782
 10
187.37768
 20
-68.35805
 30
0.0
  0
VERTEX
  8
0
  6
CONTINUOUS
 62
    80
  5
783
 10
187.51793
 20
-68.63667
 30
0.0
  0
VERTEX
  8
0
  6
CONTINUOUS
 62
    80
  5
784
 10
187.660455
 20
-68.914216
 30
0.0
  0
VERTEX
  8
0
  6
CONTINUOUS
 62
    80
  5
785
 10
187.805303
 20
-69.19062
 30
0.0
  0
VERTEX
  8
0
  6
CONTINUOUS
 62
    80
  5
786
 10
187.952522
 20
-69.465814
 30
0.0
  0
VERTEX
  8
0
  6
CONTINUOUS
 62
    80
  5
787
 10
188.102159
 20
-69.739729
 30
0.0
  0
VERTEX
  8
0
  6
CONTINUOUS
 62
    80
  5
788
 10
188.254264
 20
-70.012298
 30
0.0
  0
VERTEX
  8
0
  6
CONTINUOUS
 62
    80
  5
789
 10
188.408884
 20
-70.283452
 30
0.0
  0
VERTEX
  8
0
  6
CONTINUOUS
 62
    80
  5
78A
 10
188.566067
 20
-70.553122
 30
0.0
  0
VERTEX
  8
0
  6
CONTINUOUS
 62
    80
  5
78B
 10
188.725862
 20
-70.821241
 30
0.0
  0
VERTEX
  8
0
  6
CONTINUOUS
 62
    80
  5
78C
 10
188.888316
 20
-71.08774
 30
0.0
  0
VERTEX
  8
0
  6
CONTINUOUS
 62
    80
  5
78D
 10
189.053479
 20
-71.35255
 30
0.0
  0
VERTEX
  8
0
  6
CONTINUOUS
 62
    80
  5
78E
 10
189.221398
 20
-71.615603
 30
0.0
  0
VERTEX
  8
0
  6
CONTINUOUS
 62
    80
  5
78F
 10
189.392121
 20
-71.87683
 30
0.0
  0
VERTEX
  8
0
  6
CONTINUOUS
 62
    80
  5
790
 10
189.565696
 20
-72.136163
 30
0.0
  0
VERTEX
  8
0
  6
CONTINUOUS
 62
    80
  5
791
 10
189.742173
 20
-72.393532
 30
0.0
  0
SEQEND
  8
0
  6
CONTINUOUS
 62
    80
  5
792
  0
POLYLINE
  8
0
  6
CONTINUOUS
 62
    80
  5
42
 66
     1
 10
0.0
 20
0.0
 30
0.0
  0
VERTEX
  8
0
  6
CONTINUOUS
 62
    80
  5
793
 10
187.400085
 20
-68.0
 30
0.0
  0
VERTEX
  8
0
  6
CONTINUOUS
 62
    80
  5
794
 10
187.547059
 20
-68.297557
 30
0.0
  0
VERTEX
  8
0
  6
CONTINUOUS
 62
    80
  5
795
 10
187.696548
 20
-68.593923
 30
0.0
  0
VERTEX
  8
0
  6
CONTINUOUS
 62
    80
  5
796
 10
187.848611
 20
-68.889014
 30
0.0
  0
VERTEX
  8
0
  6
CONTINUOUS
 62
    80
  5
797
 10
188.003305
 20
-69.182749
 30
0.0
  0
VERTEX
  8
0
  6
CONTINUOUS
 62
    80
  5
798
 10
188.160687
 20
-69.475043
 30
0.0
  0
VERTEX
  8
0
  6
CONTINUOUS
 62
    80
  5
799
 10
188.320815
 20
-69.765815
 30
0.0
  0
VERTEX
  8
0
  6
CONTINUOUS
 62
    80
  5
79A
 10
188.483746
 20
-70.05498
 30
0.0
  0
VERTEX
  8
0
  6
CONTINUOUS
 62
    80
  5
79B
 10
188.649538
 20
-70.342457
 30
0.0
  0
VERTEX
  8
0
  6
CONTINUOUS
 62
    80
  5
79C
 10
188.818248
 20
-70.628163
 30
0.0
  0
VERTEX
  8
0
  6
CONTINUOUS
 62
    80
  5
79D
 10
188.989934
 20
-70.912014
 30
0.0
  0
VERTEX
  8
0
  6
CONTINUOUS
 62
    80
  5
79E
 10
189.164653
 20
-71.193927
 30
0.0
  0
VERTEX
  8
0
  6
CONTINUOUS
 62
    80
  5
79F
 10
189.342462
 20
-71.473821
 30
0.0
  0
VERTEX
  8
0
  6
CONTINUOUS
 62
    80
  5
7A0
 10
189.52342
 20
-71.751611
 30
0.0
  0
VERTEX
  8
0
  6
CONTINUOUS
 62
    80
  5
7A1
 10
189.707583
 20
-72.027215
 30
0.0
  0
VERTEX
  8
0
  6
CONTINUOUS
 62
    80
  5
7A2
 10
189.895008
 20
-72.30055
 30
0.0
  0
VERTEX
  8
0
  6
CONTINUOUS
 62
    80
  5
7A3
 10
190.085754
 20
-72.571533
 30
0.0
  0
SEQEND
  8
0
  6
CONTINUOUS
 62
    80
  5
7A4
  0
POLYLINE
  8
0
  6
CONTINUOUS
 62
    80
  5
43
 66
     1
 10
0.0
 20
0.0
 30
0.0
  0
VERTEX
  8
0
  6
CONTINUOUS
 62
    80
  5
7A5
 10
186.22856
 20
-65.32395
 30
0.0
  0
VERTEX
  8
0
  6
CONTINUOUS
 62
    80
  5
7A6
 10
186.249827
 20
-65.416193
 30
0.0
  0
VERTEX
  8
0
  6
CONTINUOUS
 62
    80
  5
7A7
 10
186.271817
 20
-65.508315
 30
0.0
  0
VERTEX
  8
0
  6
CONTINUOUS
 62
    80
  5
7A8
 10
186.294541
 20
-65.600303
 30
0.0
  0
VERTEX
  8
0
  6
CONTINUOUS
 62
    80
  5
7A9
 10
186.31801
 20
-65.692143
 30
0.0
  0
VERTEX
  8
0
  6
CONTINUOUS
 62
    80
  5
7AA
 10
186.342234
 20
-65.783822
 30
0.0
  0
VERTEX
  8
0
  6
CONTINUOUS
 62
    80
  5
7AB
 10
186.367224
 20
-65.875325
 30
0.0
  0
VERTEX
  8
0
  6
CONTINUOUS
 62
    80
  5
7AC
 10
186.392992
 20
-65.966639
 30
0.0
  0
VERTEX
  8
0
  6
CONTINUOUS
 62
    80
  5
7AD
 10
186.419547
 20
-66.05775
 30
0.0
  0
VERTEX
  8
0
  6
CONTINUOUS
 62
    80
  5
7AE
 10
186.4469
 20
-66.148644
 30
0.0
  0
VERTEX
  8
0
  6
CONTINUOUS
 62
    80
  5
7AF
 10
186.475063
 20
-66.239308
 30
0.0
  0
VERTEX
  8
0
  6
CONTINUOUS
 62
    80
  5
7B0
 10
186.504046
 20
-66.329728
 30
0.0
  0
VERTEX
  8
0
  6
CONTINUOUS
 62
    80
  5
7B1
 10
186.533861
 20
-66.41989
 30
0.0
  0
VERTEX
  8
0
  6
CONTINUOUS
 62
    80
  5
7B2
 10
186.564517
 20
-66.509779
 30
0.0
  0
VERTEX
  8
0
  6
CONTINUOUS
 62
    80
  5
7B3
 10
186.596026
 20
-66.599383
 30
0.0
  0
VERTEX
  8
0
  6
CONTINUOUS
 62
    80
  5
7B4
 10
186.628399
 20
-66.688687
 30
0.0
  0
VERTEX
  8
0
  6
CONTINUOUS
 62
    80
  5
7B5
 10
186.661646
 20
-66.777678
 30
0.0
  0
VERTEX
  8
0
  6
CONTINUOUS
 62
    80
  5
7B6
 10
186.66438
 20
-66.784877
 30
0.0
  0
VERTEX
  8
0
  6
CONTINUOUS
 62
    80
  5
7B7
 10
186.667119
 20
-66.792073
 30
0.0
  0
VERTEX
  8
0
  6
CONTINUOUS
 62
    80
  5
7B8
 10
186.669863
 20
-66.799266
 30
0.0
  0
VERTEX
  8
0
  6
CONTINUOUS
 62
    80
  5
7B9
 10
186.672613
 20
-66.806457
 30
0.0
  0
VERTEX
  8
0
  6
CONTINUOUS
 62
    80
  5
7BA
 10
186.675369
 20
-66.813644
 30
0.0
  0
VERTEX
  8
0
  6
CONTINUOUS
 62
    80
  5
7BB
 10
186.67813
 20
-66.820829
 30
0.0
  0
VERTEX
  8
0
  6
CONTINUOUS
 62
    80
  5
7BC
 10
186.680896
 20
-66.828011
 30
0.0
  0
VERTEX
  8
0
  6
CONTINUOUS
 62
    80
  5
7BD
 10
186.683668
 20
-66.83519
 30
0.0
  0
VERTEX
  8
0
  6
CONTINUOUS
 62
    80
  5
7BE
 10
186.686445
 20
-66.842366
 30
0.0
  0
VERTEX
  8
0
  6
CONTINUOUS
 62
    80
  5
7BF
 10
186.689227
 20
-66.849539
 30
0.0
  0
VERTEX
  8
0
  6
CONTINUOUS
 62
    80
  5
7C0
 10
186.692015
 20
-66.85671
 30
0.0
  0
VERTEX
  8
0
  6
CONTINUOUS
 62
    80
  5
7C1
 10
186.694807
 20
-66.863878
 30
0.0
  0
VERTEX
  8
0
  6
CONTINUOUS
 62
    80
  5
7C2
 10
186.697606
 20
-66.871043
 30
0.0
  0
VERTEX
  8
0
  6
CONTINUOUS
 62
    80
  5
7C3
 10
186.700409
 20
-66.878205
 30
0.0
  0
VERTEX
  8
0
  6
CONTINUOUS
 62
    80
  5
7C4
 10
186.703218
 20
-66.885365
 30
0.0
  0
VERTEX
  8
0
  6
CONTINUOUS
 62
    80
  5
7C5
 10
186.706031
 20
-66.892522
 30
0.0
  0
SEQEND
  8
0
  6
CONTINUOUS
 62
    80
  5
7C6
  0
POLYLINE
  8
0
  6
CONTINUOUS
 62
    80
  5
44
 66
     1
 10
0.0
 20
0.0
 30
0.0
  0
VERTEX
  8
0
  6
CONTINUOUS
 62
    80
  5
7C7
 10
186.371521
 20
-65.142944
 30
0.0
  0
VERTEX
  8
0
  6
CONTINUOUS
 62
    80
  5
7C8
 10
186.393369
 20
-65.242892
 30
0.0
  0
VERTEX
  8
0
  6
CONTINUOUS
 62
    80
  5
7C9
 10
186.416051
 20
-65.342692
 30
0.0
  0
VERTEX
  8
0
  6
CONTINUOUS
 62
    80
  5
7CA
 10
186.43958
 20
-65.442328
 30
0.0
  0
VERTEX
  8
0
  6
CONTINUOUS
 62
    80
  5
7CB
 10
186.46397
 20
-65.541782
 30
0.0
  0
VERTEX
  8
0
  6
CONTINUOUS
 62
    80
  5
7CC
 10
186.489233
 20
-65.641034
 30
0.0
  0
VERTEX
  8
0
  6
CONTINUOUS
 62
    80
  5
7CD
 10
186.515383
 20
-65.740067
 30
0.0
  0
VERTEX
  8
0
  6
CONTINUOUS
 62
    80
  5
7CE
 10
186.542433
 20
-65.838863
 30
0.0
  0
VERTEX
  8
0
  6
CONTINUOUS
 62
    80
  5
7CF
 10
186.570398
 20
-65.937404
 30
0.0
  0
VERTEX
  8
0
  6
CONTINUOUS
 62
    80
  5
7D0
 10
186.59929
 20
-66.035671
 30
0.0
  0
VERTEX
  8
0
  6
CONTINUOUS
 62
    80
  5
7D1
 10
186.629122
 20
-66.133646
 30
0.0
  0
VERTEX
  8
0
  6
CONTINUOUS
 62
    80
  5
7D2
 10
186.659908
 20
-66.231312
 30
0.0
  0
VERTEX
  8
0
  6
CONTINUOUS
 62
    80
  5
7D3
 10
186.691661
 20
-66.328649
 30
0.0
  0
VERTEX
  8
0
  6
CONTINUOUS
 62
    80
  5
7D4
 10
186.724395
 20
-66.42564
 30
0.0
  0
VERTEX
  8
0
  6
CONTINUOUS
 62
    80
  5
7D5
 10
186.758123
 20
-66.522267
 30
0.0
  0
VERTEX
  8
0
  6
CONTINUOUS
 62
    80
  5
7D6
 10
186.792858
 20
-66.618512
 30
0.0
  0
VERTEX
  8
0
  6
CONTINUOUS
 62
    80
  5
7D7
 10
186.828613
 20
-66.714355
 30
0.0
  0
SEQEND
  8
0
  6
CONTINUOUS
 62
    80
  5
7D8
  0
POLYLINE
  8
0
  6
CONTINUOUS
 62
    80
  5
45
 66
     1
 10
0.0
 20
0.0
 30
0.0
  0
VERTEX
  8
0
  6
CONTINUOUS
 62
    80
  5
7D9
 10
184.599529
 20
-65.323066
 30
0.0
  0
VERTEX
  8
0
  6
CONTINUOUS
 62
    80
  5
7DA
 10
184.62071
 20
-65.40729
 30
0.0
  0
VERTEX
  8
0
  6
CONTINUOUS
 62
    80
  5
7DB
 10
184.64217
 20
-65.491448
 30
0.0
  0
VERTEX
  8
0
  6
CONTINUOUS
 62
    80
  5
7DC
 10
184.663905
 20
-65.57554
 30
0.0
  0
VERTEX
  8
0
  6
CONTINUOUS
 62
    80
  5
7DD
 10
184.685914
 20
-65.659564
 30
0.0
  0
VERTEX
  8
0
  6
CONTINUOUS
 62
    80
  5
7DE
 10
184.708196
 20
-65.743521
 30
0.0
  0
VERTEX
  8
0
  6
CONTINUOUS
 62
    80
  5
7DF
 10
184.73075
 20
-65.827409
 30
0.0
  0
VERTEX
  8
0
  6
CONTINUOUS
 62
    80
  5
7E0
 10
184.753574
 20
-65.911228
 30
0.0
  0
VERTEX
  8
0
  6
CONTINUOUS
 62
    80
  5
7E1
 10
184.776665
 20
-65.994976
 30
0.0
  0
VERTEX
  8
0
  6
CONTINUOUS
 62
    80
  5
7E2
 10
184.800024
 20
-66.078654
 30
0.0
  0
VERTEX
  8
0
  6
CONTINUOUS
 62
    80
  5
7E3
 10
184.823648
 20
-66.162259
 30
0.0
  0
VERTEX
  8
0
  6
CONTINUOUS
 62
    80
  5
7E4
 10
184.847536
 20
-66.245792
 30
0.0
  0
VERTEX
  8
0
  6
CONTINUOUS
 62
    80
  5
7E5
 10
184.871685
 20
-66.329251
 30
0.0
  0
VERTEX
  8
0
  6
CONTINUOUS
 62
    80
  5
7E6
 10
184.896096
 20
-66.412636
 30
0.0
  0
VERTEX
  8
0
  6
CONTINUOUS
 62
    80
  5
7E7
 10
184.920765
 20
-66.495945
 30
0.0
  0
VERTEX
  8
0
  6
CONTINUOUS
 62
    80
  5
7E8
 10
184.945692
 20
-66.579179
 30
0.0
  0
VERTEX
  8
0
  6
CONTINUOUS
 62
    80
  5
7E9
 10
184.970876
 20
-66.662336
 30
0.0
  0
VERTEX
  8
0
  6
CONTINUOUS
 62
    80
  5
7EA
 10
184.975286
 20
-66.676805
 30
0.0
  0
VERTEX
  8
0
  6
CONTINUOUS
 62
    80
  5
7EB
 10
184.979703
 20
-66.69127
 30
0.0
  0
VERTEX
  8
0
  6
CONTINUOUS
 62
    80
  5
7EC
 10
184.984128
 20
-66.705733
 30
0.0
  0
VERTEX
  8
0
  6
CONTINUOUS
 62
    80
  5
7ED
 10
184.988561
 20
-66.720193
 30
0.0
  0
VERTEX
  8
0
  6
CONTINUOUS
 62
    80
  5
7EE
 10
184.993002
 20
-66.73465
 30
0.0
  0
VERTEX
  8
0
  6
CONTINUOUS
 62
    80
  5
7EF
 10
184.99745
 20
-66.749104
 30
0.0
  0
VERTEX
  8
0
  6
CONTINUOUS
 62
    80
  5
7F0
 10
185.001906
 20
-66.763555
 30
0.0
  0
VERTEX
  8
0
  6
CONTINUOUS
 62
    80
  5
7F1
 10
185.00637
 20
-66.778004
 30
0.0
  0
VERTEX
  8
0
  6
CONTINUOUS
 62
    80
  5
7F2
 10
185.010842
 20
-66.792449
 30
0.0
  0
VERTEX
  8
0
  6
CONTINUOUS
 62
    80
  5
7F3
 10
185.015321
 20
-66.806892
 30
0.0
  0
VERTEX
  8
0
  6
CONTINUOUS
 62
    80
  5
7F4
 10
185.019809
 20
-66.821332
 30
0.0
  0
VERTEX
  8
0
  6
CONTINUOUS
 62
    80
  5
7F5
 10
185.024304
 20
-66.835769
 30
0.0
  0
VERTEX
  8
0
  6
CONTINUOUS
 62
    80
  5
7F6
 10
185.028807
 20
-66.850203
 30
0.0
  0
VERTEX
  8
0
  6
CONTINUOUS
 62
    80
  5
7F7
 10
185.033318
 20
-66.864634
 30
0.0
  0
VERTEX
  8
0
  6
CONTINUOUS
 62
    80
  5
7F8
 10
185.037837
 20
-66.879063
 30
0.0
  0
VERTEX
  8
0
  6
CONTINUOUS
 62
    80
  5
7F9
 10
185.042364
 20
-66.893488
 30
0.0
  0
SEQEND
  8
0
  6
CONTINUOUS
 62
    80
  5
7FA
  0
POLYLINE
  8
0
  6
CONTINUOUS
 62
    80
  5
46
 66
     1
 10
0.0
 20
0.0
 30
0.0
  0
VERTEX
  8
0
  6
CONTINUOUS
 62
    80
  5
7FB
 10
184.371521
 20
-65.142944
 30
0.0
  0
VERTEX
  8
0
  6
CONTINUOUS
 62
    80
  5
7FC
 10
184.395517
 20
-65.241879
 30
0.0
  0
VERTEX
  8
0
  6
CONTINUOUS
 62
    80
  5
7FD
 10
184.419896
 20
-65.340723
 30
0.0
  0
VERTEX
  8
0
  6
CONTINUOUS
 62
    80
  5
7FE
 10
184.444656
 20
-65.439476
 30
0.0
  0
VERTEX
  8
0
  6
CONTINUOUS
 62
    80
  5
7FF
 10
184.469793
 20
-65.538135
 30
0.0
  0
VERTEX
  8
0
  6
CONTINUOUS
 62
    80
  5
800
 10
184.495307
 20
-65.636701
 30
0.0
  0
VERTEX
  8
0
  6
CONTINUOUS
 62
    80
  5
801
 10
184.521193
 20
-65.735171
 30
0.0
  0
VERTEX
  8
0
  6
CONTINUOUS
 62
    80
  5
802
 10
184.547451
 20
-65.833545
 30
0.0
  0
VERTEX
  8
0
  6
CONTINUOUS
 62
    80
  5
803
 10
184.574077
 20
-65.93182
 30
0.0
  0
VERTEX
  8
0
  6
CONTINUOUS
 62
    80
  5
804
 10
184.601068
 20
-66.029997
 30
0.0
  0
VERTEX
  8
0
  6
CONTINUOUS
 62
    80
  5
805
 10
184.628423
 20
-66.128074
 30
0.0
  0
VERTEX
  8
0
  6
CONTINUOUS
 62
    80
  5
806
 10
184.656139
 20
-66.226048
 30
0.0
  0
VERTEX
  8
0
  6
CONTINUOUS
 62
    80
  5
807
 10
184.684214
 20
-66.32392
 30
0.0
  0
VERTEX
  8
0
  6
CONTINUOUS
 62
    80
  5
808
 10
184.712645
 20
-66.421688
 30
0.0
  0
VERTEX
  8
0
  6
CONTINUOUS
 62
    80
  5
809
 10
184.741429
 20
-66.519351
 30
0.0
  0
VERTEX
  8
0
  6
CONTINUOUS
 62
    80
  5
80A
 10
184.770565
 20
-66.616907
 30
0.0
  0
VERTEX
  8
0
  6
CONTINUOUS
 62
    80
  5
80B
 10
184.800049
 20
-66.714355
 30
0.0
  0
SEQEND
  8
0
  6
CONTINUOUS
 62
    80
  5
80C
  0
POLYLINE
  8
0
  6
CONTINUOUS
 62
    80
  5
47
 66
     1
 10
0.0
 20
0.0
 30
0.0
  0
VERTEX
  8
0
  6
CONTINUOUS
 62
    80
  5
80D
 10
170.567276
 20
-70.179781
 30
0.0
  0
VERTEX
  8
0
  6
CONTINUOUS
 62
    80
  5
80E
 10
170.536497
 20
-70.224562
 30
0.0
  0
VERTEX
  8
0
  6
CONTINUOUS
 62
    80
  5
80F
 10
170.50558
 20
-70.269251
 30
0.0
  0
VERTEX
  8
0
  6
CONTINUOUS
 62
    80
  5
810
 10
170.474527
 20
-70.313848
 30
0.0
  0
VERTEX
  8
0
  6
CONTINUOUS
 62
    80
  5
811
 10
170.443337
 20
-70.358351
 30
0.0
  0
VERTEX
  8
0
  6
CONTINUOUS
 62
    80
  5
812
 10
170.412011
 20
-70.402761
 30
0.0
  0
VERTEX
  8
0
  6
CONTINUOUS
 62
    80
  5
813
 10
170.380549
 20
-70.447077
 30
0.0
  0
VERTEX
  8
0
  6
CONTINUOUS
 62
    80
  5
814
 10
170.348953
 20
-70.491298
 30
0.0
  0
VERTEX
  8
0
  6
CONTINUOUS
 62
    80
  5
815
 10
170.317221
 20
-70.535425
 30
0.0
  0
VERTEX
  8
0
  6
CONTINUOUS
 62
    80
  5
816
 10
170.285356
 20
-70.579456
 30
0.0
  0
VERTEX
  8
0
  6
CONTINUOUS
 62
    80
  5
817
 10
170.253356
 20
-70.623391
 30
0.0
  0
VERTEX
  8
0
  6
CONTINUOUS
 62
    80
  5
818
 10
170.221224
 20
-70.66723
 30
0.0
  0
VERTEX
  8
0
  6
CONTINUOUS
 62
    80
  5
819
 10
170.188958
 20
-70.710972
 30
0.0
  0
VERTEX
  8
0
  6
CONTINUOUS
 62
    80
  5
81A
 10
170.15656
 20
-70.754617
 30
0.0
  0
VERTEX
  8
0
  6
CONTINUOUS
 62
    80
  5
81B
 10
170.124031
 20
-70.798164
 30
0.0
  0
VERTEX
  8
0
  6
CONTINUOUS
 62
    80
  5
81C
 10
170.091369
 20
-70.841613
 30
0.0
  0
VERTEX
  8
0
  6
CONTINUOUS
 62
    80
  5
81D
 10
170.058577
 20
-70.884964
 30
0.0
  0
SEQEND
  8
0
  6
CONTINUOUS
 62
    80
  5
81E
  0
POLYLINE
  8
0
  6
CONTINUOUS
 62
    80
  5
48
 66
     1
 10
0.0
 20
0.0
 30
0.0
  0
VERTEX
  8
0
  6
CONTINUOUS
 62
    80
  5
81F
 10
171.942932
 20
-68.857178
 30
0.0
  0
VERTEX
  8
0
  6
CONTINUOUS
 62
    80
  5
820
 10
171.889756
 20
-68.953991
 30
0.0
  0
VERTEX
  8
0
  6
CONTINUOUS
 62
    80
  5
821
 10
171.836004
 20
-69.050493
 30
0.0
  0
VERTEX
  8
0
  6
CONTINUOUS
 62
    80
  5
822
 10
171.781676
 20
-69.14668
 30
0.0
  0
VERTEX
  8
0
  6
CONTINUOUS
 62
    80
  5
823
 10
171.726775
 20
-69.242547
 30
0.0
  0
VERTEX
  8
0
  6
CONTINUOUS
 62
    80
  5
824
 10
171.671302
 20
-69.33809
 30
0.0
  0
VERTEX
  8
0
  6
CONTINUOUS
 62
    80
  5
825
 10
171.615258
 20
-69.433307
 30
0.0
  0
VERTEX
  8
0
  6
CONTINUOUS
 62
    80
  5
826
 10
171.558644
 20
-69.528191
 30
0.0
  0
VERTEX
  8
0
  6
CONTINUOUS
 62
    80
  5
827
 10
171.501463
 20
-69.622741
 30
0.0
  0
VERTEX
  8
0
  6
CONTINUOUS
 62
    80
  5
828
 10
171.443715
 20
-69.71695
 30
0.0
  0
VERTEX
  8
0
  6
CONTINUOUS
 62
    80
  5
829
 10
171.385402
 20
-69.810817
 30
0.0
  0
VERTEX
  8
0
  6
CONTINUOUS
 62
    80
  5
82A
 10
171.326526
 20
-69.904336
 30
0.0
  0
VERTEX
  8
0
  6
CONTINUOUS
 62
    80
  5
82B
 10
171.267088
 20
-69.997503
 30
0.0
  0
VERTEX
  8
0
  6
CONTINUOUS
 62
    80
  5
82C
 10
171.207089
 20
-70.090315
 30
0.0
  0
VERTEX
  8
0
  6
CONTINUOUS
 62
    80
  5
82D
 10
171.146531
 20
-70.182767
 30
0.0
  0
VERTEX
  8
0
  6
CONTINUOUS
 62
    80
  5
82E
 10
171.085415
 20
-70.274856
 30
0.0
  0
VERTEX
  8
0
  6
CONTINUOUS
 62
    80
  5
82F
 10
171.023743
 20
-70.366577
 30
0.0
  0
VERTEX
  8
0
  6
CONTINUOUS
 62
    80
  5
830
 10
170.944733
 20
-70.482363
 30
0.0
  0
VERTEX
  8
0
  6
CONTINUOUS
 62
    80
  5
831
 10
170.864837
 20
-70.597547
 30
0.0
  0
VERTEX
  8
0
  6
CONTINUOUS
 62
    80
  5
832
 10
170.784061
 20
-70.712121
 30
0.0
  0
VERTEX
  8
0
  6
CONTINUOUS
 62
    80
  5
833
 10
170.702412
 20
-70.826079
 30
0.0
  0
VERTEX
  8
0
  6
CONTINUOUS
 62
    80
  5
834
 10
170.619898
 20
-70.939413
 30
0.0
  0
VERTEX
  8
0
  6
CONTINUOUS
 62
    80
  5
835
 10
170.536526
 20
-71.052117
 30
0.0
  0
VERTEX
  8
0
  6
CONTINUOUS
 62
    80
  5
836
 10
170.452303
 20
-71.164184
 30
0.0
  0
VERTEX
  8
0
  6
CONTINUOUS
 62
    80
  5
837
 10
170.367235
 20
-71.275606
 30
0.0
  0
VERTEX
  8
0
  6
CONTINUOUS
 62
    80
  5
838
 10
170.281331
 20
-71.386377
 30
0.0
  0
VERTEX
  8
0
  6
CONTINUOUS
 62
    80
  5
839
 10
170.194597
 20
-71.496489
 30
0.0
  0
VERTEX
  8
0
  6
CONTINUOUS
 62
    80
  5
83A
 10
170.10704
 20
-71.605936
 30
0.0
  0
VERTEX
  8
0
  6
CONTINUOUS
 62
    80
  5
83B
 10
170.018668
 20
-71.71471
 30
0.0
  0
VERTEX
  8
0
  6
CONTINUOUS
 62
    80
  5
83C
 10
169.929487
 20
-71.822806
 30
0.0
  0
VERTEX
  8
0
  6
CONTINUOUS
 62
    80
  5
83D
 10
169.839505
 20
-71.930214
 30
0.0
  0
VERTEX
  8
0
  6
CONTINUOUS
 62
    80
  5
83E
 10
169.748729
 20
-72.03693
 30
0.0
  0
VERTEX
  8
0
  6
CONTINUOUS
 62
    80
  5
83F
 10
169.657166
 20
-72.142944
 30
0.0
  0
SEQEND
  8
0
  6
CONTINUOUS
 62
    80
  5
840
  0
INSERT
  8
0
  6
BYBLOCK
 62
    80
  5
6A
  2
*X3
 10
0.0
 20
0.0
 30
0.0
  0
SOLID
  8
0
  6
CONTINUOUS
 62
    80
  5
6B
 10
202.857178
 20
-65.428589
 30
0.0
 11
207.74292
 21
-65.428589
 31
0.0
 12
202.857178
 22
-65.571533
 32
0.0
 13
207.74292
 23
-65.571533
 33
0.0
  0
INSERT
  8
0
  6
BYBLOCK
 62
    80
  5
8F
  2
*X4
 10
0.0
 20
0.0
 30
0.0
  0
INSERT
  8
0
  6
BYBLOCK
 62
    80
  5
97
  2
*X5
 10
0.0
 20
0.0
 30
0.0
  0
INSERT
  8
0
  6
BYBLOCK
 62
    80
  5
CD
  2
*X6
 10
0.0
 20
0.0
 30
0.0
  0
SOLID
  8
0
  6
CONTINUOUS
 62
    80
  5
CE
 10
193.114319
 20
-68.142944
 30
0.0
 11
199.114319
 21
-68.142944
 31
0.0
 12
193.114319
 22
-68.285767
 32
0.0
 13
199.114319
 23
-68.285767
 33
0.0
  0
INSERT
  8
0
  6
BYBLOCK
 62
    80
  5
EF
  2
*X7
 10
0.0
 20
0.0
 30
0.0
  0
INSERT
  8
0
  6
BYBLOCK
 62
    80
  5
10D
  2
*X8
 10
0.0
 20
0.0
 30
0.0
  0
INSERT
  8
0
  6
BYBLOCK
 62
    80
  5
115
  2
*X9
 10
0.0
 20
0.0
 30
0.0
  0
INSERT
  8
0
  6
BYBLOCK
 62
    80
  5
141
  2
*X10
 10
0.0
 20
0.0
 30
0.0
  0
INSERT
  8
0
  6
BYBLOCK
 62
    80
  5
176
  2
*X11
 10
0.0
 20
0.0
 30
0.0
  0
INSERT
  8
0
  6
BYBLOCK
 62
    80
  5
19C
  2
*X12
 10
0.0
 20
0.0
 30
0.0
  0
INSERT
  8
0
  6
BYBLOCK
 62
    80
  5
1A4
  2
*X13
 10
0.0
 20
0.0
 30
0.0
  0
INSERT
  8
0
  6
BYBLOCK
 62
    80
  5
1B5
  2
*X14
 10
0.0
 20
0.0
 30
0.0
  0
SOLID
  8
0
  6
CONTINUOUS
 62
    80
  5
1B6
 10
158.800049
 20
-68.107178
 30
0.0
 11
160.514343
 21
-68.107178
 31
0.0
 12
158.800049
 22
-72.571533
 32
0.0
 13
160.514343
 23
-72.571533
 33
0.0
  0
INSERT
  8
0
  6
BYBLOCK
 62
    80
  5
1BE
  2
*X15
 10
0.0
 20
0.0
 30
0.0
  0
SOLID
  8
0
  6
CONTINUOUS
 62
    80
  5
1BF
 10
162.011292
 20
-66.678711
 30
0.0
 11
162.767273
 21
-66.678711
 31
0.0
 12
161.547058
 22
-67.607178
 32
0.0
 13
162.30304
 23
-67.607178
 33
0.0
  0
SOLID
  8
0
  6
CONTINUOUS
 62
    80
  5
1C0
 10
156.404297
 20
-66.678711
 30
0.0
 11
157.160217
 21
-66.678711
 31
0.0
 12
156.86853
 22
-67.607178
 32
0.0
 13
157.624451
 23
-67.607178
 33
0.0
  0
SOLID
  8
0
  6
CONTINUOUS
 62
    80
  5
1C1
 10
162.959351
 20
-65.571533
 30
0.0
 11
163.323853
 21
-65.571533
 31
0.0
 12
162.361389
 22
-66.178711
 32
0.0
 13
162.725891
 23
-66.178711
 33
0.0
  0
SOLID
  8
0
  6
CONTINUOUS
 62
    80
  5
1C2
 10
160.800049
 20
-65.571533
 30
0.0
 11
161.514343
 21
-65.571533
 31
0.0
 12
160.800049
 22
-66.178711
 32
0.0
 13
161.514343
 23
-66.178711
 33
0.0
  0
SOLID
  8
0
  6
CONTINUOUS
 62
    80
  5
1C3
 10
157.657166
 20
-65.571533
 30
0.0
 11
158.37146
 21
-65.571533
 31
0.0
 12
157.657166
 22
-66.178711
 32
0.0
 13
158.37146
 23
-66.178711
 33
0.0
  0
SOLID
  8
0
  6
CONTINUOUS
 62
    80
  5
1C4
 10
155.847656
 20
-65.571533
 30
0.0
 11
156.212158
 21
-65.571533
 31
0.0
 12
156.445557
 22
-66.178711
 32
0.0
 13
156.81012
 23
-66.178711
 33
0.0
  0
INSERT
  8
0
  6
BYBLOCK
 62
    80
  5
1FF
  2
*X16
 10
0.0
 20
0.0
 30
0.0
  0
INSERT
  8
0
  6
BYBLOCK
 62
    80
  5
247
  2
*X17
 10
0.0
 20
0.0
 30
0.0
  0
SOLID
  8
0
  6
CONTINUOUS
 62
    80
  5
248
 10
108.514771
 20
-68.713989
 30
0.0
 11
115.371582
 21
-68.713989
 31
0.0
 12
108.514771
 22
-69.714478
 32
0.0
 13
115.371582
 23
-69.714478
 33
0.0
  0
INSERT
  8
0
  6
BYBLOCK
 62
    80
  5
285
  2
*X18
 10
0.0
 20
0.0
 30
0.0
  0
INSERT
  8
0
  6
BYBLOCK
 62
    80
  5
28B
  2
*X19
 10
0.0
 20
0.0
 30
0.0
  0
SOLID
  8
0
  6
CONTINUOUS
 62
    80
  5
28C
 10
125.971375
 20
-69.121338
 30
0.0
 11
126.943054
 21
-69.121338
 31
0.0
 12
125.971375
 22
-71.021484
 32
0.0
 13
126.943054
 23
-71.021484
 33
0.0
  0
INSERT
  8
0
  6
BYBLOCK
 62
    80
  5
29A
  2
*X20
 10
0.0
 20
0.0
 30
0.0
  0
SOLID
  8
0
  6
CONTINUOUS
 62
    80
  5
29B
 10
117.37146
 20
-69.121338
 30
0.0
 11
118.343018
 21
-69.121338
 31
0.0
 12
117.37146
 22
-71.021484
 32
0.0
 13
118.343018
 23
-71.021484
 33
0.0
  0
SOLID
  8
0
  6
CONTINUOUS
 62
    80
  5
29C
 10
126.656982
 20
-66.535767
 30
0.0
 11
127.65741
 21
-66.535767
 31
0.0
 12
126.656982
 22
-67.714478
 32
0.0
 13
127.65741
 23
-67.714478
 33
0.0
  0
SOLID
  8
0
  6
CONTINUOUS
 62
    80
  5
29D
 10
121.228638
 20
-65.535767
 30
0.0
 11
123.085754
 21
-65.535767
 31
0.0
 12
121.228638
 22
-67.714478
 32
0.0
 13
123.085754
 23
-67.714478
 33
0.0
  0
SOLID
  8
0
  6
CONTINUOUS
 62
    80
  5
29E
 10
116.657288
 20
-66.535767
 30
0.0
 11
117.65741
 21
-66.535767
 31
0.0
 12
116.657288
 22
-67.714478
 32
0.0
 13
117.65741
 23
-67.714478
 33
0.0
  0
INSERT
  8
0
  6
BYBLOCK
 62
    80
  5
2DC
  2
*X21
 10
0.0
 20
0.0
 30
0.0
  0
TEXT
  8
0
  6
CONTINUOUS
 62
     3
  5
2DD
 10
-45.715278
 20
-51.5
 30
0.0
 40
5.0
  1
設計日
 41
0.791667
  7
MX_NOTE_STANDARD
 11
-45.715278
 21
-49.0
 31
0.0
 73
     2
  0
TEXT
  8
0
  6
CONTINUOUS
 62
     3
  5
2DE
 10
-45.715278
 20
-72.5
 30
0.0
 40
5.0
  1
設計者
 41
0.791667
  7
MX_NOTE_STANDARD
 11
-45.715278
 21
-70.0
 31
0.0
 73
     2
  0
TEXT
  8
0
  6
CONTINUOUS
 62
     3
  5
2DF
 10
-87.249363
 20
-72.0
 30
0.0
 40
4.0
  1
DESIGNED BY
 41
0.817921
  7
MX_NOTE_STANDARD
 11
-87.249363
 21
-70.0
 31
0.0
 73
     2
  0
TEXT
  8
0
  6
CONTINUOUS
 62
     3
  5
2E0
 10
-87.249363
 20
-51.0
 30
0.0
 40
4.0
  1
DESIGN DATE
 41
0.817921
  7
MX_NOTE_STANDARD
 11
-87.249363
 21
-49.0
 31
0.0
 73
     2
  0
TEXT
  8
0
  6
CONTINUOUS
 62
     3
  5
2E1
 10
14.834747
 20
-22.369378
 30
0.0
 40
5.0
  1
TYPE　型式
 41
0.875
  7
MX_NOTE_STANDARD
 11
14.834747
 21
-19.869378
 31
0.0
 73
     2
  0
TEXT
  8
0
  6
CONTINUOUS
 62
     3
  5
2E2
 10
127.552257
 20
-22.524825
 30
0.0
 40
5.0
  1
DRAWING.No.　図番
 41
1.002513
  7
MX_NOTE_STANDARD
 11
127.552257
 21
-20.024825
 31
0.0
 73
     2
  0
TEXT
  8
0
  6
CONTINUOUS
 62
     3
  5
2E3
 10
-84.9025
 20
-21.960467
 30
0.0
 40
5.0
  1
TITLE　図名
 41
0.919355
  7
MX_NOTE_STANDARD
 11
-84.9025
 21
-19.460467
 31
0.0
 73
     2
  0
TEXT
  8
0
  6
CONTINUOUS
 62
     3
  5
2E4
 10
189.750008
 20
-95.5
 30
0.0
 40
5.0
  1
8
 41
1.05001
  7
MX_NOTE_STANDARD
 11
189.750008
 21
-93.0
 31
0.0
 73
     2
  0
TEXT
  8
0
  6
CONTINUOUS
 62
     3
  5
2E5
 10
96.250008
 20
-95.5
 30
0.0
 40
5.0
  1
7
 41
1.05001
  7
MX_NOTE_STANDARD
 11
96.250008
 21
-93.0
 31
0.0
 73
     2
  0
TEXT
  8
0
  6
CONTINUOUS
 62
     3
  5
2E6
 10
2.750008
 20
-95.5
 30
0.0
 40
5.0
  1
6
 41
1.05001
  7
MX_NOTE_STANDARD
 11
2.750008
 21
-93.0
 31
0.0
 73
     2
  0
TEXT
  8
0
  6
CONTINUOUS
 62
     3
  5
2E7
 10
-90.749992
 20
-95.5
 30
0.0
 40
5.0
  1
5
 41
1.05001
  7
MX_NOTE_STANDARD
 11
-90.749992
 21
-93.0
 31
0.0
 73
     2
  0
TEXT
  8
0
  6
CONTINUOUS
 62
     3
  5
2E8
 10
-184.249992
 20
-95.5
 30
0.0
 40
5.0
  1
4
 41
1.05001
  7
MX_NOTE_STANDARD
 11
-184.249992
 21
-93.0
 31
0.0
 73
     2
  0
TEXT
  8
0
  6
CONTINUOUS
 62
     3
  5
2E9
 10
-277.749992
 20
-95.5
 30
0.0
 40
5.0
  1
3
 41
1.05001
  7
MX_NOTE_STANDARD
 11
-277.749992
 21
-93.0
 31
0.0
 73
     2
  0
TEXT
  8
0
  6
CONTINUOUS
 62
     3
  5
2EA
 10
-371.249992
 20
-95.5
 30
0.0
 40
5.0
  1
2
 41
1.05001
  7
MX_NOTE_STANDARD
 11
-371.249992
 21
-93.0
 31
0.0
 73
     2
  0
TEXT
  8
0
  6
CONTINUOUS
 62
     3
  5
2EB
 10
-464.312487
 20
-95.5
 30
0.0
 40
5.0
  1
1
 41
1.575015
  7
MX_NOTE_STANDARD
 11
-464.312487
 21
-93.0
 31
0.0
 73
     2
  0
TEXT
  8
0
  6
CONTINUOUS
 62
     3
  5
2EC
 10
189.750008
 20
444.499969
 30
0.0
 40
5.0
  1
8
 41
1.05001
  7
MX_NOTE_STANDARD
 11
189.750008
 21
446.999969
 31
0.0
 73
     2
  0
TEXT
  8
0
  6
CONTINUOUS
 62
     3
  5
2ED
 10
96.250008
 20
444.499969
 30
0.0
 40
5.0
  1
7
 41
1.05001
  7
MX_NOTE_STANDARD
 11
96.250008
 21
446.999969
 31
0.0
 73
     2
  0
TEXT
  8
0
  6
CONTINUOUS
 62
     3
  5
2EE
 10
2.750008
 20
444.499969
 30
0.0
 40
5.0
  1
6
 41
1.05001
  7
MX_NOTE_STANDARD
 11
2.750008
 21
446.999969
 31
0.0
 73
     2
  0
TEXT
  8
0
  6
CONTINUOUS
 62
     3
  5
2EF
 10
-90.749992
 20
444.499969
 30
0.0
 40
5.0
  1
5
 41
1.05001
  7
MX_NOTE_STANDARD
 11
-90.749992
 21
446.999969
 31
0.0
 73
     2
  0
TEXT
  8
0
  6
CONTINUOUS
 62
     3
  5
2F0
 10
70.253896
 20
-54.0
 30
0.0
 40
6.0
  1
ARROW ELECTRONICS IND. CO.,LTD.
 41
0.998074
  7
MX_NOTE_STANDARD
 11
70.253896
 21
-51.0
 31
0.0
 73
     2
  0
TEXT
  8
0
  6
CONTINUOUS
 62
     3
  5
2F1
 10
35.418863
 20
-59.0
 30
0.0
 40
6.0
  1
部門長
 41
0.723514
  7
MX_NOTE_STANDARD
 11
35.418863
 21
-56.0
 31
0.0
 73
     2
  0
TEXT
  8
0
  6
CONTINUOUS
 62
     3
  5
2F2
 10
-2.581137
 20
-59.0
 30
0.0
 40
6.0
  1
確認者
 41
0.723514
  7
MX_NOTE_STANDARD
 11
-2.581137
 21
-56.0
 31
0.0
 73
     2
  0
TEXT
  8
0
  6
CONTINUOUS
 62
     3
  5
2F3
 10
25.220625
 20
-51.0
 30
0.0
 40
4.0
  1
SECTION HEAD
 41
0.813081
  7
MX_NOTE_STANDARD
 11
25.220625
 21
-49.0
 31
0.0
 73
     2
  0
TEXT
  8
0
  6
CONTINUOUS
 62
     3
  5
2F4
 10
-12.779375
 20
-51.0
 30
0.0
 40
4.0
  1
CONFIRMED By
 41
0.813081
  7
MX_NOTE_STANDARD
 11
-12.779375
 21
-49.0
 31
0.0
 73
     2
  0
TEXT
  8
0
  6
CONTINUOUS
 62
     3
  5
2F5
 10
219.753377
 20
432.799969
 30
0.0
 40
6.4
  1
訂正者
 41
0.78125
  7
MX_NOTE_STANDARD
 11
219.753377
 21
435.999969
 31
0.0
 73
     2
  0
TEXT
  8
0
  6
CONTINUOUS
 62
     3
  5
2F6
 10
110.473348
 20
432.799969
 30
0.0
 40
6.4
  1
訂　　正　　事　　項
 41
0.78125
  7
MX_NOTE_STANDARD
 11
110.473348
 21
435.999969
 31
0.0
 73
     2
  0
TEXT
  8
0
  6
CONTINUOUS
 62
     3
  5
2F7
 10
16.764406
 20
432.799969
 30
0.0
 40
6.4
  1
符号
 41
0.791667
  7
MX_NOTE_STANDARD
 11
16.764406
 21
435.999969
 31
0.0
 73
     2
  0
TEXT
  8
0
  6
CONTINUOUS
 62
     3
  5
2F8
 10
-11.275511
 20
432.799969
 30
0.0
 40
6.4
  1
日　付
 41
0.791667
  7
MX_NOTE_STANDARD
 11
-11.275511
 21
435.999969
 31
0.0
 73
     2
  0
TEXT
  8
0
  6
CONTINUOUS
 62
     3
  5
2F9
 10
242.000008
 20
218.499992
 30
0.0
 40
5.0
  1
C
 41
1.05001
  7
MX_NOTE_STANDARD
 11
242.000008
 21
220.999992
 31
0.0
 73
     2
  0
TEXT
  8
0
  6
CONTINUOUS
 62
     3
  5
2FA
 10
242.000008
 20
-45.5
 30
0.0
 40
5.0
  1
F
 41
1.05001
  7
MX_NOTE_STANDARD
 11
242.000008
 21
-43.0
 31
0.0
 73
     2
  0
TEXT
  8
0
  6
CONTINUOUS
 62
     3
  5
2FB
 10
242.000008
 20
306.499981
 30
0.0
 40
5.0
  1
B
 41
1.05001
  7
MX_NOTE_STANDARD
 11
242.000008
 21
308.999981
 31
0.0
 73
     2
  0
TEXT
  8
0
  6
CONTINUOUS
 62
     3
  5
2FC
 10
242.000008
 20
130.5
 30
0.0
 40
5.0
  1
D
 41
1.05001
  7
MX_NOTE_STANDARD
 11
242.000008
 21
133.0
 31
0.0
 73
     2
  0
TEXT
  8
0
  6
CONTINUOUS
 62
     3
  5
2FD
 10
242.000008
 20
394.499969
 30
0.0
 40
5.0
  1
A
 41
1.05001
  7
MX_NOTE_STANDARD
 11
242.000008
 21
396.999969
 31
0.0
 73
     2
  0
TEXT
  8
0
  6
CONTINUOUS
 62
     3
  5
2FE
 10
242.000008
 20
42.499985
 30
0.0
 40
5.0
  1
E
 41
1.05001
  7
MX_NOTE_STANDARD
 11
242.000008
 21
44.999985
 31
0.0
 73
     2
  0
TEXT
  8
0
  6
CONTINUOUS
 62
     3
  5
2FF
 10
-516.999992
 20
-45.5
 30
0.0
 40
5.0
  1
F
 41
1.05001
  7
MX_NOTE_STANDARD
 11
-516.999992
 21
-43.0
 31
0.0
 73
     2
  0
TEXT
  8
0
  6
CONTINUOUS
 62
     3
  5
300
 10
-516.999992
 20
42.499985
 30
0.0
 40
5.0
  1
E
 41
1.05001
  7
MX_NOTE_STANDARD
 11
-516.999992
 21
44.999985
 31
0.0
 73
     2
  0
TEXT
  8
0
  6
CONTINUOUS
 62
     3
  5
301
 10
-516.999992
 20
130.5
 30
0.0
 40
5.0
  1
D
 41
1.05001
  7
MX_NOTE_STANDARD
 11
-516.999992
 21
133.0
 31
0.0
 73
     2
  0
TEXT
  8
0
  6
CONTINUOUS
 62
     3
  5
302
 10
-516.999992
 20
218.499992
 30
0.0
 40
5.0
  1
C
 41
1.05001
  7
MX_NOTE_STANDARD
 11
-516.999992
 21
220.999992
 31
0.0
 73
     2
  0
TEXT
  8
0
  6
CONTINUOUS
 62
     3
  5
303
 10
-516.999992
 20
306.499981
 30
0.0
 40
5.0
  1
B
 41
1.05001
  7
MX_NOTE_STANDARD
 11
-516.999992
 21
308.999981
 31
0.0
 73
     2
  0
TEXT
  8
0
  6
CONTINUOUS
 62
     3
  5
304
 10
-516.999992
 20
394.499969
 30
0.0
 40
5.0
  1
A
 41
1.05001
  7
MX_NOTE_STANDARD
 11
-516.999992
 21
396.999969
 31
0.0
 73
     2
  0
TEXT
  8
0
  6
CONTINUOUS
 62
     3
  5
305
 10
-184.249992
 20
444.499969
 30
0.0
 40
5.0
  1
4
 41
1.05001
  7
MX_NOTE_STANDARD
 11
-184.249992
 21
446.999969
 31
0.0
 73
     2
  0
TEXT
  8
0
  6
CONTINUOUS
 62
     3
  5
306
 10
-277.749992
 20
444.499969
 30
0.0
 40
5.0
  1
3
 41
1.05001
  7
MX_NOTE_STANDARD
 11
-277.749992
 21
446.999969
 31
0.0
 73
     2
  0
TEXT
  8
0
  6
CONTINUOUS
 62
     3
  5
307
 10
-371.249992
 20
444.499969
 30
0.0
 40
5.0
  1
2
 41
1.05001
  7
MX_NOTE_STANDARD
 11
-371.249992
 21
446.999969
 31
0.0
 73
     2
  0
TEXT
  8
0
  6
CONTINUOUS
 62
     3
  5
308
 10
-464.312487
 20
444.499969
 30
0.0
 40
5.0
  1
1
 41
1.575015
  7
MX_NOTE_STANDARD
 11
-464.312487
 21
446.999969
 31
0.0
 73
     2
  0
TEXT
  8
0
  6
CONTINUOUS
 62
     3
  5
309
 10
-10.79999
 20
15.0
 30
0.0
 40
6.0
  1
2
 41
1.05001
  7
MX_NOTE_STANDARD
 11
-10.79999
 21
18.0
 31
0.0
 73
     2
  0
TEXT
  8
0
  6
CONTINUOUS
 62
     3
  5
30A
 10
-10.79999
 20
75.0
 30
0.0
 40
6.0
  1
7
 41
1.05001
  7
MX_NOTE_STANDARD
 11
-10.79999
 21
78.0
 31
0.0
 73
     2
  0
TEXT
  8
0
  6
CONTINUOUS
 62
     3
  5
30B
 10
-10.79999
 20
63.0
 30
0.0
 40
6.0
  1
6
 41
1.05001
  7
MX_NOTE_STANDARD
 11
-10.79999
 21
66.0
 31
0.0
 73
     2
  0
TEXT
  8
0
  6
CONTINUOUS
 62
     3
  5
30C
 10
-10.79999
 20
51.0
 30
0.0
 40
6.0
  1
5
 41
1.05001
  7
MX_NOTE_STANDARD
 11
-10.79999
 21
54.0
 31
0.0
 73
     2
  0
TEXT
  8
0
  6
CONTINUOUS
 62
     3
  5
30D
 10
-10.79999
 20
39.0
 30
0.0
 40
6.0
  1
4
 41
1.05001
  7
MX_NOTE_STANDARD
 11
-10.79999
 21
42.0
 31
0.0
 73
     2
  0
TEXT
  8
0
  6
CONTINUOUS
 62
     3
  5
30E
 10
-10.79999
 20
27.0
 30
0.0
 40
6.0
  1
3
 41
1.05001
  7
MX_NOTE_STANDARD
 11
-10.79999
 21
30.0
 31
0.0
 73
     2
  0
TEXT
  8
0
  6
CONTINUOUS
 62
     3
  5
30F
 10
-10.274985
 20
3.0
 30
0.0
 40
6.0
  1
1
 41
1.575015
  7
MX_NOTE_STANDARD
 11
-10.274985
 21
6.0
 31
0.0
 73
     2
  0
TEXT
  8
0
  6
CONTINUOUS
 62
     3
  5
310
 10
157.834798
 20
-8.890747
 30
0.0
 40
4.0
  1
ＮＯＴＥ　Ａ　ＲＥＭＡＲＫ
 41
0.78125
  7
MX_NOTE_STANDARD
 11
157.834798
 21
-6.890747
 31
0.0
 73
     2
  0
TEXT
  8
0
  6
CONTINUOUS
 62
     3
  5
311
 10
104.663289
 20
-8.890747
 30
0.0
 40
4.0
  1
ＭＴＲＬ
 41
0.78125
  7
MX_NOTE_STANDARD
 11
104.663289
 21
-6.890747
 31
0.0
 73
     2
  0
TEXT
  8
0
  6
CONTINUOUS
 62
     3
  5
312
 10
73.646566
 20
-4.459778
 30
0.0
 40
4.0
  1
Ｃｏ．Ｎｏ．
 41
0.78125
  7
MX_NOTE_STANDARD
 11
73.646566
 21
-2.459778
 31
0.0
 73
     2
  0
TEXT
  8
0
  6
CONTINUOUS
 62
     3
  5
313
 10
218.78732
 20
-9.336884
 30
0.0
 40
6.0
  1
備考
 41
0.723514
  7
MX_NOTE_STANDARD
 11
218.78732
 21
-6.336884
 31
0.0
 73
     2
  0
TEXT
  8
0
  6
CONTINUOUS
 62
     3
  5
314
 10
127.952725
 20
-9.890747
 30
0.0
 40
6.0
  1
材質
 41
0.723514
  7
MX_NOTE_STANDARD
 11
127.952725
 21
-6.890747
 31
0.0
 73
     2
  0
TEXT
  8
0
  6
CONTINUOUS
 62
     3
  5
315
 10
79.212247
 20
-12.106232
 30
0.0
 40
6.0
  1
数量
 41
0.723514
  7
MX_NOTE_STANDARD
 11
79.212247
 21
-9.106232
 31
0.0
 73
     2
  0
TEXT
  8
0
  6
CONTINUOUS
 62
     3
  5
316
 10
55.799561
 20
-9.890747
 30
0.0
 40
6.0
  1
品名
 41
0.78125
  7
MX_NOTE_STANDARD
 11
55.799561
 21
-6.890747
 31
0.0
 73
     2
  0
TEXT
  8
0
  6
CONTINUOUS
 62
     3
  5
317
 10
3.865793
 20
-9.444611
 30
0.0
 40
4.0
  1
ＮAＭＥ　ＯＦ　ＰＡＲＴＳ
 41
0.791396
  7
MX_NOTE_STANDARD
 11
3.865793
 21
-7.444611
 31
0.0
 73
     2
  0
TEXT
  8
0
  6
CONTINUOUS
 62
     3
  5
318
 10
-15.095764
 20
-9.336884
 30
0.0
 40
6.0
  1
ＮＯ．
 41
0.78125
  7
MX_NOTE_STANDARD
 11
-15.095764
 21
-6.336884
 31
0.0
 73
     2
  0
POLYLINE
  8
0
  6
CONTINUOUS
 62
    80
  5
319
 66
     1
 10
0.0
 20
0.0
 30
0.0
  0
VERTEX
  8
0
  6
CONTINUOUS
 62
    80
  5
841
 10
204.703186
 20
-67.394775
 30
0.0
  0
VERTEX
  8
0
  6
CONTINUOUS
 62
    80
  5
842
 10
204.66336
 20
-67.529407
 30
0.0
  0
VERTEX
  8
0
  6
CONTINUOUS
 62
    80
  5
843
 10
204.620469
 20
-67.663341
 30
0.0
  0
VERTEX
  8
0
  6
CONTINUOUS
 62
    80
  5
844
 10
204.574526
 20
-67.796471
 30
0.0
  0
VERTEX
  8
0
  6
CONTINUOUS
 62
    80
  5
845
 10
204.525542
 20
-67.928689
 30
0.0
  0
VERTEX
  8
0
  6
CONTINUOUS
 62
    80
  5
846
 10
204.473529
 20
-68.059886
 30
0.0
  0
VERTEX
  8
0
  6
CONTINUOUS
 62
    80
  5
847
 10
204.418499
 20
-68.189955
 30
0.0
  0
VERTEX
  8
0
  6
CONTINUOUS
 62
    80
  5
848
 10
204.360465
 20
-68.318789
 30
0.0
  0
VERTEX
  8
0
  6
CONTINUOUS
 62
    80
  5
849
 10
204.299437
 20
-68.446279
 30
0.0
  0
VERTEX
  8
0
  6
CONTINUOUS
 62
    80
  5
84A
 10
204.235428
 20
-68.572318
 30
0.0
  0
VERTEX
  8
0
  6
CONTINUOUS
 62
    80
  5
84B
 10
204.16845
 20
-68.696798
 30
0.0
  0
VERTEX
  8
0
  6
CONTINUOUS
 62
    80
  5
84C
 10
204.098515
 20
-68.819611
 30
0.0
  0
VERTEX
  8
0
  6
CONTINUOUS
 62
    80
  5
84D
 10
204.025634
 20
-68.94065
 30
0.0
  0
VERTEX
  8
0
  6
CONTINUOUS
 62
    80
  5
84E
 10
203.94982
 20
-69.059807
 30
0.0
  0
VERTEX
  8
0
  6
CONTINUOUS
 62
    80
  5
84F
 10
203.871084
 20
-69.176974
 30
0.0
  0
VERTEX
  8
0
  6
CONTINUOUS
 62
    80
  5
850
 10
203.789438
 20
-69.292043
 30
0.0
  0
VERTEX
  8
0
  6
CONTINUOUS
 62
    80
  5
851
 10
203.704895
 20
-69.404907
 30
0.0
  0
VERTEX
  8
0
  6
CONTINUOUS
 62
    80
  5
852
 10
203.645126
 20
-69.481139
 30
0.0
  0
VERTEX
  8
0
  6
CONTINUOUS
 62
    80
  5
853
 10
203.584028
 20
-69.556269
 30
0.0
  0
VERTEX
  8
0
  6
CONTINUOUS
 62
    80
  5
854
 10
203.521631
 20
-69.63029
 30
0.0
  0
VERTEX
  8
0
  6
CONTINUOUS
 62
    80
  5
855
 10
203.45797
 20
-69.703196
 30
0.0
  0
VERTEX
  8
0
  6
CONTINUOUS
 62
    80
  5
856
 10
203.393077
 20
-69.774978
 30
0.0
  0
VERTEX
  8
0
  6
CONTINUOUS
 62
    80
  5
857
 10
203.326983
 20
-69.84563
 30
0.0
  0
VERTEX
  8
0
  6
CONTINUOUS
 62
    80
  5
858
 10
203.259722
 20
-69.915144
 30
0.0
  0
VERTEX
  8
0
  6
CONTINUOUS
 62
    80
  5
859
 10
203.191325
 20
-69.983514
 30
0.0
  0
VERTEX
  8
0
  6
CONTINUOUS
 62
    80
  5
85A
 10
203.121826
 20
-70.050732
 30
0.0
  0
VERTEX
  8
0
  6
CONTINUOUS
 62
    80
  5
85B
 10
203.051256
 20
-70.116791
 30
0.0
  0
VERTEX
  8
0
  6
CONTINUOUS
 62
    80
  5
85C
 10
202.979649
 20
-70.181683
 30
0.0
  0
VERTEX
  8
0
  6
CONTINUOUS
 62
    80
  5
85D
 10
202.907036
 20
-70.245403
 30
0.0
  0
VERTEX
  8
0
  6
CONTINUOUS
 62
    80
  5
85E
 10
202.83345
 20
-70.307942
 30
0.0
  0
VERTEX
  8
0
  6
CONTINUOUS
 62
    80
  5
85F
 10
202.758923
 20
-70.369293
 30
0.0
  0
VERTEX
  8
0
  6
CONTINUOUS
 62
    80
  5
860
 10
202.683488
 20
-70.429449
 30
0.0
  0
VERTEX
  8
0
  6
CONTINUOUS
 62
    80
  5
861
 10
202.607178
 20
-70.488403
 30
0.0
  0
SEQEND
  8
0
  6
CONTINUOUS
 62
    80
  5
862
  0
POLYLINE
  8
0
  6
CONTINUOUS
 62
    80
  5
31A
 66
     1
 10
0.0
 20
0.0
 30
0.0
  0
VERTEX
  8
0
  6
CONTINUOUS
 62
    80
  5
863
 10
167.373179
 20
-67.10558
 30
0.0
  0
VERTEX
  8
0
  6
CONTINUOUS
 62
    80
  5
864
 10
167.357501
 20
-67.203669
 30
0.0
  0
VERTEX
  8
0
  6
CONTINUOUS
 62
    80
  5
865
 10
167.34052
 20
-67.301581
 30
0.0
  0
VERTEX
  8
0
  6
CONTINUOUS
 62
    80
  5
866
 10
167.322233
 20
-67.399291
 30
0.0
  0
VERTEX
  8
0
  6
CONTINUOUS
 62
    80
  5
867
 10
167.302638
 20
-67.496776
 30
0.0
  0
VERTEX
  8
0
  6
CONTINUOUS
 62
    80
  5
868
 10
167.281733
 20
-67.594015
 30
0.0
  0
VERTEX
  8
0
  6
CONTINUOUS
 62
    80
  5
869
 10
167.259515
 20
-67.690983
 30
0.0
  0
VERTEX
  8
0
  6
CONTINUOUS
 62
    80
  5
86A
 10
167.235981
 20
-67.787657
 30
0.0
  0
VERTEX
  8
0
  6
CONTINUOUS
 62
    80
  5
86B
 10
167.21113
 20
-67.884016
 30
0.0
  0
VERTEX
  8
0
  6
CONTINUOUS
 62
    80
  5
86C
 10
167.184959
 20
-67.980035
 30
0.0
  0
VERTEX
  8
0
  6
CONTINUOUS
 62
    80
  5
86D
 10
167.157465
 20
-68.075693
 30
0.0
  0
VERTEX
  8
0
  6
CONTINUOUS
 62
    80
  5
86E
 10
167.128647
 20
-68.170965
 30
0.0
  0
VERTEX
  8
0
  6
CONTINUOUS
 62
    80
  5
86F
 10
167.098501
 20
-68.265829
 30
0.0
  0
VERTEX
  8
0
  6
CONTINUOUS
 62
    80
  5
870
 10
167.067026
 20
-68.360262
 30
0.0
  0
VERTEX
  8
0
  6
CONTINUOUS
 62
    80
  5
871
 10
167.034219
 20
-68.454242
 30
0.0
  0
VERTEX
  8
0
  6
CONTINUOUS
 62
    80
  5
872
 10
167.000078
 20
-68.547744
 30
0.0
  0
VERTEX
  8
0
  6
CONTINUOUS
 62
    80
  5
873
 10
166.9646
 20
-68.640747
 30
0.0
  0
VERTEX
  8
0
  6
CONTINUOUS
 62
    80
  5
874
 10
166.923459
 20
-68.743848
 30
0.0
  0
VERTEX
  8
0
  6
CONTINUOUS
 62
    80
  5
875
 10
166.880678
 20
-68.846279
 30
0.0
  0
VERTEX
  8
0
  6
CONTINUOUS
 62
    80
  5
876
 10
166.836279
 20
-68.948018
 30
0.0
  0
VERTEX
  8
0
  6
CONTINUOUS
 62
    80
  5
877
 10
166.790286
 20
-69.049044
 30
0.0
  0
VERTEX
  8
0
  6
CONTINUOUS
 62
    80
  5
878
 10
166.742724
 20
-69.149336
 30
0.0
  0
VERTEX
  8
0
  6
CONTINUOUS
 62
    80
  5
879
 10
166.693617
 20
-69.248873
 30
0.0
  0
VERTEX
  8
0
  6
CONTINUOUS
 62
    80
  5
87A
 10
166.642987
 20
-69.347634
 30
0.0
  0
VERTEX
  8
0
  6
CONTINUOUS
 62
    80
  5
87B
 10
166.59086
 20
-69.445598
 30
0.0
  0
VERTEX
  8
0
  6
CONTINUOUS
 62
    80
  5
87C
 10
166.537258
 20
-69.542743
 30
0.0
  0
VERTEX
  8
0
  6
CONTINUOUS
 62
    80
  5
87D
 10
166.482207
 20
-69.63905
 30
0.0
  0
VERTEX
  8
0
  6
CONTINUOUS
 62
    80
  5
87E
 10
166.425729
 20
-69.734496
 30
0.0
  0
VERTEX
  8
0
  6
CONTINUOUS
 62
    80
  5
87F
 10
166.367849
 20
-69.829061
 30
0.0
  0
VERTEX
  8
0
  6
CONTINUOUS
 62
    80
  5
880
 10
166.308591
 20
-69.922724
 30
0.0
  0
VERTEX
  8
0
  6
CONTINUOUS
 62
    80
  5
881
 10
166.247978
 20
-70.015464
 30
0.0
  0
VERTEX
  8
0
  6
CONTINUOUS
 62
    80
  5
882
 10
166.186035
 20
-70.107259
 30
0.0
  0
VERTEX
  8
0
  6
CONTINUOUS
 62
    80
  5
883
 10
166.122785
 20
-70.198088
 30
0.0
  0
SEQEND
  8
0
  6
CONTINUOUS
 62
    80
  5
884
  0
POLYLINE
  8
0
  6
CONTINUOUS
 62
    80
  5
31B
 66
     1
 10
0.0
 20
0.0
 30
0.0
  0
VERTEX
  8
0
  6
CONTINUOUS
 62
    80
  5
885
 10
156.164795
 20
-69.857178
 30
0.0
  0
VERTEX
  8
0
  6
CONTINUOUS
 62
    80
  5
886
 10
156.152036
 20
-69.883433
 30
0.0
  0
VERTEX
  8
0
  6
CONTINUOUS
 62
    80
  5
887
 10
156.139072
 20
-69.909611
 30
0.0
  0
VERTEX
  8
0
  6
CONTINUOUS
 62
    80
  5
888
 10
156.125898
 20
-69.935702
 30
0.0
  0
VERTEX
  8
0
  6
CONTINUOUS
 62
    80
  5
889
 10
156.112506
 20
-69.961695
 30
0.0
  0
VERTEX
  8
0
  6
CONTINUOUS
 62
    80
  5
88A
 10
156.098893
 20
-69.987581
 30
0.0
  0
VERTEX
  8
0
  6
CONTINUOUS
 62
    80
  5
88B
 10
156.085051
 20
-70.013349
 30
0.0
  0
VERTEX
  8
0
  6
CONTINUOUS
 62
    80
  5
88C
 10
156.070974
 20
-70.038989
 30
0.0
  0
VERTEX
  8
0
  6
CONTINUOUS
 62
    80
  5
88D
 10
156.056658
 20
-70.064491
 30
0.0
  0
VERTEX
  8
0
  6
CONTINUOUS
 62
    80
  5
88E
 10
156.042097
 20
-70.089845
 30
0.0
  0
VERTEX
  8
0
  6
CONTINUOUS
 62
    80
  5
88F
 10
156.027284
 20
-70.115041
 30
0.0
  0
VERTEX
  8
0
  6
CONTINUOUS
 62
    80
  5
890
 10
156.012213
 20
-70.140069
 30
0.0
  0
VERTEX
  8
0
  6
CONTINUOUS
 62
    80
  5
891
 10
155.99688
 20
-70.164918
 30
0.0
  0
VERTEX
  8
0
  6
CONTINUOUS
 62
    80
  5
892
 10
155.981278
 20
-70.189579
 30
0.0
  0
VERTEX
  8
0
  6
CONTINUOUS
 62
    80
  5
893
 10
155.965401
 20
-70.214041
 30
0.0
  0
VERTEX
  8
0
  6
CONTINUOUS
 62
    80
  5
894
 10
155.949244
 20
-70.238295
 30
0.0
  0
VERTEX
  8
0
  6
CONTINUOUS
 62
    80
  5
895
 10
155.9328
 20
-70.262329
 30
0.0
  0
VERTEX
  8
0
  6
CONTINUOUS
 62
    80
  5
896
 10
155.888066
 20
-70.324626
 30
0.0
  0
VERTEX
  8
0
  6
CONTINUOUS
 62
    80
  5
897
 10
155.841431
 20
-70.385425
 30
0.0
  0
VERTEX
  8
0
  6
CONTINUOUS
 62
    80
  5
898
 10
155.793026
 20
-70.444823
 30
0.0
  0
VERTEX
  8
0
  6
CONTINUOUS
 62
    80
  5
899
 10
155.742983
 20
-70.502914
 30
0.0
  0
VERTEX
  8
0
  6
CONTINUOUS
 62
    80
  5
89A
 10
155.691432
 20
-70.559794
 30
0.0
  0
VERTEX
  8
0
  6
CONTINUOUS
 62
    80
  5
89B
 10
155.638505
 20
-70.615559
 30
0.0
  0
VERTEX
  8
0
  6
CONTINUOUS
 62
    80
  5
89C
 10
155.584331
 20
-70.670303
 30
0.0
  0
VERTEX
  8
0
  6
CONTINUOUS
 62
    80
  5
89D
 10
155.529043
 20
-70.724122
 30
0.0
  0
VERTEX
  8
0
  6
CONTINUOUS
 62
    80
  5
89E
 10
155.472771
 20
-70.777111
 30
0.0
  0
VERTEX
  8
0
  6
CONTINUOUS
 62
    80
  5
89F
 10
155.415646
 20
-70.829366
 30
0.0
  0
VERTEX
  8
0
  6
CONTINUOUS
 62
    80
  5
8A0
 10
155.357799
 20
-70.880982
 30
0.0
  0
VERTEX
  8
0
  6
CONTINUOUS
 62
    80
  5
8A1
 10
155.29936
 20
-70.932054
 30
0.0
  0
VERTEX
  8
0
  6
CONTINUOUS
 62
    80
  5
8A2
 10
155.240462
 20
-70.982678
 30
0.0
  0
VERTEX
  8
0
  6
CONTINUOUS
 62
    80
  5
8A3
 10
155.181235
 20
-71.032948
 30
0.0
  0
VERTEX
  8
0
  6
CONTINUOUS
 62
    80
  5
8A4
 10
155.12181
 20
-71.082962
 30
0.0
  0
VERTEX
  8
0
  6
CONTINUOUS
 62
    80
  5
8A5
 10
155.062317
 20
-71.132813
 30
0.0
  0
VERTEX
  8
0
  6
CONTINUOUS
 62
    80
  5
8A6
 10
154.987056
 20
-71.195798
 30
0.0
  0
VERTEX
  8
0
  6
CONTINUOUS
 62
    80
  5
8A7
 10
154.911847
 20
-71.258628
 30
0.0
  0
VERTEX
  8
0
  6
CONTINUOUS
 62
    80
  5
8A8
 10
154.836637
 20
-71.321253
 30
0.0
  0
VERTEX
  8
0
  6
CONTINUOUS
 62
    80
  5
8A9
 10
154.761377
 20
-71.383626
 30
0.0
  0
VERTEX
  8
0
  6
CONTINUOUS
 62
    80
  5
8AA
 10
154.686016
 20
-71.445697
 30
0.0
  0
VERTEX
  8
0
  6
CONTINUOUS
 62
    80
  5
8AB
 10
154.610502
 20
-71.507418
 30
0.0
  0
VERTEX
  8
0
  6
CONTINUOUS
 62
    80
  5
8AC
 10
154.534784
 20
-71.56874
 30
0.0
  0
VERTEX
  8
0
  6
CONTINUOUS
 62
    80
  5
8AD
 10
154.458812
 20
-71.629616
 30
0.0
  0
VERTEX
  8
0
  6
CONTINUOUS
 62
    80
  5
8AE
 10
154.382534
 20
-71.689996
 30
0.0
  0
VERTEX
  8
0
  6
CONTINUOUS
 62
    80
  5
8AF
 10
154.305901
 20
-71.749831
 30
0.0
  0
VERTEX
  8
0
  6
CONTINUOUS
 62
    80
  5
8B0
 10
154.228859
 20
-71.809074
 30
0.0
  0
VERTEX
  8
0
  6
CONTINUOUS
 62
    80
  5
8B1
 10
154.15136
 20
-71.867676
 30
0.0
  0
VERTEX
  8
0
  6
CONTINUOUS
 62
    80
  5
8B2
 10
154.073351
 20
-71.925588
 30
0.0
  0
VERTEX
  8
0
  6
CONTINUOUS
 62
    80
  5
8B3
 10
153.994782
 20
-71.982761
 30
0.0
  0
VERTEX
  8
0
  6
CONTINUOUS
 62
    80
  5
8B4
 10
153.915602
 20
-72.039148
 30
0.0
  0
VERTEX
  8
0
  6
CONTINUOUS
 62
    80
  5
8B5
 10
153.83576
 20
-72.094699
 30
0.0
  0
SEQEND
  8
0
  6
CONTINUOUS
 62
    80
  5
8B6
  0
POLYLINE
  8
0
  6
CONTINUOUS
 62
    80
  5
31C
 66
     1
 10
0.0
 20
0.0
 30
0.0
  0
VERTEX
  8
0
  6
CONTINUOUS
 62
    80
  5
8B7
 10
204.778625
 20
-70.390625
 30
0.0
  0
VERTEX
  8
0
  6
CONTINUOUS
 62
    80
  5
8B8
 10
204.76181
 20
-70.401305
 30
0.0
  0
VERTEX
  8
0
  6
CONTINUOUS
 62
    80
  5
8B9
 10
204.744989
 20
-70.411977
 30
0.0
  0
VERTEX
  8
0
  6
CONTINUOUS
 62
    80
  5
8BA
 10
204.728164
 20
-70.422642
 30
0.0
  0
VERTEX
  8
0
  6
CONTINUOUS
 62
    80
  5
8BB
 10
204.711333
 20
-70.4333
 30
0.0
  0
VERTEX
  8
0
  6
CONTINUOUS
 62
    80
  5
8BC
 10
204.694498
 20
-70.44395
 30
0.0
  0
VERTEX
  8
0
  6
CONTINUOUS
 62
    80
  5
8BD
 10
204.677659
 20
-70.454594
 30
0.0
  0
VERTEX
  8
0
  6
CONTINUOUS
 62
    80
  5
8BE
 10
204.660815
 20
-70.46523
 30
0.0
  0
VERTEX
  8
0
  6
CONTINUOUS
 62
    80
  5
8BF
 10
204.643966
 20
-70.47586
 30
0.0
  0
VERTEX
  8
0
  6
CONTINUOUS
 62
    80
  5
8C0
 10
204.627113
 20
-70.486483
 30
0.0
  0
VERTEX
  8
0
  6
CONTINUOUS
 62
    80
  5
8C1
 10
204.610257
 20
-70.497099
 30
0.0
  0
VERTEX
  8
0
  6
CONTINUOUS
 62
    80
  5
8C2
 10
204.593396
 20
-70.507709
 30
0.0
  0
VERTEX
  8
0
  6
CONTINUOUS
 62
    80
  5
8C3
 10
204.576531
 20
-70.518313
 30
0.0
  0
VERTEX
  8
0
  6
CONTINUOUS
 62
    80
  5
8C4
 10
204.559662
 20
-70.528911
 30
0.0
  0
VERTEX
  8
0
  6
CONTINUOUS
 62
    80
  5
8C5
 10
204.542789
 20
-70.539503
 30
0.0
  0
VERTEX
  8
0
  6
CONTINUOUS
 62
    80
  5
8C6
 10
204.525913
 20
-70.550089
 30
0.0
  0
VERTEX
  8
0
  6
CONTINUOUS
 62
    80
  5
8C7
 10
204.509033
 20
-70.560669
 30
0.0
  0
VERTEX
  8
0
  6
CONTINUOUS
 62
    80
  5
8C8
 10
204.391612
 20
-70.634017
 30
0.0
  0
VERTEX
  8
0
  6
CONTINUOUS
 62
    80
  5
8C9
 10
204.273986
 20
-70.707043
 30
0.0
  0
VERTEX
  8
0
  6
CONTINUOUS
 62
    80
  5
8CA
 10
204.156156
 20
-70.779747
 30
0.0
  0
VERTEX
  8
0
  6
CONTINUOUS
 62
    80
  5
8CB
 10
204.038125
 20
-70.852128
 30
0.0
  0
VERTEX
  8
0
  6
CONTINUOUS
 62
    80
  5
8CC
 10
203.919892
 20
-70.924185
 30
0.0
  0
VERTEX
  8
0
  6
CONTINUOUS
 62
    80
  5
8CD
 10
203.801461
 20
-70.995916
 30
0.0
  0
VERTEX
  8
0
  6
CONTINUOUS
 62
    80
  5
8CE
 10
203.682831
 20
-71.067322
 30
0.0
  0
VERTEX
  8
0
  6
CONTINUOUS
 62
    80
  5
8CF
 10
203.564004
 20
-71.138401
 30
0.0
  0
VERTEX
  8
0
  6
CONTINUOUS
 62
    80
  5
8D0
 10
203.444981
 20
-71.209153
 30
0.0
  0
VERTEX
  8
0
  6
CONTINUOUS
 62
    80
  5
8D1
 10
203.325764
 20
-71.279576
 30
0.0
  0
VERTEX
  8
0
  6
CONTINUOUS
 62
    80
  5
8D2
 10
203.206354
 20
-71.349671
 30
0.0
  0
VERTEX
  8
0
  6
CONTINUOUS
 62
    80
  5
8D3
 10
203.086752
 20
-71.419435
 30
0.0
  0
VERTEX
  8
0
  6
CONTINUOUS
 62
    80
  5
8D4
 10
202.966959
 20
-71.488868
 30
0.0
  0
VERTEX
  8
0
  6
CONTINUOUS
 62
    80
  5
8D5
 10
202.846977
 20
-71.55797
 30
0.0
  0
VERTEX
  8
0
  6
CONTINUOUS
 62
    80
  5
8D6
 10
202.726806
 20
-71.626739
 30
0.0
  0
VERTEX
  8
0
  6
CONTINUOUS
 62
    80
  5
8D7
 10
202.606449
 20
-71.695174
 30
0.0
  0
SEQEND
  8
0
  6
CONTINUOUS
 62
    80
  5
8D8
  0
POLYLINE
  8
0
  6
CONTINUOUS
 62
    80
  5
31D
 66
     1
 10
0.0
 20
0.0
 30
0.0
  0
VERTEX
  8
0
  6
CONTINUOUS
 62
    80
  5
8D9
 10
197.544128
 20
-70.25
 30
0.0
  0
VERTEX
  8
0
  6
CONTINUOUS
 62
    80
  5
8DA
 10
197.609168
 20
-70.370536
 30
0.0
  0
VERTEX
  8
0
  6
CONTINUOUS
 62
    80
  5
8DB
 10
197.674208
 20
-70.491072
 30
0.0
  0
VERTEX
  8
0
  6
CONTINUOUS
 62
    80
  5
8DC
 10
197.739248
 20
-70.611609
 30
0.0
  0
VERTEX
  8
0
  6
CONTINUOUS
 62
    80
  5
8DD
 10
197.804289
 20
-70.732146
 30
0.0
  0
VERTEX
  8
0
  6
CONTINUOUS
 62
    80
  5
8DE
 10
197.86933
 20
-70.852683
 30
0.0
  0
VERTEX
  8
0
  6
CONTINUOUS
 62
    80
  5
8DF
 10
197.934371
 20
-70.97322
 30
0.0
  0
VERTEX
  8
0
  6
CONTINUOUS
 62
    80
  5
8E0
 10
197.999412
 20
-71.093757
 30
0.0
  0
VERTEX
  8
0
  6
CONTINUOUS
 62
    80
  5
8E1
 10
198.064453
 20
-71.214294
 30
0.0
  0
VERTEX
  8
0
  6
CONTINUOUS
 62
    80
  5
8E2
 10
198.129494
 20
-71.334832
 30
0.0
  0
VERTEX
  8
0
  6
CONTINUOUS
 62
    80
  5
8E3
 10
198.194535
 20
-71.455369
 30
0.0
  0
VERTEX
  8
0
  6
CONTINUOUS
 62
    80
  5
8E4
 10
198.259577
 20
-71.575906
 30
0.0
  0
VERTEX
  8
0
  6
CONTINUOUS
 62
    80
  5
8E5
 10
198.324617
 20
-71.696443
 30
0.0
  0
VERTEX
  8
0
  6
CONTINUOUS
 62
    80
  5
8E6
 10
198.389658
 20
-71.81698
 30
0.0
  0
VERTEX
  8
0
  6
CONTINUOUS
 62
    80
  5
8E7
 10
198.454698
 20
-71.937517
 30
0.0
  0
VERTEX
  8
0
  6
CONTINUOUS
 62
    80
  5
8E8
 10
198.519738
 20
-72.058053
 30
0.0
  0
VERTEX
  8
0
  6
CONTINUOUS
 62
    80
  5
8E9
 10
198.584778
 20
-72.178589
 30
0.0
  0
SEQEND
  8
0
  6
CONTINUOUS
 62
    80
  5
8EA
  0
POLYLINE
  8
0
  6
CONTINUOUS
 62
    80
  5
31E
 66
     1
 10
0.0
 20
0.0
 30
0.0
  0
VERTEX
  8
0
  6
CONTINUOUS
 62
    80
  5
8EB
 10
194.709534
 20
-70.25
 30
0.0
  0
VERTEX
  8
0
  6
CONTINUOUS
 62
    80
  5
8EC
 10
194.644494
 20
-70.370536
 30
0.0
  0
VERTEX
  8
0
  6
CONTINUOUS
 62
    80
  5
8ED
 10
194.579454
 20
-70.491072
 30
0.0
  0
VERTEX
  8
0
  6
CONTINUOUS
 62
    80
  5
8EE
 10
194.514414
 20
-70.611609
 30
0.0
  0
VERTEX
  8
0
  6
CONTINUOUS
 62
    80
  5
8EF
 10
194.449373
 20
-70.732146
 30
0.0
  0
VERTEX
  8
0
  6
CONTINUOUS
 62
    80
  5
8F0
 10
194.384332
 20
-70.852683
 30
0.0
  0
VERTEX
  8
0
  6
CONTINUOUS
 62
    80
  5
8F1
 10
194.319291
 20
-70.97322
 30
0.0
  0
VERTEX
  8
0
  6
CONTINUOUS
 62
    80
  5
8F2
 10
194.25425
 20
-71.093757
 30
0.0
  0
VERTEX
  8
0
  6
CONTINUOUS
 62
    80
  5
8F3
 10
194.189209
 20
-71.214294
 30
0.0
  0
VERTEX
  8
0
  6
CONTINUOUS
 62
    80
  5
8F4
 10
194.124168
 20
-71.334832
 30
0.0
  0
VERTEX
  8
0
  6
CONTINUOUS
 62
    80
  5
8F5
 10
194.059127
 20
-71.455369
 30
0.0
  0
VERTEX
  8
0
  6
CONTINUOUS
 62
    80
  5
8F6
 10
193.994086
 20
-71.575906
 30
0.0
  0
VERTEX
  8
0
  6
CONTINUOUS
 62
    80
  5
8F7
 10
193.929045
 20
-71.696443
 30
0.0
  0
VERTEX
  8
0
  6
CONTINUOUS
 62
    80
  5
8F8
 10
193.864004
 20
-71.81698
 30
0.0
  0
VERTEX
  8
0
  6
CONTINUOUS
 62
    80
  5
8F9
 10
193.798964
 20
-71.937517
 30
0.0
  0
VERTEX
  8
0
  6
CONTINUOUS
 62
    80
  5
8FA
 10
193.733924
 20
-72.058053
 30
0.0
  0
VERTEX
  8
0
  6
CONTINUOUS
 62
    80
  5
8FB
 10
193.668884
 20
-72.178589
 30
0.0
  0
SEQEND
  8
0
  6
CONTINUOUS
 62
    80
  5
8FC
  0
POLYLINE
  8
0
  6
CONTINUOUS
 62
    80
  5
31F
 66
     1
 10
0.0
 20
0.0
 30
0.0
  0
VERTEX
  8
0
  6
CONTINUOUS
 62
    80
  5
8FD
 10
199.545105
 20
-70.25
 30
0.0
  0
VERTEX
  8
0
  6
CONTINUOUS
 62
    80
  5
8FE
 10
199.667138
 20
-70.410731
 30
0.0
  0
VERTEX
  8
0
  6
CONTINUOUS
 62
    80
  5
8FF
 10
199.789171
 20
-70.571464
 30
0.0
  0
VERTEX
  8
0
  6
CONTINUOUS
 62
    80
  5
900
 10
199.911203
 20
-70.732199
 30
0.0
  0
VERTEX
  8
0
  6
CONTINUOUS
 62
    80
  5
901
 10
200.033236
 20
-70.892935
 30
0.0
  0
VERTEX
  8
0
  6
CONTINUOUS
 62
    80
  5
902
 10
200.155268
 20
-71.053672
 30
0.0
  0
VERTEX
  8
0
  6
CONTINUOUS
 62
    80
  5
903
 10
200.277301
 20
-71.21441
 30
0.0
  0
VERTEX
  8
0
  6
CONTINUOUS
 62
    80
  5
904
 10
200.399333
 20
-71.375149
 30
0.0
  0
VERTEX
  8
0
  6
CONTINUOUS
 62
    80
  5
905
 10
200.521366
 20
-71.535888
 30
0.0
  0
VERTEX
  8
0
  6
CONTINUOUS
 62
    80
  5
906
 10
200.643398
 20
-71.696627
 30
0.0
  0
VERTEX
  8
0
  6
CONTINUOUS
 62
    80
  5
907
 10
200.76543
 20
-71.857367
 30
0.0
  0
VERTEX
  8
0
  6
CONTINUOUS
 62
    80
  5
908
 10
200.887462
 20
-72.018106
 30
0.0
  0
VERTEX
  8
0
  6
CONTINUOUS
 62
    80
  5
909
 10
201.009495
 20
-72.178844
 30
0.0
  0
VERTEX
  8
0
  6
CONTINUOUS
 62
    80
  5
90A
 10
201.131527
 20
-72.339582
 30
0.0
  0
VERTEX
  8
0
  6
CONTINUOUS
 62
    80
  5
90B
 10
201.25356
 20
-72.500319
 30
0.0
  0
VERTEX
  8
0
  6
CONTINUOUS
 62
    80
  5
90C
 10
201.375592
 20
-72.661055
 30
0.0
  0
VERTEX
  8
0
  6
CONTINUOUS
 62
    80
  5
90D
 10
201.497625
 20
-72.821789
 30
0.0
  0
SEQEND
  8
0
  6
CONTINUOUS
 62
    80
  5
90E
  0
POLYLINE
  8
0
  6
CONTINUOUS
 62
    80
  5
320
 66
     1
 10
0.0
 20
0.0
 30
0.0
  0
VERTEX
  8
0
  6
CONTINUOUS
 62
    80
  5
90F
 10
192.691528
 20
-70.25
 30
0.0
  0
VERTEX
  8
0
  6
CONTINUOUS
 62
    80
  5
910
 10
192.570657
 20
-70.410731
 30
0.0
  0
VERTEX
  8
0
  6
CONTINUOUS
 62
    80
  5
911
 10
192.449784
 20
-70.571464
 30
0.0
  0
VERTEX
  8
0
  6
CONTINUOUS
 62
    80
  5
912
 10
192.328912
 20
-70.732199
 30
0.0
  0
VERTEX
  8
0
  6
CONTINUOUS
 62
    80
  5
913
 10
192.208039
 20
-70.892935
 30
0.0
  0
VERTEX
  8
0
  6
CONTINUOUS
 62
    80
  5
914
 10
192.087166
 20
-71.053672
 30
0.0
  0
VERTEX
  8
0
  6
CONTINUOUS
 62
    80
  5
915
 10
191.966292
 20
-71.21441
 30
0.0
  0
VERTEX
  8
0
  6
CONTINUOUS
 62
    80
  5
916
 10
191.845419
 20
-71.375149
 30
0.0
  0
VERTEX
  8
0
  6
CONTINUOUS
 62
    80
  5
917
 10
191.724545
 20
-71.535888
 30
0.0
  0
VERTEX
  8
0
  6
CONTINUOUS
 62
    80
  5
918
 10
191.603671
 20
-71.696627
 30
0.0
  0
VERTEX
  8
0
  6
CONTINUOUS
 62
    80
  5
919
 10
191.482797
 20
-71.857367
 30
0.0
  0
VERTEX
  8
0
  6
CONTINUOUS
 62
    80
  5
91A
 10
191.361924
 20
-72.018106
 30
0.0
  0
VERTEX
  8
0
  6
CONTINUOUS
 62
    80
  5
91B
 10
191.24105
 20
-72.178844
 30
0.0
  0
VERTEX
  8
0
  6
CONTINUOUS
 62
    80
  5
91C
 10
191.120177
 20
-72.339582
 30
0.0
  0
VERTEX
  8
0
  6
CONTINUOUS
 62
    80
  5
91D
 10
190.999304
 20
-72.500319
 30
0.0
  0
VERTEX
  8
0
  6
CONTINUOUS
 62
    80
  5
91E
 10
190.878431
 20
-72.661055
 30
0.0
  0
VERTEX
  8
0
  6
CONTINUOUS
 62
    80
  5
91F
 10
190.757558
 20
-72.821789
 30
0.0
  0
SEQEND
  8
0
  6
CONTINUOUS
 62
    80
  5
920
  0
POLYLINE
  8
0
  6
CONTINUOUS
 62
    80
  5
321
 66
     1
 10
0.0
 20
0.0
 30
0.0
  0
VERTEX
  8
0
  6
CONTINUOUS
 62
    80
  5
921
 10
196.128601
 20
-66.382568
 30
0.0
  0
VERTEX
  8
0
  6
CONTINUOUS
 62
    80
  5
922
 10
196.132042
 20
-66.383761
 30
0.0
  0
VERTEX
  8
0
  6
CONTINUOUS
 62
    80
  5
923
 10
196.135483
 20
-66.384953
 30
0.0
  0
VERTEX
  8
0
  6
CONTINUOUS
 62
    80
  5
924
 10
196.138924
 20
-66.386144
 30
0.0
  0
VERTEX
  8
0
  6
CONTINUOUS
 62
    80
  5
925
 10
196.142365
 20
-66.387334
 30
0.0
  0
VERTEX
  8
0
  6
CONTINUOUS
 62
    80
  5
926
 10
196.145806
 20
-66.388525
 30
0.0
  0
VERTEX
  8
0
  6
CONTINUOUS
 62
    80
  5
927
 10
196.149247
 20
-66.389714
 30
0.0
  0
VERTEX
  8
0
  6
CONTINUOUS
 62
    80
  5
928
 10
196.152688
 20
-66.390904
 30
0.0
  0
VERTEX
  8
0
  6
CONTINUOUS
 62
    80
  5
929
 10
196.156129
 20
-66.392093
 30
0.0
  0
VERTEX
  8
0
  6
CONTINUOUS
 62
    80
  5
92A
 10
196.15957
 20
-66.393282
 30
0.0
  0
VERTEX
  8
0
  6
CONTINUOUS
 62
    80
  5
92B
 10
196.163011
 20
-66.394472
 30
0.0
  0
VERTEX
  8
0
  6
CONTINUOUS
 62
    80
  5
92C
 10
196.166452
 20
-66.395661
 30
0.0
  0
VERTEX
  8
0
  6
CONTINUOUS
 62
    80
  5
92D
 10
196.169892
 20
-66.39685
 30
0.0
  0
VERTEX
  8
0
  6
CONTINUOUS
 62
    80
  5
92E
 10
196.173333
 20
-66.39804
 30
0.0
  0
VERTEX
  8
0
  6
CONTINUOUS
 62
    80
  5
92F
 10
196.176774
 20
-66.39923
 30
0.0
  0
VERTEX
  8
0
  6
CONTINUOUS
 62
    80
  5
930
 10
196.180214
 20
-66.40042
 30
0.0
  0
VERTEX
  8
0
  6
CONTINUOUS
 62
    80
  5
931
 10
196.183655
 20
-66.401611
 30
0.0
  0
VERTEX
  8
0
  6
CONTINUOUS
 62
    80
  5
932
 10
196.525044
 20
-66.519349
 30
0.0
  0
VERTEX
  8
0
  6
CONTINUOUS
 62
    80
  5
933
 10
196.866718
 20
-66.636278
 30
0.0
  0
VERTEX
  8
0
  6
CONTINUOUS
 62
    80
  5
934
 10
197.208675
 20
-66.752398
 30
0.0
  0
VERTEX
  8
0
  6
CONTINUOUS
 62
    80
  5
935
 10
197.550911
 20
-66.867708
 30
0.0
  0
VERTEX
  8
0
  6
CONTINUOUS
 62
    80
  5
936
 10
197.893425
 20
-66.982207
 30
0.0
  0
VERTEX
  8
0
  6
CONTINUOUS
 62
    80
  5
937
 10
198.236212
 20
-67.095894
 30
0.0
  0
VERTEX
  8
0
  6
CONTINUOUS
 62
    80
  5
938
 10
198.579271
 20
-67.208769
 30
0.0
  0
VERTEX
  8
0
  6
CONTINUOUS
 62
    80
  5
939
 10
198.922597
 20
-67.320829
 30
0.0
  0
VERTEX
  8
0
  6
CONTINUOUS
 62
    80
  5
93A
 10
199.266189
 20
-67.432074
 30
0.0
  0
VERTEX
  8
0
  6
CONTINUOUS
 62
    80
  5
93B
 10
199.610043
 20
-67.542504
 30
0.0
  0
VERTEX
  8
0
  6
CONTINUOUS
 62
    80
  5
93C
 10
199.954156
 20
-67.652117
 30
0.0
  0
VERTEX
  8
0
  6
CONTINUOUS
 62
    80
  5
93D
 10
200.298526
 20
-67.760912
 30
0.0
  0
VERTEX
  8
0
  6
CONTINUOUS
 62
    80
  5
93E
 10
200.64315
 20
-67.868888
 30
0.0
  0
VERTEX
  8
0
  6
CONTINUOUS
 62
    80
  5
93F
 10
200.988025
 20
-67.976044
 30
0.0
  0
VERTEX
  8
0
  6
CONTINUOUS
 62
    80
  5
940
 10
201.333147
 20
-68.08238
 30
0.0
  0
VERTEX
  8
0
  6
CONTINUOUS
 62
    80
  5
941
 10
201.678515
 20
-68.187894
 30
0.0
  0
SEQEND
  8
0
  6
CONTINUOUS
 62
    80
  5
942
  0
POLYLINE
  8
0
  6
CONTINUOUS
 62
    80
  5
322
 66
     1
 10
0.0
 20
0.0
 30
0.0
  0
VERTEX
  8
0
  6
CONTINUOUS
 62
    80
  5
943
 10
190.579076
 20
-68.187756
 30
0.0
  0
VERTEX
  8
0
  6
CONTINUOUS
 62
    80
  5
944
 10
190.924385
 20
-68.082233
 30
0.0
  0
VERTEX
  8
0
  6
CONTINUOUS
 62
    80
  5
945
 10
191.269436
 20
-67.975897
 30
0.0
  0
VERTEX
  8
0
  6
CONTINUOUS
 62
    80
  5
946
 10
191.614228
 20
-67.868748
 30
0.0
  0
VERTEX
  8
0
  6
CONTINUOUS
 62
    80
  5
947
 10
191.958764
 20
-67.760786
 30
0.0
  0
VERTEX
  8
0
  6
CONTINUOUS
 62
    80
  5
948
 10
192.303043
 20
-67.652009
 30
0.0
  0
VERTEX
  8
0
  6
CONTINUOUS
 62
    80
  5
949
 10
192.647068
 20
-67.542418
 30
0.0
  0
VERTEX
  8
0
  6
CONTINUOUS
 62
    80
  5
94A
 10
192.990839
 20
-67.432012
 30
0.0
  0
VERTEX
  8
0
  6
CONTINUOUS
 62
    80
  5
94B
 10
193.334357
 20
-67.32079
 30
0.0
  0
VERTEX
  8
0
  6
CONTINUOUS
 62
    80
  5
94C
 10
193.677624
 20
-67.208753
 30
0.0
  0
VERTEX
  8
0
  6
CONTINUOUS
 62
    80
  5
94D
 10
194.020641
 20
-67.0959
 30
0.0
  0
VERTEX
  8
0
  6
CONTINUOUS
 62
    80
  5
94E
 10
194.363409
 20
-66.982229
 30
0.0
  0
VERTEX
  8
0
  6
CONTINUOUS
 62
    80
  5
94F
 10
194.705928
 20
-66.867742
 30
0.0
  0
VERTEX
  8
0
  6
CONTINUOUS
 62
    80
  5
950
 10
195.048201
 20
-66.752437
 30
0.0
  0
VERTEX
  8
0
  6
CONTINUOUS
 62
    80
  5
951
 10
195.390227
 20
-66.636314
 30
0.0
  0
VERTEX
  8
0
  6
CONTINUOUS
 62
    80
  5
952
 10
195.732009
 20
-66.519372
 30
0.0
  0
VERTEX
  8
0
  6
CONTINUOUS
 62
    80
  5
953
 10
196.073547
 20
-66.401611
 30
0.0
  0
VERTEX
  8
0
  6
CONTINUOUS
 62
    80
  5
954
 10
196.07699
 20
-66.40042
 30
0.0
  0
VERTEX
  8
0
  6
CONTINUOUS
 62
    80
  5
955
 10
196.080431
 20
-66.39923
 30
0.0
  0
VERTEX
  8
0
  6
CONTINUOUS
 62
    80
  5
956
 10
196.083873
 20
-66.398039
 30
0.0
  0
VERTEX
  8
0
  6
CONTINUOUS
 62
    80
  5
957
 10
196.087314
 20
-66.39685
 30
0.0
  0
VERTEX
  8
0
  6
CONTINUOUS
 62
    80
  5
958
 10
196.090754
 20
-66.39566
 30
0.0
  0
VERTEX
  8
0
  6
CONTINUOUS
 62
    80
  5
959
 10
196.094195
 20
-66.394471
 30
0.0
  0
VERTEX
  8
0
  6
CONTINUOUS
 62
    80
  5
95A
 10
196.097635
 20
-66.393282
 30
0.0
  0
VERTEX
  8
0
  6
CONTINUOUS
 62
    80
  5
95B
 10
196.101075
 20
-66.392092
 30
0.0
  0
VERTEX
  8
0
  6
CONTINUOUS
 62
    80
  5
95C
 10
196.104515
 20
-66.390903
 30
0.0
  0
VERTEX
  8
0
  6
CONTINUOUS
 62
    80
  5
95D
 10
196.107955
 20
-66.389714
 30
0.0
  0
VERTEX
  8
0
  6
CONTINUOUS
 62
    80
  5
95E
 10
196.111396
 20
-66.388524
 30
0.0
  0
VERTEX
  8
0
  6
CONTINUOUS
 62
    80
  5
95F
 10
196.114836
 20
-66.387334
 30
0.0
  0
VERTEX
  8
0
  6
CONTINUOUS
 62
    80
  5
960
 10
196.118277
 20
-66.386144
 30
0.0
  0
VERTEX
  8
0
  6
CONTINUOUS
 62
    80
  5
961
 10
196.121718
 20
-66.384952
 30
0.0
  0
VERTEX
  8
0
  6
CONTINUOUS
 62
    80
  5
962
 10
196.125159
 20
-66.383761
 30
0.0
  0
VERTEX
  8
0
  6
CONTINUOUS
 62
    80
  5
963
 10
196.128601
 20
-66.382568
 30
0.0
  0
SEQEND
  8
0
  6
CONTINUOUS
 62
    80
  5
964
  0
POLYLINE
  8
0
  6
CONTINUOUS
 62
    80
  5
323
 66
     1
 10
0.0
 20
0.0
 30
0.0
  0
VERTEX
  8
0
  6
CONTINUOUS
 62
    80
  5
965
 10
173.264343
 20
-70.712646
 30
0.0
  0
VERTEX
  8
0
  6
CONTINUOUS
 62
    80
  5
966
 10
173.246184
 20
-70.731228
 30
0.0
  0
VERTEX
  8
0
  6
CONTINUOUS
 62
    80
  5
967
 10
173.227997
 20
-70.749782
 30
0.0
  0
VERTEX
  8
0
  6
CONTINUOUS
 62
    80
  5
968
 10
173.209783
 20
-70.768307
 30
0.0
  0
VERTEX
  8
0
  6
CONTINUOUS
 62
    80
  5
969
 10
173.191542
 20
-70.786804
 30
0.0
  0
VERTEX
  8
0
  6
CONTINUOUS
 62
    80
  5
96A
 10
173.173272
 20
-70.805272
 30
0.0
  0
VERTEX
  8
0
  6
CONTINUOUS
 62
    80
  5
96B
 10
173.154975
 20
-70.823713
 30
0.0
  0
VERTEX
  8
0
  6
CONTINUOUS
 62
    80
  5
96C
 10
173.136651
 20
-70.842126
 30
0.0
  0
VERTEX
  8
0
  6
CONTINUOUS
 62
    80
  5
96D
 10
173.118298
 20
-70.86051
 30
0.0
  0
VERTEX
  8
0
  6
CONTINUOUS
 62
    80
  5
96E
 10
173.099917
 20
-70.878867
 30
0.0
  0
VERTEX
  8
0
  6
CONTINUOUS
 62
    80
  5
96F
 10
173.081508
 20
-70.897196
 30
0.0
  0
VERTEX
  8
0
  6
CONTINUOUS
 62
    80
  5
970
 10
173.063071
 20
-70.915498
 30
0.0
  0
VERTEX
  8
0
  6
CONTINUOUS
 62
    80
  5
971
 10
173.044606
 20
-70.933771
 30
0.0
  0
VERTEX
  8
0
  6
CONTINUOUS
 62
    80
  5
972
 10
173.026112
 20
-70.952018
 30
0.0
  0
VERTEX
  8
0
  6
CONTINUOUS
 62
    80
  5
973
 10
173.007589
 20
-70.970236
 30
0.0
  0
VERTEX
  8
0
  6
CONTINUOUS
 62
    80
  5
974
 10
172.989039
 20
-70.988428
 30
0.0
  0
VERTEX
  8
0
  6
CONTINUOUS
 62
    80
  5
975
 10
172.970459
 20
-71.006592
 30
0.0
  0
VERTEX
  8
0
  6
CONTINUOUS
 62
    80
  5
976
 10
172.866023
 20
-71.107667
 30
0.0
  0
VERTEX
  8
0
  6
CONTINUOUS
 62
    80
  5
977
 10
172.760704
 20
-71.207867
 30
0.0
  0
VERTEX
  8
0
  6
CONTINUOUS
 62
    80
  5
978
 10
172.654514
 20
-71.307183
 30
0.0
  0
VERTEX
  8
0
  6
CONTINUOUS
 62
    80
  5
979
 10
172.547465
 20
-71.405607
 30
0.0
  0
VERTEX
  8
0
  6
CONTINUOUS
 62
    80
  5
97A
 10
172.43957
 20
-71.503129
 30
0.0
  0
VERTEX
  8
0
  6
CONTINUOUS
 62
    80
  5
97B
 10
172.330841
 20
-71.59974
 30
0.0
  0
VERTEX
  8
0
  6
CONTINUOUS
 62
    80
  5
97C
 10
172.22129
 20
-71.695433
 30
0.0
  0
VERTEX
  8
0
  6
CONTINUOUS
 62
    80
  5
97D
 10
172.110929
 20
-71.790199
 30
0.0
  0
VERTEX
  8
0
  6
CONTINUOUS
 62
    80
  5
97E
 10
171.999771
 20
-71.884028
 30
0.0
  0
VERTEX
  8
0
  6
CONTINUOUS
 62
    80
  5
97F
 10
171.887827
 20
-71.976912
 30
0.0
  0
VERTEX
  8
0
  6
CONTINUOUS
 62
    80
  5
980
 10
171.775111
 20
-72.068843
 30
0.0
  0
VERTEX
  8
0
  6
CONTINUOUS
 62
    80
  5
981
 10
171.661634
 20
-72.159811
 30
0.0
  0
VERTEX
  8
0
  6
CONTINUOUS
 62
    80
  5
982
 10
171.547408
 20
-72.249808
 30
0.0
  0
VERTEX
  8
0
  6
CONTINUOUS
 62
    80
  5
983
 10
171.432446
 20
-72.338825
 30
0.0
  0
VERTEX
  8
0
  6
CONTINUOUS
 62
    80
  5
984
 10
171.31676
 20
-72.426853
 30
0.0
  0
VERTEX
  8
0
  6
CONTINUOUS
 62
    80
  5
985
 10
171.200363
 20
-72.513884
 30
0.0
  0
SEQEND
  8
0
  6
CONTINUOUS
 62
    80
  5
986
  0
POLYLINE
  8
0
  6
CONTINUOUS
 62
    80
  5
324
 66
     1
 10
0.0
 20
0.0
 30
0.0
  0
VERTEX
  8
0
  6
CONTINUOUS
 62
    80
  5
987
 10
168.907166
 20
-68.345459
 30
0.0
  0
VERTEX
  8
0
  6
CONTINUOUS
 62
    80
  5
988
 10
168.910139
 20
-68.349331
 30
0.0
  0
VERTEX
  8
0
  6
CONTINUOUS
 62
    80
  5
989
 10
168.913114
 20
-68.3532
 30
0.0
  0
VERTEX
  8
0
  6
CONTINUOUS
 62
    80
  5
98A
 10
168.91609
 20
-68.357067
 30
0.0
  0
VERTEX
  8
0
  6
CONTINUOUS
 62
    80
  5
98B
 10
168.919069
 20
-68.360932
 30
0.0
  0
VERTEX
  8
0
  6
CONTINUOUS
 62
    80
  5
98C
 10
168.922048
 20
-68.364796
 30
0.0
  0
VERTEX
  8
0
  6
CONTINUOUS
 62
    80
  5
98D
 10
168.925029
 20
-68.368658
 30
0.0
  0
VERTEX
  8
0
  6
CONTINUOUS
 62
    80
  5
98E
 10
168.928011
 20
-68.372519
 30
0.0
  0
VERTEX
  8
0
  6
CONTINUOUS
 62
    80
  5
98F
 10
168.930995
 20
-68.376378
 30
0.0
  0
VERTEX
  8
0
  6
CONTINUOUS
 62
    80
  5
990
 10
168.933979
 20
-68.380236
 30
0.0
  0
VERTEX
  8
0
  6
CONTINUOUS
 62
    80
  5
991
 10
168.936965
 20
-68.384093
 30
0.0
  0
VERTEX
  8
0
  6
CONTINUOUS
 62
    80
  5
992
 10
168.939951
 20
-68.38795
 30
0.0
  0
VERTEX
  8
0
  6
CONTINUOUS
 62
    80
  5
993
 10
168.942939
 20
-68.391806
 30
0.0
  0
VERTEX
  8
0
  6
CONTINUOUS
 62
    80
  5
994
 10
168.945927
 20
-68.395661
 30
0.0
  0
VERTEX
  8
0
  6
CONTINUOUS
 62
    80
  5
995
 10
168.948916
 20
-68.399516
 30
0.0
  0
VERTEX
  8
0
  6
CONTINUOUS
 62
    80
  5
996
 10
168.951905
 20
-68.403371
 30
0.0
  0
VERTEX
  8
0
  6
CONTINUOUS
 62
    80
  5
997
 10
168.954895
 20
-68.407227
 30
0.0
  0
VERTEX
  8
0
  6
CONTINUOUS
 62
    80
  5
998
 10
169.047268
 20
-68.525115
 30
0.0
  0
VERTEX
  8
0
  6
CONTINUOUS
 62
    80
  5
999
 10
169.14083
 20
-68.642132
 30
0.0
  0
VERTEX
  8
0
  6
CONTINUOUS
 62
    80
  5
99A
 10
169.235566
 20
-68.758263
 30
0.0
  0
VERTEX
  8
0
  6
CONTINUOUS
 62
    80
  5
99B
 10
169.33146
 20
-68.873493
 30
0.0
  0
VERTEX
  8
0
  6
CONTINUOUS
 62
    80
  5
99C
 10
169.428496
 20
-68.98781
 30
0.0
  0
VERTEX
  8
0
  6
CONTINUOUS
 62
    80
  5
99D
 10
169.526659
 20
-69.101198
 30
0.0
  0
VERTEX
  8
0
  6
CONTINUOUS
 62
    80
  5
99E
 10
169.625933
 20
-69.213644
 30
0.0
  0
VERTEX
  8
0
  6
CONTINUOUS
 62
    80
  5
99F
 10
169.726302
 20
-69.325133
 30
0.0
  0
VERTEX
  8
0
  6
CONTINUOUS
 62
    80
  5
9A0
 10
169.82775
 20
-69.435652
 30
0.0
  0
VERTEX
  8
0
  6
CONTINUOUS
 62
    80
  5
9A1
 10
169.930262
 20
-69.545187
 30
0.0
  0
VERTEX
  8
0
  6
CONTINUOUS
 62
    80
  5
9A2
 10
170.033823
 20
-69.653723
 30
0.0
  0
VERTEX
  8
0
  6
CONTINUOUS
 62
    80
  5
9A3
 10
170.138415
 20
-69.761246
 30
0.0
  0
VERTEX
  8
0
  6
CONTINUOUS
 62
    80
  5
9A4
 10
170.244025
 20
-69.867743
 30
0.0
  0
VERTEX
  8
0
  6
CONTINUOUS
 62
    80
  5
9A5
 10
170.350636
 20
-69.973199
 30
0.0
  0
VERTEX
  8
0
  6
CONTINUOUS
 62
    80
  5
9A6
 10
170.458232
 20
-70.0776
 30
0.0
  0
VERTEX
  8
0
  6
CONTINUOUS
 62
    80
  5
9A7
 10
170.566797
 20
-70.180932
 30
0.0
  0
SEQEND
  8
0
  6
CONTINUOUS
 62
    80
  5
9A8
  0
POLYLINE
  8
0
  6
CONTINUOUS
 62
    80
  5
325
 66
     1
 10
0.0
 20
0.0
 30
0.0
  0
VERTEX
  8
0
  6
CONTINUOUS
 62
    80
  5
9A9
 10
168.907166
 20
-69.887817
 30
0.0
  0
VERTEX
  8
0
  6
CONTINUOUS
 62
    80
  5
9AA
 10
168.925524
 20
-69.904287
 30
0.0
  0
VERTEX
  8
0
  6
CONTINUOUS
 62
    80
  5
9AB
 10
168.943891
 20
-69.920747
 30
0.0
  0
VERTEX
  8
0
  6
CONTINUOUS
 62
    80
  5
9AC
 10
168.962267
 20
-69.937197
 30
0.0
  0
VERTEX
  8
0
  6
CONTINUOUS
 62
    80
  5
9AD
 10
168.980653
 20
-69.953637
 30
0.0
  0
VERTEX
  8
0
  6
CONTINUOUS
 62
    80
  5
9AE
 10
168.999047
 20
-69.970067
 30
0.0
  0
VERTEX
  8
0
  6
CONTINUOUS
 62
    80
  5
9AF
 10
169.01745
 20
-69.986487
 30
0.0
  0
VERTEX
  8
0
  6
CONTINUOUS
 62
    80
  5
9B0
 10
169.035863
 20
-70.002897
 30
0.0
  0
VERTEX
  8
0
  6
CONTINUOUS
 62
    80
  5
9B1
 10
169.054284
 20
-70.019298
 30
0.0
  0
VERTEX
  8
0
  6
CONTINUOUS
 62
    80
  5
9B2
 10
169.072714
 20
-70.035688
 30
0.0
  0
VERTEX
  8
0
  6
CONTINUOUS
 62
    80
  5
9B3
 10
169.091152
 20
-70.052068
 30
0.0
  0
VERTEX
  8
0
  6
CONTINUOUS
 62
    80
  5
9B4
 10
169.1096
 20
-70.068439
 30
0.0
  0
VERTEX
  8
0
  6
CONTINUOUS
 62
    80
  5
9B5
 10
169.128056
 20
-70.0848
 30
0.0
  0
VERTEX
  8
0
  6
CONTINUOUS
 62
    80
  5
9B6
 10
169.14652
 20
-70.101151
 30
0.0
  0
VERTEX
  8
0
  6
CONTINUOUS
 62
    80
  5
9B7
 10
169.164993
 20
-70.117493
 30
0.0
  0
VERTEX
  8
0
  6
CONTINUOUS
 62
    80
  5
9B8
 10
169.183475
 20
-70.133824
 30
0.0
  0
VERTEX
  8
0
  6
CONTINUOUS
 62
    80
  5
9B9
 10
169.201965
 20
-70.150146
 30
0.0
  0
VERTEX
  8
0
  6
CONTINUOUS
 62
    80
  5
9BA
 10
169.254888
 20
-70.196767
 30
0.0
  0
VERTEX
  8
0
  6
CONTINUOUS
 62
    80
  5
9BB
 10
169.307882
 20
-70.243307
 30
0.0
  0
VERTEX
  8
0
  6
CONTINUOUS
 62
    80
  5
9BC
 10
169.360948
 20
-70.289767
 30
0.0
  0
VERTEX
  8
0
  6
CONTINUOUS
 62
    80
  5
9BD
 10
169.414086
 20
-70.336146
 30
0.0
  0
VERTEX
  8
0
  6
CONTINUOUS
 62
    80
  5
9BE
 10
169.467294
 20
-70.382444
 30
0.0
  0
VERTEX
  8
0
  6
CONTINUOUS
 62
    80
  5
9BF
 10
169.520574
 20
-70.428661
 30
0.0
  0
VERTEX
  8
0
  6
CONTINUOUS
 62
    80
  5
9C0
 10
169.573925
 20
-70.474796
 30
0.0
  0
VERTEX
  8
0
  6
CONTINUOUS
 62
    80
  5
9C1
 10
169.627346
 20
-70.52085
 30
0.0
  0
VERTEX
  8
0
  6
CONTINUOUS
 62
    80
  5
9C2
 10
169.680838
 20
-70.566822
 30
0.0
  0
VERTEX
  8
0
  6
CONTINUOUS
 62
    80
  5
9C3
 10
169.7344
 20
-70.612712
 30
0.0
  0
VERTEX
  8
0
  6
CONTINUOUS
 62
    80
  5
9C4
 10
169.788032
 20
-70.65852
 30
0.0
  0
VERTEX
  8
0
  6
CONTINUOUS
 62
    80
  5
9C5
 10
169.841735
 20
-70.704245
 30
0.0
  0
VERTEX
  8
0
  6
CONTINUOUS
 62
    80
  5
9C6
 10
169.895507
 20
-70.749888
 30
0.0
  0
VERTEX
  8
0
  6
CONTINUOUS
 62
    80
  5
9C7
 10
169.949349
 20
-70.795448
 30
0.0
  0
VERTEX
  8
0
  6
CONTINUOUS
 62
    80
  5
9C8
 10
170.00326
 20
-70.840925
 30
0.0
  0
VERTEX
  8
0
  6
CONTINUOUS
 62
    80
  5
9C9
 10
170.057241
 20
-70.886318
 30
0.0
  0
SEQEND
  8
0
  6
CONTINUOUS
 62
    80
  5
9CA
  0
POLYLINE
  8
0
  6
CONTINUOUS
 62
    80
  5
326
 66
     1
 10
0.0
 20
0.0
 30
0.0
  0
VERTEX
  8
0
  6
CONTINUOUS
 62
    80
  5
9CB
 10
167.407166
 20
-70.076782
 30
0.0
  0
VERTEX
  8
0
  6
CONTINUOUS
 62
    80
  5
9CC
 10
167.387889
 20
-70.100386
 30
0.0
  0
VERTEX
  8
0
  6
CONTINUOUS
 62
    80
  5
9CD
 10
167.368589
 20
-70.123969
 30
0.0
  0
VERTEX
  8
0
  6
CONTINUOUS
 62
    80
  5
9CE
 10
167.349266
 20
-70.147532
 30
0.0
  0
VERTEX
  8
0
  6
CONTINUOUS
 62
    80
  5
9CF
 10
167.329918
 20
-70.171074
 30
0.0
  0
VERTEX
  8
0
  6
CONTINUOUS
 62
    80
  5
9D0
 10
167.310547
 20
-70.194596
 30
0.0
  0
VERTEX
  8
0
  6
CONTINUOUS
 62
    80
  5
9D1
 10
167.291152
 20
-70.218098
 30
0.0
  0
VERTEX
  8
0
  6
CONTINUOUS
 62
    80
  5
9D2
 10
167.271733
 20
-70.24158
 30
0.0
  0
VERTEX
  8
0
  6
CONTINUOUS
 62
    80
  5
9D3
 10
167.25229
 20
-70.265042
 30
0.0
  0
VERTEX
  8
0
  6
CONTINUOUS
 62
    80
  5
9D4
 10
167.232823
 20
-70.288484
 30
0.0
  0
VERTEX
  8
0
  6
CONTINUOUS
 62
    80
  5
9D5
 10
167.213333
 20
-70.311906
 30
0.0
  0
VERTEX
  8
0
  6
CONTINUOUS
 62
    80
  5
9D6
 10
167.193818
 20
-70.335308
 30
0.0
  0
VERTEX
  8
0
  6
CONTINUOUS
 62
    80
  5
9D7
 10
167.17428
 20
-70.358691
 30
0.0
  0
VERTEX
  8
0
  6
CONTINUOUS
 62
    80
  5
9D8
 10
167.154717
 20
-70.382054
 30
0.0
  0
VERTEX
  8
0
  6
CONTINUOUS
 62
    80
  5
9D9
 10
167.135131
 20
-70.405398
 30
0.0
  0
VERTEX
  8
0
  6
CONTINUOUS
 62
    80
  5
9DA
 10
167.115521
 20
-70.428722
 30
0.0
  0
VERTEX
  8
0
  6
CONTINUOUS
 62
    80
  5
9DB
 10
167.095886
 20
-70.452026
 30
0.0
  0
VERTEX
  8
0
  6
CONTINUOUS
 62
    80
  5
9DC
 10
167.036724
 20
-70.521958
 30
0.0
  0
VERTEX
  8
0
  6
CONTINUOUS
 62
    80
  5
9DD
 10
166.977345
 20
-70.59171
 30
0.0
  0
VERTEX
  8
0
  6
CONTINUOUS
 62
    80
  5
9DE
 10
166.917751
 20
-70.661282
 30
0.0
  0
VERTEX
  8
0
  6
CONTINUOUS
 62
    80
  5
9DF
 10
166.857941
 20
-70.730672
 30
0.0
  0
VERTEX
  8
0
  6
CONTINUOUS
 62
    80
  5
9E0
 10
166.797918
 20
-70.79988
 30
0.0
  0
VERTEX
  8
0
  6
CONTINUOUS
 62
    80
  5
9E1
 10
166.737682
 20
-70.868905
 30
0.0
  0
VERTEX
  8
0
  6
CONTINUOUS
 62
    80
  5
9E2
 10
166.677234
 20
-70.937746
 30
0.0
  0
VERTEX
  8
0
  6
CONTINUOUS
 62
    80
  5
9E3
 10
166.616574
 20
-71.006402
 30
0.0
  0
VERTEX
  8
0
  6
CONTINUOUS
 62
    80
  5
9E4
 10
166.555704
 20
-71.074872
 30
0.0
  0
VERTEX
  8
0
  6
CONTINUOUS
 62
    80
  5
9E5
 10
166.494624
 20
-71.143156
 30
0.0
  0
VERTEX
  8
0
  6
CONTINUOUS
 62
    80
  5
9E6
 10
166.433335
 20
-71.211252
 30
0.0
  0
VERTEX
  8
0
  6
CONTINUOUS
 62
    80
  5
9E7
 10
166.371838
 20
-71.279159
 30
0.0
  0
VERTEX
  8
0
  6
CONTINUOUS
 62
    80
  5
9E8
 10
166.310134
 20
-71.346877
 30
0.0
  0
VERTEX
  8
0
  6
CONTINUOUS
 62
    80
  5
9E9
 10
166.248224
 20
-71.414405
 30
0.0
  0
VERTEX
  8
0
  6
CONTINUOUS
 62
    80
  5
9EA
 10
166.186107
 20
-71.481742
 30
0.0
  0
VERTEX
  8
0
  6
CONTINUOUS
 62
    80
  5
9EB
 10
166.123787
 20
-71.548887
 30
0.0
  0
SEQEND
  8
0
  6
CONTINUOUS
 62
    80
  5
9EC
  0
POLYLINE
  8
0
  6
CONTINUOUS
 62
    80
  5
327
 66
     1
 10
0.0
 20
0.0
 30
0.0
  0
VERTEX
  8
0
  6
CONTINUOUS
 62
    80
  5
9ED
 10
158.550049
 20
-70.874023
 30
0.0
  0
VERTEX
  8
0
  6
CONTINUOUS
 62
    80
  5
9EE
 10
158.532518
 20
-70.891495
 30
0.0
  0
VERTEX
  8
0
  6
CONTINUOUS
 62
    80
  5
9EF
 10
158.514924
 20
-70.908906
 30
0.0
  0
VERTEX
  8
0
  6
CONTINUOUS
 62
    80
  5
9F0
 10
158.497264
 20
-70.926254
 30
0.0
  0
VERTEX
  8
0
  6
CONTINUOUS
 62
    80
  5
9F1
 10
158.479539
 20
-70.943537
 30
0.0
  0
VERTEX
  8
0
  6
CONTINUOUS
 62
    80
  5
9F2
 10
158.461748
 20
-70.960753
 30
0.0
  0
VERTEX
  8
0
  6
CONTINUOUS
 62
    80
  5
9F3
 10
158.443889
 20
-70.977901
 30
0.0
  0
VERTEX
  8
0
  6
CONTINUOUS
 62
    80
  5
9F4
 10
158.425963
 20
-70.994978
 30
0.0
  0
VERTEX
  8
0
  6
CONTINUOUS
 62
    80
  5
9F5
 10
158.407967
 20
-71.011982
 30
0.0
  0
VERTEX
  8
0
  6
CONTINUOUS
 62
    80
  5
9F6
 10
158.389901
 20
-71.02891
 30
0.0
  0
VERTEX
  8
0
  6
CONTINUOUS
 62
    80
  5
9F7
 10
158.371765
 20
-71.045762
 30
0.0
  0
VERTEX
  8
0
  6
CONTINUOUS
 62
    80
  5
9F8
 10
158.353557
 20
-71.062535
 30
0.0
  0
VERTEX
  8
0
  6
CONTINUOUS
 62
    80
  5
9F9
 10
158.335277
 20
-71.079227
 30
0.0
  0
VERTEX
  8
0
  6
CONTINUOUS
 62
    80
  5
9FA
 10
158.316923
 20
-71.095835
 30
0.0
  0
VERTEX
  8
0
  6
CONTINUOUS
 62
    80
  5
9FB
 10
158.298495
 20
-71.112359
 30
0.0
  0
VERTEX
  8
0
  6
CONTINUOUS
 62
    80
  5
9FC
 10
158.279992
 20
-71.128795
 30
0.0
  0
VERTEX
  8
0
  6
CONTINUOUS
 62
    80
  5
9FD
 10
158.261414
 20
-71.145142
 30
0.0
  0
VERTEX
  8
0
  6
CONTINUOUS
 62
    80
  5
9FE
 10
158.15969
 20
-71.23192
 30
0.0
  0
VERTEX
  8
0
  6
CONTINUOUS
 62
    80
  5
9FF
 10
158.055823
 20
-71.316102
 30
0.0
  0
VERTEX
  8
0
  6
CONTINUOUS
 62
    80
  5
A00
 10
157.949924
 20
-71.39777
 30
0.0
  0
VERTEX
  8
0
  6
CONTINUOUS
 62
    80
  5
A01
 10
157.842104
 20
-71.477001
 30
0.0
  0
VERTEX
  8
0
  6
CONTINUOUS
 62
    80
  5
A02
 10
157.732474
 20
-71.553877
 30
0.0
  0
VERTEX
  8
0
  6
CONTINUOUS
 62
    80
  5
A03
 10
157.621144
 20
-71.628477
 30
0.0
  0
VERTEX
  8
0
  6
CONTINUOUS
 62
    80
  5
A04
 10
157.508225
 20
-71.700881
 30
0.0
  0
VERTEX
  8
0
  6
CONTINUOUS
 62
    80
  5
A05
 10
157.393828
 20
-71.771168
 30
0.0
  0
VERTEX
  8
0
  6
CONTINUOUS
 62
    80
  5
A06
 10
157.278063
 20
-71.839419
 30
0.0
  0
VERTEX
  8
0
  6
CONTINUOUS
 62
    80
  5
A07
 10
157.161041
 20
-71.905712
 30
0.0
  0
VERTEX
  8
0
  6
CONTINUOUS
 62
    80
  5
A08
 10
157.042874
 20
-71.970129
 30
0.0
  0
VERTEX
  8
0
  6
CONTINUOUS
 62
    80
  5
A09
 10
156.923671
 20
-72.032748
 30
0.0
  0
VERTEX
  8
0
  6
CONTINUOUS
 62
    80
  5
A0A
 10
156.803543
 20
-72.093649
 30
0.0
  0
VERTEX
  8
0
  6
CONTINUOUS
 62
    80
  5
A0B
 10
156.682602
 20
-72.152913
 30
0.0
  0
VERTEX
  8
0
  6
CONTINUOUS
 62
    80
  5
A0C
 10
156.560958
 20
-72.210618
 30
0.0
  0
VERTEX
  8
0
  6
CONTINUOUS
 62
    80
  5
A0D
 10
156.438721
 20
-72.266846
 30
0.0
  0
VERTEX
  8
0
  6
CONTINUOUS
 62
    80
  5
A0E
 10
156.345706
 20
-72.308531
 30
0.0
  0
VERTEX
  8
0
  6
CONTINUOUS
 62
    80
  5
A0F
 10
156.252411
 20
-72.349393
 30
0.0
  0
VERTEX
  8
0
  6
CONTINUOUS
 62
    80
  5
A10
 10
156.158831
 20
-72.389408
 30
0.0
  0
VERTEX
  8
0
  6
CONTINUOUS
 62
    80
  5
A11
 10
156.064962
 20
-72.428555
 30
0.0
  0
VERTEX
  8
0
  6
CONTINUOUS
 62
    80
  5
A12
 10
155.970797
 20
-72.466814
 30
0.0
  0
VERTEX
  8
0
  6
CONTINUOUS
 62
    80
  5
A13
 10
155.876334
 20
-72.504163
 30
0.0
  0
VERTEX
  8
0
  6
CONTINUOUS
 62
    80
  5
A14
 10
155.781566
 20
-72.54058
 30
0.0
  0
VERTEX
  8
0
  6
CONTINUOUS
 62
    80
  5
A15
 10
155.68649
 20
-72.576045
 30
0.0
  0
VERTEX
  8
0
  6
CONTINUOUS
 62
    80
  5
A16
 10
155.591101
 20
-72.610535
 30
0.0
  0
VERTEX
  8
0
  6
CONTINUOUS
 62
    80
  5
A17
 10
155.495394
 20
-72.644029
 30
0.0
  0
VERTEX
  8
0
  6
CONTINUOUS
 62
    80
  5
A18
 10
155.399364
 20
-72.676507
 30
0.0
  0
VERTEX
  8
0
  6
CONTINUOUS
 62
    80
  5
A19
 10
155.303007
 20
-72.707946
 30
0.0
  0
VERTEX
  8
0
  6
CONTINUOUS
 62
    80
  5
A1A
 10
155.206318
 20
-72.738325
 30
0.0
  0
VERTEX
  8
0
  6
CONTINUOUS
 62
    80
  5
A1B
 10
155.109292
 20
-72.767623
 30
0.0
  0
VERTEX
  8
0
  6
CONTINUOUS
 62
    80
  5
A1C
 10
155.011926
 20
-72.795818
 30
0.0
  0
VERTEX
  8
0
  6
CONTINUOUS
 62
    80
  5
A1D
 10
154.914213
 20
-72.82289
 30
0.0
  0
SEQEND
  8
0
  6
CONTINUOUS
 62
    80
  5
A1E
  0
POLYLINE
  8
0
  6
CONTINUOUS
 62
    80
  5
328
 66
     1
 10
0.0
 20
0.0
 30
0.0
  0
VERTEX
  8
0
  6
CONTINUOUS
 62
    80
  5
A1F
 10
140.333923
 20
-66.183105
 30
0.0
  0
VERTEX
  8
0
  6
CONTINUOUS
 62
    80
  5
A20
 10
140.184114
 20
-66.267199
 30
0.0
  0
VERTEX
  8
0
  6
CONTINUOUS
 62
    80
  5
A21
 10
140.033633
 20
-66.350003
 30
0.0
  0
VERTEX
  8
0
  6
CONTINUOUS
 62
    80
  5
A22
 10
139.882509
 20
-66.431576
 30
0.0
  0
VERTEX
  8
0
  6
CONTINUOUS
 62
    80
  5
A23
 10
139.730771
 20
-66.51198
 30
0.0
  0
VERTEX
  8
0
  6
CONTINUOUS
 62
    80
  5
A24
 10
139.578445
 20
-66.591274
 30
0.0
  0
VERTEX
  8
0
  6
CONTINUOUS
 62
    80
  5
A25
 10
139.425562
 20
-66.669519
 30
0.0
  0
VERTEX
  8
0
  6
CONTINUOUS
 62
    80
  5
A26
 10
139.272149
 20
-66.746774
 30
0.0
  0
VERTEX
  8
0
  6
CONTINUOUS
 62
    80
  5
A27
 10
139.118234
 20
-66.8231
 30
0.0
  0
VERTEX
  8
0
  6
CONTINUOUS
 62
    80
  5
A28
 10
138.963846
 20
-66.898557
 30
0.0
  0
VERTEX
  8
0
  6
CONTINUOUS
 62
    80
  5
A29
 10
138.809013
 20
-66.973205
 30
0.0
  0
VERTEX
  8
0
  6
CONTINUOUS
 62
    80
  5
A2A
 10
138.653763
 20
-67.047104
 30
0.0
  0
VERTEX
  8
0
  6
CONTINUOUS
 62
    80
  5
A2B
 10
138.498125
 20
-67.120315
 30
0.0
  0
VERTEX
  8
0
  6
CONTINUOUS
 62
    80
  5
A2C
 10
138.342126
 20
-67.192896
 30
0.0
  0
VERTEX
  8
0
  6
CONTINUOUS
 62
    80
  5
A2D
 10
138.185796
 20
-67.264909
 30
0.0
  0
VERTEX
  8
0
  6
CONTINUOUS
 62
    80
  5
A2E
 10
138.029162
 20
-67.336414
 30
0.0
  0
VERTEX
  8
0
  6
CONTINUOUS
 62
    80
  5
A2F
 10
137.872253
 20
-67.407471
 30
0.0
  0
VERTEX
  8
0
  6
CONTINUOUS
 62
    80
  5
A30
 10
137.759335
 20
-67.458266
 30
0.0
  0
VERTEX
  8
0
  6
CONTINUOUS
 62
    80
  5
A31
 10
137.646255
 20
-67.508744
 30
0.0
  0
VERTEX
  8
0
  6
CONTINUOUS
 62
    80
  5
A32
 10
137.53298
 20
-67.558789
 30
0.0
  0
VERTEX
  8
0
  6
CONTINUOUS
 62
    80
  5
A33
 10
137.419478
 20
-67.608283
 30
0.0
  0
VERTEX
  8
0
  6
CONTINUOUS
 62
    80
  5
A34
 10
137.305719
 20
-67.65711
 30
0.0
  0
VERTEX
  8
0
  6
CONTINUOUS
 62
    80
  5
A35
 10
137.19167
 20
-67.705151
 30
0.0
  0
VERTEX
  8
0
  6
CONTINUOUS
 62
    80
  5
A36
 10
137.077299
 20
-67.752292
 30
0.0
  0
VERTEX
  8
0
  6
CONTINUOUS
 62
    80
  5
A37
 10
136.962575
 20
-67.798414
 30
0.0
  0
VERTEX
  8
0
  6
CONTINUOUS
 62
    80
  5
A38
 10
136.847466
 20
-67.843401
 30
0.0
  0
VERTEX
  8
0
  6
CONTINUOUS
 62
    80
  5
A39
 10
136.731941
 20
-67.887136
 30
0.0
  0
VERTEX
  8
0
  6
CONTINUOUS
 62
    80
  5
A3A
 10
136.615967
 20
-67.929501
 30
0.0
  0
VERTEX
  8
0
  6
CONTINUOUS
 62
    80
  5
A3B
 10
136.499513
 20
-67.970381
 30
0.0
  0
VERTEX
  8
0
  6
CONTINUOUS
 62
    80
  5
A3C
 10
136.382547
 20
-68.009657
 30
0.0
  0
VERTEX
  8
0
  6
CONTINUOUS
 62
    80
  5
A3D
 10
136.265037
 20
-68.047214
 30
0.0
  0
VERTEX
  8
0
  6
CONTINUOUS
 62
    80
  5
A3E
 10
136.146952
 20
-68.082933
 30
0.0
  0
VERTEX
  8
0
  6
CONTINUOUS
 62
    80
  5
A3F
 10
136.028259
 20
-68.116699
 30
0.0
  0
VERTEX
  8
0
  6
CONTINUOUS
 62
    80
  5
A40
 10
136.020708
 20
-68.118773
 30
0.0
  0
VERTEX
  8
0
  6
CONTINUOUS
 62
    80
  5
A41
 10
136.013153
 20
-68.120839
 30
0.0
  0
VERTEX
  8
0
  6
CONTINUOUS
 62
    80
  5
A42
 10
136.005596
 20
-68.122898
 30
0.0
  0
VERTEX
  8
0
  6
CONTINUOUS
 62
    80
  5
A43
 10
135.998035
 20
-68.124949
 30
0.0
  0
VERTEX
  8
0
  6
CONTINUOUS
 62
    80
  5
A44
 10
135.990473
 20
-68.126993
 30
0.0
  0
VERTEX
  8
0
  6
CONTINUOUS
 62
    80
  5
A45
 10
135.982908
 20
-68.12903
 30
0.0
  0
VERTEX
  8
0
  6
CONTINUOUS
 62
    80
  5
A46
 10
135.97534
 20
-68.13106
 30
0.0
  0
VERTEX
  8
0
  6
CONTINUOUS
 62
    80
  5
A47
 10
135.967771
 20
-68.133084
 30
0.0
  0
VERTEX
  8
0
  6
CONTINUOUS
 62
    80
  5
A48
 10
135.9602
 20
-68.135101
 30
0.0
  0
VERTEX
  8
0
  6
CONTINUOUS
 62
    80
  5
A49
 10
135.952627
 20
-68.137111
 30
0.0
  0
VERTEX
  8
0
  6
CONTINUOUS
 62
    80
  5
A4A
 10
135.945053
 20
-68.139115
 30
0.0
  0
VERTEX
  8
0
  6
CONTINUOUS
 62
    80
  5
A4B
 10
135.937477
 20
-68.141113
 30
0.0
  0
VERTEX
  8
0
  6
CONTINUOUS
 62
    80
  5
A4C
 10
135.929901
 20
-68.143105
 30
0.0
  0
VERTEX
  8
0
  6
CONTINUOUS
 62
    80
  5
A4D
 10
135.922323
 20
-68.145092
 30
0.0
  0
VERTEX
  8
0
  6
CONTINUOUS
 62
    80
  5
A4E
 10
135.914745
 20
-68.147073
 30
0.0
  0
VERTEX
  8
0
  6
CONTINUOUS
 62
    80
  5
A4F
 10
135.907166
 20
-68.149048
 30
0.0
  0
SEQEND
  8
0
  6
CONTINUOUS
 62
    80
  5
A50
  0
POLYLINE
  8
0
  6
CONTINUOUS
 62
    80
  5
329
 66
     1
 10
0.0
 20
0.0
 30
0.0
  0
VERTEX
  8
0
  6
CONTINUOUS
 62
    80
  5
A51
 10
137.063599
 20
-66.107178
 30
0.0
  0
VERTEX
  8
0
  6
CONTINUOUS
 62
    80
  5
A52
 10
137.046758
 20
-66.129155
 30
0.0
  0
VERTEX
  8
0
  6
CONTINUOUS
 62
    80
  5
A53
 10
137.029648
 20
-66.150957
 30
0.0
  0
VERTEX
  8
0
  6
CONTINUOUS
 62
    80
  5
A54
 10
137.012269
 20
-66.172571
 30
0.0
  0
VERTEX
  8
0
  6
CONTINUOUS
 62
    80
  5
A55
 10
136.99462
 20
-66.193986
 30
0.0
  0
VERTEX
  8
0
  6
CONTINUOUS
 62
    80
  5
A56
 10
136.9767
 20
-66.215187
 30
0.0
  0
VERTEX
  8
0
  6
CONTINUOUS
 62
    80
  5
A57
 10
136.958507
 20
-66.236164
 30
0.0
  0
VERTEX
  8
0
  6
CONTINUOUS
 62
    80
  5
A58
 10
136.940041
 20
-66.256902
 30
0.0
  0
VERTEX
  8
0
  6
CONTINUOUS
 62
    80
  5
A59
 10
136.921301
 20
-66.277391
 30
0.0
  0
VERTEX
  8
0
  6
CONTINUOUS
 62
    80
  5
A5A
 10
136.902287
 20
-66.297617
 30
0.0
  0
VERTEX
  8
0
  6
CONTINUOUS
 62
    80
  5
A5B
 10
136.882997
 20
-66.317567
 30
0.0
  0
VERTEX
  8
0
  6
CONTINUOUS
 62
    80
  5
A5C
 10
136.86343
 20
-66.33723
 30
0.0
  0
VERTEX
  8
0
  6
CONTINUOUS
 62
    80
  5
A5D
 10
136.843585
 20
-66.356592
 30
0.0
  0
VERTEX
  8
0
  6
CONTINUOUS
 62
    80
  5
A5E
 10
136.823462
 20
-66.375641
 30
0.0
  0
VERTEX
  8
0
  6
CONTINUOUS
 62
    80
  5
A5F
 10
136.80306
 20
-66.394365
 30
0.0
  0
VERTEX
  8
0
  6
CONTINUOUS
 62
    80
  5
A60
 10
136.782377
 20
-66.412751
 30
0.0
  0
VERTEX
  8
0
  6
CONTINUOUS
 62
    80
  5
A61
 10
136.761414
 20
-66.430786
 30
0.0
  0
VERTEX
  8
0
  6
CONTINUOUS
 62
    80
  5
A62
 10
136.736058
 20
-66.451818
 30
0.0
  0
VERTEX
  8
0
  6
CONTINUOUS
 62
    80
  5
A63
 10
136.710323
 20
-66.472361
 30
0.0
  0
VERTEX
  8
0
  6
CONTINUOUS
 62
    80
  5
A64
 10
136.68423
 20
-66.49244
 30
0.0
  0
VERTEX
  8
0
  6
CONTINUOUS
 62
    80
  5
A65
 10
136.657802
 20
-66.512083
 30
0.0
  0
VERTEX
  8
0
  6
CONTINUOUS
 62
    80
  5
A66
 10
136.631058
 20
-66.531316
 30
0.0
  0
VERTEX
  8
0
  6
CONTINUOUS
 62
    80
  5
A67
 10
136.60402
 20
-66.550166
 30
0.0
  0
VERTEX
  8
0
  6
CONTINUOUS
 62
    80
  5
A68
 10
136.57671
 20
-66.56866
 30
0.0
  0
VERTEX
  8
0
  6
CONTINUOUS
 62
    80
  5
A69
 10
136.54915
 20
-66.586826
 30
0.0
  0
VERTEX
  8
0
  6
CONTINUOUS
 62
    80
  5
A6A
 10
136.52136
 20
-66.604688
 30
0.0
  0
VERTEX
  8
0
  6
CONTINUOUS
 62
    80
  5
A6B
 10
136.493362
 20
-66.622276
 30
0.0
  0
VERTEX
  8
0
  6
CONTINUOUS
 62
    80
  5
A6C
 10
136.465177
 20
-66.639614
 30
0.0
  0
VERTEX
  8
0
  6
CONTINUOUS
 62
    80
  5
A6D
 10
136.436828
 20
-66.65673
 30
0.0
  0
VERTEX
  8
0
  6
CONTINUOUS
 62
    80
  5
A6E
 10
136.408334
 20
-66.673651
 30
0.0
  0
VERTEX
  8
0
  6
CONTINUOUS
 62
    80
  5
A6F
 10
136.379718
 20
-66.690404
 30
0.0
  0
VERTEX
  8
0
  6
CONTINUOUS
 62
    80
  5
A70
 10
136.351001
 20
-66.707015
 30
0.0
  0
VERTEX
  8
0
  6
CONTINUOUS
 62
    80
  5
A71
 10
136.322205
 20
-66.723511
 30
0.0
  0
VERTEX
  8
0
  6
CONTINUOUS
 62
    80
  5
A72
 10
136.167849
 20
-66.809816
 30
0.0
  0
VERTEX
  8
0
  6
CONTINUOUS
 62
    80
  5
A73
 10
136.01188
 20
-66.893475
 30
0.0
  0
VERTEX
  8
0
  6
CONTINUOUS
 62
    80
  5
A74
 10
135.854355
 20
-66.97437
 30
0.0
  0
VERTEX
  8
0
  6
CONTINUOUS
 62
    80
  5
A75
 10
135.695335
 20
-67.052385
 30
0.0
  0
VERTEX
  8
0
  6
CONTINUOUS
 62
    80
  5
A76
 10
135.534877
 20
-67.127405
 30
0.0
  0
VERTEX
  8
0
  6
CONTINUOUS
 62
    80
  5
A77
 10
135.37304
 20
-67.199312
 30
0.0
  0
VERTEX
  8
0
  6
CONTINUOUS
 62
    80
  5
A78
 10
135.209883
 20
-67.267991
 30
0.0
  0
VERTEX
  8
0
  6
CONTINUOUS
 62
    80
  5
A79
 10
135.045466
 20
-67.333325
 30
0.0
  0
VERTEX
  8
0
  6
CONTINUOUS
 62
    80
  5
A7A
 10
134.879847
 20
-67.395199
 30
0.0
  0
VERTEX
  8
0
  6
CONTINUOUS
 62
    80
  5
A7B
 10
134.713085
 20
-67.453495
 30
0.0
  0
VERTEX
  8
0
  6
CONTINUOUS
 62
    80
  5
A7C
 10
134.545238
 20
-67.508097
 30
0.0
  0
VERTEX
  8
0
  6
CONTINUOUS
 62
    80
  5
A7D
 10
134.376366
 20
-67.558891
 30
0.0
  0
VERTEX
  8
0
  6
CONTINUOUS
 62
    80
  5
A7E
 10
134.206528
 20
-67.605758
 30
0.0
  0
VERTEX
  8
0
  6
CONTINUOUS
 62
    80
  5
A7F
 10
134.035782
 20
-67.648583
 30
0.0
  0
VERTEX
  8
0
  6
CONTINUOUS
 62
    80
  5
A80
 10
133.864186
 20
-67.68725
 30
0.0
  0
VERTEX
  8
0
  6
CONTINUOUS
 62
    80
  5
A81
 10
133.691801
 20
-67.721642
 30
0.0
  0
SEQEND
  8
0
  6
CONTINUOUS
 62
    80
  5
A82
  0
ARC
  8
0
  6
CONTINUOUS
 62
    80
  5
32A
 10
126.935852
 20
-72.314453
 30
0.0
 40
0.4
 50
269.999997
 51
0.0
  0
ARC
  8
0
  6
CONTINUOUS
 62
    80
  5
32B
 10
121.378601
 20
-72.314453
 30
0.0
 40
0.4
 50
179.999995
 51
269.999997
  0
ARC
  8
0
  6
CONTINUOUS
 62
    80
  5
32C
 10
123.795776
 20
-72.254395
 30
0.0
 40
0.46
 50
179.999995
 51
269.999997
  0
CIRCLE
  8
0
  6
CONTINUOUS
 62
    80
  5
32D
 10
208.314331
 20
-70.428589
 30
0.0
 40
0.75
  0
CIRCLE
  8
0
  6
CONTINUOUS
 62
    80
  5
32E
 10
187.971497
 20
-65.714355
 30
0.0
 40
0.75
  0
CIRCLE
  8
0
  6
CONTINUOUS
 62
    80
  5
32F
 10
176.514343
 20
-71.285767
 30
0.0
 40
0.75
  0
CIRCLE
  8
0
  6
CONTINUOUS
 62
    80
  5
330
 10
164.37146
 20
-71.714355
 30
0.0
 40
0.75
  0
ARC
  8
0
  6
CONTINUOUS
 62
    80
  5
331
 10
133.085754
 20
-71.428589
 30
0.0
 40
0.464286
 50
179.999991
 51
270.000001
  0
ARC
  8
0
  6
CONTINUOUS
 62
    80
  5
332
 10
131.37146
 20
-72.428589
 30
0.0
 40
0.392857
 50
179.999991
 51
270.000001
  0
ARC
  8
0
  6
CONTINUOUS
 62
    80
  5
333
 10
135.514343
 20
-72.428589
 30
0.0
 40
0.392857
 50
269.999997
 51
0.0
  0
ARC
  8
0
  6
CONTINUOUS
 62
    80
  5
334
 10
88.514343
 20
-71.714355
 30
0.0
 40
1.107143
 50
269.999997
 51
0.0
  0
ARC
  8
0
  6
CONTINUOUS
 62
    80
  5
335
 10
85.942932
 20
-71.142944
 30
0.0
 40
0.75
 50
269.999997
 51
0.0
  0
ARC
  8
0
  6
CONTINUOUS
 62
    80
  5
336
 10
91.37146
 20
-67.571533
 30
0.0
 40
0.892857
 50
269.999997
 51
0.0
  0
ARC
  8
0
  6
CONTINUOUS
 62
    80
  5
337
 10
93.514343
 20
-68.0
 30
0.0
 40
1.535714
 50
269.999997
 51
0.0
  0
CIRCLE
  8
0
  6
CONTINUOUS
 62
     3
  5
338
 10
2.0
 20
395.999977
 30
0.0
 40
0.4
  0
CIRCLE
  8
0
  6
CONTINUOUS
 62
     3
  5
339
 10
-8.0
 20
395.999977
 30
0.0
 40
0.4
  0
CIRCLE
  8
0
  6
CONTINUOUS
 62
     3
  5
33A
 10
2.0
 20
405.999969
 30
0.0
 40
0.4
  0
CIRCLE
  8
0
  6
CONTINUOUS
 62
     3
  5
33B
 10
-8.0
 20
405.999969
 30
0.0
 40
0.4
  0
CIRCLE
  8
0
  6
CONTINUOUS
 62
     3
  5
33C
 10
2.0
 20
415.999969
 30
0.0
 40
0.4
  0
CIRCLE
  8
0
  6
CONTINUOUS
 62
     3
  5
33D
 10
-8.0
 20
415.999969
 30
0.0
 40
0.4
  0
CIRCLE
  8
0
  6
CONTINUOUS
 62
     3
  5
33E
 10
2.0
 20
425.999969
 30
0.0
 40
0.4
  0
CIRCLE
  8
0
  6
CONTINUOUS
 62
     3
  5
33F
 10
-8.0
 20
425.999969
 30
0.0
 40
0.4
  0
LINE
  8
0
  6
CONTINUOUS
 62
    80
  5
340
 10
-90.0
 20
-74.0
 30
0.0
 11
-14.0
 21
-74.0
 31
0.0
  0
LINE
  8
0
  6
CONTINUOUS
 62
    80
  5
341
 10
-90.0
 20
-53.0
 30
0.0
 11
-14.0
 21
-53.0
 31
0.0
  0
LINE
  8
0
  6
CONTINUOUS
 62
     3
  5
342
 10
-90.0
 20
-66.0
 30
0.0
 11
-14.0
 21
-66.0
 31
0.0
  0
LINE
  8
0
  6
CONTINUOUS
 62
     3
  5
343
 10
-90.0
 20
-14.0
 30
0.0
 11
238.0
 21
-14.0
 31
0.0
  0
LINE
  8
0
  6
CONTINUOUS
 62
    80
  5
344
 10
174.621521
 20
-68.677124
 30
0.0
 11
174.621521
 21
-72.821533
 31
0.0
  0
LINE
  8
0
  6
CONTINUOUS
 62
    80
  5
345
 10
174.621521
 20
-67.105713
 30
0.0
 11
174.621521
 21
-68.037231
 31
0.0
  0
LINE
  8
0
  6
CONTINUOUS
 62
    80
  5
346
 10
173.264343
 20
-66.46582
 30
0.0
 11
173.264343
 21
-65.178589
 31
0.0
  0
LINE
  8
0
  6
CONTINUOUS
 62
    80
  5
347
 10
174.621521
 20
-66.46582
 30
0.0
 11
177.335754
 21
-66.46582
 31
0.0
  0
LINE
  8
0
  6
CONTINUOUS
 62
    80
  5
348
 10
173.264343
 20
-68.037231
 30
0.0
 11
170.978638
 21
-68.037231
 31
0.0
  0
LINE
  8
0
  6
CONTINUOUS
 62
    80
  5
349
 10
174.621521
 20
-67.105713
 30
0.0
 11
177.335754
 21
-67.105713
 31
0.0
  0
LINE
  8
0
  6
CONTINUOUS
 62
    80
  5
34A
 10
172.185181
 20
-68.677124
 30
0.0
 11
170.978638
 21
-68.677124
 31
0.0
  0
LINE
  8
0
  6
CONTINUOUS
 62
    80
  5
34B
 10
168.907166
 20
-66.46582
 30
0.0
 11
170.192932
 21
-66.46582
 31
0.0
  0
LINE
  8
0
  6
CONTINUOUS
 62
    80
  5
34C
 10
168.907166
 20
-67.105713
 30
0.0
 11
170.192932
 21
-67.105713
 31
0.0
  0
LINE
  8
0
  6
CONTINUOUS
 62
    80
  5
34D
 10
170.192932
 20
-66.46582
 30
0.0
 11
170.192932
 21
-67.105713
 31
0.0
  0
LINE
  8
0
  6
CONTINUOUS
 62
    80
  5
34E
 10
166.12146
 20
-66.46582
 30
0.0
 11
166.12146
 21
-67.105713
 31
0.0
  0
LINE
  8
0
  6
CONTINUOUS
 62
    80
  5
34F
 10
177.335754
 20
-66.46582
 30
0.0
 11
177.335754
 21
-67.105713
 31
0.0
  0
LINE
  8
0
  6
CONTINUOUS
 62
    80
  5
350
 10
172.478638
 20
-66.46582
 30
0.0
 11
173.264343
 21
-66.46582
 31
0.0
  0
LINE
  8
0
  6
CONTINUOUS
 62
    80
  5
351
 10
177.335754
 20
-68.037231
 30
0.0
 11
177.335754
 21
-68.677124
 31
0.0
  0
LINE
  8
0
  6
CONTINUOUS
 62
    80
  5
352
 10
170.978638
 20
-68.037231
 30
0.0
 11
170.978638
 21
-68.677124
 31
0.0
  0
LINE
  8
0
  6
CONTINUOUS
 62
    80
  5
353
 10
166.12146
 20
-66.46582
 30
0.0
 11
167.407166
 21
-66.46582
 31
0.0
  0
LINE
  8
0
  6
CONTINUOUS
 62
    80
  5
354
 10
166.12146
 20
-67.105713
 30
0.0
 11
167.373047
 21
-67.105713
 31
0.0
  0
LINE
  8
0
  6
CONTINUOUS
 62
    80
  5
355
 10
170.978638
 20
-67.105713
 30
0.0
 11
173.264343
 21
-67.105713
 31
0.0
  0
LINE
  8
0
  6
CONTINUOUS
 62
    80
  5
356
 10
177.335754
 20
-68.677124
 30
0.0
 11
174.621521
 21
-68.677124
 31
0.0
  0
LINE
  8
0
  6
CONTINUOUS
 62
    80
  5
357
 10
177.335754
 20
-68.037231
 30
0.0
 11
174.621521
 21
-68.037231
 31
0.0
  0
LINE
  8
0
  6
CONTINUOUS
 62
    80
  5
358
 10
173.264343
 20
-68.037231
 30
0.0
 11
173.264343
 21
-67.105713
 31
0.0
  0
LINE
  8
0
  6
CONTINUOUS
 62
    80
  5
359
 10
162.854656
 20
-65.321546
 30
0.0
 11
161.764303
 21
-66.428752
 31
0.0
  0
LINE
  8
0
  6
CONTINUOUS
 62
    80
  5
35A
 10
156.316812
 20
-65.321522
 30
0.0
 11
157.407144
 21
-66.428707
 31
0.0
  0
LINE
  8
0
  6
CONTINUOUS
 62
    80
  5
35B
 10
165.192932
 20
-69.857178
 30
0.0
 11
153.835754
 21
-69.857178
 31
0.0
  0
LINE
  8
0
  6
CONTINUOUS
 62
    80
  5
35C
 10
165.192932
 20
-68.857178
 30
0.0
 11
153.835754
 21
-68.857178
 31
0.0
  0
LINE
  8
0
  6
CONTINUOUS
 62
    80
  5
35D
 10
153.835754
 20
-67.857178
 30
0.0
 11
165.192932
 21
-67.857178
 31
0.0
  0
LINE
  8
0
  6
CONTINUOUS
 62
    80
  5
35E
 10
153.835754
 20
-66.428711
 30
0.0
 11
165.192932
 21
-66.428711
 31
0.0
  0
LINE
  8
0
  6
CONTINUOUS
 62
    80
  5
35F
 10
121.378601
 20
-72.714355
 30
0.0
 11
126.935852
 21
-72.714355
 31
0.0
  0
LINE
  8
0
  6
CONTINUOUS
 62
    80
  5
360
 10
123.335754
 20
-71.271484
 30
0.0
 11
127.193054
 21
-71.271484
 31
0.0
  0
LINE
  8
0
  6
CONTINUOUS
 62
    80
  5
361
 10
117.12146
 20
-71.271484
 30
0.0
 11
120.978638
 21
-71.271484
 31
0.0
  0
LINE
  8
0
  6
CONTINUOUS
 62
    80
  5
362
 10
117.12146
 20
-70.071533
 30
0.0
 11
127.193054
 21
-70.071533
 31
0.0
  0
LINE
  8
0
  6
CONTINUOUS
 62
    80
  5
363
 10
117.12146
 20
-68.871338
 30
0.0
 11
127.193054
 21
-68.871338
 31
0.0
  0
LINE
  8
0
  6
CONTINUOUS
 62
    80
  5
364
 10
116.407288
 20
-66.285767
 30
0.0
 11
127.90741
 21
-66.285767
 31
0.0
  0
LINE
  8
0
  6
CONTINUOUS
 62
    80
  5
365
 10
116.978699
 20
-65.285767
 30
0.0
 11
127.335754
 21
-65.285767
 31
0.0
  0
LINE
  8
0
  6
CONTINUOUS
 62
    80
  5
366
 10
124.602844
 20
-67.035767
 30
0.0
 11
124.961853
 21
-67.035767
 31
0.0
  0
LINE
  8
0
  6
CONTINUOUS
 62
    80
  5
367
 10
124.602844
 20
-67.107056
 30
0.0
 11
125.139893
 21
-67.107056
 31
0.0
  0
LINE
  8
0
  6
CONTINUOUS
 62
    80
  5
368
 10
119.1745
 20
-67.893188
 30
0.0
 11
119.533508
 21
-67.893188
 31
0.0
  0
LINE
  8
0
  6
CONTINUOUS
 62
    80
  5
369
 10
119.1745
 20
-67.964355
 30
0.0
 11
119.711548
 21
-67.964355
 31
0.0
  0
LINE
  8
0
  6
CONTINUOUS
 62
    80
  5
36A
 10
119.1745
 20
-67.035767
 30
0.0
 11
119.533508
 21
-67.035767
 31
0.0
  0
LINE
  8
0
  6
CONTINUOUS
 62
    80
  5
36B
 10
119.1745
 20
-67.107056
 30
0.0
 11
119.711548
 21
-67.107056
 31
0.0
  0
LINE
  8
0
  6
CONTINUOUS
 62
    80
  5
36C
 10
163.920915
 20
-65.321525
 30
0.0
 11
162.830562
 21
-66.428732
 31
0.0
  0
LINE
  8
0
  6
CONTINUOUS
 62
    80
  5
36D
 10
155.25051
 20
-65.321546
 30
0.0
 11
156.340842
 21
-66.42873
 31
0.0
  0
LINE
  8
0
  6
CONTINUOUS
 62
    80
  5
36E
 10
132.62146
 20
-71.321533
 30
0.0
 11
132.62146
 21
-71.428589
 31
0.0
  0
LINE
  8
0
  6
CONTINUOUS
 62
    80
  5
36F
 10
212.135742
 20
-72.178589
 30
0.0
 11
213.99292
 21
-72.178589
 31
0.0
  0
LINE
  8
0
  6
CONTINUOUS
 62
    80
  5
370
 10
213.99292
 20
-72.178589
 30
0.0
 11
213.99292
 21
-72.821533
 31
0.0
  0
LINE
  8
0
  6
CONTINUOUS
 62
    80
  5
371
 10
213.99292
 20
-72.821533
 30
0.0
 11
208.49292
 21
-72.821533
 31
0.0
  0
LINE
  8
0
  6
CONTINUOUS
 62
    80
  5
372
 10
208.49292
 20
-72.821533
 30
0.0
 11
208.49292
 21
-72.178589
 31
0.0
  0
LINE
  8
0
  6
CONTINUOUS
 62
    80
  5
373
 10
208.49292
 20
-72.178589
 30
0.0
 11
210.49292
 21
-72.178589
 31
0.0
  0
LINE
  8
0
  6
CONTINUOUS
 62
    80
  5
374
 10
210.49292
 20
-67.392944
 30
0.0
 11
210.49292
 21
-72.178589
 31
0.0
  0
LINE
  8
0
  6
CONTINUOUS
 62
    80
  5
375
 10
210.49292
 20
-67.392944
 30
0.0
 11
208.921448
 21
-67.392944
 31
0.0
  0
LINE
  8
0
  6
CONTINUOUS
 62
    80
  5
376
 10
212.135742
 20
-67.392944
 30
0.0
 11
212.135742
 21
-72.178589
 31
0.0
  0
LINE
  8
0
  6
CONTINUOUS
 62
    80
  5
377
 10
213.99292
 20
-67.392944
 30
0.0
 11
212.135742
 21
-67.392944
 31
0.0
  0
LINE
  8
0
  6
CONTINUOUS
 62
    80
  5
378
 10
213.99292
 20
-67.392944
 30
0.0
 11
213.99292
 21
-66.75
 31
0.0
  0
LINE
  8
0
  6
CONTINUOUS
 62
    80
  5
379
 10
212.135742
 20
-66.75
 30
0.0
 11
213.99292
 21
-66.75
 31
0.0
  0
LINE
  8
0
  6
CONTINUOUS
 62
    80
  5
37A
 10
212.135742
 20
-65.178589
 30
0.0
 11
212.135742
 21
-66.75
 31
0.0
  0
LINE
  8
0
  6
CONTINUOUS
 62
    80
  5
37B
 10
210.49292
 20
-65.178589
 30
0.0
 11
212.135742
 21
-65.178589
 31
0.0
  0
LINE
  8
0
  6
CONTINUOUS
 62
    80
  5
37C
 10
210.49292
 20
-66.75
 30
0.0
 11
210.49292
 21
-65.178589
 31
0.0
  0
LINE
  8
0
  6
CONTINUOUS
 62
    80
  5
37D
 10
208.921448
 20
-66.75
 30
0.0
 11
210.49292
 21
-66.75
 31
0.0
  0
LINE
  8
0
  6
CONTINUOUS
 62
    80
  5
37E
 10
208.921448
 20
-67.392944
 30
0.0
 11
208.921448
 21
-66.75
 31
0.0
  0
LINE
  8
0
  6
CONTINUOUS
 62
    80
  5
37F
 10
207.99292
 20
-65.178589
 30
0.0
 11
207.99292
 21
-65.821533
 31
0.0
  0
LINE
  8
0
  6
CONTINUOUS
 62
    80
  5
380
 10
202.607178
 20
-65.178589
 30
0.0
 11
207.99292
 21
-65.178589
 31
0.0
  0
LINE
  8
0
  6
CONTINUOUS
 62
    80
  5
381
 10
202.607178
 20
-65.178589
 30
0.0
 11
202.607178
 21
-65.821533
 31
0.0
  0
LINE
  8
0
  6
CONTINUOUS
 62
    80
  5
382
 10
207.99292
 20
-65.821533
 30
0.0
 11
202.607178
 21
-65.821533
 31
0.0
  0
LINE
  8
0
  6
CONTINUOUS
 62
    80
  5
383
 10
202.607178
 20
-67.392944
 30
0.0
 11
204.703186
 21
-67.392944
 31
0.0
  0
LINE
  8
0
  6
CONTINUOUS
 62
    80
  5
384
 10
202.607178
 20
-66.75
 30
0.0
 11
207.99292
 21
-66.75
 31
0.0
  0
LINE
  8
0
  6
CONTINUOUS
 62
    80
  5
385
 10
207.99292
 20
-67.392944
 30
0.0
 11
207.99292
 21
-66.75
 31
0.0
  0
LINE
  8
0
  6
CONTINUOUS
 62
    80
  5
386
 10
206.564331
 20
-67.392944
 30
0.0
 11
207.99292
 21
-67.392944
 31
0.0
  0
LINE
  8
0
  6
CONTINUOUS
 62
    80
  5
387
 10
206.564331
 20
-72.821533
 30
0.0
 11
206.564331
 21
-67.392944
 31
0.0
  0
LINE
  8
0
  6
CONTINUOUS
 62
    80
  5
388
 10
204.778625
 20
-72.821533
 30
0.0
 11
206.564331
 21
-72.821533
 31
0.0
  0
LINE
  8
0
  6
CONTINUOUS
 62
    80
  5
389
 10
204.778625
 20
-70.390625
 30
0.0
 11
204.778625
 21
-72.821533
 31
0.0
  0
LINE
  8
0
  6
CONTINUOUS
 62
    80
  5
38A
 10
202.607178
 20
-70.513306
 30
0.0
 11
202.607178
 21
-71.694824
 31
0.0
  0
LINE
  8
0
  6
CONTINUOUS
 62
    80
  5
38B
 10
201.67865
 20
-70.25
 30
0.0
 11
201.67865
 21
-69.464355
 31
0.0
  0
LINE
  8
0
  6
CONTINUOUS
 62
    80
  5
38C
 10
199.545105
 20
-70.25
 30
0.0
 11
201.67865
 21
-70.25
 31
0.0
  0
LINE
  8
0
  6
CONTINUOUS
 62
    80
  5
38D
 10
194.709534
 20
-70.25
 30
0.0
 11
197.544128
 21
-70.25
 31
0.0
  0
LINE
  8
0
  6
CONTINUOUS
 62
    80
  5
38E
 10
193.668884
 20
-72.178589
 30
0.0
 11
198.584778
 21
-72.178589
 31
0.0
  0
LINE
  8
0
  6
CONTINUOUS
 62
    80
  5
38F
 10
190.756836
 20
-72.821533
 30
0.0
 11
201.498291
 21
-72.821533
 31
0.0
  0
LINE
  8
0
  6
CONTINUOUS
 62
    80
  5
390
 10
190.578613
 20
-70.25
 30
0.0
 11
192.691528
 21
-70.25
 31
0.0
  0
LINE
  8
0
  6
CONTINUOUS
 62
    80
  5
391
 10
190.578613
 20
-69.464355
 30
0.0
 11
190.578613
 21
-70.25
 31
0.0
  0
LINE
  8
0
  6
CONTINUOUS
 62
    80
  5
392
 10
190.578613
 20
-69.464355
 30
0.0
 11
201.67865
 21
-69.464355
 31
0.0
  0
LINE
  8
0
  6
CONTINUOUS
 62
    80
  5
393
 10
199.364319
 20
-67.892944
 30
0.0
 11
199.364319
 21
-68.535767
 31
0.0
  0
LINE
  8
0
  6
CONTINUOUS
 62
    80
  5
394
 10
192.864319
 20
-68.535767
 30
0.0
 11
199.364319
 21
-68.535767
 31
0.0
  0
LINE
  8
0
  6
CONTINUOUS
 62
    80
  5
395
 10
192.864319
 20
-67.892944
 30
0.0
 11
192.864319
 21
-68.535767
 31
0.0
  0
LINE
  8
0
  6
CONTINUOUS
 62
    80
  5
396
 10
192.864319
 20
-67.892944
 30
0.0
 11
199.364319
 21
-67.892944
 31
0.0
  0
LINE
  8
0
  6
CONTINUOUS
 62
    80
  5
397
 10
190.578613
 20
-68.187988
 30
0.0
 11
190.578613
 21
-66.987061
 31
0.0
  0
LINE
  8
0
  6
CONTINUOUS
 62
    80
  5
398
 10
201.67865
 20
-68.187866
 30
0.0
 11
201.67865
 21
-66.987061
 31
0.0
  0
LINE
  8
0
  6
CONTINUOUS
 62
    80
  5
399
 10
202.607178
 20
-66.75
 30
0.0
 11
202.607178
 21
-67.392944
 31
0.0
  0
LINE
  8
0
  6
CONTINUOUS
 62
    80
  5
39A
 10
178.407227
 20
-72.021606
 30
0.0
 11
178.407227
 21
-72.954468
 31
0.0
  0
LINE
  8
0
  6
CONTINUOUS
 62
    80
  5
39B
 10
184.192932
 20
-71.496094
 30
0.0
 11
184.192932
 21
-72.143799
 31
0.0
  0
LINE
  8
0
  6
CONTINUOUS
 62
    80
  5
39C
 10
184.192932
 20
-69.178589
 30
0.0
 11
184.192932
 21
-69.821533
 31
0.0
  0
LINE
  8
0
  6
CONTINUOUS
 62
    80
  5
39D
 10
184.192932
 20
-69.821533
 30
0.0
 11
182.050049
 21
-69.821533
 31
0.0
  0
LINE
  8
0
  6
CONTINUOUS
 62
    80
  5
39E
 10
182.050049
 20
-69.821533
 30
0.0
 11
182.050049
 21
-71.766357
 31
0.0
  0
LINE
  8
0
  6
CONTINUOUS
 62
    80
  5
39F
 10
180.264343
 20
-69.821533
 30
0.0
 11
180.264343
 21
-71.881958
 31
0.0
  0
LINE
  8
0
  6
CONTINUOUS
 62
    80
  5
3A0
 10
180.264343
 20
-69.821533
 30
0.0
 11
178.407227
 21
-69.821533
 31
0.0
  0
LINE
  8
0
  6
CONTINUOUS
 62
    80
  5
3A1
 10
178.407227
 20
-69.178589
 30
0.0
 11
178.407227
 21
-69.821533
 31
0.0
  0
LINE
  8
0
  6
CONTINUOUS
 62
    80
  5
3A2
 10
178.407227
 20
-69.178589
 30
0.0
 11
184.192932
 21
-69.178589
 31
0.0
  0
LINE
  8
0
  6
CONTINUOUS
 62
    80
  5
3A3
 10
187.612305
 20
-72.392944
 30
0.0
 11
189.741821
 21
-72.392944
 31
0.0
  0
LINE
  8
0
  6
CONTINUOUS
 62
    80
  5
3A4
 10
189.507202
 20
-67.821533
 30
0.0
 11
187.116028
 21
-67.821533
 31
0.0
  0
LINE
  8
0
  6
CONTINUOUS
 62
    80
  5
3A5
 10
189.507202
 20
-67.821533
 30
0.0
 11
189.507202
 21
-66.892944
 31
0.0
  0
LINE
  8
0
  6
CONTINUOUS
 62
    80
  5
3A6
 10
186.706421
 20
-66.892944
 30
0.0
 11
189.507202
 21
-66.892944
 31
0.0
  0
LINE
  8
0
  6
CONTINUOUS
 62
    80
  5
3A7
 10
184.599121
 20
-65.321533
 30
0.0
 11
186.228149
 21
-65.321533
 31
0.0
  0
LINE
  8
0
  6
CONTINUOUS
 62
    80
  5
3A8
 10
185.353882
 20
-67.821533
 30
0.0
 11
178.407227
 21
-67.821533
 31
0.0
  0
LINE
  8
0
  6
CONTINUOUS
 62
    80
  5
3A9
 10
178.407227
 20
-66.892944
 30
0.0
 11
178.407227
 21
-67.821533
 31
0.0
  0
LINE
  8
0
  6
CONTINUOUS
 62
    80
  5
3AA
 10
178.407227
 20
-66.892944
 30
0.0
 11
185.042236
 21
-66.892944
 31
0.0
  0
LINE
  8
0
  6
CONTINUOUS
 62
    80
  5
3AB
 10
173.264343
 20
-72.821533
 30
0.0
 11
174.621521
 21
-72.821533
 31
0.0
  0
LINE
  8
0
  6
CONTINUOUS
 62
    80
  5
3AC
 10
173.264343
 20
-72.821533
 30
0.0
 11
173.264343
 21
-70.712646
 31
0.0
  0
LINE
  8
0
  6
CONTINUOUS
 62
    80
  5
3AD
 10
169.959582
 20
-72.062878
 30
0.0
 11
171.199772
 21
-72.513857
 31
0.0
  0
LINE
  8
0
  6
CONTINUOUS
 62
    80
  5
3AE
 10
174.621521
 20
-65.178589
 30
0.0
 11
174.621521
 21
-66.46582
 31
0.0
  0
LINE
  8
0
  6
CONTINUOUS
 62
    80
  5
3AF
 10
173.264343
 20
-65.178589
 30
0.0
 11
174.621521
 21
-65.178589
 31
0.0
  0
LINE
  8
0
  6
CONTINUOUS
 62
    80
  5
3B0
 10
172.478638
 20
-65.178589
 30
0.0
 11
172.478638
 21
-66.46582
 31
0.0
  0
LINE
  8
0
  6
CONTINUOUS
 62
    80
  5
3B1
 10
170.978638
 20
-65.178589
 30
0.0
 11
172.478638
 21
-65.178589
 31
0.0
  0
LINE
  8
0
  6
CONTINUOUS
 62
    80
  5
3B2
 10
170.978638
 20
-65.178589
 30
0.0
 11
170.978638
 21
-67.105713
 31
0.0
  0
LINE
  8
0
  6
CONTINUOUS
 62
    80
  5
3B3
 10
167.407166
 20
-72.821533
 30
0.0
 11
168.907166
 21
-72.821533
 31
0.0
  0
LINE
  8
0
  6
CONTINUOUS
 62
    80
  5
3B4
 10
167.407166
 20
-70.076782
 30
0.0
 11
167.407166
 21
-72.821533
 31
0.0
  0
LINE
  8
0
  6
CONTINUOUS
 62
    80
  5
3B5
 10
166.12146
 20
-70.195801
 30
0.0
 11
166.12146
 21
-71.549927
 31
0.0
  0
LINE
  8
0
  6
CONTINUOUS
 62
    80
  5
3B6
 10
168.907166
 20
-69.887817
 30
0.0
 11
168.907166
 21
-72.821533
 31
0.0
  0
LINE
  8
0
  6
CONTINUOUS
 62
    80
  5
3B7
 10
168.907166
 20
-67.105713
 30
0.0
 11
168.907166
 21
-68.345459
 31
0.0
  0
LINE
  8
0
  6
CONTINUOUS
 62
    80
  5
3B8
 10
168.907166
 20
-65.178589
 30
0.0
 11
168.907166
 21
-66.46582
 31
0.0
  0
LINE
  8
0
  6
CONTINUOUS
 62
    80
  5
3B9
 10
167.407166
 20
-65.178589
 30
0.0
 11
168.907166
 21
-65.178589
 31
0.0
  0
LINE
  8
0
  6
CONTINUOUS
 62
    80
  5
3BA
 10
167.407166
 20
-65.178589
 30
0.0
 11
167.407166
 21
-66.46582
 31
0.0
  0
LINE
  8
0
  6
CONTINUOUS
 62
    80
  5
3BB
 10
154.913574
 20
-72.821533
 30
0.0
 11
153.835754
 21
-72.821533
 31
0.0
  0
LINE
  8
0
  6
CONTINUOUS
 62
    80
  5
3BC
 10
153.835754
 20
-72.094971
 30
0.0
 11
153.835754
 21
-72.821533
 31
0.0
  0
LINE
  8
0
  6
CONTINUOUS
 62
    80
  5
3BD
 10
158.550049
 20
-72.821533
 30
0.0
 11
158.550049
 21
-67.857178
 31
0.0
  0
LINE
  8
0
  6
CONTINUOUS
 62
    80
  5
3BE
 10
158.550049
 20
-72.821533
 30
0.0
 11
160.764343
 21
-72.821533
 31
0.0
  0
LINE
  8
0
  6
CONTINUOUS
 62
    80
  5
3BF
 10
160.764343
 20
-67.857178
 30
0.0
 11
160.764343
 21
-72.821533
 31
0.0
  0
LINE
  8
0
  6
CONTINUOUS
 62
    80
  5
3C0
 10
163.171817
 20
-66.428641
 30
0.0
 11
162.457542
 21
-67.857192
 31
0.0
  0
LINE
  8
0
  6
CONTINUOUS
 62
    80
  5
3C1
 10
161.856803
 20
-66.428689
 30
0.0
 11
161.142583
 21
-67.85713
 31
0.0
  0
LINE
  8
0
  6
CONTINUOUS
 62
    80
  5
3C2
 10
155.999747
 20
-66.428703
 30
0.0
 11
156.713995
 21
-67.857199
 31
0.0
  0
LINE
  8
0
  6
CONTINUOUS
 62
    80
  5
3C3
 10
157.31472
 20
-66.428703
 30
0.0
 11
158.028968
 21
-67.857199
 31
0.0
  0
LINE
  8
0
  6
CONTINUOUS
 62
    80
  5
3C4
 10
162.854675
 20
-65.321533
 30
0.0
 11
163.920898
 21
-65.321533
 31
0.0
  0
LINE
  8
0
  6
CONTINUOUS
 62
    80
  5
3C5
 10
161.764343
 20
-65.321533
 30
0.0
 11
161.764343
 21
-66.428711
 31
0.0
  0
LINE
  8
0
  6
CONTINUOUS
 62
    80
  5
3C6
 10
160.550049
 20
-65.321533
 30
0.0
 11
161.764343
 21
-65.321533
 31
0.0
  0
LINE
  8
0
  6
CONTINUOUS
 62
    80
  5
3C7
 10
160.550049
 20
-65.321533
 30
0.0
 11
160.550049
 21
-66.428711
 31
0.0
  0
LINE
  8
0
  6
CONTINUOUS
 62
    80
  5
3C8
 10
158.62146
 20
-65.321533
 30
0.0
 11
158.62146
 21
-66.428711
 31
0.0
  0
LINE
  8
0
  6
CONTINUOUS
 62
    80
  5
3C9
 10
157.407166
 20
-65.321533
 30
0.0
 11
158.62146
 21
-65.321533
 31
0.0
  0
LINE
  8
0
  6
CONTINUOUS
 62
    80
  5
3CA
 10
157.407166
 20
-65.321533
 30
0.0
 11
157.407166
 21
-66.428711
 31
0.0
  0
LINE
  8
0
  6
CONTINUOUS
 62
    80
  5
3CB
 10
155.25061
 20
-65.321533
 30
0.0
 11
156.316833
 21
-65.321533
 31
0.0
  0
LINE
  8
0
  6
CONTINUOUS
 62
    80
  5
3CC
 10
141.407227
 20
-71.8927
 30
0.0
 11
141.407227
 21
-72.821533
 31
0.0
  0
LINE
  8
0
  6
CONTINUOUS
 62
    80
  5
3CD
 10
141.407227
 20
-71.8927
 30
0.0
 11
145.978394
 21
-71.8927
 31
0.0
  0
LINE
  8
0
  6
CONTINUOUS
 62
    80
  5
3CE
 10
141.407227
 20
-72.821533
 30
0.0
 11
152.764587
 21
-72.821533
 31
0.0
  0
LINE
  8
0
  6
CONTINUOUS
 62
    80
  5
3CF
 10
152.764587
 20
-71.8927
 30
0.0
 11
152.764587
 21
-72.821533
 31
0.0
  0
LINE
  8
0
  6
CONTINUOUS
 62
    80
  5
3D0
 10
148.33606
 20
-71.8927
 30
0.0
 11
152.764587
 21
-71.8927
 31
0.0
  0
LINE
  8
0
  6
CONTINUOUS
 62
    80
  5
3D1
 10
152.764587
 20
-65.178589
 30
0.0
 11
152.764587
 21
-66.107178
 31
0.0
  0
LINE
  8
0
  6
CONTINUOUS
 62
    80
  5
3D2
 10
148.33606
 20
-66.107178
 30
0.0
 11
152.764587
 21
-66.107178
 31
0.0
  0
LINE
  8
0
  6
CONTINUOUS
 62
    80
  5
3D3
 10
148.33606
 20
-66.107178
 30
0.0
 11
148.33606
 21
-71.8927
 31
0.0
  0
LINE
  8
0
  6
CONTINUOUS
 62
    80
  5
3D4
 10
145.978394
 20
-66.107178
 30
0.0
 11
145.978394
 21
-71.8927
 31
0.0
  0
LINE
  8
0
  6
CONTINUOUS
 62
    80
  5
3D5
 10
141.407227
 20
-66.107178
 30
0.0
 11
145.978394
 21
-66.107178
 31
0.0
  0
LINE
  8
0
  6
CONTINUOUS
 62
    80
  5
3D6
 10
141.407227
 20
-65.178589
 30
0.0
 11
141.407227
 21
-66.107178
 31
0.0
  0
LINE
  8
0
  6
CONTINUOUS
 62
    80
  5
3D7
 10
152.764587
 20
-65.178589
 30
0.0
 11
141.407227
 21
-65.178589
 31
0.0
  0
LINE
  8
0
  6
CONTINUOUS
 62
    80
  5
3D8
 10
128.978638
 20
-68.75
 30
0.0
 11
128.978638
 21
-69.678833
 31
0.0
  0
LINE
  8
0
  6
CONTINUOUS
 62
    80
  5
3D9
 10
128.978638
 20
-69.678833
 30
0.0
 11
133.692932
 21
-69.678833
 31
0.0
  0
LINE
  8
0
  6
CONTINUOUS
 62
    80
  5
3DA
 10
133.692932
 20
-69.678833
 30
0.0
 11
133.692932
 21
-71.892944
 31
0.0
  0
LINE
  8
0
  6
CONTINUOUS
 62
    80
  5
3DB
 10
133.085754
 20
-71.892944
 30
0.0
 11
133.692932
 21
-71.892944
 31
0.0
  0
LINE
  8
0
  6
CONTINUOUS
 62
    80
  5
3DC
 10
130.978638
 20
-71.321533
 30
0.0
 11
132.62146
 21
-71.321533
 31
0.0
  0
LINE
  8
0
  6
CONTINUOUS
 62
    80
  5
3DD
 10
130.978638
 20
-71.321533
 30
0.0
 11
130.978638
 21
-72.428589
 31
0.0
  0
LINE
  8
0
  6
CONTINUOUS
 62
    80
  5
3DE
 10
131.37146
 20
-72.821533
 30
0.0
 11
135.514343
 21
-72.821533
 31
0.0
  0
LINE
  8
0
  6
CONTINUOUS
 62
    80
  5
3DF
 10
135.907166
 20
-69.678833
 30
0.0
 11
135.907166
 21
-72.428589
 31
0.0
  0
LINE
  8
0
  6
CONTINUOUS
 62
    80
  5
3E0
 10
135.907166
 20
-69.678833
 30
0.0
 11
140.335754
 21
-69.678833
 31
0.0
  0
LINE
  8
0
  6
CONTINUOUS
 62
    80
  5
3E1
 10
140.335754
 20
-68.75
 30
0.0
 11
140.335754
 21
-69.678833
 31
0.0
  0
LINE
  8
0
  6
CONTINUOUS
 62
    80
  5
3E2
 10
135.907166
 20
-68.75
 30
0.0
 11
140.335754
 21
-68.75
 31
0.0
  0
LINE
  8
0
  6
CONTINUOUS
 62
    80
  5
3E3
 10
128.978638
 20
-68.75
 30
0.0
 11
133.692932
 21
-68.75
 31
0.0
  0
LINE
  8
0
  6
CONTINUOUS
 62
    80
  5
3E4
 10
133.692932
 20
-67.72168
 30
0.0
 11
133.692932
 21
-68.75
 31
0.0
  0
LINE
  8
0
  6
CONTINUOUS
 62
    80
  5
3E5
 10
135.907166
 20
-68.149048
 30
0.0
 11
135.907166
 21
-68.75
 31
0.0
  0
LINE
  8
0
  6
CONTINUOUS
 62
    80
  5
3E6
 10
140.335754
 20
-65.178589
 30
0.0
 11
140.335754
 21
-66.183105
 31
0.0
  0
LINE
  8
0
  6
CONTINUOUS
 62
    80
  5
3E7
 10
128.978638
 20
-66.107178
 30
0.0
 11
137.063599
 21
-66.107178
 31
0.0
  0
LINE
  8
0
  6
CONTINUOUS
 62
    80
  5
3E8
 10
128.978638
 20
-65.178589
 30
0.0
 11
128.978638
 21
-66.107178
 31
0.0
  0
LINE
  8
0
  6
CONTINUOUS
 62
    80
  5
3E9
 10
128.978638
 20
-65.178589
 30
0.0
 11
140.335754
 21
-65.178589
 31
0.0
  0
LINE
  8
0
  6
CONTINUOUS
 62
    80
  5
3EA
 10
127.335876
 20
-72.035645
 30
0.0
 11
127.335876
 21
-72.314453
 31
0.0
  0
LINE
  8
0
  6
CONTINUOUS
 62
    80
  5
3EB
 10
125.978394
 20
-72.035645
 30
0.0
 11
127.335876
 21
-72.035645
 31
0.0
  0
LINE
  8
0
  6
CONTINUOUS
 62
    80
  5
3EC
 10
125.978394
 20
-72.035645
 30
0.0
 11
125.978394
 21
-72.714355
 31
0.0
  0
LINE
  8
0
  6
CONTINUOUS
 62
    80
  5
3ED
 10
120.978638
 20
-68.871338
 30
0.0
 11
120.978638
 21
-72.314453
 31
0.0
  0
LINE
  8
0
  6
CONTINUOUS
 62
    80
  5
3EE
 10
127.193054
 20
-68.871338
 30
0.0
 11
127.193054
 21
-71.271484
 31
0.0
  0
LINE
  8
0
  6
CONTINUOUS
 62
    80
  5
3EF
 10
125.721375
 20
-68.871338
 30
0.0
 11
125.721375
 21
-71.271484
 31
0.0
  0
LINE
  8
0
  6
CONTINUOUS
 62
    80
  5
3F0
 10
123.335754
 20
-68.871338
 30
0.0
 11
123.335754
 21
-72.254395
 31
0.0
  0
LINE
  8
0
  6
CONTINUOUS
 62
    80
  5
3F1
 10
117.12146
 20
-68.871338
 30
0.0
 11
117.12146
 21
-71.271484
 31
0.0
  0
LINE
  8
0
  6
CONTINUOUS
 62
    80
  5
3F2
 10
118.593018
 20
-68.871338
 30
0.0
 11
118.593018
 21
-71.271484
 31
0.0
  0
LINE
  8
0
  6
CONTINUOUS
 62
    80
  5
3F3
 10
124.602844
 20
-67.893188
 30
0.0
 11
124.961853
 21
-67.893188
 31
0.0
  0
LINE
  8
0
  6
CONTINUOUS
 62
    80
  5
3F4
 10
124.602844
 20
-67.964355
 30
0.0
 11
125.139893
 21
-67.964355
 31
0.0
  0
LINE
  8
0
  6
CONTINUOUS
 62
    80
  5
3F5
 10
116.407288
 20
-67.964478
 30
0.0
 11
117.90741
 21
-67.964478
 31
0.0
  0
LINE
  8
0
  6
CONTINUOUS
 62
    80
  5
3F6
 10
117.90741
 20
-66.285767
 30
0.0
 11
117.90741
 21
-67.964478
 31
0.0
  0
LINE
  8
0
  6
CONTINUOUS
 62
    80
  5
3F7
 10
116.407288
 20
-66.285767
 30
0.0
 11
116.407288
 21
-67.964478
 31
0.0
  0
LINE
  8
0
  6
CONTINUOUS
 62
    80
  5
3F8
 10
120.978638
 20
-67.964478
 30
0.0
 11
123.335754
 21
-67.964478
 31
0.0
  0
LINE
  8
0
  6
CONTINUOUS
 62
    80
  5
3F9
 10
126.406982
 20
-66.285767
 30
0.0
 11
126.406982
 21
-67.964478
 31
0.0
  0
LINE
  8
0
  6
CONTINUOUS
 62
    80
  5
3FA
 10
126.406982
 20
-67.964478
 30
0.0
 11
127.90741
 21
-67.964478
 31
0.0
  0
LINE
  8
0
  6
CONTINUOUS
 62
    80
  5
3FB
 10
127.90741
 20
-66.285767
 30
0.0
 11
127.90741
 21
-67.964478
 31
0.0
  0
LINE
  8
0
  6
CONTINUOUS
 62
    80
  5
3FC
 10
123.335754
 20
-65.285767
 30
0.0
 11
123.335754
 21
-67.964478
 31
0.0
  0
LINE
  8
0
  6
CONTINUOUS
 62
    80
  5
3FD
 10
120.978638
 20
-65.285767
 30
0.0
 11
120.978638
 21
-67.964478
 31
0.0
  0
LINE
  8
0
  6
CONTINUOUS
 62
    80
  5
3FE
 10
115.621582
 20
-68.463989
 30
0.0
 11
115.621582
 21
-69.964478
 31
0.0
  0
LINE
  8
0
  6
CONTINUOUS
 62
    80
  5
3FF
 10
108.264771
 20
-69.964478
 30
0.0
 11
115.621582
 21
-69.964478
 31
0.0
  0
LINE
  8
0
  6
CONTINUOUS
 62
    80
  5
400
 10
108.264771
 20
-68.463989
 30
0.0
 11
108.264771
 21
-69.964478
 31
0.0
  0
LINE
  8
0
  6
CONTINUOUS
 62
    80
  5
401
 10
108.264771
 20
-68.463989
 30
0.0
 11
115.621582
 21
-68.463989
 31
0.0
  0
LINE
  8
0
  6
CONTINUOUS
 62
    80
  5
402
 10
107.160878
 20
-65.606685
 30
0.0
 11
106.006085
 21
-72.535774
 31
0.0
  0
LINE
  8
0
  6
CONTINUOUS
 62
    80
  5
403
 10
97.165405
 20
-72.535767
 30
0.0
 11
106.006104
 21
-72.535767
 31
0.0
  0
LINE
  8
0
  6
CONTINUOUS
 62
    80
  5
404
 10
96.010401
 20
-65.606711
 30
0.0
 11
97.165402
 21
-72.535765
 31
0.0
  0
LINE
  8
0
  6
CONTINUOUS
 62
    80
  5
405
 10
99.501526
 20
-71.609009
 30
0.0
 11
103.670044
 21
-71.609009
 31
0.0
  0
LINE
  8
0
  6
CONTINUOUS
 62
    80
  5
406
 10
98.810034
 20
-66.536049
 30
0.0
 11
99.50153
 21
-71.60901
 31
0.0
  0
LINE
  8
0
  6
CONTINUOUS
 62
    80
  5
407
 10
104.361522
 20
-66.535981
 30
0.0
 11
103.670029
 21
-71.609066
 31
0.0
  0
LINE
  8
0
  6
CONTINUOUS
 62
    80
  5
408
 10
98.809998
 20
-66.536011
 30
0.0
 11
104.361511
 21
-66.536011
 31
0.0
  0
LINE
  8
0
  6
CONTINUOUS
 62
    80
  5
409
 10
96.010437
 20
-65.606689
 30
0.0
 11
107.160889
 21
-65.606689
 31
0.0
  0
LINE
  8
0
  6
CONTINUOUS
 62
    80
  5
40A
 10
89.62146
 20
-69.535767
 30
0.0
 11
89.62146
 21
-71.714355
 31
0.0
  0
LINE
  8
0
  6
CONTINUOUS
 62
    80
  5
40B
 10
83.692871
 20
-72.821533
 30
0.0
 11
88.514343
 21
-72.821533
 31
0.0
  0
LINE
  8
0
  6
CONTINUOUS
 62
    80
  5
40C
 10
83.692871
 20
-71.892944
 30
0.0
 11
83.692871
 21
-72.821533
 31
0.0
  0
LINE
  8
0
  6
CONTINUOUS
 62
    80
  5
40D
 10
83.692871
 20
-71.892944
 30
0.0
 11
85.942932
 21
-71.892944
 31
0.0
  0
LINE
  8
0
  6
CONTINUOUS
 62
    80
  5
40E
 10
86.692932
 20
-67.178467
 30
0.0
 11
86.692932
 21
-71.142944
 31
0.0
  0
LINE
  8
0
  6
CONTINUOUS
 62
    80
  5
40F
 10
86.692932
 20
-67.178467
 30
0.0
 11
89.62146
 21
-67.178467
 31
0.0
  0
LINE
  8
0
  6
CONTINUOUS
 62
    80
  5
410
 10
89.62146
 20
-67.178467
 30
0.0
 11
89.62146
 21
-68.464355
 31
0.0
  0
LINE
  8
0
  6
CONTINUOUS
 62
    80
  5
411
 10
89.62146
 20
-68.464355
 30
0.0
 11
91.37146
 21
-68.464355
 31
0.0
  0
LINE
  8
0
  6
CONTINUOUS
 62
    80
  5
412
 10
89.62146
 20
-69.535767
 30
0.0
 11
93.514343
 21
-69.535767
 31
0.0
  0
LINE
  8
0
  6
CONTINUOUS
 62
    80
  5
413
 10
95.050049
 20
-65.178589
 30
0.0
 11
95.050049
 21
-68.0
 31
0.0
  0
LINE
  8
0
  6
CONTINUOUS
 62
    80
  5
414
 10
92.264343
 20
-66.107178
 30
0.0
 11
92.264343
 21
-67.571533
 31
0.0
  0
LINE
  8
0
  6
CONTINUOUS
 62
    80
  5
415
 10
83.692871
 20
-66.107178
 30
0.0
 11
92.264343
 21
-66.107178
 31
0.0
  0
LINE
  8
0
  6
CONTINUOUS
 62
    80
  5
416
 10
83.692871
 20
-65.178589
 30
0.0
 11
83.692871
 21
-66.107178
 31
0.0
  0
LINE
  8
0
  6
CONTINUOUS
 62
    80
  5
417
 10
83.692871
 20
-65.178589
 30
0.0
 11
95.050049
 21
-65.178589
 31
0.0
  0
LINE
  8
0
  6
CONTINUOUS
 62
     3
  5
418
 10
-42.5
 20
-87.0
 30
0.0
 11
-42.5
 21
-95.0
 31
0.0
  0
LINE
  8
0
  6
CONTINUOUS
 62
     3
  5
419
 10
51.0
 20
-87.0
 30
0.0
 11
51.0
 21
-95.0
 31
0.0
  0
LINE
  8
0
  6
CONTINUOUS
 62
     3
  5
41A
 10
144.5
 20
-87.0
 30
0.0
 11
144.5
 21
-95.0
 31
0.0
  0
LINE
  8
0
  6
CONTINUOUS
 62
     3
  5
41B
 10
-229.5
 20
-87.0
 30
0.0
 11
-229.5
 21
-95.0
 31
0.0
  0
LINE
  8
0
  6
CONTINUOUS
 62
     3
  5
41C
 10
-136.0
 20
-87.0
 30
0.0
 11
-136.0
 21
-95.0
 31
0.0
  0
LINE
  8
0
  6
CONTINUOUS
 62
     3
  5
41D
 10
-323.0
 20
-87.0
 30
0.0
 11
-323.0
 21
-95.0
 31
0.0
  0
LINE
  8
0
  6
CONTINUOUS
 62
     3
  5
41E
 10
-416.5
 20
-87.0
 30
0.0
 11
-416.5
 21
-95.0
 31
0.0
  0
LINE
  8
0
  6
CONTINUOUS
 62
     3
  5
41F
 10
144.5
 20
440.999969
 30
0.0
 11
144.5
 21
448.999969
 31
0.0
  0
LINE
  8
0
  6
CONTINUOUS
 62
     3
  5
420
 10
-42.5
 20
440.999969
 30
0.0
 11
-42.5
 21
448.999969
 31
0.0
  0
LINE
  8
0
  6
CONTINUOUS
 62
     3
  5
421
 10
51.0
 20
440.999969
 30
0.0
 11
51.0
 21
448.999969
 31
0.0
  0
LINE
  8
0
  6
CONTINUOUS
 62
     3
  5
422
 10
-229.5
 20
440.999969
 30
0.0
 11
-229.5
 21
448.999969
 31
0.0
  0
LINE
  8
0
  6
CONTINUOUS
 62
     3
  5
423
 10
-416.5
 20
440.999969
 30
0.0
 11
-416.5
 21
448.999969
 31
0.0
  0
LINE
  8
0
  6
CONTINUOUS
 62
     3
  5
424
 10
-323.0
 20
440.999969
 30
0.0
 11
-323.0
 21
448.999969
 31
0.0
  0
LINE
  8
0
  6
CONTINUOUS
 62
     3
  5
425
 10
-136.0
 20
440.999969
 30
0.0
 11
-136.0
 21
448.999969
 31
0.0
  0
LINE
  8
0
  6
CONTINUOUS
 62
     3
  5
426
 10
-90.0
 20
-14.0
 30
0.0
 11
-90.0
 21
-87.0
 31
0.0
  0
LINE
  8
0
  6
CONTINUOUS
 62
     3
  5
427
 10
-510.0
 20
1.0
 30
0.0
 11
-518.0
 21
1.0
 31
0.0
  0
LINE
  8
0
  6
CONTINUOUS
 62
    80
  5
428
 10
16.999949
 20
409.031106
 30
0.0
 11
13.499949
 21
402.968929
 31
0.0
  0
LINE
  8
0
  6
CONTINUOUS
 62
    80
  5
429
 10
13.5
 20
402.968887
 30
0.0
 11
20.5
 21
402.968887
 31
0.0
  0
LINE
  8
0
  6
CONTINUOUS
 62
    80
  5
42A
 10
16.999951
 20
409.031021
 30
0.0
 11
20.499951
 21
402.968843
 31
0.0
  0
LINE
  8
0
  6
CONTINUOUS
 62
    80
  5
42B
 10
16.999962
 20
419.031127
 30
0.0
 11
13.499962
 21
412.96895
 31
0.0
  0
LINE
  8
0
  6
CONTINUOUS
 62
    80
  5
42C
 10
13.5
 20
412.968887
 30
0.0
 11
20.5
 21
412.968887
 31
0.0
  0
LINE
  8
0
  6
CONTINUOUS
 62
    80
  5
42D
 10
16.999939
 20
419.031042
 30
0.0
 11
20.499939
 21
412.968864
 31
0.0
  0
LINE
  8
0
  6
CONTINUOUS
 62
    80
  5
42E
 10
16.999943
 20
429.031096
 30
0.0
 11
13.499943
 21
422.968918
 31
0.0
  0
LINE
  8
0
  6
CONTINUOUS
 62
    80
  5
42F
 10
13.5
 20
422.968887
 30
0.0
 11
20.5
 21
422.968887
 31
0.0
  0
LINE
  8
0
  6
CONTINUOUS
 62
    80
  5
430
 10
16.999927
 20
429.031063
 30
0.0
 11
20.499927
 21
422.968885
 31
0.0
  0
LINE
  8
0
  6
CONTINUOUS
 62
    80
  5
431
 10
16.999963
 20
399.031
 30
0.0
 11
20.499963
 21
392.968822
 31
0.0
  0
LINE
  8
0
  6
CONTINUOUS
 62
    80
  5
432
 10
16.999937
 20
399.031085
 30
0.0
 11
13.499937
 21
392.968908
 31
0.0
  0
LINE
  8
0
  6
CONTINUOUS
 62
    80
  5
433
 10
13.5
 20
392.968887
 30
0.0
 11
20.5
 21
392.968887
 31
0.0
  0
LINE
  8
0
  6
CONTINUOUS
 62
    80
  5
434
 10
-18.0
 20
400.999977
 30
0.0
 11
238.0
 21
400.999977
 31
0.0
  0
LINE
  8
0
  6
CONTINUOUS
 62
    80
  5
435
 10
-18.0
 20
410.999969
 30
0.0
 11
238.0
 21
410.999969
 31
0.0
  0
LINE
  8
0
  6
CONTINUOUS
 62
    80
  5
436
 10
-18.0
 20
420.999969
 30
0.0
 11
238.0
 21
420.999969
 31
0.0
  0
LINE
  8
0
  6
CONTINUOUS
 62
     3
  5
437
 10
-18.0
 20
430.999969
 30
0.0
 11
238.0
 21
430.999969
 31
0.0
  0
LINE
  8
0
  6
CONTINUOUS
 62
     3
  5
438
 10
-556.0
 20
-120.0
 30
0.0
 11
284.0
 21
-120.0
 31
0.0
  0
LINE
  8
0
  6
CONTINUOUS
 62
     3
  5
439
 10
284.0
 20
473.999985
 30
0.0
 11
284.0
 21
-120.0
 31
0.0
  0
LINE
  8
0
  6
CONTINUOUS
 62
     3
  5
43A
 10
-556.0
 20
473.999985
 30
0.0
 11
-556.0
 21
-120.0
 31
0.0
  0
LINE
  8
0
  6
CONTINUOUS
 62
     3
  5
43B
 10
-510.0
 20
88.999985
 30
0.0
 11
-518.0
 21
88.999985
 31
0.0
  0
LINE
  8
0
  6
CONTINUOUS
 62
     3
  5
43C
 10
-510.0
 20
176.999992
 30
0.0
 11
-518.0
 21
176.999992
 31
0.0
  0
LINE
  8
0
  6
CONTINUOUS
 62
     3
  5
43D
 10
-510.0
 20
264.999989
 30
0.0
 11
-518.0
 21
264.999989
 31
0.0
  0
LINE
  8
0
  6
CONTINUOUS
 62
     3
  5
43E
 10
-510.0
 20
352.999977
 30
0.0
 11
-518.0
 21
352.999977
 31
0.0
  0
LINE
  8
0
  6
CONTINUOUS
 62
     3
  5
43F
 10
238.0
 20
1.0
 30
0.0
 11
246.0
 21
1.0
 31
0.0
  0
LINE
  8
0
  6
CONTINUOUS
 62
     3
  5
440
 10
238.0
 20
88.999985
 30
0.0
 11
246.0
 21
88.999985
 31
0.0
  0
LINE
  8
0
  6
CONTINUOUS
 62
     3
  5
441
 10
238.0
 20
176.999992
 30
0.0
 11
246.0
 21
176.999992
 31
0.0
  0
LINE
  8
0
  6
CONTINUOUS
 62
     3
  5
442
 10
238.0
 20
264.999989
 30
0.0
 11
246.0
 21
264.999989
 31
0.0
  0
LINE
  8
0
  6
CONTINUOUS
 62
     3
  5
443
 10
238.0
 20
352.999977
 30
0.0
 11
246.0
 21
352.999977
 31
0.0
  0
LINE
  8
0
  6
CONTINUOUS
 62
     3
  5
444
 10
238.0
 20
440.999969
 30
0.0
 11
238.0
 21
-87.0
 31
0.0
  0
LINE
  8
0
  6
CONTINUOUS
 62
     3
  5
445
 10
-18.0
 20
440.999969
 30
0.0
 11
-18.0
 21
390.999977
 31
0.0
  0
LINE
  8
0
  6
CONTINUOUS
 62
    80
  5
446
 10
12.0
 20
440.999969
 30
0.0
 11
12.0
 21
390.999977
 31
0.0
  0
LINE
  8
0
  6
CONTINUOUS
 62
    80
  5
447
 10
32.0
 20
440.999969
 30
0.0
 11
32.0
 21
390.999977
 31
0.0
  0
LINE
  8
0
  6
CONTINUOUS
 62
    80
  5
448
 10
218.0
 20
440.999969
 30
0.0
 11
218.0
 21
390.999977
 31
0.0
  0
LINE
  8
0
  6
CONTINUOUS
 62
    80
  5
449
 10
-18.0
 20
390.999977
 30
0.0
 11
238.0
 21
390.999977
 31
0.0
  0
LINE
  8
0
  6
CONTINUOUS
 62
     3
  5
44A
 10
-510.0
 20
440.999969
 30
0.0
 11
238.0
 21
440.999969
 31
0.0
  0
LINE
  8
0
  6
CONTINUOUS
 62
     3
  5
44B
 10
62.0
 20
-45.0
 30
0.0
 11
62.0
 21
-87.0
 31
0.0
  0
LINE
  8
0
  6
CONTINUOUS
 62
     3
  5
44C
 10
24.0
 20
-45.0
 30
0.0
 11
24.0
 21
-87.0
 31
0.0
  0
LINE
  8
0
  6
CONTINUOUS
 62
     3
  5
44D
 10
-14.0
 20
-45.0
 30
0.0
 11
-14.0
 21
-87.0
 31
0.0
  0
LINE
  8
0
  6
CONTINUOUS
 62
     3
  5
44E
 10
-90.0
 20
-45.0
 30
0.0
 11
238.0
 21
-45.0
 31
0.0
  0
LINE
  8
0
  6
CONTINUOUS
 62
     3
  5
44F
 10
-510.0
 20
-87.0
 30
0.0
 11
238.0
 21
-87.0
 31
0.0
  0
LINE
  8
0
  6
CONTINUOUS
 62
     3
  5
450
 10
-510.0
 20
440.999969
 30
0.0
 11
-510.0
 21
-87.0
 31
0.0
  0
LINE
  8
0
  6
CONTINUOUS
 62
     3
  5
451
 10
-18.0
 20
144.0
 30
0.0
 11
-18.0
 21
-14.0
 31
0.0
  0
LINE
  8
0
  6
CONTINUOUS
 62
    80
  5
452
 10
-18.0
 20
84.0
 30
0.0
 11
238.0
 21
84.0
 31
0.0
  0
LINE
  8
0
  6
CONTINUOUS
 62
    80
  5
453
 10
-18.0
 20
72.0
 30
0.0
 11
238.0
 21
72.0
 31
0.0
  0
LINE
  8
0
  6
CONTINUOUS
 62
    80
  5
454
 10
-18.0
 20
60.0
 30
0.0
 11
238.0
 21
60.0
 31
0.0
  0
LINE
  8
0
  6
CONTINUOUS
 62
    80
  5
455
 10
-18.0
 20
48.0
 30
0.0
 11
238.0
 21
48.0
 31
0.0
  0
LINE
  8
0
  6
CONTINUOUS
 62
    80
  5
456
 10
-18.0
 20
36.0
 30
0.0
 11
238.0
 21
36.0
 31
0.0
  0
LINE
  8
0
  6
CONTINUOUS
 62
    80
  5
457
 10
-18.0
 20
24.0
 30
0.0
 11
238.0
 21
24.0
 31
0.0
  0
LINE
  8
0
  6
CONTINUOUS
 62
    80
  5
458
 10
-18.0
 20
12.0
 30
0.0
 11
238.0
 21
12.0
 31
0.0
  0
LINE
  8
0
  6
CONTINUOUS
 62
    80
  5
459
 10
148.0
 20
144.0
 30
0.0
 11
148.0
 21
-14.0
 31
0.0
  0
LINE
  8
0
  6
CONTINUOUS
 62
    80
  5
45A
 10
96.0
 20
144.0
 30
0.0
 11
96.0
 21
-14.0
 31
0.0
  0
LINE
  8
0
  6
CONTINUOUS
 62
    80
  5
45B
 10
72.0
 20
144.0
 30
0.0
 11
72.0
 21
-14.0
 31
0.0
  0
LINE
  8
0
  6
CONTINUOUS
 62
    80
  5
45C
 10
0.0
 20
144.0
 30
0.0
 11
0.0
 21
-14.0
 31
0.0
  0
LINE
  8
0
  6
CONTINUOUS
 62
     3
  5
45D
 10
-18.0
 20
0.0
 30
0.0
 11
238.0
 21
0.0
 31
0.0
  0
ENDBLK
  8
0
  5
45E
  0
BLOCK
  8
0
  5
45F
  2
MS_2
 70
     0
 10
0.0
 20
0.0
 30
0.0
  3
MS_2
  0
LINE
  8
0
  6
CONTINUOUS
 62
    80
  5
460
 10
0.0
 20
96.0
 30
0.0
 11
256.0
 21
96.0
 31
0.0
  0
LINE
  8
0
  6
CONTINUOUS
 62
    80
  5
461
 10
0.0
 20
108.0
 30
0.0
 11
256.0
 21
108.0
 31
0.0
  0
LINE
  8
0
  6
CONTINUOUS
 62
    80
  5
462
 10
0.0
 20
120.0
 30
0.0
 11
256.0
 21
120.0
 31
0.0
  0
LINE
  8
0
  6
CONTINUOUS
 62
    80
  5
463
 10
0.0
 20
132.0
 30
0.0
 11
256.0
 21
132.0
 31
0.0
  0
TEXT
  8
0
  6
CONTINUOUS
 62
     3
  5
464
 10
5.641333
 20
134.8
 30
0.0
 40
6.4
  1
受信周波数
 41
0.8
  7
MX_NOTE_STANDARD
 11
5.641333
 21
138.0
 31
0.0
 73
     2
  0
TEXT
  8
0
  6
CONTINUOUS
 62
     3
  5
465
 10
69.641333
 20
134.8
 30
0.0
 40
6.4
  1
４２９ＭＨｚ帯
 41
0.8
  7
MX_NOTE_STANDARD
 11
69.641333
 21
138.0
 31
0.0
 73
     2
  0
TEXT
  8
0
  6
CONTINUOUS
 62
     3
  5
466
 10
5.641333
 20
122.8
 30
0.0
 40
6.4
  1
受信方式
 41
0.8
  7
MX_NOTE_STANDARD
 11
5.641333
 21
126.0
 31
0.0
 73
     2
  0
TEXT
  8
0
  6
CONTINUOUS
 62
     3
  5
467
 10
69.641333
 20
122.8
 30
0.0
 40
6.4
  1
シングルスーパーヘテロダイン方式
 41
0.8
  7
MX_NOTE_STANDARD
 11
69.641333
 21
126.0
 31
0.0
 73
     2
  0
TEXT
  8
0
  6
CONTINUOUS
 62
     3
  5
468
 10
5.641333
 20
110.8
 30
0.0
 40
6.4
  1
復調方式
 41
0.8
  7
MX_NOTE_STANDARD
 11
5.641333
 21
114.0
 31
0.0
 73
     2
  0
TEXT
  8
0
  6
CONTINUOUS
 62
     3
  5
469
 10
69.641333
 20
110.8
 30
0.0
 40
6.4
  1
ＦＭ変調方式
 41
0.8
  7
MX_NOTE_STANDARD
 11
69.641333
 21
114.0
 31
0.0
 73
     2
  0
TEXT
  8
0
  6
CONTINUOUS
 62
     3
  5
46A
 10
5.641333
 20
98.8
 30
0.0
 40
6.4
  1
周波数制御方式
 41
0.8
  7
MX_NOTE_STANDARD
 11
5.641333
 21
102.0
 31
0.0
 73
     2
  0
TEXT
  8
0
  6
CONTINUOUS
 62
     3
  5
46B
 10
69.641333
 20
98.8
 30
0.0
 40
6.4
  1
ＰＬＬ制御方式
 41
0.8
  7
MX_NOTE_STANDARD
 11
69.641333
 21
102.0
 31
0.0
 73
     2
  0
LINE
  8
0
  6
CONTINUOUS
 62
    80
  5
46C
 10
0.0
 20
144.0
 30
0.0
 11
0.0
 21
0.8
 31
0.0
  0
LINE
  8
0
  6
CONTINUOUS
 62
    80
  5
46D
 10
64.0
 20
144.0
 30
0.0
 11
64.0
 21
0.8
 31
0.0
  0
LINE
  8
0
  6
CONTINUOUS
 62
    80
  5
46E
 10
0.0
 20
144.0
 30
0.0
 11
256.0
 21
144.0
 31
0.0
  0
LINE
  8
0
  6
CONTINUOUS
 62
    80
  5
46F
 10
0.0
 20
84.0
 30
0.0
 11
256.0
 21
84.0
 31
0.0
  0
TEXT
  8
0
  6
CONTINUOUS
 62
     3
  5
470
 10
5.641333
 20
86.8
 30
0.0
 40
6.4
  1
受信感度
 41
0.8
  7
MX_NOTE_STANDARD
 11
5.641333
 21
90.0
 31
0.0
 73
     2
  0
TEXT
  8
0
  6
CONTINUOUS
 62
     3
  5
471
 10
69.649782
 20
86.8
 30
0.0
 40
6.4
  1
１０ｄＢμＶ（５０Ω/ＥＭＦ）以下
 41
0.807921
  7
MX_NOTE_STANDARD
 11
69.649782
 21
90.0
 31
0.0
 73
     2
  0
LINE
  8
0
  6
CONTINUOUS
 62
    80
  5
472
 10
0.0
 20
72.0
 30
0.0
 11
256.0
 21
72.0
 31
0.0
  0
TEXT
  8
0
  6
CONTINUOUS
 62
     3
  5
473
 10
5.641333
 20
74.8
 30
0.0
 40
6.4
  1
アンテナ入力
 41
0.8
  7
MX_NOTE_STANDARD
 11
5.641333
 21
78.0
 31
0.0
 73
     2
  0
TEXT
  8
0
  6
CONTINUOUS
 62
     3
  5
474
 10
69.641333
 20
74.8
 30
0.0
 40
6.4
  1
ＢＮＣ型接栓付高周波同軸ケーブル（５０Ω）
 41
0.8
  7
MX_NOTE_STANDARD
 11
69.641333
 21
78.0
 31
0.0
 73
     2
  0
TEXT
  8
0
  6
CONTINUOUS
 62
     3
  5
475
 10
5.641333
 20
62.8
 30
0.0
 40
6.4
  1
動作応答時間
 41
0.8
  7
MX_NOTE_STANDARD
 11
5.641333
 21
66.0
 31
0.0
 73
     2
  0
TEXT
  8
0
  6
CONTINUOUS
 62
     3
  5
476
 10
69.641333
 20
62.8
 30
0.0
 40
6.4
  1
通常約５秒（但し複数の送信機から同時送信があった場合や、
 41
0.8
  7
MX_NOTE_STANDARD
 11
69.641333
 21
66.0
 31
0.0
 73
     2
  0
LINE
  8
0
  6
CONTINUOUS
 62
    80
  5
477
 10
0.0
 20
48.8
 30
0.0
 11
256.0
 21
48.8
 31
0.0
  0
TEXT
  8
0
  6
CONTINUOUS
 62
     3
  5
478
 10
69.641333
 20
51.6
 30
0.0
 40
6.4
  1
中間送信機を利用して通信の場合はこの限りではありません。
 41
0.8
  7
MX_NOTE_STANDARD
 11
69.641333
 21
54.8
 31
0.0
 73
     2
  0
LINE
  8
0
  6
CONTINUOUS
 62
    80
  5
479
 10
0.0
 20
36.8
 30
0.0
 11
256.0
 21
36.8
 31
0.0
  0
TEXT
  8
0
  6
CONTINUOUS
 62
     3
  5
47A
 10
5.641333
 20
39.6
 30
0.0
 40
6.4
  1
出力方式
 41
0.8
  7
MX_NOTE_STANDARD
 11
5.641333
 21
42.8
 31
0.0
 73
     2
  0
TEXT
  8
0
  6
CONTINUOUS
 62
     3
  5
47B
 10
69.641333
 20
39.6
 30
0.0
 40
6.4
  1
ＲＳ－２３２Ｃ
 41
0.8
  7
MX_NOTE_STANDARD
 11
69.641333
 21
42.8
 31
0.0
 73
     2
  0
LINE
  8
0
  6
CONTINUOUS
 62
    80
  5
47C
 10
0.0
 20
24.8
 30
0.0
 11
256.0
 21
24.8
 31
0.0
  0
TEXT
  8
0
  6
CONTINUOUS
 62
     3
  5
47D
 10
5.641333
 20
27.6
 30
0.0
 40
6.4
  1
伝送速度
 41
0.8
  7
MX_NOTE_STANDARD
 11
5.641333
 21
30.8
 31
0.0
 73
     2
  0
TEXT
  8
0
  6
CONTINUOUS
 62
     3
  5
47E
 10
69.641333
 20
27.6
 30
0.0
 40
6.4
  1
９６００ｂｐｓ
 41
0.8
  7
MX_NOTE_STANDARD
 11
69.641333
 21
30.8
 31
0.0
 73
     2
  0
LINE
  8
0
  6
CONTINUOUS
 62
    80
  5
47F
 10
0.0
 20
12.8
 30
0.0
 11
256.0
 21
12.8
 31
0.0
  0
TEXT
  8
0
  6
CONTINUOUS
 62
     3
  5
480
 10
5.641333
 20
15.6
 30
0.0
 40
6.4
  1
フォーマット
 41
0.8
  7
MX_NOTE_STANDARD
 11
5.641333
 21
18.8
 31
0.0
 73
     2
  0
TEXT
  8
0
  6
CONTINUOUS
 62
     3
  5
481
 10
70.267111
 20
15.6
 30
0.0
 40
6.4
  1
１スタートビット、８データビット（ＬＳＢ先行）、１ストップビット、パリティなし
 41
0.574359
  7
MX_NOTE_STANDARD
 11
70.267111
 21
18.8
 31
0.0
 73
     2
  0
LINE
  8
0
  6
CONTINUOUS
 62
    80
  5
482
 10
0.0
 20
0.8
 30
0.0
 11
256.0
 21
0.8
 31
0.0
  0
TEXT
  8
0
  6
CONTINUOUS
 62
     3
  5
483
 10
5.641333
 20
3.6
 30
0.0
 40
6.4
  1
手順
 41
0.8
  7
MX_NOTE_STANDARD
 11
5.641333
 21
6.8
 31
0.0
 73
     2
  0
TEXT
  8
0
  6
CONTINUOUS
 62
     3
  5
484
 10
69.641333
 20
3.6
 30
0.0
 40
6.4
  1
半二重
 41
0.8
  7
MX_NOTE_STANDARD
 11
69.641333
 21
6.8
 31
0.0
 73
     2
  0
LINE
  8
0
  6
CONTINUOUS
 62
    80
  5
485
 10
256.0
 20
144.0
 30
0.0
 11
256.0
 21
0.8
 31
0.0
  0
TEXT
  8
0
  6
CONTINUOUS
 62
     3
  5
486
 10
5.641333
 20
146.8
 30
0.0
 40
6.4
  1
性能使用
 41
0.8
  7
MX_NOTE_STANDARD
 11
5.641333
 21
150.0
 31
0.0
 73
     2
  0
ENDBLK
  8
0
  5
487
  0
BLOCK
  8
0
  5
488
  2
MS_3
 70
     0
 10
0.0
 20
0.0
 30
0.0
  3
MS_3
  0
INSERT
  8
0
  6
BYBLOCK
 62
    80
  5
493
  2
*X22
 10
0.0
 20
0.0
 30
0.0
  0
ARC
  8
0
  6
CONTINUOUS
 62
     3
  5
494
 10
1.35
 20
4.15
 30
0.0
 40
0.05
 50
270.0
 51
0.0
  0
ARC
  8
0
  6
CONTINUOUS
 62
     3
  5
495
 10
-1.35
 20
4.15
 30
0.0
 40
0.05
 50
180.0
 51
270.0
  0
ARC
  8
0
  6
CONTINUOUS
 62
     3
  5
496
 10
-1.35
 20
5.05
 30
0.0
 40
0.05
 50
90.0
 51
180.0
  0
ARC
  8
0
  6
CONTINUOUS
 62
     3
  5
497
 10
1.35
 20
5.05
 30
0.0
 40
0.05
 50
0.0
 51
90.0
  0
SOLID
  8
0
  6
CONTINUOUS
 62
    80
  5
498
 10
-0.811111
 20
1.0
 30
0.0
 11
0.811111
 21
1.0
 31
0.0
 12
-0.722222
 22
0.2
 32
0.0
 13
0.722222
 23
0.2
 33
0.0
  0
LINE
  8
0
  6
CONTINUOUS
 62
     3
  5
499
 10
-0.811111
 20
1.0
 30
0.0
 11
0.811111
 21
1.0
 31
0.0
  0
LINE
  8
0
  6
CONTINUOUS
 62
     3
  5
49A
 10
-0.722222
 20
0.2
 30
0.0
 11
0.722222
 21
0.2
 31
0.0
  0
CIRCLE
  8
0
  6
CONTINUOUS
 62
     3
  5
49B
 10
-0.770642
 20
9.014679
 30
0.0
 40
0.085592
  0
LINE
  8
0
  6
CONTINUOUS
 62
     3
  5
49C
 10
-0.7
 20
0.0
 30
0.0
 11
0.7
 21
0.0
 31
0.0
  0
LINE
  8
0
  6
CONTINUOUS
 62
     3
  5
49D
 10
-1.1
 20
8.0
 30
0.0
 11
1.1
 21
8.0
 31
0.0
  0
LINE
  8
0
  6
CONTINUOUS
 62
     3
  5
49E
 10
-1.0
 20
10.0
 30
0.0
 11
1.0
 21
10.0
 31
0.0
  0
LINE
  8
0
  6
CONTINUOUS
 62
     3
  5
49F
 10
-1.0
 20
10.0
 30
0.0
 11
-1.0
 21
8.0
 31
0.0
  0
LINE
  8
0
  6
CONTINUOUS
 62
     3
  5
4A0
 10
1.0
 20
10.0
 30
0.0
 11
1.0
 21
8.0
 31
0.0
  0
LINE
  8
0
  6
CONTINUOUS
 62
     3
  5
4A1
 10
-1.1
 20
8.0
 30
0.0
 11
-1.1
 21
6.3
 31
0.0
  0
LINE
  8
0
  6
CONTINUOUS
 62
     3
  5
4A2
 10
1.1
 20
8.0
 30
0.0
 11
1.1
 21
6.3
 31
0.0
  0
LINE
  8
0
  6
CONTINUOUS
 62
     3
  5
4A3
 10
-1.32
 20
6.3
 30
0.0
 11
1.32
 21
6.3
 31
0.0
  0
LINE
  8
0
  6
CONTINUOUS
 62
     3
  5
4A4
 10
1.4
 20
6.22
 30
0.0
 11
1.4
 21
5.98
 31
0.0
  0
LINE
  8
0
  6
CONTINUOUS
 62
     3
  5
4A5
 10
-1.4
 20
6.22
 30
0.0
 11
-1.4
 21
5.98
 31
0.0
  0
LINE
  8
0
  6
CONTINUOUS
 62
     3
  5
4A6
 10
-1.32
 20
5.9
 30
0.0
 11
1.32
 21
5.9
 31
0.0
  0
LINE
  8
0
  6
CONTINUOUS
 62
     3
  5
4A7
 10
-1.35
 20
5.1
 30
0.0
 11
1.35
 21
5.1
 31
0.0
  0
LINE
  8
0
  6
CONTINUOUS
 62
     3
  5
4A8
 10
-1.35
 20
4.1
 30
0.0
 11
1.35
 21
4.1
 31
0.0
  0
LINE
  8
0
  6
CONTINUOUS
 62
     3
  5
4A9
 10
-1.4
 20
5.05
 30
0.0
 11
-1.4
 21
4.15
 31
0.0
  0
LINE
  8
0
  6
CONTINUOUS
 62
     3
  5
4AA
 10
1.4
 20
5.05
 30
0.0
 11
1.4
 21
4.15
 31
0.0
  0
LINE
  8
0
  6
CONTINUOUS
 62
     3
  5
4AB
 10
-1.1
 20
4.1
 30
0.0
 11
-1.1
 21
3.6
 31
0.0
  0
LINE
  8
0
  6
CONTINUOUS
 62
     3
  5
4AC
 10
1.1
 20
4.1
 30
0.0
 11
1.1
 21
3.6
 31
0.0
  0
LINE
  8
0
  6
CONTINUOUS
 62
     3
  5
4AD
 10
-1.1
 20
5.9
 30
0.0
 11
-1.1
 21
5.1
 31
0.0
  0
LINE
  8
0
  6
CONTINUOUS
 62
     3
  5
4AE
 10
1.1
 20
5.9
 30
0.0
 11
1.1
 21
5.1
 31
0.0
  0
LINE
  8
0
  6
CONTINUOUS
 62
     3
  5
4AF
 10
-1.1
 20
3.6
 30
0.0
 11
1.1
 21
3.6
 31
0.0
  0
LINE
  8
0
  6
CONTINUOUS
 62
     3
  5
4B0
 10
-1.1
 20
3.7
 30
0.0
 11
1.1
 21
3.7
 31
0.0
  0
LINE
  8
0
  6
CONTINUOUS
 62
     3
  5
4B1
 10
1.1
 20
3.6
 30
0.0
 11
0.7
 21
0.0
 31
0.0
  0
LINE
  8
0
  6
CONTINUOUS
 62
     3
  5
4B2
 10
-1.1
 20
3.6
 30
0.0
 11
-0.7
 21
0.0
 31
0.0
  0
ARC
  8
0
  6
CONTINUOUS
 62
     3
  5
4B3
 10
-1.32
 20
6.22
 30
0.0
 40
0.08
 50
90.0
 51
180.0
  0
ARC
  8
0
  6
CONTINUOUS
 62
     3
  5
4B4
 10
-1.32
 20
5.98
 30
0.0
 40
0.08
 50
180.0
 51
270.0
  0
ARC
  8
0
  6
CONTINUOUS
 62
     3
  5
4B5
 10
1.32
 20
6.22
 30
0.0
 40
0.08
 50
0.0
 51
90.0
  0
ARC
  8
0
  6
CONTINUOUS
 62
     3
  5
4B6
 10
1.32
 20
5.98
 30
0.0
 40
0.08
 50
270.0
 51
0.0
  0
ENDBLK
  8
0
  5
4B7
  0
BLOCK
  8
0
  6
BYBLOCK
 62
     0
  5
4A
  2
*X3
 70
     1
 10
0.0
 20
0.0
 30
0.0
  3
*X3
  0
LINE
  8
0
  6
CONTINUOUS
 62
     0
  5
4B
 10
205.028626
 20
-72.5
 30
0.0
 11
206.314331
 21
-72.5
 31
0.0
  0
LINE
  8
0
  6
CONTINUOUS
 62
     0
  5
4C
 10
205.028626
 20
-72.0
 30
0.0
 11
206.314331
 21
-72.0
 31
0.0
  0
LINE
  8
0
  6
CONTINUOUS
 62
     0
  5
4D
 10
205.028627
 20
-71.5
 30
0.0
 11
206.314331
 21
-71.5
 31
0.0
  0
LINE
  8
0
  6
CONTINUOUS
 62
     0
  5
4E
 10
202.856273
 20
-71.0
 30
0.0
 11
203.305355
 21
-71.0
 31
0.0
  0
LINE
  8
0
  6
CONTINUOUS
 62
     0
  5
4F
 10
205.028627
 20
-71.0
 30
0.0
 11
206.314331
 21
-71.0
 31
0.0
  0
LINE
  8
0
  6
CONTINUOUS
 62
     0
  5
50
 10
203.014035
 20
-70.5
 30
0.0
 11
204.132091
 21
-70.5
 31
0.0
  0
LINE
  8
0
  6
CONTINUOUS
 62
     0
  5
51
 10
205.028628
 20
-70.5
 30
0.0
 11
206.314331
 21
-70.5
 31
0.0
  0
LINE
  8
0
  6
CONTINUOUS
 62
     0
  5
52
 10
203.530946
 20
-70.0
 30
0.0
 11
204.90501
 21
-70.0
 31
0.0
  0
LINE
  8
0
  6
CONTINUOUS
 62
     0
  5
53
 10
205.028628
 20
-70.0
 30
0.0
 11
206.314331
 21
-70.0
 31
0.0
  0
LINE
  8
0
  6
CONTINUOUS
 62
     0
  5
54
 10
203.945465
 20
-69.5
 30
0.0
 11
206.314331
 21
-69.5
 31
0.0
  0
LINE
  8
0
  6
CONTINUOUS
 62
     0
  5
55
 10
204.276534
 20
-69.0
 30
0.0
 11
206.314331
 21
-69.0
 31
0.0
  0
LINE
  8
0
  6
CONTINUOUS
 62
     0
  5
56
 10
204.546677
 20
-68.5
 30
0.0
 11
206.314331
 21
-68.5
 31
0.0
  0
LINE
  8
0
  6
CONTINUOUS
 62
     0
  5
57
 10
204.76401
 20
-68.0
 30
0.0
 11
206.314331
 21
-68.0
 31
0.0
  0
LINE
  8
0
  6
CONTINUOUS
 62
     0
  5
58
 10
204.934035
 20
-67.5
 30
0.0
 11
206.314331
 21
-67.5
 31
0.0
  0
LINE
  8
0
  6
CONTINUOUS
 62
     0
  5
59
 10
202.857178
 20
-67.0
 30
0.0
 11
207.74292
 21
-67.0
 31
0.0
  0
LINE
  8
0
  6
CONTINUOUS
 62
     0
  5
5A
 10
203.0
 20
-71.180179
 30
0.0
 11
203.0
 21
-70.512069
 31
0.0
  0
LINE
  8
0
  6
CONTINUOUS
 62
     0
  5
5B
 10
203.0
 20
-67.142944
 30
0.0
 11
203.0
 21
-67.0
 31
0.0
  0
LINE
  8
0
  6
CONTINUOUS
 62
     0
  5
5C
 10
203.5
 20
-70.883891
 30
0.0
 11
203.5
 21
-70.033314
 31
0.0
  0
LINE
  8
0
  6
CONTINUOUS
 62
     0
  5
5D
 10
203.5
 20
-67.142943
 30
0.0
 11
203.5
 21
-67.0
 31
0.0
  0
LINE
  8
0
  6
CONTINUOUS
 62
     0
  5
5E
 10
204.0
 20
-70.581094
 30
0.0
 11
204.0
 21
-69.4242
 31
0.0
  0
LINE
  8
0
  6
CONTINUOUS
 62
     0
  5
5F
 10
204.0
 20
-67.142942
 30
0.0
 11
204.0
 21
-67.0
 31
0.0
  0
LINE
  8
0
  6
CONTINUOUS
 62
     0
  5
60
 10
204.5
 20
-70.272017
 30
0.0
 11
204.5
 21
-68.594244
 31
0.0
  0
LINE
  8
0
  6
CONTINUOUS
 62
     0
  5
61
 10
204.5
 20
-67.142941
 30
0.0
 11
204.5
 21
-67.0
 31
0.0
  0
LINE
  8
0
  6
CONTINUOUS
 62
     0
  5
62
 10
205.0
 20
-69.930226
 30
0.0
 11
205.0
 21
-67.260016
 31
0.0
  0
LINE
  8
0
  6
CONTINUOUS
 62
     0
  5
63
 10
205.0
 20
-67.14294
 30
0.0
 11
205.0
 21
-67.0
 31
0.0
  0
LINE
  8
0
  6
CONTINUOUS
 62
     0
  5
64
 10
205.5
 20
-72.571533
 30
0.0
 11
205.5
 21
-67.0
 31
0.0
  0
LINE
  8
0
  6
CONTINUOUS
 62
     0
  5
65
 10
206.0
 20
-72.571533
 30
0.0
 11
206.0
 21
-67.0
 31
0.0
  0
LINE
  8
0
  6
CONTINUOUS
 62
     0
  5
66
 10
206.5
 20
-67.142944
 30
0.0
 11
206.5
 21
-67.0
 31
0.0
  0
LINE
  8
0
  6
CONTINUOUS
 62
     0
  5
67
 10
207.0
 20
-67.142944
 30
0.0
 11
207.0
 21
-67.0
 31
0.0
  0
LINE
  8
0
  6
CONTINUOUS
 62
     0
  5
68
 10
207.5
 20
-67.142944
 30
0.0
 11
207.5
 21
-67.0
 31
0.0
  0
ENDBLK
  8
0
  6
BYBLOCK
 62
     0
  5
69
  0
BLOCK
  8
0
  6
BYBLOCK
 62
     0
  5
6D
  2
*X4
 70
     1
 10
0.0
 20
0.0
 30
0.0
  3
*X4
  0
LINE
  8
0
  6
CONTINUOUS
 62
     0
  5
6E
 10
208.74292
 20
-72.5
 30
0.0
 11
213.74292
 21
-72.5
 31
0.0
  0
LINE
  8
0
  6
CONTINUOUS
 62
     0
  5
6F
 10
210.74292
 20
-72.0
 30
0.0
 11
211.885742
 21
-72.0
 31
0.0
  0
LINE
  8
0
  6
CONTINUOUS
 62
     0
  5
70
 10
210.74292
 20
-71.5
 30
0.0
 11
211.885742
 21
-71.5
 31
0.0
  0
LINE
  8
0
  6
CONTINUOUS
 62
     0
  5
71
 10
210.74292
 20
-71.0
 30
0.0
 11
211.885742
 21
-71.0
 31
0.0
  0
LINE
  8
0
  6
CONTINUOUS
 62
     0
  5
72
 10
210.74292
 20
-70.5
 30
0.0
 11
211.885742
 21
-70.5
 31
0.0
  0
LINE
  8
0
  6
CONTINUOUS
 62
     0
  5
73
 10
210.74292
 20
-70.0
 30
0.0
 11
211.885742
 21
-70.0
 31
0.0
  0
LINE
  8
0
  6
CONTINUOUS
 62
     0
  5
74
 10
210.74292
 20
-69.5
 30
0.0
 11
211.885742
 21
-69.5
 31
0.0
  0
LINE
  8
0
  6
CONTINUOUS
 62
     0
  5
75
 10
210.74292
 20
-69.0
 30
0.0
 11
211.885742
 21
-69.0
 31
0.0
  0
LINE
  8
0
  6
CONTINUOUS
 62
     0
  5
76
 10
210.74292
 20
-68.5
 30
0.0
 11
211.885742
 21
-68.5
 31
0.0
  0
LINE
  8
0
  6
CONTINUOUS
 62
     0
  5
77
 10
210.74292
 20
-68.0
 30
0.0
 11
211.885742
 21
-68.0
 31
0.0
  0
LINE
  8
0
  6
CONTINUOUS
 62
     0
  5
78
 10
210.74292
 20
-67.5
 30
0.0
 11
211.885742
 21
-67.5
 31
0.0
  0
LINE
  8
0
  6
CONTINUOUS
 62
     0
  5
79
 10
209.171448
 20
-67.0
 30
0.0
 11
213.74292
 21
-67.0
 31
0.0
  0
LINE
  8
0
  6
CONTINUOUS
 62
     0
  5
7A
 10
210.74292
 20
-66.5
 30
0.0
 11
211.885742
 21
-66.5
 31
0.0
  0
LINE
  8
0
  6
CONTINUOUS
 62
     0
  5
7B
 10
210.74292
 20
-66.0
 30
0.0
 11
211.885742
 21
-66.0
 31
0.0
  0
LINE
  8
0
  6
CONTINUOUS
 62
     0
  5
7C
 10
210.74292
 20
-65.5
 30
0.0
 11
211.885742
 21
-65.5
 31
0.0
  0
LINE
  8
0
  6
CONTINUOUS
 62
     0
  5
7D
 10
209.0
 20
-72.571533
 30
0.0
 11
209.0
 21
-72.428589
 31
0.0
  0
LINE
  8
0
  6
CONTINUOUS
 62
     0
  5
7E
 10
209.5
 20
-72.571533
 30
0.0
 11
209.5
 21
-72.428589
 31
0.0
  0
LINE
  8
0
  6
CONTINUOUS
 62
     0
  5
7F
 10
209.5
 20
-67.142944
 30
0.0
 11
209.5
 21
-67.0
 31
0.0
  0
LINE
  8
0
  6
CONTINUOUS
 62
     0
  5
80
 10
210.0
 20
-72.571533
 30
0.0
 11
210.0
 21
-72.428589
 31
0.0
  0
LINE
  8
0
  6
CONTINUOUS
 62
     0
  5
81
 10
210.0
 20
-67.142944
 30
0.0
 11
210.0
 21
-67.0
 31
0.0
  0
LINE
  8
0
  6
CONTINUOUS
 62
     0
  5
82
 10
210.5
 20
-72.571533
 30
0.0
 11
210.5
 21
-72.428589
 31
0.0
  0
LINE
  8
0
  6
CONTINUOUS
 62
     0
  5
83
 10
210.5
 20
-67.142944
 30
0.0
 11
210.5
 21
-67.0
 31
0.0
  0
LINE
  8
0
  6
CONTINUOUS
 62
     0
  5
84
 10
211.0
 20
-72.571533
 30
0.0
 11
211.0
 21
-65.428589
 31
0.0
  0
LINE
  8
0
  6
CONTINUOUS
 62
     0
  5
85
 10
211.5
 20
-72.571533
 30
0.0
 11
211.5
 21
-65.428589
 31
0.0
  0
LINE
  8
0
  6
CONTINUOUS
 62
     0
  5
86
 10
212.0
 20
-72.571533
 30
0.0
 11
212.0
 21
-72.428589
 31
0.0
  0
LINE
  8
0
  6
CONTINUOUS
 62
     0
  5
87
 10
212.0
 20
-67.142944
 30
0.0
 11
212.0
 21
-67.0
 31
0.0
  0
LINE
  8
0
  6
CONTINUOUS
 62
     0
  5
88
 10
212.5
 20
-72.571533
 30
0.0
 11
212.5
 21
-72.428589
 31
0.0
  0
LINE
  8
0
  6
CONTINUOUS
 62
     0
  5
89
 10
212.5
 20
-67.142944
 30
0.0
 11
212.5
 21
-67.0
 31
0.0
  0
LINE
  8
0
  6
CONTINUOUS
 62
     0
  5
8A
 10
213.0
 20
-72.571533
 30
0.0
 11
213.0
 21
-72.428589
 31
0.0
  0
LINE
  8
0
  6
CONTINUOUS
 62
     0
  5
8B
 10
213.0
 20
-67.142944
 30
0.0
 11
213.0
 21
-67.0
 31
0.0
  0
LINE
  8
0
  6
CONTINUOUS
 62
     0
  5
8C
 10
213.5
 20
-72.571533
 30
0.0
 11
213.5
 21
-72.428589
 31
0.0
  0
LINE
  8
0
  6
CONTINUOUS
 62
     0
  5
8D
 10
213.5
 20
-67.142944
 30
0.0
 11
213.5
 21
-67.0
 31
0.0
  0
ENDBLK
  8
0
  6
BYBLOCK
 62
     0
  5
8E
  0
BLOCK
  8
0
  6
BYBLOCK
 62
     0
  5
91
  2
*X5
 70
     1
 10
0.0
 20
0.0
 30
0.0
  3
*X5
  0
LINE
  8
0
  6
CONTINUOUS
 62
     0
  5
92
 10
207.819457
 20
-70.5
 30
0.0
 11
208.809205
 21
-70.5
 31
0.0
  0
LINE
  8
0
  6
CONTINUOUS
 62
     0
  5
93
 10
208.056821
 20
-70.0
 30
0.0
 11
208.571841
 21
-70.0
 31
0.0
  0
LINE
  8
0
  6
CONTINUOUS
 62
     0
  5
94
 10
208.0
 20
-70.817428
 30
0.0
 11
208.0
 21
-70.03975
 31
0.0
  0
LINE
  8
0
  6
CONTINUOUS
 62
     0
  5
95
 10
208.5
 20
-70.892838
 30
0.0
 11
208.5
 21
-69.96434
 31
0.0
  0
ENDBLK
  8
0
  6
BYBLOCK
 62
     0
  5
96
  0
BLOCK
  8
0
  6
BYBLOCK
 62
     0
  5
99
  2
*X6
 70
     1
 10
0.0
 20
0.0
 30
0.0
  3
*X6
  0
LINE
  8
0
  6
CONTINUOUS
 62
     0
  5
9A
 10
191.313676
 20
-72.5
 30
0.0
 11
200.939901
 21
-72.5
 31
0.0
  0
LINE
  8
0
  6
CONTINUOUS
 62
     0
  5
9B
 10
191.69889
 20
-72.0
 30
0.0
 11
193.470305
 21
-72.0
 31
0.0
  0
LINE
  8
0
  6
CONTINUOUS
 62
     0
  5
9C
 10
198.805146
 20
-72.0
 30
0.0
 11
200.559502
 21
-72.0
 31
0.0
  0
LINE
  8
0
  6
CONTINUOUS
 62
     0
  5
9D
 10
192.084104
 20
-71.5
 30
0.0
 11
193.73928
 21
-71.5
 31
0.0
  0
LINE
  8
0
  6
CONTINUOUS
 62
     0
  5
9E
 10
198.533608
 20
-71.5
 30
0.0
 11
200.179102
 21
-71.5
 31
0.0
  0
LINE
  8
0
  6
CONTINUOUS
 62
     0
  5
9F
 10
192.469318
 20
-71.0
 30
0.0
 11
194.008254
 21
-71.0
 31
0.0
  0
LINE
  8
0
  6
CONTINUOUS
 62
     0
  5
A0
 10
198.26207
 20
-71.0
 30
0.0
 11
199.798702
 21
-71.0
 31
0.0
  0
LINE
  8
0
  6
CONTINUOUS
 62
     0
  5
A1
 10
192.854532
 20
-70.5
 30
0.0
 11
194.277229
 21
-70.5
 31
0.0
  0
LINE
  8
0
  6
CONTINUOUS
 62
     0
  5
A2
 10
197.990532
 20
-70.5
 30
0.0
 11
199.418303
 21
-70.5
 31
0.0
  0
LINE
  8
0
  6
CONTINUOUS
 62
     0
  5
A3
 10
190.828613
 20
-70.0
 30
0.0
 11
201.42865
 21
-70.0
 31
0.0
  0
LINE
  8
0
  6
CONTINUOUS
 62
     0
  5
A4
 10
191.0
 20
-70.0
 30
0.0
 11
191.0
 21
-69.714355
 31
0.0
  0
LINE
  8
0
  6
CONTINUOUS
 62
     0
  5
A5
 10
191.5
 20
-72.572485
 30
0.0
 11
191.5
 21
-72.258155
 31
0.0
  0
LINE
  8
0
  6
CONTINUOUS
 62
     0
  5
A6
 10
191.5
 20
-70.0
 30
0.0
 11
191.5
 21
-69.714355
 31
0.0
  0
LINE
  8
0
  6
CONTINUOUS
 62
     0
  5
A7
 10
192.0
 20
-72.572435
 30
0.0
 11
192.0
 21
-71.609165
 31
0.0
  0
LINE
  8
0
  6
CONTINUOUS
 62
     0
  5
A8
 10
192.0
 20
-70.0
 30
0.0
 11
192.0
 21
-69.714355
 31
0.0
  0
LINE
  8
0
  6
CONTINUOUS
 62
     0
  5
A9
 10
192.5
 20
-72.572385
 30
0.0
 11
192.5
 21
-70.960175
 31
0.0
  0
LINE
  8
0
  6
CONTINUOUS
 62
     0
  5
AA
 10
192.5
 20
-70.0
 30
0.0
 11
192.5
 21
-69.714355
 31
0.0
  0
LINE
  8
0
  6
CONTINUOUS
 62
     0
  5
AB
 10
193.0
 20
-72.572335
 30
0.0
 11
193.0
 21
-70.311186
 31
0.0
  0
LINE
  8
0
  6
CONTINUOUS
 62
     0
  5
AC
 10
193.0
 20
-70.0
 30
0.0
 11
193.0
 21
-69.714355
 31
0.0
  0
LINE
  8
0
  6
CONTINUOUS
 62
     0
  5
AD
 10
193.5
 20
-72.572285
 30
0.0
 11
193.5
 21
-72.428589
 31
0.0
  0
LINE
  8
0
  6
CONTINUOUS
 62
     0
  5
AE
 10
193.5
 20
-71.9448
 30
0.0
 11
193.5
 21
-69.714355
 31
0.0
  0
LINE
  8
0
  6
CONTINUOUS
 62
     0
  5
AF
 10
194.0
 20
-72.572235
 30
0.0
 11
194.0
 21
-72.428589
 31
0.0
  0
LINE
  8
0
  6
CONTINUOUS
 62
     0
  5
B0
 10
194.0
 20
-71.015344
 30
0.0
 11
194.0
 21
-69.714355
 31
0.0
  0
LINE
  8
0
  6
CONTINUOUS
 62
     0
  5
B1
 10
194.5
 20
-72.572185
 30
0.0
 11
194.5
 21
-72.428589
 31
0.0
  0
LINE
  8
0
  6
CONTINUOUS
 62
     0
  5
B2
 10
194.5
 20
-70.085888
 30
0.0
 11
194.5
 21
-69.714355
 31
0.0
  0
LINE
  8
0
  6
CONTINUOUS
 62
     0
  5
B3
 10
195.0
 20
-72.572134
 30
0.0
 11
195.0
 21
-72.428589
 31
0.0
  0
LINE
  8
0
  6
CONTINUOUS
 62
     0
  5
B4
 10
195.0
 20
-70.0
 30
0.0
 11
195.0
 21
-69.714355
 31
0.0
  0
LINE
  8
0
  6
CONTINUOUS
 62
     0
  5
B5
 10
195.5
 20
-72.572084
 30
0.0
 11
195.5
 21
-72.428589
 31
0.0
  0
LINE
  8
0
  6
CONTINUOUS
 62
     0
  5
B6
 10
195.5
 20
-70.0
 30
0.0
 11
195.5
 21
-69.714355
 31
0.0
  0
LINE
  8
0
  6
CONTINUOUS
 62
     0
  5
B7
 10
196.0
 20
-72.572034
 30
0.0
 11
196.0
 21
-72.428589
 31
0.0
  0
LINE
  8
0
  6
CONTINUOUS
 62
     0
  5
B8
 10
196.0
 20
-70.0
 30
0.0
 11
196.0
 21
-69.714355
 31
0.0
  0
LINE
  8
0
  6
CONTINUOUS
 62
     0
  5
B9
 10
196.5
 20
-72.571984
 30
0.0
 11
196.5
 21
-72.428589
 31
0.0
  0
LINE
  8
0
  6
CONTINUOUS
 62
     0
  5
BA
 10
196.5
 20
-70.0
 30
0.0
 11
196.5
 21
-69.714355
 31
0.0
  0
LINE
  8
0
  6
CONTINUOUS
 62
     0
  5
BB
 10
197.0
 20
-72.571934
 30
0.0
 11
197.0
 21
-72.428589
 31
0.0
  0
LINE
  8
0
  6
CONTINUOUS
 62
     0
  5
BC
 10
197.0
 20
-70.0
 30
0.0
 11
197.0
 21
-69.714355
 31
0.0
  0
LINE
  8
0
  6
CONTINUOUS
 62
     0
  5
BD
 10
197.5
 20
-72.571884
 30
0.0
 11
197.5
 21
-72.428589
 31
0.0
  0
LINE
  8
0
  6
CONTINUOUS
 62
     0
  5
BE
 10
197.5
 20
-70.0
 30
0.0
 11
197.5
 21
-69.714355
 31
0.0
  0
LINE
  8
0
  6
CONTINUOUS
 62
     0
  5
BF
 10
198.0
 20
-72.571834
 30
0.0
 11
198.0
 21
-72.428589
 31
0.0
  0
LINE
  8
0
  6
CONTINUOUS
 62
     0
  5
C0
 10
198.0
 20
-70.517434
 30
0.0
 11
198.0
 21
-69.714355
 31
0.0
  0
LINE
  8
0
  6
CONTINUOUS
 62
     0
  5
C1
 10
198.5
 20
-72.571783
 30
0.0
 11
198.5
 21
-72.428589
 31
0.0
  0
LINE
  8
0
  6
CONTINUOUS
 62
     0
  5
C2
 10
198.5
 20
-71.438115
 30
0.0
 11
198.5
 21
-69.714355
 31
0.0
  0
LINE
  8
0
  6
CONTINUOUS
 62
     0
  5
C3
 10
199.0
 20
-72.571733
 30
0.0
 11
199.0
 21
-72.428589
 31
0.0
  0
LINE
  8
0
  6
CONTINUOUS
 62
     0
  5
C4
 10
199.0
 20
-72.358796
 30
0.0
 11
199.0
 21
-69.714355
 31
0.0
  0
LINE
  8
0
  6
CONTINUOUS
 62
     0
  5
C5
 10
199.5
 20
-72.571683
 30
0.0
 11
199.5
 21
-70.607384
 31
0.0
  0
LINE
  8
0
  6
CONTINUOUS
 62
     0
  5
C6
 10
199.5
 20
-70.0
 30
0.0
 11
199.5
 21
-69.714355
 31
0.0
  0
LINE
  8
0
  6
CONTINUOUS
 62
     0
  5
C7
 10
200.0
 20
-72.571633
 30
0.0
 11
200.0
 21
-71.264587
 31
0.0
  0
LINE
  8
0
  6
CONTINUOUS
 62
     0
  5
C8
 10
200.0
 20
-70.0
 30
0.0
 11
200.0
 21
-69.714355
 31
0.0
  0
LINE
  8
0
  6
CONTINUOUS
 62
     0
  5
C9
 10
200.5
 20
-72.571583
 30
0.0
 11
200.5
 21
-71.921791
 31
0.0
  0
LINE
  8
0
  6
CONTINUOUS
 62
     0
  5
CA
 10
200.5
 20
-70.0
 30
0.0
 11
200.5
 21
-69.714355
 31
0.0
  0
LINE
  8
0
  6
CONTINUOUS
 62
     0
  5
CB
 10
201.0
 20
-70.0
 30
0.0
 11
201.0
 21
-69.714355
 31
0.0
  0
ENDBLK
  8
0
  6
BYBLOCK
 62
     0
  5
CC
  0
BLOCK
  8
0
  6
BYBLOCK
 62
     0
  5
D0
  2
*X7
 70
     1
 10
0.0
 20
0.0
 30
0.0
  3
*X7
  0
LINE
  8
0
  6
CONTINUOUS
 62
     0
  5
D1
 10
190.8284
 20
-67.5
 30
0.0
 11
191.871062
 21
-67.5
 31
0.0
  0
LINE
  8
0
  6
CONTINUOUS
 62
     0
  5
D2
 10
200.38614
 20
-67.5
 30
0.0
 11
201.428833
 21
-67.5
 31
0.0
  0
LINE
  8
0
  6
CONTINUOUS
 62
     0
  5
D3
 10
191.349163
 20
-67.0
 30
0.0
 11
193.409561
 21
-67.0
 31
0.0
  0
LINE
  8
0
  6
CONTINUOUS
 62
     0
  5
D4
 10
198.847641
 20
-67.0
 30
0.0
 11
200.908274
 21
-67.0
 31
0.0
  0
LINE
  8
0
  6
CONTINUOUS
 62
     0
  5
D5
 10
192.891407
 20
-66.5
 30
0.0
 11
194.948059
 21
-66.5
 31
0.0
  0
LINE
  8
0
  6
CONTINUOUS
 62
     0
  5
D6
 10
197.309143
 20
-66.5
 30
0.0
 11
199.366545
 21
-66.5
 31
0.0
  0
LINE
  8
0
  6
CONTINUOUS
 62
     0
  5
D7
 10
194.433651
 20
-66.0
 30
0.0
 11
197.824816
 21
-66.0
 31
0.0
  0
LINE
  8
0
  6
CONTINUOUS
 62
     0
  5
D8
 10
195.975895
 20
-65.5
 30
0.0
 11
196.283087
 21
-65.5
 31
0.0
  0
LINE
  8
0
  6
CONTINUOUS
 62
     0
  5
D9
 10
191.0
 20
-67.783088
 30
0.0
 11
191.0
 21
-67.1132
 31
0.0
  0
LINE
  8
0
  6
CONTINUOUS
 62
     0
  5
DA
 10
191.5
 20
-67.620592
 30
0.0
 11
191.5
 21
-66.951098
 31
0.0
  0
LINE
  8
0
  6
CONTINUOUS
 62
     0
  5
DB
 10
192.0
 20
-67.458096
 30
0.0
 11
192.0
 21
-66.788997
 31
0.0
  0
LINE
  8
0
  6
CONTINUOUS
 62
     0
  5
DC
 10
192.5
 20
-67.2956
 30
0.0
 11
192.5
 21
-66.626895
 31
0.0
  0
LINE
  8
0
  6
CONTINUOUS
 62
     0
  5
DD
 10
193.0
 20
-67.133104
 30
0.0
 11
193.0
 21
-66.464794
 31
0.0
  0
LINE
  8
0
  6
CONTINUOUS
 62
     0
  5
DE
 10
193.5
 20
-66.970608
 30
0.0
 11
193.5
 21
-66.302692
 31
0.0
  0
LINE
  8
0
  6
CONTINUOUS
 62
     0
  5
DF
 10
194.0
 20
-66.808112
 30
0.0
 11
194.0
 21
-66.140591
 31
0.0
  0
LINE
  8
0
  6
CONTINUOUS
 62
     0
  5
E0
 10
194.5
 20
-66.645616
 30
0.0
 11
194.5
 21
-65.978489
 31
0.0
  0
LINE
  8
0
  6
CONTINUOUS
 62
     0
  5
E1
 10
195.0
 20
-66.48312
 30
0.0
 11
195.0
 21
-65.816388
 31
0.0
  0
LINE
  8
0
  6
CONTINUOUS
 62
     0
  5
E2
 10
195.5
 20
-66.320623
 30
0.0
 11
195.5
 21
-65.654286
 31
0.0
  0
LINE
  8
0
  6
CONTINUOUS
 62
     0
  5
E3
 10
196.0
 20
-66.158127
 30
0.0
 11
196.0
 21
-65.492185
 31
0.0
  0
LINE
  8
0
  6
CONTINUOUS
 62
     0
  5
E4
 10
196.5
 20
-66.237035
 30
0.0
 11
196.5
 21
-65.570347
 31
0.0
  0
LINE
  8
0
  6
CONTINUOUS
 62
     0
  5
E5
 10
197.0
 20
-66.399531
 30
0.0
 11
197.0
 21
-65.732503
 31
0.0
  0
LINE
  8
0
  6
CONTINUOUS
 62
     0
  5
E6
 10
197.5
 20
-66.562027
 30
0.0
 11
197.5
 21
-65.894658
 31
0.0
  0
LINE
  8
0
  6
CONTINUOUS
 62
     0
  5
E7
 10
198.0
 20
-66.724523
 30
0.0
 11
198.0
 21
-66.056814
 31
0.0
  0
LINE
  8
0
  6
CONTINUOUS
 62
     0
  5
E8
 10
198.5
 20
-66.887019
 30
0.0
 11
198.5
 21
-66.21897
 31
0.0
  0
LINE
  8
0
  6
CONTINUOUS
 62
     0
  5
E9
 10
199.0
 20
-67.049515
 30
0.0
 11
199.0
 21
-66.381125
 31
0.0
  0
LINE
  8
0
  6
CONTINUOUS
 62
     0
  5
EA
 10
199.5
 20
-67.212011
 30
0.0
 11
199.5
 21
-66.543281
 31
0.0
  0
LINE
  8
0
  6
CONTINUOUS
 62
     0
  5
EB
 10
200.0
 20
-67.374508
 30
0.0
 11
200.0
 21
-66.705437
 31
0.0
  0
LINE
  8
0
  6
CONTINUOUS
 62
     0
  5
EC
 10
200.5
 20
-67.537004
 30
0.0
 11
200.5
 21
-66.867592
 31
0.0
  0
LINE
  8
0
  6
CONTINUOUS
 62
     0
  5
ED
 10
201.0
 20
-67.6995
 30
0.0
 11
201.0
 21
-67.029748
 31
0.0
  0
ENDBLK
  8
0
  6
BYBLOCK
 62
     0
  5
EE
  0
BLOCK
  8
0
  6
BYBLOCK
 62
     0
  5
F1
  2
*X8
 70
     1
 10
0.0
 20
0.0
 30
0.0
  3
*X8
  0
LINE
  8
0
  6
CONTINUOUS
 62
     0
  5
F2
 10
178.657235
 20
-72.5
 30
0.0
 11
180.702516
 21
-72.5
 31
0.0
  0
LINE
  8
0
  6
CONTINUOUS
 62
     0
  5
F3
 10
180.513127
 20
-72.0
 30
0.0
 11
181.802565
 21
-72.0
 31
0.0
  0
LINE
  8
0
  6
CONTINUOUS
 62
     0
  5
F4
 10
182.249554
 20
-72.0
 30
0.0
 11
183.688406
 21
-72.0
 31
0.0
  0
LINE
  8
0
  6
CONTINUOUS
 62
     0
  5
F5
 10
180.513378
 20
-71.5
 30
0.0
 11
181.802047
 21
-71.5
 31
0.0
  0
LINE
  8
0
  6
CONTINUOUS
 62
     0
  5
F6
 10
180.513628
 20
-71.0
 30
0.0
 11
181.801529
 21
-71.0
 31
0.0
  0
LINE
  8
0
  6
CONTINUOUS
 62
     0
  5
F7
 10
180.513878
 20
-70.5
 30
0.0
 11
181.801011
 21
-70.5
 31
0.0
  0
LINE
  8
0
  6
CONTINUOUS
 62
     0
  5
F8
 10
180.514129
 20
-70.0
 30
0.0
 11
181.800493
 21
-70.0
 31
0.0
  0
LINE
  8
0
  6
CONTINUOUS
 62
     0
  5
F9
 10
178.657227
 20
-69.5
 30
0.0
 11
183.942932
 21
-69.5
 31
0.0
  0
LINE
  8
0
  6
CONTINUOUS
 62
     0
  5
FA
 10
179.0
 20
-72.665485
 30
0.0
 11
179.0
 21
-72.224015
 31
0.0
  0
LINE
  8
0
  6
CONTINUOUS
 62
     0
  5
FB
 10
179.0
 20
-69.571533
 30
0.0
 11
179.0
 21
-69.428589
 31
0.0
  0
LINE
  8
0
  6
CONTINUOUS
 62
     0
  5
FC
 10
179.5
 20
-72.625221
 30
0.0
 11
179.5
 21
-72.18545
 31
0.0
  0
LINE
  8
0
  6
CONTINUOUS
 62
     0
  5
FD
 10
179.5
 20
-69.571533
 30
0.0
 11
179.5
 21
-69.428589
 31
0.0
  0
LINE
  8
0
  6
CONTINUOUS
 62
     0
  5
FE
 10
180.0
 20
-72.57798
 30
0.0
 11
180.0
 21
-72.149747
 31
0.0
  0
LINE
  8
0
  6
CONTINUOUS
 62
     0
  5
FF
 10
180.0
 20
-69.571533
 30
0.0
 11
180.0
 21
-69.428589
 31
0.0
  0
LINE
  8
0
  6
CONTINUOUS
 62
     0
  5
100
 10
180.5
 20
-72.523971
 30
0.0
 11
180.5
 21
-72.118091
 31
0.0
  0
LINE
  8
0
  6
CONTINUOUS
 62
     0
  5
101
 10
180.5
 20
-69.571533
 30
0.0
 11
180.5
 21
-69.428589
 31
0.0
  0
LINE
  8
0
  6
CONTINUOUS
 62
     0
  5
102
 10
181.0
 20
-72.462573
 30
0.0
 11
181.0
 21
-69.428589
 31
0.0
  0
LINE
  8
0
  6
CONTINUOUS
 62
     0
  5
103
 10
181.5
 20
-72.393707
 30
0.0
 11
181.5
 21
-69.428589
 31
0.0
  0
LINE
  8
0
  6
CONTINUOUS
 62
     0
  5
104
 10
182.0
 20
-72.317327
 30
0.0
 11
182.0
 21
-72.021442
 31
0.0
  0
LINE
  8
0
  6
CONTINUOUS
 62
     0
  5
105
 10
182.0
 20
-69.571533
 30
0.0
 11
182.0
 21
-69.428589
 31
0.0
  0
LINE
  8
0
  6
CONTINUOUS
 62
     0
  5
106
 10
182.5
 20
-72.232976
 30
0.0
 11
182.5
 21
-71.975473
 31
0.0
  0
LINE
  8
0
  6
CONTINUOUS
 62
     0
  5
107
 10
182.5
 20
-69.571533
 30
0.0
 11
182.5
 21
-69.428589
 31
0.0
  0
LINE
  8
0
  6
CONTINUOUS
 62
     0
  5
108
 10
183.0
 20
-72.140508
 30
0.0
 11
183.0
 21
-71.919504
 31
0.0
  0
LINE
  8
0
  6
CONTINUOUS
 62
     0
  5
109
 10
183.0
 20
-69.571533
 30
0.0
 11
183.0
 21
-69.428589
 31
0.0
  0
LINE
  8
0
  6
CONTINUOUS
 62
     0
  5
10A
 10
183.5
 20
-72.039984
 30
0.0
 11
183.5
 21
-71.854296
 31
0.0
  0
LINE
  8
0
  6
CONTINUOUS
 62
     0
  5
10B
 10
183.5
 20
-69.571533
 30
0.0
 11
183.5
 21
-69.428589
 31
0.0
  0
ENDBLK
  8
0
  6
BYBLOCK
 62
     0
  5
10C
  0
BLOCK
  8
0
  6
BYBLOCK
 62
     0
  5
10F
  2
*X9
 70
     1
 10
0.0
 20
0.0
 30
0.0
  3
*X9
  0
LINE
  8
0
  6
CONTINUOUS
 62
     0
  5
110
 10
187.561122
 20
-66.0
 30
0.0
 11
188.381871
 21
-66.0
 31
0.0
  0
LINE
  8
0
  6
CONTINUOUS
 62
     0
  5
111
 10
187.519776
 20
-65.5
 30
0.0
 11
188.423217
 21
-65.5
 31
0.0
  0
LINE
  8
0
  6
CONTINUOUS
 62
     0
  5
112
 10
187.5
 20
-65.880762
 30
0.0
 11
187.5
 21
-65.547949
 31
0.0
  0
LINE
  8
0
  6
CONTINUOUS
 62
     0
  5
113
 10
188.0
 20
-66.213542
 30
0.0
 11
188.0
 21
-65.215169
 31
0.0
  0
ENDBLK
  8
0
  6
BYBLOCK
 62
     0
  5
114
  0
BLOCK
  8
0
  6
BYBLOCK
 62
     0
  5
117
  2
*X10
 70
     1
 10
0.0
 20
0.0
 30
0.0
  3
*X10
  0
LINE
  8
0
  6
CONTINUOUS
 62
     0
  5
118
 10
187.659005
 20
-72.0
 30
0.0
 11
189.174644
 21
-72.0
 31
0.0
  0
LINE
  8
0
  6
CONTINUOUS
 62
     0
  5
119
 10
187.356154
 20
-71.5
 30
0.0
 11
188.853043
 21
-71.5
 31
0.0
  0
LINE
  8
0
  6
CONTINUOUS
 62
     0
  5
11A
 10
187.070665
 20
-71.0
 30
0.0
 11
188.543682
 21
-71.0
 31
0.0
  0
LINE
  8
0
  6
CONTINUOUS
 62
     0
  5
11B
 10
186.801791
 20
-70.5
 30
0.0
 11
188.246172
 21
-70.5
 31
0.0
  0
LINE
  8
0
  6
CONTINUOUS
 62
     0
  5
11C
 10
186.54887
 20
-70.0
 30
0.0
 11
187.960154
 21
-70.0
 31
0.0
  0
LINE
  8
0
  6
CONTINUOUS
 62
     0
  5
11D
 10
186.311308
 20
-69.5
 30
0.0
 11
187.685297
 21
-69.5
 31
0.0
  0
LINE
  8
0
  6
CONTINUOUS
 62
     0
  5
11E
 10
186.088576
 20
-69.0
 30
0.0
 11
187.421293
 21
-69.0
 31
0.0
  0
LINE
  8
0
  6
CONTINUOUS
 62
     0
  5
11F
 10
185.880198
 20
-68.5
 30
0.0
 11
187.167858
 21
-68.5
 31
0.0
  0
LINE
  8
0
  6
CONTINUOUS
 62
     0
  5
120
 10
185.68575
 20
-68.0
 30
0.0
 11
186.923598
 21
-68.0
 31
0.0
  0
LINE
  8
0
  6
CONTINUOUS
 62
     0
  5
121
 10
178.657227
 20
-67.5
 30
0.0
 11
189.257202
 21
-67.5
 31
0.0
  0
LINE
  8
0
  6
CONTINUOUS
 62
     0
  5
122
 10
185.338607
 20
-67.0
 30
0.0
 11
186.479702
 21
-67.0
 31
0.0
  0
LINE
  8
0
  6
CONTINUOUS
 62
     0
  5
123
 10
185.182927
 20
-66.5
 30
0.0
 11
186.297362
 21
-66.5
 31
0.0
  0
LINE
  8
0
  6
CONTINUOUS
 62
     0
  5
124
 10
185.03762
 20
-66.0
 30
0.0
 11
186.142319
 21
-66.0
 31
0.0
  0
LINE
  8
0
  6
CONTINUOUS
 62
     0
  5
125
 10
179.0
 20
-67.571468
 30
0.0
 11
179.0
 21
-67.142972
 31
0.0
  0
LINE
  8
0
  6
CONTINUOUS
 62
     0
  5
126
 10
179.5
 20
-67.571373
 30
0.0
 11
179.5
 21
-67.143011
 31
0.0
  0
LINE
  8
0
  6
CONTINUOUS
 62
     0
  5
127
 10
180.0
 20
-67.571278
 30
0.0
 11
180.0
 21
-67.143051
 31
0.0
  0
LINE
  8
0
  6
CONTINUOUS
 62
     0
  5
128
 10
180.5
 20
-67.571183
 30
0.0
 11
180.5
 21
-67.143091
 31
0.0
  0
LINE
  8
0
  6
CONTINUOUS
 62
     0
  5
129
 10
181.0
 20
-67.571088
 30
0.0
 11
181.0
 21
-67.143131
 31
0.0
  0
LINE
  8
0
  6
CONTINUOUS
 62
     0
  5
12A
 10
181.5
 20
-67.570993
 30
0.0
 11
181.5
 21
-67.14317
 31
0.0
  0
LINE
  8
0
  6
CONTINUOUS
 62
     0
  5
12B
 10
182.0
 20
-67.570899
 30
0.0
 11
182.0
 21
-67.14321
 31
0.0
  0
LINE
  8
0
  6
CONTINUOUS
 62
     0
  5
12C
 10
182.5
 20
-67.570804
 30
0.0
 11
182.5
 21
-67.14325
 31
0.0
  0
LINE
  8
0
  6
CONTINUOUS
 62
     0
  5
12D
 10
183.0
 20
-67.570709
 30
0.0
 11
183.0
 21
-67.143289
 31
0.0
  0
LINE
  8
0
  6
CONTINUOUS
 62
     0
  5
12E
 10
183.5
 20
-67.570614
 30
0.0
 11
183.5
 21
-67.143329
 31
0.0
  0
LINE
  8
0
  6
CONTINUOUS
 62
     0
  5
12F
 10
184.0
 20
-67.570519
 30
0.0
 11
184.0
 21
-67.143369
 31
0.0
  0
LINE
  8
0
  6
CONTINUOUS
 62
     0
  5
130
 10
184.5
 20
-67.570424
 30
0.0
 11
184.5
 21
-67.143409
 31
0.0
  0
LINE
  8
0
  6
CONTINUOUS
 62
     0
  5
131
 10
185.0
 20
-67.570329
 30
0.0
 11
185.0
 21
-67.143448
 31
0.0
  0
LINE
  8
0
  6
CONTINUOUS
 62
     0
  5
132
 10
185.0
 20
-65.864452
 30
0.0
 11
185.0
 21
-65.572697
 31
0.0
  0
LINE
  8
0
  6
CONTINUOUS
 62
     0
  5
133
 10
185.5
 20
-67.570234
 30
0.0
 11
185.5
 21
-65.57142
 31
0.0
  0
LINE
  8
0
  6
CONTINUOUS
 62
     0
  5
134
 10
186.0
 20
-68.791588
 30
0.0
 11
186.0
 21
-65.570143
 31
0.0
  0
LINE
  8
0
  6
CONTINUOUS
 62
     0
  5
135
 10
186.5
 20
-69.899698
 30
0.0
 11
186.5
 21
-67.050974
 31
0.0
  0
LINE
  8
0
  6
CONTINUOUS
 62
     0
  5
136
 10
187.0
 20
-70.871489
 30
0.0
 11
187.0
 21
-68.157524
 31
0.0
  0
LINE
  8
0
  6
CONTINUOUS
 62
     0
  5
137
 10
187.0
 20
-67.571415
 30
0.0
 11
187.0
 21
-67.14429
 31
0.0
  0
LINE
  8
0
  6
CONTINUOUS
 62
     0
  5
138
 10
187.5
 20
-71.741147
 30
0.0
 11
187.5
 21
-69.1512
 31
0.0
  0
LINE
  8
0
  6
CONTINUOUS
 62
     0
  5
139
 10
187.5
 20
-67.571441
 30
0.0
 11
187.5
 21
-67.143992
 31
0.0
  0
LINE
  8
0
  6
CONTINUOUS
 62
     0
  5
13A
 10
188.0
 20
-72.141464
 30
0.0
 11
188.0
 21
-70.070856
 31
0.0
  0
LINE
  8
0
  6
CONTINUOUS
 62
     0
  5
13B
 10
188.0
 20
-67.571467
 30
0.0
 11
188.0
 21
-67.143694
 31
0.0
  0
LINE
  8
0
  6
CONTINUOUS
 62
     0
  5
13C
 10
188.5
 20
-72.142192
 30
0.0
 11
188.5
 21
-70.927804
 31
0.0
  0
LINE
  8
0
  6
CONTINUOUS
 62
     0
  5
13D
 10
188.5
 20
-67.571494
 30
0.0
 11
188.5
 21
-67.143396
 31
0.0
  0
LINE
  8
0
  6
CONTINUOUS
 62
     0
  5
13E
 10
189.0
 20
-72.14292
 30
0.0
 11
189.0
 21
-71.730881
 31
0.0
  0
LINE
  8
0
  6
CONTINUOUS
 62
     0
  5
13F
 10
189.0
 20
-67.57152
 30
0.0
 11
189.0
 21
-67.143098
 31
0.0
  0
ENDBLK
  8
0
  6
BYBLOCK
 62
     0
  5
140
  0
BLOCK
  8
0
  6
BYBLOCK
 62
     0
  5
143
  2
*X11
 70
     1
 10
0.0
 20
0.0
 30
0.0
  3
*X11
  0
LINE
  8
0
  6
CONTINUOUS
 62
     0
  5
144
 10
173.514327
 20
-72.5
 30
0.0
 11
174.371521
 21
-72.5
 31
0.0
  0
LINE
  8
0
  6
CONTINUOUS
 62
     0
  5
145
 10
170.513986
 20
-72.0
 30
0.0
 11
171.462165
 21
-72.0
 31
0.0
  0
LINE
  8
0
  6
CONTINUOUS
 62
     0
  5
146
 10
173.514214
 20
-72.0
 30
0.0
 11
174.371521
 21
-72.0
 31
0.0
  0
LINE
  8
0
  6
CONTINUOUS
 62
     0
  5
147
 10
170.720483
 20
-71.5
 30
0.0
 11
172.067189
 21
-71.5
 31
0.0
  0
LINE
  8
0
  6
CONTINUOUS
 62
     0
  5
148
 10
173.514101
 20
-71.5
 30
0.0
 11
174.371521
 21
-71.5
 31
0.0
  0
LINE
  8
0
  6
CONTINUOUS
 62
     0
  5
149
 10
171.093527
 20
-71.0
 30
0.0
 11
172.617404
 21
-71.0
 31
0.0
  0
LINE
  8
0
  6
CONTINUOUS
 62
     0
  5
14A
 10
173.513988
 20
-71.0
 30
0.0
 11
174.371521
 21
-71.0
 31
0.0
  0
LINE
  8
0
  6
CONTINUOUS
 62
     0
  5
14B
 10
171.463837
 20
-70.5
 30
0.0
 11
173.12358
 21
-70.5
 31
0.0
  0
LINE
  8
0
  6
CONTINUOUS
 62
     0
  5
14C
 10
173.513875
 20
-70.5
 30
0.0
 11
174.371521
 21
-70.5
 31
0.0
  0
LINE
  8
0
  6
CONTINUOUS
 62
     0
  5
14D
 10
171.81665
 20
-70.0
 30
0.0
 11
174.371521
 21
-70.0
 31
0.0
  0
LINE
  8
0
  6
CONTINUOUS
 62
     0
  5
14E
 10
172.108125
 20
-69.5
 30
0.0
 11
174.371521
 21
-69.5
 31
0.0
  0
LINE
  8
0
  6
CONTINUOUS
 62
     0
  5
14F
 10
172.345036
 20
-69.0
 30
0.0
 11
174.371521
 21
-69.0
 31
0.0
  0
LINE
  8
0
  6
CONTINUOUS
 62
     0
  5
150
 10
172.480553
 20
-68.5
 30
0.0
 11
174.371521
 21
-68.5
 31
0.0
  0
LINE
  8
0
  6
CONTINUOUS
 62
     0
  5
151
 10
173.514343
 20
-68.0
 30
0.0
 11
174.371521
 21
-68.0
 31
0.0
  0
LINE
  8
0
  6
CONTINUOUS
 62
     0
  5
152
 10
173.514343
 20
-67.5
 30
0.0
 11
174.371521
 21
-67.5
 31
0.0
  0
LINE
  8
0
  6
CONTINUOUS
 62
     0
  5
153
 10
173.514343
 20
-67.0
 30
0.0
 11
174.371521
 21
-67.0
 31
0.0
  0
LINE
  8
0
  6
CONTINUOUS
 62
     0
  5
154
 10
171.228638
 20
-66.5
 30
0.0
 11
172.228638
 21
-66.5
 31
0.0
  0
LINE
  8
0
  6
CONTINUOUS
 62
     0
  5
155
 10
173.514343
 20
-66.5
 30
0.0
 11
174.371521
 21
-66.5
 31
0.0
  0
LINE
  8
0
  6
CONTINUOUS
 62
     0
  5
156
 10
171.228638
 20
-66.0
 30
0.0
 11
172.228638
 21
-66.0
 31
0.0
  0
LINE
  8
0
  6
CONTINUOUS
 62
     0
  5
157
 10
173.514343
 20
-66.0
 30
0.0
 11
174.371521
 21
-66.0
 31
0.0
  0
LINE
  8
0
  6
CONTINUOUS
 62
     0
  5
158
 10
171.228638
 20
-65.5
 30
0.0
 11
172.228638
 21
-65.5
 31
0.0
  0
LINE
  8
0
  6
CONTINUOUS
 62
     0
  5
159
 10
173.514343
 20
-65.5
 30
0.0
 11
174.371521
 21
-65.5
 31
0.0
  0
LINE
  8
0
  6
CONTINUOUS
 62
     0
  5
15A
 10
170.5
 20
-71.994922
 30
0.0
 11
170.5
 21
-71.788185
 31
0.0
  0
LINE
  8
0
  6
CONTINUOUS
 62
     0
  5
15B
 10
171.0
 20
-72.176454
 30
0.0
 11
171.0
 21
-71.126862
 31
0.0
  0
LINE
  8
0
  6
CONTINUOUS
 62
     0
  5
15C
 10
171.5
 20
-71.970148
 30
0.0
 11
171.5
 21
-70.452894
 31
0.0
  0
LINE
  8
0
  6
CONTINUOUS
 62
     0
  5
15D
 10
171.5
 20
-68.427382
 30
0.0
 11
171.5
 21
-68.287231
 31
0.0
  0
LINE
  8
0
  6
CONTINUOUS
 62
     0
  5
15E
 10
171.5
 20
-66.855713
 30
0.0
 11
171.5
 21
-65.428589
 31
0.0
  0
LINE
  8
0
  6
CONTINUOUS
 62
     0
  5
15F
 10
172.0
 20
-71.557989
 30
0.0
 11
172.0
 21
-69.696982
 31
0.0
  0
LINE
  8
0
  6
CONTINUOUS
 62
     0
  5
160
 10
172.0
 20
-68.427858
 30
0.0
 11
172.0
 21
-68.287231
 31
0.0
  0
LINE
  8
0
  6
CONTINUOUS
 62
     0
  5
161
 10
172.0
 20
-66.855713
 30
0.0
 11
172.0
 21
-65.428589
 31
0.0
  0
LINE
  8
0
  6
CONTINUOUS
 62
     0
  5
162
 10
172.5
 20
-71.110589
 30
0.0
 11
172.5
 21
-68.287231
 31
0.0
  0
LINE
  8
0
  6
CONTINUOUS
 62
     0
  5
163
 10
172.5
 20
-66.855713
 30
0.0
 11
172.5
 21
-66.71582
 31
0.0
  0
LINE
  8
0
  6
CONTINUOUS
 62
     0
  5
164
 10
173.0
 20
-70.623945
 30
0.0
 11
173.0
 21
-68.287231
 31
0.0
  0
LINE
  8
0
  6
CONTINUOUS
 62
     0
  5
165
 10
173.0
 20
-66.855713
 30
0.0
 11
173.0
 21
-66.71582
 31
0.0
  0
LINE
  8
0
  6
CONTINUOUS
 62
     0
  5
166
 10
173.5
 20
-70.129745
 30
0.0
 11
173.5
 21
-68.287231
 31
0.0
  0
LINE
  8
0
  6
CONTINUOUS
 62
     0
  5
167
 10
173.5
 20
-66.855713
 30
0.0
 11
173.5
 21
-66.71582
 31
0.0
  0
LINE
  8
0
  6
CONTINUOUS
 62
     0
  5
168
 10
174.0
 20
-72.571533
 30
0.0
 11
174.0
 21
-65.428589
 31
0.0
  0
LINE
  8
0
  6
CONTINUOUS
 62
     0
  5
169
 10
174.5
 20
-68.427124
 30
0.0
 11
174.5
 21
-68.287231
 31
0.0
  0
LINE
  8
0
  6
CONTINUOUS
 62
     0
  5
16A
 10
174.5
 20
-66.855713
 30
0.0
 11
174.5
 21
-66.71582
 31
0.0
  0
LINE
  8
0
  6
CONTINUOUS
 62
     0
  5
16B
 10
175.0
 20
-68.427124
 30
0.0
 11
175.0
 21
-68.287231
 31
0.0
  0
LINE
  8
0
  6
CONTINUOUS
 62
     0
  5
16C
 10
175.0
 20
-66.855713
 30
0.0
 11
175.0
 21
-66.71582
 31
0.0
  0
LINE
  8
0
  6
CONTINUOUS
 62
     0
  5
16D
 10
175.5
 20
-68.427124
 30
0.0
 11
175.5
 21
-68.287231
 31
0.0
  0
LINE
  8
0
  6
CONTINUOUS
 62
     0
  5
16E
 10
175.5
 20
-66.855713
 30
0.0
 11
175.5
 21
-66.71582
 31
0.0
  0
LINE
  8
0
  6
CONTINUOUS
 62
     0
  5
16F
 10
176.0
 20
-68.427124
 30
0.0
 11
176.0
 21
-68.287231
 31
0.0
  0
LINE
  8
0
  6
CONTINUOUS
 62
     0
  5
170
 10
176.0
 20
-66.855713
 30
0.0
 11
176.0
 21
-66.71582
 31
0.0
  0
LINE
  8
0
  6
CONTINUOUS
 62
     0
  5
171
 10
176.5
 20
-68.427124
 30
0.0
 11
176.5
 21
-68.287231
 31
0.0
  0
LINE
  8
0
  6
CONTINUOUS
 62
     0
  5
172
 10
176.5
 20
-66.855713
 30
0.0
 11
176.5
 21
-66.71582
 31
0.0
  0
LINE
  8
0
  6
CONTINUOUS
 62
     0
  5
173
 10
177.0
 20
-68.427124
 30
0.0
 11
177.0
 21
-68.287231
 31
0.0
  0
LINE
  8
0
  6
CONTINUOUS
 62
     0
  5
174
 10
177.0
 20
-66.855713
 30
0.0
 11
177.0
 21
-66.71582
 31
0.0
  0
ENDBLK
  8
0
  6
BYBLOCK
 62
     0
  5
175
  0
BLOCK
  8
0
  6
BYBLOCK
 62
     0
  5
178
  2
*X12
 70
     1
 10
0.0
 20
0.0
 30
0.0
  3
*X12
  0
LINE
  8
0
  6
CONTINUOUS
 62
     0
  5
179
 10
167.657168
 20
-72.5
 30
0.0
 11
168.657204
 21
-72.5
 31
0.0
  0
LINE
  8
0
  6
CONTINUOUS
 62
     0
  5
17A
 10
167.657186
 20
-72.0
 30
0.0
 11
168.657474
 21
-72.0
 31
0.0
  0
LINE
  8
0
  6
CONTINUOUS
 62
     0
  5
17B
 10
167.657203
 20
-71.5
 30
0.0
 11
168.657745
 21
-71.5
 31
0.0
  0
LINE
  8
0
  6
CONTINUOUS
 62
     0
  5
17C
 10
167.657221
 20
-71.0
 30
0.0
 11
168.658015
 21
-71.0
 31
0.0
  0
LINE
  8
0
  6
CONTINUOUS
 62
     0
  5
17D
 10
166.370696
 20
-70.5
 30
0.0
 11
166.726472
 21
-70.5
 31
0.0
  0
LINE
  8
0
  6
CONTINUOUS
 62
     0
  5
17E
 10
167.657239
 20
-70.5
 30
0.0
 11
168.658285
 21
-70.5
 31
0.0
  0
LINE
  8
0
  6
CONTINUOUS
 62
     0
  5
17F
 10
169.987818
 20
-70.5
 30
0.0
 11
170.033867
 21
-70.5
 31
0.0
  0
LINE
  8
0
  6
CONTINUOUS
 62
     0
  5
180
 10
166.557544
 20
-70.0
 30
0.0
 11
167.147212
 21
-70.0
 31
0.0
  0
LINE
  8
0
  6
CONTINUOUS
 62
     0
  5
181
 10
167.657257
 20
-70.0
 30
0.0
 11
168.658555
 21
-70.0
 31
0.0
  0
LINE
  8
0
  6
CONTINUOUS
 62
     0
  5
182
 10
169.4098
 20
-70.0
 30
0.0
 11
170.021634
 21
-70.0
 31
0.0
  0
LINE
  8
0
  6
CONTINUOUS
 62
     0
  5
183
 10
166.847147
 20
-69.5
 30
0.0
 11
167.54033
 21
-69.5
 31
0.0
  0
LINE
  8
0
  6
CONTINUOUS
 62
     0
  5
184
 10
167.657274
 20
-69.5
 30
0.0
 11
168.658826
 21
-69.5
 31
0.0
  0
LINE
  8
0
  6
CONTINUOUS
 62
     0
  5
185
 10
168.856847
 20
-69.5
 30
0.0
 11
169.54654
 21
-69.5
 31
0.0
  0
LINE
  8
0
  6
CONTINUOUS
 62
     0
  5
186
 10
167.087228
 20
-69.0
 30
0.0
 11
169.110942
 21
-69.0
 31
0.0
  0
LINE
  8
0
  6
CONTINUOUS
 62
     0
  5
187
 10
167.281633
 20
-68.5
 30
0.0
 11
168.710654
 21
-68.5
 31
0.0
  0
LINE
  8
0
  6
CONTINUOUS
 62
     0
  5
188
 10
167.434103
 20
-68.0
 30
0.0
 11
168.65838
 21
-68.0
 31
0.0
  0
LINE
  8
0
  6
CONTINUOUS
 62
     0
  5
189
 10
167.548827
 20
-67.5
 30
0.0
 11
168.657849
 21
-67.5
 31
0.0
  0
LINE
  8
0
  6
CONTINUOUS
 62
     0
  5
18A
 10
167.627587
 20
-67.0
 30
0.0
 11
168.657319
 21
-67.0
 31
0.0
  0
LINE
  8
0
  6
CONTINUOUS
 62
     0
  5
18B
 10
167.657166
 20
-66.5
 30
0.0
 11
168.657166
 21
-66.5
 31
0.0
  0
LINE
  8
0
  6
CONTINUOUS
 62
     0
  5
18C
 10
167.657166
 20
-66.0
 30
0.0
 11
168.657166
 21
-66.0
 31
0.0
  0
LINE
  8
0
  6
CONTINUOUS
 62
     0
  5
18D
 10
167.657166
 20
-65.5
 30
0.0
 11
168.657166
 21
-65.5
 31
0.0
  0
LINE
  8
0
  6
CONTINUOUS
 62
     0
  5
18E
 10
166.5
 20
-70.760508
 30
0.0
 11
166.5
 21
-70.089438
 31
0.0
  0
LINE
  8
0
  6
CONTINUOUS
 62
     0
  5
18F
 10
166.5
 20
-66.85566
 30
0.0
 11
166.5
 21
-66.71582
 31
0.0
  0
LINE
  8
0
  6
CONTINUOUS
 62
     0
  5
190
 10
167.0
 20
-70.177836
 30
0.0
 11
167.0
 21
-69.193124
 31
0.0
  0
LINE
  8
0
  6
CONTINUOUS
 62
     0
  5
191
 10
167.0
 20
-66.855456
 30
0.0
 11
167.0
 21
-66.71582
 31
0.0
  0
LINE
  8
0
  6
CONTINUOUS
 62
     0
  5
192
 10
167.5
 20
-69.553211
 30
0.0
 11
167.5
 21
-67.732703
 31
0.0
  0
LINE
  8
0
  6
CONTINUOUS
 62
     0
  5
193
 10
167.5
 20
-66.855252
 30
0.0
 11
167.5
 21
-66.71582
 31
0.0
  0
LINE
  8
0
  6
CONTINUOUS
 62
     0
  5
194
 10
168.0
 20
-72.571533
 30
0.0
 11
168.0
 21
-65.428589
 31
0.0
  0
LINE
  8
0
  6
CONTINUOUS
 62
     0
  5
195
 10
168.5
 20
-72.571533
 30
0.0
 11
168.5
 21
-65.428589
 31
0.0
  0
LINE
  8
0
  6
CONTINUOUS
 62
     0
  5
196
 10
169.0
 20
-69.633853
 30
0.0
 11
169.0
 21
-68.865563
 31
0.0
  0
LINE
  8
0
  6
CONTINUOUS
 62
     0
  5
197
 10
169.0
 20
-66.855713
 30
0.0
 11
169.0
 21
-66.71582
 31
0.0
  0
LINE
  8
0
  6
CONTINUOUS
 62
     0
  5
198
 10
169.5
 20
-70.078986
 30
0.0
 11
169.5
 21
-69.44858
 31
0.0
  0
LINE
  8
0
  6
CONTINUOUS
 62
     0
  5
199
 10
169.5
 20
-66.855713
 30
0.0
 11
169.5
 21
-66.71582
 31
0.0
  0
LINE
  8
0
  6
CONTINUOUS
 62
     0
  5
19A
 10
170.0
 20
-70.510383
 30
0.0
 11
170.0
 21
-69.97817
 31
0.0
  0
ENDBLK
  8
0
  6
BYBLOCK
 62
     0
  5
19B
  0
BLOCK
  8
0
  6
BYBLOCK
 62
     0
  5
19E
  2
*X13
 70
     1
 10
0.0
 20
0.0
 30
0.0
  3
*X13
  0
LINE
  8
0
  6
CONTINUOUS
 62
     0
  5
19F
 10
176.062564
 20
-71.5
 30
0.0
 11
176.966122
 21
-71.5
 31
0.0
  0
LINE
  8
0
  6
CONTINUOUS
 62
     0
  5
1A0
 10
176.104054
 20
-71.0
 30
0.0
 11
176.924633
 21
-71.0
 31
0.0
  0
LINE
  8
0
  6
CONTINUOUS
 62
     0
  5
1A1
 10
176.5
 20
-71.785561
 30
0.0
 11
176.5
 21
-70.785972
 31
0.0
  0
LINE
  8
0
  6
CONTINUOUS
 62
     0
  5
1A2
 10
177.0
 20
-71.404668
 30
0.0
 11
177.0
 21
-71.166865
 31
0.0
  0
ENDBLK
  8
0
  6
BYBLOCK
 62
     0
  5
1A3
  0
BLOCK
  8
0
  6
BYBLOCK
 62
     0
  5
1A6
  2
*X14
 70
     1
 10
0.0
 20
0.0
 30
0.0
  3
*X14
  0
LINE
  8
0
  6
CONTINUOUS
 62
     0
  5
1A7
 10
154.085635
 20
-72.5
 30
0.0
 11
155.128633
 21
-72.5
 31
0.0
  0
LINE
  8
0
  6
CONTINUOUS
 62
     0
  5
1A8
 10
154.391453
 20
-72.0
 30
0.0
 11
156.4251
 21
-72.0
 31
0.0
  0
LINE
  8
0
  6
CONTINUOUS
 62
     0
  5
1A9
 10
155.01796
 20
-71.5
 30
0.0
 11
157.355722
 21
-71.5
 31
0.0
  0
LINE
  8
0
  6
CONTINUOUS
 62
     0
  5
1AA
 10
155.592541
 20
-71.0
 30
0.0
 11
158.044906
 21
-71.0
 31
0.0
  0
LINE
  8
0
  6
CONTINUOUS
 62
     0
  5
1AB
 10
156.060994
 20
-70.5
 30
0.0
 11
158.30116
 21
-70.5
 31
0.0
  0
LINE
  8
0
  6
CONTINUOUS
 62
     0
  5
1AC
 10
154.5
 20
-72.571321
 30
0.0
 11
154.5
 21
-71.917134
 31
0.0
  0
LINE
  8
0
  6
CONTINUOUS
 62
     0
  5
1AD
 10
155.0
 20
-72.538737
 30
0.0
 11
155.0
 21
-71.515089
 31
0.0
  0
LINE
  8
0
  6
CONTINUOUS
 62
     0
  5
1AE
 10
155.5
 20
-72.377294
 30
0.0
 11
155.5
 21
-71.086302
 31
0.0
  0
LINE
  8
0
  6
CONTINUOUS
 62
     0
  5
1AF
 10
156.0
 20
-72.185624
 30
0.0
 11
156.0
 21
-70.571868
 31
0.0
  0
LINE
  8
0
  6
CONTINUOUS
 62
     0
  5
1B0
 10
156.5
 20
-71.966168
 30
0.0
 11
156.5
 21
-70.106643
 31
0.0
  0
LINE
  8
0
  6
CONTINUOUS
 62
     0
  5
1B1
 10
157.0
 20
-71.712435
 30
0.0
 11
157.0
 21
-70.106792
 31
0.0
  0
LINE
  8
0
  6
CONTINUOUS
 62
     0
  5
1B2
 10
157.5
 20
-71.40553
 30
0.0
 11
157.5
 21
-70.10694
 31
0.0
  0
LINE
  8
0
  6
CONTINUOUS
 62
     0
  5
1B3
 10
158.0
 20
-71.036583
 30
0.0
 11
158.0
 21
-70.107089
 31
0.0
  0
ENDBLK
  8
0
  6
BYBLOCK
 62
     0
  5
1B4
  0
BLOCK
  8
0
  6
BYBLOCK
 62
     0
  5
1B8
  2
*X15
 70
     1
 10
0.0
 20
0.0
 30
0.0
  3
*X15
  0
LINE
  8
0
  6
CONTINUOUS
 62
     0
  5
1B9
 10
163.961085
 20
-72.0
 30
0.0
 11
164.781834
 21
-72.0
 31
0.0
  0
LINE
  8
0
  6
CONTINUOUS
 62
     0
  5
1BA
 10
163.919739
 20
-71.5
 30
0.0
 11
164.823181
 21
-71.5
 31
0.0
  0
LINE
  8
0
  6
CONTINUOUS
 62
     0
  5
1BB
 10
164.0
 20
-72.049046
 30
0.0
 11
164.0
 21
-71.379665
 31
0.0
  0
LINE
  8
0
  6
CONTINUOUS
 62
     0
  5
1BC
 10
164.5
 20
-72.197551
 30
0.0
 11
164.5
 21
-71.23116
 31
0.0
  0
ENDBLK
  8
0
  6
BYBLOCK
 62
     0
  5
1BD
  0
BLOCK
  8
0
  6
BYBLOCK
 62
     0
  5
1C6
  2
*X16
 70
     1
 10
0.0
 20
0.0
 30
0.0
  3
*X16
  0
LINE
  8
0
  6
CONTINUOUS
 62
     0
  5
1C7
 10
141.657227
 20
-72.5
 30
0.0
 11
152.514587
 21
-72.5
 31
0.0
  0
LINE
  8
0
  6
CONTINUOUS
 62
     0
  5
1C8
 10
146.228394
 20
-72.0
 30
0.0
 11
148.08606
 21
-72.0
 31
0.0
  0
LINE
  8
0
  6
CONTINUOUS
 62
     0
  5
1C9
 10
146.228394
 20
-71.5
 30
0.0
 11
148.08606
 21
-71.5
 31
0.0
  0
LINE
  8
0
  6
CONTINUOUS
 62
     0
  5
1CA
 10
146.228394
 20
-71.0
 30
0.0
 11
148.08606
 21
-71.0
 31
0.0
  0
LINE
  8
0
  6
CONTINUOUS
 62
     0
  5
1CB
 10
146.228394
 20
-70.5
 30
0.0
 11
148.08606
 21
-70.5
 31
0.0
  0
LINE
  8
0
  6
CONTINUOUS
 62
     0
  5
1CC
 10
146.228394
 20
-70.0
 30
0.0
 11
148.08606
 21
-70.0
 31
0.0
  0
LINE
  8
0
  6
CONTINUOUS
 62
     0
  5
1CD
 10
146.228394
 20
-69.5
 30
0.0
 11
148.08606
 21
-69.5
 31
0.0
  0
LINE
  8
0
  6
CONTINUOUS
 62
     0
  5
1CE
 10
146.228394
 20
-69.0
 30
0.0
 11
148.08606
 21
-69.0
 31
0.0
  0
LINE
  8
0
  6
CONTINUOUS
 62
     0
  5
1CF
 10
146.228394
 20
-68.5
 30
0.0
 11
148.08606
 21
-68.5
 31
0.0
  0
LINE
  8
0
  6
CONTINUOUS
 62
     0
  5
1D0
 10
146.228394
 20
-68.0
 30
0.0
 11
148.08606
 21
-68.0
 31
0.0
  0
LINE
  8
0
  6
CONTINUOUS
 62
     0
  5
1D1
 10
146.228394
 20
-67.5
 30
0.0
 11
148.08606
 21
-67.5
 31
0.0
  0
LINE
  8
0
  6
CONTINUOUS
 62
     0
  5
1D2
 10
146.228394
 20
-67.0
 30
0.0
 11
148.08606
 21
-67.0
 31
0.0
  0
LINE
  8
0
  6
CONTINUOUS
 62
     0
  5
1D3
 10
146.228394
 20
-66.5
 30
0.0
 11
148.08606
 21
-66.5
 31
0.0
  0
LINE
  8
0
  6
CONTINUOUS
 62
     0
  5
1D4
 10
146.228394
 20
-66.0
 30
0.0
 11
148.08606
 21
-66.0
 31
0.0
  0
LINE
  8
0
  6
CONTINUOUS
 62
     0
  5
1D5
 10
141.657227
 20
-65.5
 30
0.0
 11
152.514587
 21
-65.5
 31
0.0
  0
LINE
  8
0
  6
CONTINUOUS
 62
     0
  5
1D6
 10
142.0
 20
-72.571533
 30
0.0
 11
142.0
 21
-72.1427
 31
0.0
  0
LINE
  8
0
  6
CONTINUOUS
 62
     0
  5
1D7
 10
142.0
 20
-65.857178
 30
0.0
 11
142.0
 21
-65.428589
 31
0.0
  0
LINE
  8
0
  6
CONTINUOUS
 62
     0
  5
1D8
 10
142.5
 20
-72.571533
 30
0.0
 11
142.5
 21
-72.1427
 31
0.0
  0
LINE
  8
0
  6
CONTINUOUS
 62
     0
  5
1D9
 10
142.5
 20
-65.857178
 30
0.0
 11
142.5
 21
-65.428589
 31
0.0
  0
LINE
  8
0
  6
CONTINUOUS
 62
     0
  5
1DA
 10
143.0
 20
-72.571533
 30
0.0
 11
143.0
 21
-72.1427
 31
0.0
  0
LINE
  8
0
  6
CONTINUOUS
 62
     0
  5
1DB
 10
143.0
 20
-65.857178
 30
0.0
 11
143.0
 21
-65.428589
 31
0.0
  0
LINE
  8
0
  6
CONTINUOUS
 62
     0
  5
1DC
 10
143.5
 20
-72.571533
 30
0.0
 11
143.5
 21
-72.1427
 31
0.0
  0
LINE
  8
0
  6
CONTINUOUS
 62
     0
  5
1DD
 10
143.5
 20
-65.857178
 30
0.0
 11
143.5
 21
-65.428589
 31
0.0
  0
LINE
  8
0
  6
CONTINUOUS
 62
     0
  5
1DE
 10
144.0
 20
-72.571533
 30
0.0
 11
144.0
 21
-72.1427
 31
0.0
  0
LINE
  8
0
  6
CONTINUOUS
 62
     0
  5
1DF
 10
144.0
 20
-65.857178
 30
0.0
 11
144.0
 21
-65.428589
 31
0.0
  0
LINE
  8
0
  6
CONTINUOUS
 62
     0
  5
1E0
 10
144.5
 20
-72.571533
 30
0.0
 11
144.5
 21
-72.1427
 31
0.0
  0
LINE
  8
0
  6
CONTINUOUS
 62
     0
  5
1E1
 10
144.5
 20
-65.857178
 30
0.0
 11
144.5
 21
-65.428589
 31
0.0
  0
LINE
  8
0
  6
CONTINUOUS
 62
     0
  5
1E2
 10
145.0
 20
-72.571533
 30
0.0
 11
145.0
 21
-72.1427
 31
0.0
  0
LINE
  8
0
  6
CONTINUOUS
 62
     0
  5
1E3
 10
145.0
 20
-65.857178
 30
0.0
 11
145.0
 21
-65.428589
 31
0.0
  0
LINE
  8
0
  6
CONTINUOUS
 62
     0
  5
1E4
 10
145.5
 20
-72.571533
 30
0.0
 11
145.5
 21
-72.1427
 31
0.0
  0
LINE
  8
0
  6
CONTINUOUS
 62
     0
  5
1E5
 10
145.5
 20
-65.857178
 30
0.0
 11
145.5
 21
-65.428589
 31
0.0
  0
LINE
  8
0
  6
CONTINUOUS
 62
     0
  5
1E6
 10
146.0
 20
-72.571533
 30
0.0
 11
146.0
 21
-72.1427
 31
0.0
  0
LINE
  8
0
  6
CONTINUOUS
 62
     0
  5
1E7
 10
146.0
 20
-65.857178
 30
0.0
 11
146.0
 21
-65.428589
 31
0.0
  0
LINE
  8
0
  6
CONTINUOUS
 62
     0
  5
1E8
 10
146.5
 20
-72.571533
 30
0.0
 11
146.5
 21
-65.428589
 31
0.0
  0
LINE
  8
0
  6
CONTINUOUS
 62
     0
  5
1E9
 10
147.0
 20
-72.571533
 30
0.0
 11
147.0
 21
-65.428589
 31
0.0
  0
LINE
  8
0
  6
CONTINUOUS
 62
     0
  5
1EA
 10
147.5
 20
-72.571533
 30
0.0
 11
147.5
 21
-65.428589
 31
0.0
  0
LINE
  8
0
  6
CONTINUOUS
 62
     0
  5
1EB
 10
148.0
 20
-72.571533
 30
0.0
 11
148.0
 21
-65.428589
 31
0.0
  0
LINE
  8
0
  6
CONTINUOUS
 62
     0
  5
1EC
 10
148.5
 20
-72.571533
 30
0.0
 11
148.5
 21
-72.1427
 31
0.0
  0
LINE
  8
0
  6
CONTINUOUS
 62
     0
  5
1ED
 10
148.5
 20
-65.857178
 30
0.0
 11
148.5
 21
-65.428589
 31
0.0
  0
LINE
  8
0
  6
CONTINUOUS
 62
     0
  5
1EE
 10
149.0
 20
-72.571533
 30
0.0
 11
149.0
 21
-72.1427
 31
0.0
  0
LINE
  8
0
  6
CONTINUOUS
 62
     0
  5
1EF
 10
149.0
 20
-65.857178
 30
0.0
 11
149.0
 21
-65.428589
 31
0.0
  0
LINE
  8
0
  6
CONTINUOUS
 62
     0
  5
1F0
 10
149.5
 20
-72.571533
 30
0.0
 11
149.5
 21
-72.1427
 31
0.0
  0
LINE
  8
0
  6
CONTINUOUS
 62
     0
  5
1F1
 10
149.5
 20
-65.857178
 30
0.0
 11
149.5
 21
-65.428589
 31
0.0
  0
LINE
  8
0
  6
CONTINUOUS
 62
     0
  5
1F2
 10
150.0
 20
-72.571533
 30
0.0
 11
150.0
 21
-72.1427
 31
0.0
  0
LINE
  8
0
  6
CONTINUOUS
 62
     0
  5
1F3
 10
150.0
 20
-65.857178
 30
0.0
 11
150.0
 21
-65.428589
 31
0.0
  0
LINE
  8
0
  6
CONTINUOUS
 62
     0
  5
1F4
 10
150.5
 20
-72.571533
 30
0.0
 11
150.5
 21
-72.1427
 31
0.0
  0
LINE
  8
0
  6
CONTINUOUS
 62
     0
  5
1F5
 10
150.5
 20
-65.857178
 30
0.0
 11
150.5
 21
-65.428589
 31
0.0
  0
LINE
  8
0
  6
CONTINUOUS
 62
     0
  5
1F6
 10
151.0
 20
-72.571533
 30
0.0
 11
151.0
 21
-72.1427
 31
0.0
  0
LINE
  8
0
  6
CONTINUOUS
 62
     0
  5
1F7
 10
151.0
 20
-65.857178
 30
0.0
 11
151.0
 21
-65.428589
 31
0.0
  0
LINE
  8
0
  6
CONTINUOUS
 62
     0
  5
1F8
 10
151.5
 20
-72.571533
 30
0.0
 11
151.5
 21
-72.1427
 31
0.0
  0
LINE
  8
0
  6
CONTINUOUS
 62
     0
  5
1F9
 10
151.5
 20
-65.857178
 30
0.0
 11
151.5
 21
-65.428589
 31
0.0
  0
LINE
  8
0
  6
CONTINUOUS
 62
     0
  5
1FA
 10
152.0
 20
-72.571533
 30
0.0
 11
152.0
 21
-72.1427
 31
0.0
  0
LINE
  8
0
  6
CONTINUOUS
 62
     0
  5
1FB
 10
152.0
 20
-65.857178
 30
0.0
 11
152.0
 21
-65.428589
 31
0.0
  0
LINE
  8
0
  6
CONTINUOUS
 62
     0
  5
1FC
 10
152.5
 20
-72.571533
 30
0.0
 11
152.5
 21
-72.1427
 31
0.0
  0
LINE
  8
0
  6
CONTINUOUS
 62
     0
  5
1FD
 10
152.5
 20
-65.857178
 30
0.0
 11
152.5
 21
-65.428589
 31
0.0
  0
ENDBLK
  8
0
  6
BYBLOCK
 62
     0
  5
1FE
  0
BLOCK
  8
0
  6
BYBLOCK
 62
     0
  5
201
  2
*X17
 70
     1
 10
0.0
 20
0.0
 30
0.0
  3
*X17
  0
LINE
  8
0
  6
CONTINUOUS
 62
     0
  5
202
 10
131.247732
 20
-72.5
 30
0.0
 11
135.638071
 21
-72.5
 31
0.0
  0
LINE
  8
0
  6
CONTINUOUS
 62
     0
  5
203
 10
131.22862
 20
-72.0
 30
0.0
 11
132.65716
 21
-72.0
 31
0.0
  0
LINE
  8
0
  6
CONTINUOUS
 62
     0
  5
204
 10
133.942932
 20
-72.0
 30
0.0
 11
135.657195
 21
-72.0
 31
0.0
  0
LINE
  8
0
  6
CONTINUOUS
 62
     0
  5
205
 10
133.942932
 20
-71.5
 30
0.0
 11
135.65719
 21
-71.5
 31
0.0
  0
LINE
  8
0
  6
CONTINUOUS
 62
     0
  5
206
 10
133.942932
 20
-71.0
 30
0.0
 11
135.657184
 21
-71.0
 31
0.0
  0
LINE
  8
0
  6
CONTINUOUS
 62
     0
  5
207
 10
133.942932
 20
-70.5
 30
0.0
 11
135.657178
 21
-70.5
 31
0.0
  0
LINE
  8
0
  6
CONTINUOUS
 62
     0
  5
208
 10
133.942932
 20
-70.0
 30
0.0
 11
135.657172
 21
-70.0
 31
0.0
  0
LINE
  8
0
  6
CONTINUOUS
 62
     0
  5
209
 10
133.942932
 20
-69.5
 30
0.0
 11
135.657166
 21
-69.5
 31
0.0
  0
LINE
  8
0
  6
CONTINUOUS
 62
     0
  5
20A
 10
129.228638
 20
-69.0
 30
0.0
 11
140.085754
 21
-69.0
 31
0.0
  0
LINE
  8
0
  6
CONTINUOUS
 62
     0
  5
20B
 10
133.942838
 20
-68.5
 30
0.0
 11
135.656624
 21
-68.5
 31
0.0
  0
LINE
  8
0
  6
CONTINUOUS
 62
     0
  5
20C
 10
133.942745
 20
-68.0
 30
0.0
 11
135.656083
 21
-68.0
 31
0.0
  0
LINE
  8
0
  6
CONTINUOUS
 62
     0
  5
20D
 10
135.310694
 20
-67.5
 30
0.0
 11
137.038195
 21
-67.5
 31
0.0
  0
LINE
  8
0
  6
CONTINUOUS
 62
     0
  5
20E
 10
136.34346
 20
-67.0
 30
0.0
 11
138.168013
 21
-67.0
 31
0.0
  0
LINE
  8
0
  6
CONTINUOUS
 62
     0
  5
20F
 10
137.056881
 20
-66.5
 30
0.0
 11
139.204407
 21
-66.5
 31
0.0
  0
LINE
  8
0
  6
CONTINUOUS
 62
     0
  5
210
 10
137.417672
 20
-66.0
 30
0.0
 11
140.087306
 21
-66.0
 31
0.0
  0
LINE
  8
0
  6
CONTINUOUS
 62
     0
  5
211
 10
129.228638
 20
-65.5
 30
0.0
 11
140.085948
 21
-65.5
 31
0.0
  0
LINE
  8
0
  6
CONTINUOUS
 62
     0
  5
212
 10
129.5
 20
-69.428833
 30
0.0
 11
129.5
 21
-69.0
 31
0.0
  0
LINE
  8
0
  6
CONTINUOUS
 62
     0
  5
213
 10
129.5
 20
-65.857173
 30
0.0
 11
129.5
 21
-65.428589
 31
0.0
  0
LINE
  8
0
  6
CONTINUOUS
 62
     0
  5
214
 10
130.0
 20
-69.428833
 30
0.0
 11
130.0
 21
-69.0
 31
0.0
  0
LINE
  8
0
  6
CONTINUOUS
 62
     0
  5
215
 10
130.0
 20
-65.857164
 30
0.0
 11
130.0
 21
-65.428589
 31
0.0
  0
LINE
  8
0
  6
CONTINUOUS
 62
     0
  5
216
 10
130.5
 20
-69.428833
 30
0.0
 11
130.5
 21
-69.0
 31
0.0
  0
LINE
  8
0
  6
CONTINUOUS
 62
     0
  5
217
 10
130.5
 20
-65.857155
 30
0.0
 11
130.5
 21
-65.428589
 31
0.0
  0
LINE
  8
0
  6
CONTINUOUS
 62
     0
  5
218
 10
131.0
 20
-69.428833
 30
0.0
 11
131.0
 21
-69.0
 31
0.0
  0
LINE
  8
0
  6
CONTINUOUS
 62
     0
  5
219
 10
131.0
 20
-65.857146
 30
0.0
 11
131.0
 21
-65.428589
 31
0.0
  0
LINE
  8
0
  6
CONTINUOUS
 62
     0
  5
21A
 10
131.5
 20
-72.571446
 30
0.0
 11
131.5
 21
-71.571529
 31
0.0
  0
LINE
  8
0
  6
CONTINUOUS
 62
     0
  5
21B
 10
131.5
 20
-69.428833
 30
0.0
 11
131.5
 21
-69.0
 31
0.0
  0
LINE
  8
0
  6
CONTINUOUS
 62
     0
  5
21C
 10
131.5
 20
-65.857137
 30
0.0
 11
131.5
 21
-65.428589
 31
0.0
  0
LINE
  8
0
  6
CONTINUOUS
 62
     0
  5
21D
 10
132.0
 20
-72.571446
 30
0.0
 11
132.0
 21
-71.571522
 31
0.0
  0
LINE
  8
0
  6
CONTINUOUS
 62
     0
  5
21E
 10
132.0
 20
-69.428833
 30
0.0
 11
132.0
 21
-69.0
 31
0.0
  0
LINE
  8
0
  6
CONTINUOUS
 62
     0
  5
21F
 10
132.0
 20
-65.857129
 30
0.0
 11
132.0
 21
-65.428589
 31
0.0
  0
LINE
  8
0
  6
CONTINUOUS
 62
     0
  5
220
 10
132.5
 20
-72.571446
 30
0.0
 11
132.5
 21
-71.837363
 31
0.0
  0
LINE
  8
0
  6
CONTINUOUS
 62
     0
  5
221
 10
132.5
 20
-69.428833
 30
0.0
 11
132.5
 21
-69.0
 31
0.0
  0
LINE
  8
0
  6
CONTINUOUS
 62
     0
  5
222
 10
132.5
 20
-65.85712
 30
0.0
 11
132.5
 21
-65.428589
 31
0.0
  0
LINE
  8
0
  6
CONTINUOUS
 62
     0
  5
223
 10
133.0
 20
-72.571446
 30
0.0
 11
133.0
 21
-72.137708
 31
0.0
  0
LINE
  8
0
  6
CONTINUOUS
 62
     0
  5
224
 10
133.0
 20
-69.428833
 30
0.0
 11
133.0
 21
-69.0
 31
0.0
  0
LINE
  8
0
  6
CONTINUOUS
 62
     0
  5
225
 10
133.0
 20
-65.857111
 30
0.0
 11
133.0
 21
-65.428589
 31
0.0
  0
LINE
  8
0
  6
CONTINUOUS
 62
     0
  5
226
 10
133.5
 20
-72.571446
 30
0.0
 11
133.5
 21
-72.142908
 31
0.0
  0
LINE
  8
0
  6
CONTINUOUS
 62
     0
  5
227
 10
133.5
 20
-69.428833
 30
0.0
 11
133.5
 21
-69.0
 31
0.0
  0
LINE
  8
0
  6
CONTINUOUS
 62
     0
  5
228
 10
133.5
 20
-65.857102
 30
0.0
 11
133.5
 21
-65.428589
 31
0.0
  0
LINE
  8
0
  6
CONTINUOUS
 62
     0
  5
229
 10
134.0
 20
-72.571446
 30
0.0
 11
134.0
 21
-67.913146
 31
0.0
  0
LINE
  8
0
  6
CONTINUOUS
 62
     0
  5
22A
 10
134.0
 20
-65.857093
 30
0.0
 11
134.0
 21
-65.428589
 31
0.0
  0
LINE
  8
0
  6
CONTINUOUS
 62
     0
  5
22B
 10
134.5
 20
-72.571446
 30
0.0
 11
134.5
 21
-67.782361
 31
0.0
  0
LINE
  8
0
  6
CONTINUOUS
 62
     0
  5
22C
 10
134.5
 20
-65.857084
 30
0.0
 11
134.5
 21
-65.428589
 31
0.0
  0
LINE
  8
0
  6
CONTINUOUS
 62
     0
  5
22D
 10
135.0
 20
-72.571446
 30
0.0
 11
135.0
 21
-67.618898
 31
0.0
  0
LINE
  8
0
  6
CONTINUOUS
 62
     0
  5
22E
 10
135.0
 20
-65.857075
 30
0.0
 11
135.0
 21
-65.428589
 31
0.0
  0
LINE
  8
0
  6
CONTINUOUS
 62
     0
  5
22F
 10
135.5
 20
-72.571446
 30
0.0
 11
135.5
 21
-67.420742
 31
0.0
  0
LINE
  8
0
  6
CONTINUOUS
 62
     0
  5
230
 10
135.5
 20
-65.857066
 30
0.0
 11
135.5
 21
-65.428589
 31
0.0
  0
LINE
  8
0
  6
CONTINUOUS
 62
     0
  5
231
 10
136.0
 20
-69.428833
 30
0.0
 11
136.0
 21
-69.0
 31
0.0
  0
LINE
  8
0
  6
CONTINUOUS
 62
     0
  5
232
 10
136.0
 20
-67.864202
 30
0.0
 11
136.0
 21
-67.185223
 31
0.0
  0
LINE
  8
0
  6
CONTINUOUS
 62
     0
  5
233
 10
136.0
 20
-65.857057
 30
0.0
 11
136.0
 21
-65.428589
 31
0.0
  0
LINE
  8
0
  6
CONTINUOUS
 62
     0
  5
234
 10
136.5
 20
-69.428833
 30
0.0
 11
136.5
 21
-69.0
 31
0.0
  0
LINE
  8
0
  6
CONTINUOUS
 62
     0
  5
235
 10
136.5
 20
-67.701537
 30
0.0
 11
136.5
 21
-66.910233
 31
0.0
  0
LINE
  8
0
  6
CONTINUOUS
 62
     0
  5
236
 10
136.5
 20
-65.857049
 30
0.0
 11
136.5
 21
-65.428589
 31
0.0
  0
LINE
  8
0
  6
CONTINUOUS
 62
     0
  5
237
 10
137.0
 20
-69.428833
 30
0.0
 11
137.0
 21
-69.0
 31
0.0
  0
LINE
  8
0
  6
CONTINUOUS
 62
     0
  5
238
 10
137.0
 20
-67.515235
 30
0.0
 11
137.0
 21
-66.554422
 31
0.0
  0
LINE
  8
0
  6
CONTINUOUS
 62
     0
  5
239
 10
137.0
 20
-65.85704
 30
0.0
 11
137.0
 21
-65.428589
 31
0.0
  0
LINE
  8
0
  6
CONTINUOUS
 62
     0
  5
23A
 10
137.5
 20
-69.428833
 30
0.0
 11
137.5
 21
-69.0
 31
0.0
  0
LINE
  8
0
  6
CONTINUOUS
 62
     0
  5
23B
 10
137.5
 20
-67.304143
 30
0.0
 11
137.5
 21
-65.428589
 31
0.0
  0
LINE
  8
0
  6
CONTINUOUS
 62
     0
  5
23C
 10
138.0
 20
-69.428833
 30
0.0
 11
138.0
 21
-69.0
 31
0.0
  0
LINE
  8
0
  6
CONTINUOUS
 62
     0
  5
23D
 10
138.0
 20
-67.076562
 30
0.0
 11
138.0
 21
-65.428589
 31
0.0
  0
LINE
  8
0
  6
CONTINUOUS
 62
     0
  5
23E
 10
138.5
 20
-69.428833
 30
0.0
 11
138.5
 21
-69.0
 31
0.0
  0
LINE
  8
0
  6
CONTINUOUS
 62
     0
  5
23F
 10
138.5
 20
-66.845075
 30
0.0
 11
138.5
 21
-65.428589
 31
0.0
  0
LINE
  8
0
  6
CONTINUOUS
 62
     0
  5
240
 10
139.0
 20
-69.428833
 30
0.0
 11
139.0
 21
-69.0
 31
0.0
  0
LINE
  8
0
  6
CONTINUOUS
 62
     0
  5
241
 10
139.0
 20
-66.602458
 30
0.0
 11
139.0
 21
-65.428589
 31
0.0
  0
LINE
  8
0
  6
CONTINUOUS
 62
     0
  5
242
 10
139.5
 20
-69.428833
 30
0.0
 11
139.5
 21
-69.0
 31
0.0
  0
LINE
  8
0
  6
CONTINUOUS
 62
     0
  5
243
 10
139.5
 20
-66.348413
 30
0.0
 11
139.5
 21
-65.428589
 31
0.0
  0
LINE
  8
0
  6
CONTINUOUS
 62
     0
  5
244
 10
140.0
 20
-69.428833
 30
0.0
 11
140.0
 21
-69.0
 31
0.0
  0
LINE
  8
0
  6
CONTINUOUS
 62
     0
  5
245
 10
140.0
 20
-66.082614
 30
0.0
 11
140.0
 21
-65.428589
 31
0.0
  0
ENDBLK
  8
0
  6
BYBLOCK
 62
     0
  5
246
  0
BLOCK
  8
0
  6
BYBLOCK
 62
     0
  5
24A
  2
*X18
 70
     1
 10
0.0
 20
0.0
 30
0.0
  3
*X18
  0
LINE
  8
0
  6
CONTINUOUS
 62
     0
  5
24B
 10
97.329563
 20
-72.0
 30
0.0
 11
105.841937
 21
-72.0
 31
0.0
  0
LINE
  8
0
  6
CONTINUOUS
 62
     0
  5
24C
 10
97.246219
 20
-71.5
 30
0.0
 11
99.234328
 21
-71.5
 31
0.0
  0
LINE
  8
0
  6
CONTINUOUS
 62
     0
  5
24D
 10
103.93718
 20
-71.5
 30
0.0
 11
105.925268
 21
-71.5
 31
0.0
  0
LINE
  8
0
  6
CONTINUOUS
 62
     0
  5
24E
 10
97.162874
 20
-71.0
 30
0.0
 11
99.166174
 21
-71.0
 31
0.0
  0
LINE
  8
0
  6
CONTINUOUS
 62
     0
  5
24F
 10
104.005334
 20
-71.0
 30
0.0
 11
106.008598
 21
-71.0
 31
0.0
  0
LINE
  8
0
  6
CONTINUOUS
 62
     0
  5
250
 10
97.07953
 20
-70.5
 30
0.0
 11
99.098021
 21
-70.5
 31
0.0
  0
LINE
  8
0
  6
CONTINUOUS
 62
     0
  5
251
 10
104.073488
 20
-70.5
 30
0.0
 11
106.091928
 21
-70.5
 31
0.0
  0
LINE
  8
0
  6
CONTINUOUS
 62
     0
  5
252
 10
96.996186
 20
-70.0
 30
0.0
 11
99.029867
 21
-70.0
 31
0.0
  0
LINE
  8
0
  6
CONTINUOUS
 62
     0
  5
253
 10
104.141642
 20
-70.0
 30
0.0
 11
106.175258
 21
-70.0
 31
0.0
  0
LINE
  8
0
  6
CONTINUOUS
 62
     0
  5
254
 10
96.912841
 20
-69.5
 30
0.0
 11
98.961713
 21
-69.5
 31
0.0
  0
LINE
  8
0
  6
CONTINUOUS
 62
     0
  5
255
 10
104.209796
 20
-69.5
 30
0.0
 11
106.258588
 21
-69.5
 31
0.0
  0
LINE
  8
0
  6
CONTINUOUS
 62
     0
  5
256
 10
96.829497
 20
-69.0
 30
0.0
 11
98.893559
 21
-69.0
 31
0.0
  0
LINE
  8
0
  6
CONTINUOUS
 62
     0
  5
257
 10
104.27795
 20
-69.0
 30
0.0
 11
106.341918
 21
-69.0
 31
0.0
  0
LINE
  8
0
  6
CONTINUOUS
 62
     0
  5
258
 10
96.746152
 20
-68.5
 30
0.0
 11
98.825405
 21
-68.5
 31
0.0
  0
LINE
  8
0
  6
CONTINUOUS
 62
     0
  5
259
 10
104.346104
 20
-68.5
 30
0.0
 11
106.425249
 21
-68.5
 31
0.0
  0
LINE
  8
0
  6
CONTINUOUS
 62
     0
  5
25A
 10
96.662808
 20
-68.0
 30
0.0
 11
98.757251
 21
-68.0
 31
0.0
  0
LINE
  8
0
  6
CONTINUOUS
 62
     0
  5
25B
 10
104.414258
 20
-68.0
 30
0.0
 11
106.508579
 21
-68.0
 31
0.0
  0
LINE
  8
0
  6
CONTINUOUS
 62
     0
  5
25C
 10
96.579463
 20
-67.5
 30
0.0
 11
98.689097
 21
-67.5
 31
0.0
  0
LINE
  8
0
  6
CONTINUOUS
 62
     0
  5
25D
 10
104.482412
 20
-67.5
 30
0.0
 11
106.591909
 21
-67.5
 31
0.0
  0
LINE
  8
0
  6
CONTINUOUS
 62
     0
  5
25E
 10
96.496119
 20
-67.0
 30
0.0
 11
98.620943
 21
-67.0
 31
0.0
  0
LINE
  8
0
  6
CONTINUOUS
 62
     0
  5
25F
 10
104.550566
 20
-67.0
 30
0.0
 11
106.675239
 21
-67.0
 31
0.0
  0
LINE
  8
0
  6
CONTINUOUS
 62
     0
  5
260
 10
96.412775
 20
-66.5
 30
0.0
 11
98.552789
 21
-66.5
 31
0.0
  0
LINE
  8
0
  6
CONTINUOUS
 62
     0
  5
261
 10
104.61872
 20
-66.5
 30
0.0
 11
106.758569
 21
-66.5
 31
0.0
  0
LINE
  8
0
  6
CONTINUOUS
 62
     0
  5
262
 10
96.32943
 20
-66.0
 30
0.0
 11
106.8419
 21
-66.0
 31
0.0
  0
LINE
  8
0
  6
CONTINUOUS
 62
     0
  5
263
 10
96.5
 20
-67.023282
 30
0.0
 11
96.5
 21
-65.856689
 31
0.0
  0
LINE
  8
0
  6
CONTINUOUS
 62
     0
  5
264
 10
97.0
 20
-70.022884
 30
0.0
 11
97.0
 21
-65.856689
 31
0.0
  0
LINE
  8
0
  6
CONTINUOUS
 62
     0
  5
265
 10
97.5
 20
-72.285767
 30
0.0
 11
97.5
 21
-65.856689
 31
0.0
  0
LINE
  8
0
  6
CONTINUOUS
 62
     0
  5
266
 10
98.0
 20
-72.285767
 30
0.0
 11
98.0
 21
-65.856689
 31
0.0
  0
LINE
  8
0
  6
CONTINUOUS
 62
     0
  5
267
 10
98.5
 20
-72.285767
 30
0.0
 11
98.5
 21
-65.856689
 31
0.0
  0
LINE
  8
0
  6
CONTINUOUS
 62
     0
  5
268
 10
99.0
 20
-72.285767
 30
0.0
 11
99.0
 21
-69.780889
 31
0.0
  0
LINE
  8
0
  6
CONTINUOUS
 62
     0
  5
269
 10
99.0
 20
-66.286011
 30
0.0
 11
99.0
 21
-65.856689
 31
0.0
  0
LINE
  8
0
  6
CONTINUOUS
 62
     0
  5
26A
 10
99.5
 20
-72.285767
 30
0.0
 11
99.5
 21
-71.859009
 31
0.0
  0
LINE
  8
0
  6
CONTINUOUS
 62
     0
  5
26B
 10
99.5
 20
-66.286011
 30
0.0
 11
99.5
 21
-65.856689
 31
0.0
  0
LINE
  8
0
  6
CONTINUOUS
 62
     0
  5
26C
 10
100.0
 20
-72.285767
 30
0.0
 11
100.0
 21
-71.859009
 31
0.0
  0
LINE
  8
0
  6
CONTINUOUS
 62
     0
  5
26D
 10
100.0
 20
-66.286011
 30
0.0
 11
100.0
 21
-65.856689
 31
0.0
  0
LINE
  8
0
  6
CONTINUOUS
 62
     0
  5
26E
 10
100.5
 20
-72.285767
 30
0.0
 11
100.5
 21
-71.859009
 31
0.0
  0
LINE
  8
0
  6
CONTINUOUS
 62
     0
  5
26F
 10
100.5
 20
-66.286011
 30
0.0
 11
100.5
 21
-65.856689
 31
0.0
  0
LINE
  8
0
  6
CONTINUOUS
 62
     0
  5
270
 10
101.0
 20
-72.285767
 30
0.0
 11
101.0
 21
-71.859009
 31
0.0
  0
LINE
  8
0
  6
CONTINUOUS
 62
     0
  5
271
 10
101.0
 20
-66.286011
 30
0.0
 11
101.0
 21
-65.856689
 31
0.0
  0
LINE
  8
0
  6
CONTINUOUS
 62
     0
  5
272
 10
101.5
 20
-72.285767
 30
0.0
 11
101.5
 21
-71.859009
 31
0.0
  0
LINE
  8
0
  6
CONTINUOUS
 62
     0
  5
273
 10
101.5
 20
-66.286011
 30
0.0
 11
101.5
 21
-65.856689
 31
0.0
  0
LINE
  8
0
  6
CONTINUOUS
 62
     0
  5
274
 10
102.0
 20
-72.285767
 30
0.0
 11
102.0
 21
-71.859009
 31
0.0
  0
LINE
  8
0
  6
CONTINUOUS
 62
     0
  5
275
 10
102.0
 20
-66.286011
 30
0.0
 11
102.0
 21
-65.856689
 31
0.0
  0
LINE
  8
0
  6
CONTINUOUS
 62
     0
  5
276
 10
102.5
 20
-72.285767
 30
0.0
 11
102.5
 21
-71.859009
 31
0.0
  0
LINE
  8
0
  6
CONTINUOUS
 62
     0
  5
277
 10
102.5
 20
-66.286011
 30
0.0
 11
102.5
 21
-65.856689
 31
0.0
  0
LINE
  8
0
  6
CONTINUOUS
 62
     0
  5
278
 10
103.0
 20
-72.285767
 30
0.0
 11
103.0
 21
-71.859009
 31
0.0
  0
LINE
  8
0
  6
CONTINUOUS
 62
     0
  5
279
 10
103.0
 20
-66.286011
 30
0.0
 11
103.0
 21
-65.856689
 31
0.0
  0
LINE
  8
0
  6
CONTINUOUS
 62
     0
  5
27A
 10
103.5
 20
-72.285767
 30
0.0
 11
103.5
 21
-71.859009
 31
0.0
  0
LINE
  8
0
  6
CONTINUOUS
 62
     0
  5
27B
 10
103.5
 20
-66.286011
 30
0.0
 11
103.5
 21
-65.856689
 31
0.0
  0
LINE
  8
0
  6
CONTINUOUS
 62
     0
  5
27C
 10
104.0
 20
-72.285767
 30
0.0
 11
104.0
 21
-71.039134
 31
0.0
  0
LINE
  8
0
  6
CONTINUOUS
 62
     0
  5
27D
 10
104.0
 20
-66.286011
 30
0.0
 11
104.0
 21
-65.856689
 31
0.0
  0
LINE
  8
0
  6
CONTINUOUS
 62
     0
  5
27E
 10
104.5
 20
-72.285767
 30
0.0
 11
104.5
 21
-67.370968
 31
0.0
  0
LINE
  8
0
  6
CONTINUOUS
 62
     0
  5
27F
 10
104.5
 20
-66.286011
 30
0.0
 11
104.5
 21
-65.856689
 31
0.0
  0
LINE
  8
0
  6
CONTINUOUS
 62
     0
  5
280
 10
105.0
 20
-72.285767
 30
0.0
 11
105.0
 21
-65.856689
 31
0.0
  0
LINE
  8
0
  6
CONTINUOUS
 62
     0
  5
281
 10
105.5
 20
-72.285767
 30
0.0
 11
105.5
 21
-65.856689
 31
0.0
  0
LINE
  8
0
  6
CONTINUOUS
 62
     0
  5
282
 10
106.0
 20
-71.051589
 30
0.0
 11
106.0
 21
-65.856689
 31
0.0
  0
LINE
  8
0
  6
CONTINUOUS
 62
     0
  5
283
 10
106.5
 20
-68.051475
 30
0.0
 11
106.5
 21
-65.856689
 31
0.0
  0
ENDBLK
  8
0
  6
BYBLOCK
 62
     0
  5
284
  0
BLOCK
  8
0
  6
BYBLOCK
 62
     0
  5
287
  2
*X19
 70
     1
 10
0.0
 20
0.0
 30
0.0
  3
*X19
  0
LINE
  8
0
  6
CONTINUOUS
 62
     0
  5
288
 10
126.5
 20
-72.464393
 30
0.0
 11
126.5
 21
-72.28567
 31
0.0
  0
LINE
  8
0
  6
CONTINUOUS
 62
     0
  5
289
 10
127.0
 20
-72.450045
 30
0.0
 11
127.0
 21
-72.285717
 31
0.0
  0
ENDBLK
  8
0
  6
BYBLOCK
 62
     0
  5
28A
  0
BLOCK
  8
0
  6
BYBLOCK
 62
     0
  5
28E
  2
*X20
 70
     1
 10
0.0
 20
0.0
 30
0.0
  3
*X20
  0
LINE
  8
0
  6
CONTINUOUS
 62
     0
  5
28F
 10
121.228605
 20
-72.0
 30
0.0
 11
123.085754
 21
-72.0
 31
0.0
  0
LINE
  8
0
  6
CONTINUOUS
 62
     0
  5
290
 10
121.22861
 20
-71.5
 30
0.0
 11
123.085754
 21
-71.5
 31
0.0
  0
LINE
  8
0
  6
CONTINUOUS
 62
     0
  5
291
 10
121.228616
 20
-71.0
 30
0.0
 11
123.085754
 21
-71.0
 31
0.0
  0
LINE
  8
0
  6
CONTINUOUS
 62
     0
  5
292
 10
121.228622
 20
-70.5
 30
0.0
 11
123.085754
 21
-70.5
 31
0.0
  0
LINE
  8
0
  6
CONTINUOUS
 62
     0
  5
293
 10
121.228628
 20
-70.0
 30
0.0
 11
123.085754
 21
-70.0
 31
0.0
  0
LINE
  8
0
  6
CONTINUOUS
 62
     0
  5
294
 10
121.228633
 20
-69.5
 30
0.0
 11
123.085754
 21
-69.5
 31
0.0
  0
LINE
  8
0
  6
CONTINUOUS
 62
     0
  5
295
 10
121.5
 20
-72.464446
 30
0.0
 11
121.5
 21
-69.121338
 31
0.0
  0
LINE
  8
0
  6
CONTINUOUS
 62
     0
  5
296
 10
122.0
 20
-72.464418
 30
0.0
 11
122.0
 21
-69.121338
 31
0.0
  0
LINE
  8
0
  6
CONTINUOUS
 62
     0
  5
297
 10
122.5
 20
-72.464389
 30
0.0
 11
122.5
 21
-69.121338
 31
0.0
  0
LINE
  8
0
  6
CONTINUOUS
 62
     0
  5
298
 10
123.0
 20
-72.46436
 30
0.0
 11
123.0
 21
-69.121338
 31
0.0
  0
ENDBLK
  8
0
  6
BYBLOCK
 62
     0
  5
299
  0
BLOCK
  8
0
  6
BYBLOCK
 62
     0
  5
2A0
  2
*X21
 70
     1
 10
0.0
 20
0.0
 30
0.0
  3
*X21
  0
LINE
  8
0
  6
CONTINUOUS
 62
     0
  5
2A1
 10
83.942871
 20
-72.5
 30
0.0
 11
88.857063
 21
-72.5
 31
0.0
  0
LINE
  8
0
  6
CONTINUOUS
 62
     0
  5
2A2
 10
86.458156
 20
-72.0
 30
0.0
 11
89.32249
 21
-72.0
 31
0.0
  0
LINE
  8
0
  6
CONTINUOUS
 62
     0
  5
2A3
 10
86.877015
 20
-71.5
 30
0.0
 11
89.371484
 21
-71.5
 31
0.0
  0
LINE
  8
0
  6
CONTINUOUS
 62
     0
  5
2A4
 10
86.942932
 20
-71.0
 30
0.0
 11
89.371478
 21
-71.0
 31
0.0
  0
LINE
  8
0
  6
CONTINUOUS
 62
     0
  5
2A5
 10
86.942932
 20
-70.5
 30
0.0
 11
89.371473
 21
-70.5
 31
0.0
  0
LINE
  8
0
  6
CONTINUOUS
 62
     0
  5
2A6
 10
86.942932
 20
-70.0
 30
0.0
 11
89.371468
 21
-70.0
 31
0.0
  0
LINE
  8
0
  6
CONTINUOUS
 62
     0
  5
2A7
 10
86.942932
 20
-69.5
 30
0.0
 11
89.371462
 21
-69.5
 31
0.0
  0
LINE
  8
0
  6
CONTINUOUS
 62
     0
  5
2A8
 10
86.942932
 20
-69.0
 30
0.0
 11
94.322465
 21
-69.0
 31
0.0
  0
LINE
  8
0
  6
CONTINUOUS
 62
     0
  5
2A9
 10
86.942932
 20
-68.5
 30
0.0
 11
89.37146
 21
-68.5
 31
0.0
  0
LINE
  8
0
  6
CONTINUOUS
 62
     0
  5
2AA
 10
92.037847
 20
-68.5
 30
0.0
 11
94.698852
 21
-68.5
 31
0.0
  0
LINE
  8
0
  6
CONTINUOUS
 62
     0
  5
2AB
 10
86.942932
 20
-68.0
 30
0.0
 11
89.37146
 21
-68.0
 31
0.0
  0
LINE
  8
0
  6
CONTINUOUS
 62
     0
  5
2AC
 10
92.430959
 20
-68.0
 30
0.0
 11
94.800058
 21
-68.0
 31
0.0
  0
LINE
  8
0
  6
CONTINUOUS
 62
     0
  5
2AD
 10
86.942932
 20
-67.5
 30
0.0
 11
89.37146
 21
-67.5
 31
0.0
  0
LINE
  8
0
  6
CONTINUOUS
 62
     0
  5
2AE
 10
92.514318
 20
-67.5
 30
0.0
 11
94.800056
 21
-67.5
 31
0.0
  0
LINE
  8
0
  6
CONTINUOUS
 62
     0
  5
2AF
 10
92.514326
 20
-67.0
 30
0.0
 11
94.800054
 21
-67.0
 31
0.0
  0
LINE
  8
0
  6
CONTINUOUS
 62
     0
  5
2B0
 10
92.514333
 20
-66.5
 30
0.0
 11
94.800052
 21
-66.5
 31
0.0
  0
LINE
  8
0
  6
CONTINUOUS
 62
     0
  5
2B1
 10
92.514341
 20
-66.0
 30
0.0
 11
94.800051
 21
-66.0
 31
0.0
  0
LINE
  8
0
  6
CONTINUOUS
 62
     0
  5
2B2
 10
83.942871
 20
-65.5
 30
0.0
 11
94.800049
 21
-65.5
 31
0.0
  0
LINE
  8
0
  6
CONTINUOUS
 62
     0
  5
2B3
 10
84.0
 20
-72.571533
 30
0.0
 11
84.0
 21
-72.142944
 31
0.0
  0
LINE
  8
0
  6
CONTINUOUS
 62
     0
  5
2B4
 10
84.0
 20
-65.857178
 30
0.0
 11
84.0
 21
-65.428589
 31
0.0
  0
LINE
  8
0
  6
CONTINUOUS
 62
     0
  5
2B5
 10
84.5
 20
-72.571529
 30
0.0
 11
84.5
 21
-72.142944
 31
0.0
  0
LINE
  8
0
  6
CONTINUOUS
 62
     0
  5
2B6
 10
84.5
 20
-65.857178
 30
0.0
 11
84.5
 21
-65.428589
 31
0.0
  0
LINE
  8
0
  6
CONTINUOUS
 62
     0
  5
2B7
 10
85.0
 20
-72.571525
 30
0.0
 11
85.0
 21
-72.142944
 31
0.0
  0
LINE
  8
0
  6
CONTINUOUS
 62
     0
  5
2B8
 10
85.0
 20
-65.857178
 30
0.0
 11
85.0
 21
-65.428589
 31
0.0
  0
LINE
  8
0
  6
CONTINUOUS
 62
     0
  5
2B9
 10
85.5
 20
-72.571521
 30
0.0
 11
85.5
 21
-72.142944
 31
0.0
  0
LINE
  8
0
  6
CONTINUOUS
 62
     0
  5
2BA
 10
85.5
 20
-65.857178
 30
0.0
 11
85.5
 21
-65.428589
 31
0.0
  0
LINE
  8
0
  6
CONTINUOUS
 62
     0
  5
2BB
 10
86.0
 20
-72.571518
 30
0.0
 11
86.0
 21
-72.141315
 31
0.0
  0
LINE
  8
0
  6
CONTINUOUS
 62
     0
  5
2BC
 10
86.0
 20
-65.857178
 30
0.0
 11
86.0
 21
-65.428589
 31
0.0
  0
LINE
  8
0
  6
CONTINUOUS
 62
     0
  5
2BD
 10
86.5
 20
-72.571514
 30
0.0
 11
86.5
 21
-71.973411
 31
0.0
  0
LINE
  8
0
  6
CONTINUOUS
 62
     0
  5
2BE
 10
86.5
 20
-65.857178
 30
0.0
 11
86.5
 21
-65.428589
 31
0.0
  0
LINE
  8
0
  6
CONTINUOUS
 62
     0
  5
2BF
 10
87.0
 20
-72.57151
 30
0.0
 11
87.0
 21
-67.428467
 31
0.0
  0
LINE
  8
0
  6
CONTINUOUS
 62
     0
  5
2C0
 10
87.0
 20
-65.857178
 30
0.0
 11
87.0
 21
-65.428589
 31
0.0
  0
LINE
  8
0
  6
CONTINUOUS
 62
     0
  5
2C1
 10
87.5
 20
-72.571506
 30
0.0
 11
87.5
 21
-67.428467
 31
0.0
  0
LINE
  8
0
  6
CONTINUOUS
 62
     0
  5
2C2
 10
87.5
 20
-65.857178
 30
0.0
 11
87.5
 21
-65.428589
 31
0.0
  0
LINE
  8
0
  6
CONTINUOUS
 62
     0
  5
2C3
 10
88.0
 20
-72.571502
 30
0.0
 11
88.0
 21
-67.428467
 31
0.0
  0
LINE
  8
0
  6
CONTINUOUS
 62
     0
  5
2C4
 10
88.0
 20
-65.857178
 30
0.0
 11
88.0
 21
-65.428589
 31
0.0
  0
LINE
  8
0
  6
CONTINUOUS
 62
     0
  5
2C5
 10
88.5
 20
-72.571498
 30
0.0
 11
88.5
 21
-67.428467
 31
0.0
  0
LINE
  8
0
  6
CONTINUOUS
 62
     0
  5
2C6
 10
88.5
 20
-65.857178
 30
0.0
 11
88.5
 21
-65.428589
 31
0.0
  0
LINE
  8
0
  6
CONTINUOUS
 62
     0
  5
2C7
 10
89.0
 20
-72.420635
 30
0.0
 11
89.0
 21
-67.428467
 31
0.0
  0
LINE
  8
0
  6
CONTINUOUS
 62
     0
  5
2C8
 10
89.0
 20
-65.857178
 30
0.0
 11
89.0
 21
-65.428589
 31
0.0
  0
LINE
  8
0
  6
CONTINUOUS
 62
     0
  5
2C9
 10
89.5
 20
-69.285765
 30
0.0
 11
89.5
 21
-68.714358
 31
0.0
  0
LINE
  8
0
  6
CONTINUOUS
 62
     0
  5
2CA
 10
89.5
 20
-65.857178
 30
0.0
 11
89.5
 21
-65.428589
 31
0.0
  0
LINE
  8
0
  6
CONTINUOUS
 62
     0
  5
2CB
 10
90.0
 20
-69.285759
 30
0.0
 11
90.0
 21
-68.714366
 31
0.0
  0
LINE
  8
0
  6
CONTINUOUS
 62
     0
  5
2CC
 10
90.0
 20
-65.857178
 30
0.0
 11
90.0
 21
-65.428589
 31
0.0
  0
LINE
  8
0
  6
CONTINUOUS
 62
     0
  5
2CD
 10
90.5
 20
-69.285752
 30
0.0
 11
90.5
 21
-68.714375
 31
0.0
  0
LINE
  8
0
  6
CONTINUOUS
 62
     0
  5
2CE
 10
90.5
 20
-65.857178
 30
0.0
 11
90.5
 21
-65.428589
 31
0.0
  0
LINE
  8
0
  6
CONTINUOUS
 62
     0
  5
2CF
 10
91.0
 20
-69.285746
 30
0.0
 11
91.0
 21
-68.714384
 31
0.0
  0
LINE
  8
0
  6
CONTINUOUS
 62
     0
  5
2D0
 10
91.0
 20
-65.857178
 30
0.0
 11
91.0
 21
-65.428589
 31
0.0
  0
LINE
  8
0
  6
CONTINUOUS
 62
     0
  5
2D1
 10
91.5
 20
-69.28574
 30
0.0
 11
91.5
 21
-68.707139
 31
0.0
  0
LINE
  8
0
  6
CONTINUOUS
 62
     0
  5
2D2
 10
91.5
 20
-65.857178
 30
0.0
 11
91.5
 21
-65.428589
 31
0.0
  0
LINE
  8
0
  6
CONTINUOUS
 62
     0
  5
2D3
 10
92.0
 20
-69.285733
 30
0.0
 11
92.0
 21
-68.526028
 31
0.0
  0
LINE
  8
0
  6
CONTINUOUS
 62
     0
  5
2D4
 10
92.0
 20
-65.857178
 30
0.0
 11
92.0
 21
-65.428589
 31
0.0
  0
LINE
  8
0
  6
CONTINUOUS
 62
     0
  5
2D5
 10
92.5
 20
-69.285727
 30
0.0
 11
92.5
 21
-67.751866
 31
0.0
  0
LINE
  8
0
  6
CONTINUOUS
 62
     0
  5
2D6
 10
92.5
 20
-65.857178
 30
0.0
 11
92.5
 21
-65.428589
 31
0.0
  0
LINE
  8
0
  6
CONTINUOUS
 62
     0
  5
2D7
 10
93.0
 20
-69.285721
 30
0.0
 11
93.0
 21
-65.428589
 31
0.0
  0
LINE
  8
0
  6
CONTINUOUS
 62
     0
  5
2D8
 10
93.5
 20
-69.285714
 30
0.0
 11
93.5
 21
-65.428589
 31
0.0
  0
LINE
  8
0
  6
CONTINUOUS
 62
     0
  5
2D9
 10
94.0
 20
-69.190462
 30
0.0
 11
94.0
 21
-65.428589
 31
0.0
  0
LINE
  8
0
  6
CONTINUOUS
 62
     0
  5
2DA
 10
94.5
 20
-68.825556
 30
0.0
 11
94.5
 21
-65.428589
 31
0.0
  0
ENDBLK
  8
0
  6
BYBLOCK
 62
     0
  5
2DB
  0
BLOCK
  8
0
  6
BYBLOCK
 62
     0
  5
48A
  2
*X22
 70
     1
 10
0.0
 20
0.0
 30
0.0
  3
*X22
  0
LINE
  8
0
  6
CONTINUOUS
 62
     0
  5
48B
 10
-1.4
 20
4.5
 30
0.0
 11
1.4
 21
4.5
 31
0.0
  0
LINE
  8
0
  6
CONTINUOUS
 62
     0
  5
48C
 10
-1.4
 20
5.0
 30
0.0
 11
1.4
 21
5.0
 31
0.0
  0
LINE
  8
0
  6
CONTINUOUS
 62
     0
  5
48D
 10
-1.0
 20
4.1
 30
0.0
 11
-1.0
 21
5.1
 31
0.0
  0
LINE
  8
0
  6
CONTINUOUS
 62
     0
  5
48E
 10
-0.5
 20
4.1
 30
0.0
 11
-0.5
 21
5.1
 31
0.0
  0
LINE
  8
0
  6
CONTINUOUS
 62
     0
  5
48F
 10
0.0
 20
4.1
 30
0.0
 11
0.0
 21
5.1
 31
0.0
  0
LINE
  8
0
  6
CONTINUOUS
 62
     0
  5
490
 10
0.5
 20
4.1
 30
0.0
 11
0.5
 21
5.1
 31
0.0
  0
LINE
  8
0
  6
CONTINUOUS
 62
     0
  5
491
 10
1.0
 20
4.1
 30
0.0
 11
1.0
 21
5.1
 31
0.0
  0
ENDBLK
  8
0
  6
BYBLOCK
 62
     0
  5
492
  0
BLOCK
  8
0
  6
BYBLOCK
 62
     0
  5
50B
  2
*X23
 70
     1
 10
0.0
 20
0.0
 30
0.0
  3
*X23
  0
LINE
  8
0
  6
CONTINUOUS
 62
     0
  5
50C
 10
-7.026966
 20
163.0
 30
0.0
 11
6.973034
 21
163.0
 31
0.0
  0
LINE
  8
0
  6
CONTINUOUS
 62
     0
  5
50D
 10
-7.026966
 20
163.5
 30
0.0
 11
6.973034
 21
163.5
 31
0.0
  0
LINE
  8
0
  6
CONTINUOUS
 62
     0
  5
50E
 10
-7.026966
 20
164.0
 30
0.0
 11
6.973034
 21
164.0
 31
0.0
  0
LINE
  8
0
  6
CONTINUOUS
 62
     0
  5
50F
 10
-7.026966
 20
164.5
 30
0.0
 11
6.973034
 21
164.5
 31
0.0
  0
LINE
  8
0
  6
CONTINUOUS
 62
     0
  5
510
 10
-7.026966
 20
165.0
 30
0.0
 11
6.973034
 21
165.0
 31
0.0
  0
LINE
  8
0
  6
CONTINUOUS
 62
     0
  5
511
 10
-7.026966
 20
165.5
 30
0.0
 11
6.973034
 21
165.5
 31
0.0
  0
LINE
  8
0
  6
CONTINUOUS
 62
     0
  5
512
 10
-7.026966
 20
166.0
 30
0.0
 11
6.973034
 21
166.0
 31
0.0
  0
LINE
  8
0
  6
CONTINUOUS
 62
     0
  5
513
 10
-7.026966
 20
166.5
 30
0.0
 11
6.973034
 21
166.5
 31
0.0
  0
LINE
  8
0
  6
CONTINUOUS
 62
     0
  5
514
 10
-7.026966
 20
167.0
 30
0.0
 11
6.973034
 21
167.0
 31
0.0
  0
LINE
  8
0
  6
CONTINUOUS
 62
     0
  5
515
 10
-7.024718
 20
167.5
 30
0.0
 11
6.970787
 21
167.5
 31
0.0
  0
LINE
  8
0
  6
CONTINUOUS
 62
     0
  5
516
 10
-7.0
 20
162.853612
 30
0.0
 11
-7.0
 21
167.579494
 31
0.0
  0
LINE
  8
0
  6
CONTINUOUS
 62
     0
  5
517
 10
-6.5
 20
162.716553
 30
0.0
 11
-6.5
 21
167.716553
 31
0.0
  0
LINE
  8
0
  6
CONTINUOUS
 62
     0
  5
518
 10
-6.0
 20
162.716553
 30
0.0
 11
-6.0
 21
167.716553
 31
0.0
  0
LINE
  8
0
  6
CONTINUOUS
 62
     0
  5
519
 10
-5.5
 20
162.716553
 30
0.0
 11
-5.5
 21
167.716553
 31
0.0
  0
LINE
  8
0
  6
CONTINUOUS
 62
     0
  5
51A
 10
-5.0
 20
162.716553
 30
0.0
 11
-5.0
 21
167.716553
 31
0.0
  0
LINE
  8
0
  6
CONTINUOUS
 62
     0
  5
51B
 10
-4.5
 20
162.716553
 30
0.0
 11
-4.5
 21
167.716553
 31
0.0
  0
LINE
  8
0
  6
CONTINUOUS
 62
     0
  5
51C
 10
-4.0
 20
162.716553
 30
0.0
 11
-4.0
 21
167.716553
 31
0.0
  0
LINE
  8
0
  6
CONTINUOUS
 62
     0
  5
51D
 10
-3.5
 20
162.716553
 30
0.0
 11
-3.5
 21
167.716553
 31
0.0
  0
LINE
  8
0
  6
CONTINUOUS
 62
     0
  5
51E
 10
-3.0
 20
162.716553
 30
0.0
 11
-3.0
 21
167.716553
 31
0.0
  0
LINE
  8
0
  6
CONTINUOUS
 62
     0
  5
51F
 10
-2.5
 20
162.716553
 30
0.0
 11
-2.5
 21
167.716553
 31
0.0
  0
LINE
  8
0
  6
CONTINUOUS
 62
     0
  5
520
 10
-2.0
 20
162.716553
 30
0.0
 11
-2.0
 21
167.716553
 31
0.0
  0
LINE
  8
0
  6
CONTINUOUS
 62
     0
  5
521
 10
-1.5
 20
162.716553
 30
0.0
 11
-1.5
 21
167.716553
 31
0.0
  0
LINE
  8
0
  6
CONTINUOUS
 62
     0
  5
522
 10
-1.0
 20
162.716553
 30
0.0
 11
-1.0
 21
167.716553
 31
0.0
  0
LINE
  8
0
  6
CONTINUOUS
 62
     0
  5
523
 10
-0.5
 20
162.716553
 30
0.0
 11
-0.5
 21
167.716553
 31
0.0
  0
LINE
  8
0
  6
CONTINUOUS
 62
     0
  5
524
 10
0.0
 20
162.716553
 30
0.0
 11
0.0
 21
167.716553
 31
0.0
  0
LINE
  8
0
  6
CONTINUOUS
 62
     0
  5
525
 10
0.5
 20
162.716553
 30
0.0
 11
0.5
 21
167.716553
 31
0.0
  0
LINE
  8
0
  6
CONTINUOUS
 62
     0
  5
526
 10
1.0
 20
162.716553
 30
0.0
 11
1.0
 21
167.716553
 31
0.0
  0
LINE
  8
0
  6
CONTINUOUS
 62
     0
  5
527
 10
1.5
 20
162.716553
 30
0.0
 11
1.5
 21
167.716553
 31
0.0
  0
LINE
  8
0
  6
CONTINUOUS
 62
     0
  5
528
 10
2.0
 20
162.716553
 30
0.0
 11
2.0
 21
167.716553
 31
0.0
  0
LINE
  8
0
  6
CONTINUOUS
 62
     0
  5
529
 10
2.5
 20
162.716553
 30
0.0
 11
2.5
 21
167.716553
 31
0.0
  0
LINE
  8
0
  6
CONTINUOUS
 62
     0
  5
52A
 10
3.0
 20
162.716553
 30
0.0
 11
3.0
 21
167.716553
 31
0.0
  0
LINE
  8
0
  6
CONTINUOUS
 62
     0
  5
52B
 10
3.5
 20
162.716553
 30
0.0
 11
3.5
 21
167.716553
 31
0.0
  0
LINE
  8
0
  6
CONTINUOUS
 62
     0
  5
52C
 10
4.0
 20
162.716553
 30
0.0
 11
4.0
 21
167.716553
 31
0.0
  0
LINE
  8
0
  6
CONTINUOUS
 62
     0
  5
52D
 10
4.5
 20
162.716553
 30
0.0
 11
4.5
 21
167.716553
 31
0.0
  0
LINE
  8
0
  6
CONTINUOUS
 62
     0
  5
52E
 10
5.0
 20
162.716553
 30
0.0
 11
5.0
 21
167.716553
 31
0.0
  0
LINE
  8
0
  6
CONTINUOUS
 62
     0
  5
52F
 10
5.5
 20
162.716553
 30
0.0
 11
5.5
 21
167.716553
 31
0.0
  0
LINE
  8
0
  6
CONTINUOUS
 62
     0
  5
530
 10
6.0
 20
162.716553
 30
0.0
 11
6.0
 21
167.716553
 31
0.0
  0
LINE
  8
0
  6
CONTINUOUS
 62
     0
  5
531
 10
6.5
 20
162.716553
 30
0.0
 11
6.5
 21
167.716553
 31
0.0
  0
ENDBLK
  8
0
  6
BYBLOCK
 62
     0
  5
532
  0
ENDSEC
  0
SECTION
  2
ENTITIES
  0
LINE
  8
LY_1
  6
CONTINUOUS
 62
    98
  5
4B8
 10
3.5
 20
238.616553
 30
0.0
 11
29.2
 21
238.616553
 31
0.0
  0
LINE
  8
LY_1
  6
CONTINUOUS
 62
    98
  5
4B9
 10
3.5
 20
237.616553
 30
0.0
 11
29.2
 21
237.616553
 31
0.0
  0
CIRCLE
  8
LY_1
  6
CONTINUOUS
 62
    98
  5
4BA
 10
0.0
 20
237.616553
 30
0.0
 40
2.5
  0
ARC
  8
LY_1
  6
CONTINUOUS
 62
    98
  5
4BB
 10
0.0
 20
237.616553
 30
0.0
 40
3.5
 50
180.0
 51
0.0
  0
LINE
  8
LY_1
  6
CONTINUOUS
 62
    98
  5
4BC
 10
3.5
 20
237.616553
 30
0.0
 11
3.5
 21
251.116553
 31
0.0
  0
LINE
  8
LY_1
  6
CONTINUOUS
 62
    98
  5
4BD
 10
-3.5
 20
237.616553
 30
0.0
 11
-3.5
 21
251.116553
 31
0.0
  0
LINE
  8
LY_1
  6
CONTINUOUS
 62
    98
  5
4BE
 10
-18.6
 20
234.616553
 30
0.0
 11
-17.7
 21
221.116553
 31
0.0
  0
LINE
  8
LY_1
  6
CONTINUOUS
 62
    98
  5
4BF
 10
-18.7
 20
234.616553
 30
0.0
 11
-28.9
 21
234.616553
 31
0.0
  0
LINE
  8
LY_1
  6
CENTER
 62
    50
  5
4C1
 10
-23.7
 20
253.116553
 30
0.0
 11
-23.7
 21
232.616553
 31
0.0
  0
LINE
  8
LY_1
  6
CONTINUOUS
 62
    98
  5
4C2
 10
-29.1
 20
237.616553
 30
0.0
 11
-28.2
 21
223.916553
 31
0.0
  0
LINE
  8
LY_1
  6
CONTINUOUS
 62
    98
  5
4C3
 10
-28.2
 20
238.616553
 30
0.0
 11
-28.2
 21
237.616553
 31
0.0
  0
LINE
  8
LY_1
  6
CONTINUOUS
 62
    98
  5
4C4
 10
-29.2
 20
238.616553
 30
0.0
 11
-3.5
 21
238.616553
 31
0.0
  0
LINE
  8
LY_1
  6
CONTINUOUS
 62
    98
  5
4C5
 10
29.1
 20
237.616553
 30
0.0
 11
28.2
 21
223.916553
 31
0.0
  0
LINE
  8
LY_1
  6
CONTINUOUS
 62
    98
  5
4C6
 10
28.2
 20
238.616553
 30
0.0
 11
28.2
 21
237.616553
 31
0.0
  0
LINE
  8
LY_1
  6
CONTINUOUS
 62
    98
  5
4C7
 10
-29.1
 20
237.616553
 30
0.0
 11
-3.5
 21
237.616553
 31
0.0
  0
ARC
  8
LY_1
  6
CONTINUOUS
 62
    98
  5
4C8
 10
25.2
 20
224.116553
 30
0.0
 40
3.0
 50
270.0
 51
356.2
  0
LINE
  8
LY_1
  6
CONTINUOUS
 62
    98
  5
4C9
 10
-25.2
 20
221.116553
 30
0.0
 11
25.2
 21
221.116553
 31
0.0
  0
LINE
  8
LY_1
  6
CONTINUOUS
 62
    98
  5
4CA
 10
30.0
 20
251.116553
 30
0.0
 11
29.2
 21
238.616553
 31
0.0
  0
ARC
  8
LY_1
  6
CONTINUOUS
 62
    98
  5
4CB
 10
-25.2
 20
224.116553
 30
0.0
 40
3.0
 50
183.8
 51
270.0
  0
LINE
  8
LY_1
  6
CONTINUOUS
 62
    98
  5
4CC
 10
-30.0
 20
251.116553
 30
0.0
 11
-29.2
 21
238.616553
 31
0.0
  0
LINE
  8
LY_1
  6
CONTINUOUS
 62
    98
  5
4CD
 10
-30.0
 20
251.116553
 30
0.0
 11
30.0
 21
251.116553
 31
0.0
  0
LINE
  8
LY_1
  6
CENTER
 62
    50
  5
4CE
 10
-109.4
 20
98.7
 30
0.0
 11
-88.9
 21
98.7
 31
0.0
  0
LINE
  8
LY_1
  6
CONTINUOUS
 62
    98
  5
4CF
 10
-90.9
 20
93.7
 30
0.0
 11
-90.9
 21
103.90292
 31
0.0
  0
LINE
  8
LY_1
  6
CONTINUOUS
 62
    98
  5
4D0
 10
-90.9
 20
93.7
 30
0.0
 11
-77.4
 21
91.7
 31
0.0
  0
ARC
  8
LY_1
  6
CONTINUOUS
 62
    98
  5
4D1
 10
-90.9
 20
107.3
 30
0.0
 40
0.5
 50
0.0
 51
90.0
  0
LINE
  8
LY_1
  6
CONTINUOUS
 62
    98
  5
4D2
 10
-90.4
 20
103.8
 30
0.0
 11
-90.4
 21
107.3
 31
0.0
  0
LINE
  8
LY_1
  6
CONTINUOUS
 62
    98
  5
4D3
 10
-107.4
 20
109.0
 30
0.0
 11
-90.9
 21
107.8
 31
0.0
  0
LINE
  8
LY_1
  6
CONTINUOUS
 62
    98
  5
4D4
 10
-107.4
 20
105.0
 30
0.0
 11
-107.4
 21
109.0
 31
0.0
  0
LINE
  8
LY_1
  6
CONTINUOUS
 62
    98
  5
4D5
 10
-94.9
 20
0.8
 30
0.0
 11
-107.4
 21
0.0
 31
0.0
  0
LINE
  8
LY_1
  6
CONTINUOUS
 62
    98
  5
4D6
 10
-93.9
 20
1.8
 30
0.0
 11
-94.9
 21
1.8
 31
0.0
  0
LINE
  8
LY_1
  6
CONTINUOUS
 62
    98
  5
4D7
 10
-94.9
 20
104.2
 30
0.0
 11
-107.4
 21
105.0
 31
0.0
  0
LINE
  8
LY_1
  6
CONTINUOUS
 62
    98
  5
4D8
 10
-93.9
 20
103.2
 30
0.0
 11
-94.9
 21
103.2
 31
0.0
  0
LINE
  8
LY_1
  6
CONTINUOUS
 62
    98
  5
4D9
 10
-93.9
 20
0.9
 30
0.0
 11
-93.9
 21
104.1
 31
0.0
  0
LINE
  8
LY_1
  6
CONTINUOUS
 62
    98
  5
4DA
 10
-94.9
 20
0.8
 30
0.0
 11
-94.9
 21
104.2
 31
0.0
  0
ARC
  8
LY_1
  6
CONTINUOUS
 62
    98
  5
4DB
 10
-80.4
 20
4.8
 30
0.0
 40
3.0
 50
273.8
 51
0.0
  0
ARC
  8
LY_1
  6
CONTINUOUS
 62
    98
  5
4DC
 10
-80.4
 20
100.2
 30
0.0
 40
3.0
 50
0.0
 51
86.2
  0
LINE
  8
LY_1
  6
CONTINUOUS
 62
    98
  5
4DD
 10
-107.4
 20
0.0
 30
0.0
 11
-107.4
 21
105.0
 31
0.0
  0
LINE
  8
LY_1
  6
CONTINUOUS
 62
    98
  5
4DE
 10
-80.2
 20
103.2
 30
0.0
 11
-93.9
 21
104.1
 31
0.0
  0
LINE
  8
LY_1
  6
CONTINUOUS
 62
    98
  5
4DF
 10
-80.2
 20
1.8
 30
0.0
 11
-93.9
 21
0.9
 31
0.0
  0
LINE
  8
LY_1
  6
CONTINUOUS
 62
    98
  5
4E0
 10
-77.4
 20
4.8
 30
0.0
 11
-77.4
 21
100.2
 31
0.0
  0
LINE
  8
LY_1
  6
CENTER
 62
    50
  5
4E1
 10
-90.193531
 20
116.958079
 30
0.0
 11
-98.868713
 21
124.73376
 31
0.0
  0
LINE
  8
LY_1
  6
CONTINUOUS
 62
    98
  5
4E2
 10
-96.399991
 20
108.199999
 30
0.0
 11
-96.399991
 21
122.521011
 31
0.0
  0
LINE
  8
LY_1
  6
CONTINUOUS
 62
    98
  5
4E3
 10
-91.4
 20
107.836364
 30
0.0
 11
-91.4
 21
118.039453
 31
0.0
  0
LINE
  8
LY_1
  6
CENTER
 62
    50
  5
4E4
 10
23.7
 20
-60.9
 30
0.0
 11
23.7
 21
-40.4
 31
0.0
  0
LINE
  8
LY_1
  6
CENTER
 62
    50
  5
4E5
 10
-19.9
 20
98.7
 30
0.0
 11
-27.9
 21
98.7
 31
0.0
  0
LINE
  8
LY_1
  6
CENTER
 62
    50
  5
4E6
 10
-23.7
 20
94.9
 30
0.0
 11
-23.7
 21
102.9
 31
0.0
  0
LINE
  8
LY_1
  6
CENTER
 62
    50
  5
4E7
 10
27.5
 20
6.3
 30
0.0
 11
19.5
 21
6.3
 31
0.0
  0
ARC
  8
LY_1
  6
CONTINUOUS
 62
    98
  5
4E8
 10
6.573034
 20
172.116553
 30
0.0
 40
0.4
 50
270.0
 51
0.0
  0
ARC
  8
LY_1
  6
CONTINUOUS
 62
    98
  5
4E9
 10
6.573034
 20
173.316553
 30
0.0
 40
0.4
 50
0.0
 51
90.0
  0
ARC
  8
LY_1
  6
CONTINUOUS
 62
    98
  5
4EA
 10
-6.626966
 20
172.116553
 30
0.0
 40
0.4
 50
180.0
 51
270.0
  0
ARC
  8
LY_1
  6
CONTINUOUS
 62
    98
  5
4EB
 10
-6.626966
 20
173.316553
 30
0.0
 40
0.4
 50
90.0
 51
180.0
  0
LINE
  8
LY_1
  6
CONTINUOUS
 62
    98
  5
4EC
 10
-5.526966
 20
160.216553
 30
0.0
 11
-3.526966
 21
142.216553
 31
0.0
  0
LINE
  8
LY_1
  6
CONTINUOUS
 62
    98
  5
4ED
 10
5.473034
 20
160.216553
 30
0.0
 11
3.473034
 21
142.216553
 31
0.0
  0
LINE
  8
LY_1
  6
CONTINUOUS
 62
    98
  5
4EE
 10
-5.526966
 20
160.716553
 30
0.0
 11
5.473034
 21
160.716553
 31
0.0
  0
LINE
  8
LY_1
  6
CONTINUOUS
 62
    98
  5
4EF
 10
-5.526966
 20
160.216553
 30
0.0
 11
5.473034
 21
160.216553
 31
0.0
  0
LINE
  8
LY_1
  6
CONTINUOUS
 62
    98
  5
4F0
 10
5.473034
 20
171.716553
 30
0.0
 11
5.473034
 21
167.716553
 31
0.0
  0
LINE
  8
LY_1
  6
CONTINUOUS
 62
    98
  5
4F1
 10
-5.526966
 20
171.716553
 30
0.0
 11
-5.526966
 21
167.716553
 31
0.0
  0
LINE
  8
LY_1
  6
CONTINUOUS
 62
    98
  5
4F2
 10
5.473034
 20
162.716553
 30
0.0
 11
5.473034
 21
160.216553
 31
0.0
  0
LINE
  8
LY_1
  6
CONTINUOUS
 62
    98
  5
4F3
 10
-5.526966
 20
162.716553
 30
0.0
 11
-5.526966
 21
160.216553
 31
0.0
  0
LINE
  8
LY_1
  6
CONTINUOUS
 62
    98
  5
4F4
 10
6.973034
 20
167.466553
 30
0.0
 11
6.973034
 21
162.966553
 31
0.0
  0
LINE
  8
LY_1
  6
CONTINUOUS
 62
    98
  5
4F5
 10
-7.026966
 20
167.466553
 30
0.0
 11
-7.026966
 21
162.966553
 31
0.0
  0
LINE
  8
LY_1
  6
CONTINUOUS
 62
    98
  5
4F6
 10
-6.776966
 20
162.716553
 30
0.0
 11
6.723034
 21
162.716553
 31
0.0
  0
LINE
  8
LY_1
  6
CONTINUOUS
 62
    98
  5
4F7
 10
-6.776966
 20
167.716553
 30
0.0
 11
6.723034
 21
167.716553
 31
0.0
  0
LINE
  8
LY_1
  6
CONTINUOUS
 62
    98
  5
4F8
 10
-6.626966
 20
171.716553
 30
0.0
 11
6.573034
 21
171.716553
 31
0.0
  0
LINE
  8
LY_1
  6
CONTINUOUS
 62
    98
  5
4F9
 10
-7.026966
 20
173.316553
 30
0.0
 11
-7.026966
 21
172.116553
 31
0.0
  0
LINE
  8
LY_1
  6
CONTINUOUS
 62
    98
  5
4FA
 10
6.973034
 20
173.316553
 30
0.0
 11
6.973034
 21
172.116553
 31
0.0
  0
LINE
  8
LY_1
  6
CONTINUOUS
 62
    98
  5
4FB
 10
-6.626966
 20
173.716553
 30
0.0
 11
6.573034
 21
173.716553
 31
0.0
  0
LINE
  8
LY_1
  6
CONTINUOUS
 62
    98
  5
4FC
 10
5.473034
 20
182.216553
 30
0.0
 11
5.473034
 21
173.716553
 31
0.0
  0
LINE
  8
LY_1
  6
CONTINUOUS
 62
    98
  5
4FD
 10
-5.526966
 20
182.216553
 30
0.0
 11
-5.526966
 21
173.716553
 31
0.0
  0
LINE
  8
LY_1
  6
CONTINUOUS
 62
    98
  5
4FE
 10
4.973034
 20
192.216553
 30
0.0
 11
4.973034
 21
182.216553
 31
0.0
  0
LINE
  8
LY_1
  6
CONTINUOUS
 62
    98
  5
4FF
 10
-5.026966
 20
192.216553
 30
0.0
 11
-5.026966
 21
182.216553
 31
0.0
  0
LINE
  8
LY_1
  6
CONTINUOUS
 62
    98
  5
500
 10
-5.026966
 20
192.216553
 30
0.0
 11
4.973034
 21
192.216553
 31
0.0
  0
LINE
  8
LY_1
  6
CONTINUOUS
 62
    98
  5
501
 10
-5.526966
 20
182.216553
 30
0.0
 11
5.473034
 21
182.216553
 31
0.0
  0
LINE
  8
LY_1
  6
CONTINUOUS
 62
    98
  5
502
 10
-3.526966
 20
142.216553
 30
0.0
 11
3.473034
 21
142.216553
 31
0.0
  0
LINE
  8
LY_1
  6
CONTINUOUS
 62
    98
  5
503
 10
-3.638077
 20
143.216553
 30
0.0
 11
3.584146
 21
143.216553
 31
0.0
  0
LINE
  8
LY_1
  6
CONTINUOUS
 62
    98
  5
504
 10
-4.082521
 20
147.216553
 30
0.0
 11
4.02859
 21
147.216553
 31
0.0
  0
SOLID
  8
LY_1
  6
CONTINUOUS
 62
    88
  5
505
 10
-4.082521
 20
147.216553
 30
0.0
 11
4.02859
 21
147.216553
 31
0.0
 12
-3.638077
 22
143.216553
 32
0.0
 13
3.584146
 23
143.216553
 33
0.0
  0
ARC
  8
LY_1
  6
CONTINUOUS
 62
    98
  5
506
 10
6.723034
 20
167.466553
 30
0.0
 40
0.25
 50
0.0
 51
90.0
  0
ARC
  8
LY_1
  6
CONTINUOUS
 62
    98
  5
507
 10
-6.776966
 20
167.466553
 30
0.0
 40
0.25
 50
90.0
 51
180.0
  0
ARC
  8
LY_1
  6
CONTINUOUS
 62
    98
  5
508
 10
-6.776966
 20
162.966553
 30
0.0
 40
0.25
 50
180.0
 51
270.0
  0
ARC
  8
LY_1
  6
CONTINUOUS
 62
    98
  5
509
 10
6.723034
 20
162.966553
 30
0.0
 40
0.25
 50
270.0
 51
0.0
  0
INSERT
  8
LY_1
  6
BYBLOCK
 62
    88
  5
533
  2
*X23
 10
0.0
 20
0.0
 30
0.0
  0
LINE
  8
LY_1
  6
CONTINUOUS
 62
    98
  5
534
 10
91.4
 20
107.836364
 30
0.0
 11
91.4
 21
118.039453
 31
0.0
  0
LINE
  8
LY_1
  6
CONTINUOUS
 62
    98
  5
535
 10
96.399991
 20
108.199999
 30
0.0
 11
96.399991
 21
122.521011
 31
0.0
  0
LINE
  8
LY_1
  6
CENTER
 62
    50
  5
536
 10
90.193531
 20
116.958079
 30
0.0
 11
98.868713
 21
124.73376
 31
0.0
  0
LINE
  8
LY_1
  6
CONTINUOUS
 62
    98
  5
537
 10
-2.499995
 20
122.679301
 30
0.0
 11
-2.499995
 21
142.224835
 31
0.0
  0
LINE
  8
LY_1
  6
CONTINUOUS
 62
    98
  5
538
 10
2.499995
 20
127.39207
 30
0.0
 11
2.499995
 21
142.20809
 31
0.0
  0
LINE
  8
LY_1
  6
CONTINUOUS
 62
    98
  5
539
 10
-2.499995
 20
109.0
 30
0.0
 11
-2.499995
 21
119.203089
 31
0.0
  0
LINE
  8
LY_1
  6
CONTINUOUS
 62
    98
  5
53A
 10
2.499995
 20
109.0
 30
0.0
 11
2.499995
 21
123.684648
 31
0.0
  0
LINE
  8
LY_1
  6
CONTINUOUS
 62
    98
  5
53B
 10
-4.0
 20
-43.4
 30
0.0
 11
-4.0
 21
-36.9
 31
0.0
  0
LINE
  8
LY_1
  6
CONTINUOUS
 62
    98
  5
53C
 10
-4.0
 20
-43.4
 30
0.0
 11
12.0
 21
-43.4
 31
0.0
  0
LINE
  8
LY_1
  6
CONTINUOUS
 62
    98
  5
53D
 10
-4.0
 20
-36.9
 30
0.0
 11
12.0
 21
-36.9
 31
0.0
  0
LINE
  8
LY_1
  6
CONTINUOUS
 62
    98
  5
53E
 10
12.0
 20
-43.4
 30
0.0
 11
12.0
 21
-36.9
 31
0.0
  0
LINE
  8
LY_1
  6
CONTINUOUS
 62
    98
  5
53F
 10
-12.0
 20
-43.4
 30
0.0
 11
-12.0
 21
-36.9
 31
0.0
  0
LINE
  8
LY_1
  6
CONTINUOUS
 62
    98
  5
540
 10
-12.0
 20
-43.4
 30
0.0
 11
-6.0
 21
-43.4
 31
0.0
  0
LINE
  8
LY_1
  6
CONTINUOUS
 62
    98
  5
541
 10
-12.0
 20
-36.9
 30
0.0
 11
-6.0
 21
-36.9
 31
0.0
  0
LINE
  8
LY_1
  6
CONTINUOUS
 62
    98
  5
542
 10
-6.0
 20
-43.4
 30
0.0
 11
-6.0
 21
-36.9
 31
0.0
  0
LINE
  8
LY_1
  6
CONTINUOUS
 62
    98
  5
543
 10
-7.0
 20
39.5
 30
0.0
 11
7.0
 21
39.5
 31
0.0
  0
LINE
  8
LY_1
  6
CONTINUOUS
 62
    98
  5
544
 10
-7.0
 20
65.5
 30
0.0
 11
7.0
 21
65.5
 31
0.0
  0
LINE
  8
LY_1
  6
CONTINUOUS
 62
    98
  5
545
 10
8.0
 20
64.5
 30
0.0
 11
8.0
 21
40.5
 31
0.0
  0
LINE
  8
LY_1
  6
CONTINUOUS
 62
    98
  5
546
 10
-8.0
 20
40.5
 30
0.0
 11
-8.0
 21
64.5
 31
0.0
  0
ARC
  8
LY_1
  6
CONTINUOUS
 62
    98
  5
547
 10
7.0
 20
64.5
 30
0.0
 40
1.0
 50
0.0
 51
90.0
  0
ARC
  8
LY_1
  6
CONTINUOUS
 62
    98
  5
548
 10
-7.0
 20
64.5
 30
0.0
 40
1.0
 50
90.0
 51
180.0
  0
ARC
  8
LY_1
  6
CONTINUOUS
 62
    98
  5
549
 10
-7.0
 20
40.5
 30
0.0
 40
1.0
 50
180.0
 51
270.0
  0
ARC
  8
LY_1
  6
CONTINUOUS
 62
    98
  5
54A
 10
7.0
 20
40.5
 30
0.0
 40
1.0
 50
270.0
 51
0.0
  0
LINE
  8
LY_1
  6
CONTINUOUS
 62
    98
  5
54B
 10
-30.0
 20
3.0
 30
0.0
 11
-30.0
 21
102.0
 31
0.0
  0
LINE
  8
LY_1
  6
CONTINUOUS
 62
    98
  5
54C
 10
-27.0
 20
0.0
 30
0.0
 11
27.0
 21
0.0
 31
0.0
  0
LINE
  8
LY_1
  6
CONTINUOUS
 62
    98
  5
54D
 10
-27.0
 20
105.0
 30
0.0
 11
-3.5
 21
105.0
 31
0.0
  0
LINE
  8
LY_1
  6
CONTINUOUS
 62
    98
  5
54E
 10
30.0
 20
3.0
 30
0.0
 11
30.0
 21
102.0
 31
0.0
  0
LINE
  8
LY_1
  6
CONTINUOUS
 62
    98
  5
54F
 10
-28.0
 20
5.0
 30
0.0
 11
-28.0
 21
91.7
 31
0.0
  0
LINE
  8
LY_1
  6
CONTINUOUS
 62
    98
  5
550
 10
-25.0
 20
2.0
 30
0.0
 11
16.7
 21
2.0
 31
0.0
  0
LINE
  8
LY_1
  6
CONTINUOUS
 62
    98
  5
551
 10
-16.7
 20
103.0
 30
0.0
 11
25.0
 21
103.0
 31
0.0
  0
LINE
  8
LY_1
  6
CONTINUOUS
 62
    98
  5
552
 10
28.0
 20
13.3
 30
0.0
 11
28.0
 21
100.0
 31
0.0
  0
ARC
  8
LY_1
  6
CONTINUOUS
 62
    98
  5
553
 10
25.0
 20
100.0
 30
0.0
 40
3.0
 50
0.0
 51
90.0
  0
ARC
  8
LY_1
  6
CONTINUOUS
 62
    98
  5
554
 10
27.0
 20
102.0
 30
0.0
 40
3.0
 50
0.0
 51
90.0
  0
ARC
  8
LY_1
  6
CONTINUOUS
 62
    98
  5
555
 10
-27.0
 20
102.0
 30
0.0
 40
3.0
 50
90.0
 51
180.0
  0
ARC
  8
LY_1
  6
CONTINUOUS
 62
    98
  5
556
 10
-25.0
 20
5.0
 30
0.0
 40
3.0
 50
180.0
 51
270.0
  0
ARC
  8
LY_1
  6
CONTINUOUS
 62
    98
  5
557
 10
-27.0
 20
3.0
 30
0.0
 40
3.0
 50
180.0
 51
270.0
  0
CIRCLE
  8
LY_1
  6
CONTINUOUS
 62
    98
  5
558
 10
-23.7
 20
98.7
 30
0.0
 40
2.3
  0
LINE
  8
LY_1
  6
CONTINUOUS
 62
    98
  5
559
 10
-18.7
 20
105.0
 30
0.0
 11
-18.7
 21
98.7
 31
0.0
  0
LINE
  8
LY_1
  6
CONTINUOUS
 62
    98
  5
55A
 10
-23.7
 20
93.7
 30
0.0
 11
-30.0
 21
93.7
 31
0.0
  0
LINE
  8
LY_1
  6
CONTINUOUS
 62
    98
  5
55B
 10
-16.7
 20
103.0
 30
0.0
 11
-16.7
 21
98.7
 31
0.0
  0
LINE
  8
LY_1
  6
CONTINUOUS
 62
    98
  5
55C
 10
-28.0
 20
91.7
 30
0.0
 11
-23.7
 21
91.7
 31
0.0
  0
ARC
  8
LY_1
  6
CONTINUOUS
 62
    98
  5
55D
 10
-23.7
 20
98.7
 30
0.0
 40
5.0
 50
270.0
 51
0.0
  0
ARC
  8
LY_1
  6
CONTINUOUS
 62
    98
  5
55E
 10
-23.7
 20
98.7
 30
0.0
 40
7.0
 50
270.0
 51
0.0
  0
LINE
  8
LY_1
  6
CONTINUOUS
 62
    98
  5
55F
 10
-18.7
 20
105.0
 30
0.0
 11
-16.7
 21
103.0
 31
0.0
  0
LINE
  8
LY_1
  6
CONTINUOUS
 62
    98
  5
560
 10
-28.0
 20
91.7
 30
0.0
 11
-30.0
 21
93.7
 31
0.0
  0
ARC
  8
LY_1
  6
CONTINUOUS
 62
    98
  5
561
 10
27.0
 20
3.0
 30
0.0
 40
3.0
 50
270.0
 51
0.0
  0
CIRCLE
  8
LY_1
  6
CONTINUOUS
 62
    98
  5
562
 10
23.7
 20
6.3
 30
0.0
 40
2.3
  0
LINE
  8
LY_1
  6
CONTINUOUS
 62
    98
  5
563
 10
18.7
 20
0.0
 30
0.0
 11
18.7
 21
6.3
 31
0.0
  0
LINE
  8
LY_1
  6
CONTINUOUS
 62
    98
  5
564
 10
23.7
 20
11.3
 30
0.0
 11
30.0
 21
11.3
 31
0.0
  0
LINE
  8
LY_1
  6
CONTINUOUS
 62
    98
  5
565
 10
16.7
 20
2.0
 30
0.0
 11
16.7
 21
6.3
 31
0.0
  0
LINE
  8
LY_1
  6
CONTINUOUS
 62
    98
  5
566
 10
28.0
 20
13.3
 30
0.0
 11
23.7
 21
13.3
 31
0.0
  0
ARC
  8
LY_1
  6
CONTINUOUS
 62
    98
  5
567
 10
23.7
 20
6.3
 30
0.0
 40
5.0
 50
90.0
 51
180.0
  0
ARC
  8
LY_1
  6
CONTINUOUS
 62
    98
  5
568
 10
23.7
 20
6.3
 30
0.0
 40
7.0
 50
90.0
 51
180.0
  0
LINE
  8
LY_1
  6
CONTINUOUS
 62
    98
  5
569
 10
18.7
 20
0.0
 30
0.0
 11
16.7
 21
2.0
 31
0.0
  0
LINE
  8
LY_1
  6
CONTINUOUS
 62
    98
  5
56A
 10
28.0
 20
13.3
 30
0.0
 11
30.0
 21
11.3
 31
0.0
  0
LINE
  8
LY_1
  6
CONTINUOUS
 62
    98
  5
56B
 10
3.5
 20
105.0
 30
0.0
 11
3.5
 21
108.5
 31
0.0
  0
LINE
  8
LY_1
  6
CONTINUOUS
 62
    98
  5
56C
 10
3.0
 20
109.0
 30
0.0
 11
-3.0
 21
109.0
 31
0.0
  0
LINE
  8
LY_1
  6
CONTINUOUS
 62
    98
  5
56D
 10
-3.5
 20
108.5
 30
0.0
 11
-3.5
 21
105.0
 31
0.0
  0
ARC
  8
LY_1
  6
CONTINUOUS
 62
    98
  5
56E
 10
0.0
 20
116.6
 30
0.0
 40
12.1
 50
253.7
 51
286.4
  0
LINE
  8
LY_1
  6
CONTINUOUS
 62
    98
  5
56F
 10
3.5
 20
105.0
 30
0.0
 11
27.0
 21
105.0
 31
0.0
  0
ARC
  8
LY_1
  6
CONTINUOUS
 62
    98
  5
570
 10
3.0
 20
108.5
 30
0.0
 40
0.5
 50
0.0
 51
90.0
  0
ARC
  8
LY_1
  6
CONTINUOUS
 62
    98
  5
571
 10
-3.0
 20
108.5
 30
0.0
 40
0.5
 50
90.0
 51
180.0
  0
LINE
  8
LY_1
  6
CONTINUOUS
 62
    98
  5
572
 10
77.4
 20
4.8
 30
0.0
 11
77.4
 21
100.2
 31
0.0
  0
LINE
  8
LY_1
  6
CONTINUOUS
 62
    98
  5
573
 10
80.2
 20
1.8
 30
0.0
 11
93.9
 21
0.9
 31
0.0
  0
LINE
  8
LY_1
  6
CONTINUOUS
 62
    98
  5
574
 10
80.2
 20
103.2
 30
0.0
 11
93.9
 21
104.1
 31
0.0
  0
LINE
  8
LY_1
  6
CONTINUOUS
 62
    98
  5
575
 10
107.4
 20
0.0
 30
0.0
 11
107.4
 21
105.0
 31
0.0
  0
ARC
  8
LY_1
  6
CONTINUOUS
 62
    98
  5
576
 10
80.4
 20
100.2
 30
0.0
 40
3.0
 50
93.8
 51
180.0
  0
ARC
  8
LY_1
  6
CONTINUOUS
 62
    98
  5
577
 10
80.4
 20
4.8
 30
0.0
 40
3.0
 50
180.0
 51
266.2
  0
LINE
  8
LY_1
  6
CONTINUOUS
 62
    98
  5
578
 10
94.9
 20
0.8
 30
0.0
 11
94.9
 21
104.2
 31
0.0
  0
LINE
  8
LY_1
  6
CONTINUOUS
 62
    98
  5
579
 10
93.9
 20
0.9
 30
0.0
 11
93.9
 21
104.1
 31
0.0
  0
LINE
  8
LY_1
  6
CONTINUOUS
 62
    98
  5
57A
 10
93.9
 20
103.2
 30
0.0
 11
94.9
 21
103.2
 31
0.0
  0
LINE
  8
LY_1
  6
CONTINUOUS
 62
    98
  5
57B
 10
94.9
 20
104.2
 30
0.0
 11
107.4
 21
105.0
 31
0.0
  0
LINE
  8
LY_1
  6
CONTINUOUS
 62
    98
  5
57C
 10
93.9
 20
1.8
 30
0.0
 11
94.9
 21
1.8
 31
0.0
  0
LINE
  8
LY_1
  6
CONTINUOUS
 62
    98
  5
57D
 10
94.9
 20
0.8
 30
0.0
 11
107.4
 21
0.0
 31
0.0
  0
LINE
  8
LY_1
  6
CONTINUOUS
 62
    98
  5
57E
 10
77.4
 20
12.3
 30
0.0
 11
90.9
 21
11.4
 31
0.0
  0
LINE
  8
LY_1
  6
CONTINUOUS
 62
    98
  5
57F
 10
107.4
 20
105.0
 30
0.0
 11
107.4
 21
109.0
 31
0.0
  0
LINE
  8
LY_1
  6
CONTINUOUS
 62
    98
  5
580
 10
107.4
 20
109.0
 30
0.0
 11
90.9
 21
107.8
 31
0.0
  0
LINE
  8
LY_1
  6
CONTINUOUS
 62
    98
  5
581
 10
90.4
 20
103.8
 30
0.0
 11
90.4
 21
107.3
 31
0.0
  0
ARC
  8
LY_1
  6
CONTINUOUS
 62
    98
  5
582
 10
90.9
 20
107.3
 30
0.0
 40
0.5
 50
90.0
 51
180.0
  0
LINE
  8
LY_1
  6
CONTINUOUS
 62
    98
  5
583
 10
90.9
 20
1.1
 30
0.0
 11
90.9
 21
11.4
 31
0.0
  0
LINE
  8
LY_1
  6
CONTINUOUS
 62
    98
  5
584
 10
-7.0
 20
38.5
 30
0.0
 11
7.0
 21
38.5
 31
0.0
  0
LINE
  8
LY_1
  6
CONTINUOUS
 62
    98
  5
585
 10
-7.0
 20
66.5
 30
0.0
 11
7.0
 21
66.5
 31
0.0
  0
ARC
  8
LY_1
  6
CONTINUOUS
 62
    98
  5
586
 10
7.0
 20
65.5
 30
0.0
 40
1.0
 50
0.0
 51
90.0
  0
ARC
  8
LY_1
  6
CONTINUOUS
 62
    98
  5
587
 10
-7.0
 20
65.5
 30
0.0
 40
1.0
 50
90.0
 51
180.0
  0
ARC
  8
LY_1
  6
CONTINUOUS
 62
    98
  5
588
 10
7.0
 20
39.5
 30
0.0
 40
1.0
 50
270.0
 51
0.0
  0
ARC
  8
LY_1
  6
CONTINUOUS
 62
    98
  5
589
 10
-7.0
 20
39.5
 30
0.0
 40
1.0
 50
180.0
 51
270.0
  0
LINE
  8
LY_1
  6
CONTINUOUS
 62
    98
  5
58A
 10
-8.0
 20
39.5
 30
0.0
 11
-8.0
 21
65.5
 31
0.0
  0
LINE
  8
LY_1
  6
CONTINUOUS
 62
    98
  5
58B
 10
8.0
 20
39.5
 30
0.0
 11
8.0
 21
65.5
 31
0.0
  0
LINE
  8
LY_1
  6
CONTINUOUS
 62
    98
  5
58C
 10
-30.0
 20
-58.9
 30
0.0
 11
30.0
 21
-58.9
 31
0.0
  0
LINE
  8
LY_1
  6
CONTINUOUS
 62
    98
  5
58D
 10
-30.0
 20
-58.9
 30
0.0
 11
-29.2
 21
-46.4
 31
0.0
  0
ARC
  8
LY_1
  6
CONTINUOUS
 62
    98
  5
58E
 10
-25.2
 20
-31.9
 30
0.0
 40
3.0
 50
90.0
 51
176.2
  0
LINE
  8
LY_1
  6
CONTINUOUS
 62
    98
  5
58F
 10
30.0
 20
-58.9
 30
0.0
 11
29.2
 21
-46.4
 31
0.0
  0
LINE
  8
LY_1
  6
CONTINUOUS
 62
    98
  5
590
 10
-25.2
 20
-28.9
 30
0.0
 11
25.2
 21
-28.9
 31
0.0
  0
ARC
  8
LY_1
  6
CONTINUOUS
 62
    98
  5
591
 10
25.2
 20
-31.9
 30
0.0
 40
3.0
 50
3.8
 51
90.0
  0
LINE
  8
LY_1
  6
CONTINUOUS
 62
    98
  5
592
 10
-29.1
 20
-45.4
 30
0.0
 11
29.2
 21
-45.4
 31
0.0
  0
LINE
  8
LY_1
  6
CONTINUOUS
 62
    98
  5
593
 10
18.7
 20
-42.4
 30
0.0
 11
28.9
 21
-42.4
 31
0.0
  0
LINE
  8
LY_1
  6
CONTINUOUS
 62
    98
  5
594
 10
28.2
 20
-46.4
 30
0.0
 11
28.2
 21
-45.4
 31
0.0
  0
LINE
  8
LY_1
  6
CONTINUOUS
 62
    98
  5
595
 10
29.1
 20
-45.4
 30
0.0
 11
28.2
 21
-31.7
 31
0.0
  0
LINE
  8
LY_1
  6
CONTINUOUS
 62
    98
  5
596
 10
18.6
 20
-42.4
 30
0.0
 11
17.7
 21
-28.9
 31
0.0
  0
LINE
  8
LY_1
  6
CONTINUOUS
 62
    98
  5
597
 10
-29.2
 20
-46.4
 30
0.0
 11
29.2
 21
-46.4
 31
0.0
  0
LINE
  8
LY_1
  6
CONTINUOUS
 62
    98
  5
598
 10
-28.2
 20
-46.4
 30
0.0
 11
-28.2
 21
-45.4
 31
0.0
  0
LINE
  8
LY_1
  6
CONTINUOUS
 62
    98
  5
599
 10
-29.1
 20
-45.4
 30
0.0
 11
-28.2
 21
-31.7
 31
0.0
  0
LINE
  8
LY_1
  6
CONTINUOUS
 62
    98
  5
59A
 10
-15.0
 20
-45.4
 30
0.0
 11
-15.0
 21
-36.9
 31
0.0
  0
LINE
  8
LY_1
  6
CONTINUOUS
 62
    98
  5
59B
 10
-14.0
 20
-35.9
 30
0.0
 11
-3.9
 21
-35.9
 31
0.0
  0
LINE
  8
LY_1
  6
CONTINUOUS
 62
    98
  5
59C
 10
15.0
 20
-36.9
 30
0.0
 11
15.0
 21
-45.4
 31
0.0
  0
ARC
  8
LY_1
  6
CONTINUOUS
 62
    98
  5
59D
 10
14.0
 20
-36.9
 30
0.0
 40
1.0
 50
0.0
 51
90.0
  0
ARC
  8
LY_1
  6
CONTINUOUS
 62
    98
  5
59E
 10
-14.0
 20
-36.9
 30
0.0
 40
1.0
 50
90.0
 51
180.0
  0
LINE
  8
LY_1
  6
CONTINUOUS
 62
    98
  5
59F
 10
-3.9
 20
-35.9
 30
0.0
 11
14.0
 21
-35.9
 31
0.0
  0
LINE
  8
LY_1
  6
CENTER
 62
    50
  5
5A0
 10
23.7
 20
2.5
 30
0.0
 11
23.7
 21
10.5
 31
0.0
  0
LINE
  8
LY_1
  6
CENTER
 62
    50
  5
5A1
 10
87.9
 20
6.3
 30
0.0
 11
109.5
 21
6.3
 31
0.0
  0
LINE
  8
LY_1
  6
CENTER
 62
    50
  5
5A2
 10
-4.536004
 20
120.76025
 30
0.0
 11
3.989262
 21
128.795787
 31
0.0
  0
LINE
  8
LY_1
  6
CENTER
 62
    50
  5
5A3
 10
-3.706464
 20
118.121715
 30
0.0
 11
4.968718
 21
125.897396
 31
0.0
  0
ENDSEC
  0
EOF
