  0
SECTION
  2
HEADER
  9
$ACADVER
  1
AC1009
  9
$DWGCODEPAGE
  3
dos932
  9
$INSBASE
 10
0.0
 20
0.0
 30
0.0
  9
$EXTMIN
 10
-301.669892
 20
0.0
 30
0.0
  9
$EXTMAX
 10
98.0
 20
415.0
 30
0.0
  9
$LIMMIN
 10
-301.669892
 20
0.0
  9
$LIMMAX
 10
98.0
 20
415.0
  9
$ORTHOMODE
 70
               0
  9
$REGENMODE
 70
               1
  9
$FILLMODE
 70
               1
  9
$QTEXTMODE
 70
               0
  9
$MIRRTEXT
 70
               1
  9
$DRAGMODE
 70
               2
  9
$LTSCALE
 40
1.0
  9
$OSMODE
 70
               0
  9
$ATTMODE
 70
               1
  9
$TEXTSIZE
 40
4.1655998229980469
  9
$TRACEWID
 40
0.05
  9
$TEXTSTYLE
  7
MX_NOTE_STANDARD
  9
$CLAYER
  8
0
  9
$CELTYPE
  6
CONTINUOUS
  9
$CECOLOR
 62
             256
  9
$DIMSCALE
 40
1.0
  9
$DIMASZ
 40
2.5
  9
$DIMEXO
 40
0.5
  9
$DIMDLI
 40
3.75
  9
$DIMRND
 40
0.0
  9
$DIMDLE
 40
0.0
  9
$DIMEXE
 40
1.0
  9
$DIMTP
 40
0.0
  9
$DIMTM
 40
0.0
  9
$DIMTXT
 40
2.5
  9
$DIMCEN
 40
2.5
  9
$DIMTSZ
 40
0.0
  9
$DIMTOL
 70
               0
  9
$DIMLIM
 70
               0
  9
$DIMTIH
 70
               0
  9
$DIMTOH
 70
               0
  9
$DIMSE1
 70
               0
  9
$DIMSE2
 70
               0
  9
$DIMTAD
 70
               1
  9
$DIMZIN
 70
               8
  9
$DIMBLK
  1

  9
$DIMASO
 70
               1
  9
$DIMSHO
 70
               1
  9
$DIMPOST
  1

  9
$DIMAPOST
  1

  9
$DIMALT
 70
               0
  9
$DIMALTD
 70
               4
  9
$DIMALTF
 40
0.03937007874016
  9
$DIMLFAC
 40
1.0
  9
$DIMTOFL
 70
               1
  9
$DIMTVP
 40
0.0
  9
$DIMTIX
 70
               0
  9
$DIMSOXD
 70
               0
  9
$DIMSAH
 70
               0
  9
$DIMBLK1
  1

  9
$DIMBLK2
  1

  9
$DIMSTYLE
  2
MXDIMSTYLE
  9
$DIMCLRD
 70
               0
  9
$DIMCLRE
 70
               0
  9
$DIMCLRT
 70
               0
  9
$DIMTFAC
 40
1.0
  9
$DIMGAP
 40
1.0
  9
$LUNITS
 70
               2
  9
$LUPREC
 70
               4
  9
$AXISMODE
 70
               0
  9
$AXISUNIT
 10
0.0
 20
0.0
  9
$SKETCHINC
 40
0.1
  9
$FILLETRAD
 40
0.0
  9
$AUNITS
 70
               0
  9
$AUPREC
 70
               0
  9
$MENU
  1
acad
  9
$ELEVATION
 40
0.0
  9
$PELEVATION
 40
0.0
  9
$THICKNESS
 40
0.0
  9
$LIMCHECK
 70
               0
  9
$BLIPMODE
 70
               1
  9
$CHAMFERA
 40
0.0
  9
$CHAMFERB
 40
0.0
  9
$SKPOLY
 70
               0
  9
$TDCREATE
 40
2454335.604837963
  9
$TDUPDATE
 40
2454335.604837963
  9
$TDINDWG
 40
0.0000000000
  9
$TDUSRTIMER
 40
0.0000000000
  9
$USRTIMER
 70
               1
  9
$ANGBASE
 50
0.0
  9
$ANGDIR
 70
               0
  9
$PDMODE
 70
               0
  9
$PDSIZE
 40
0.0
  9
$PLINEWID
 40
0.0
  9
$COORDS
 70
               1
  9
$SPLFRAME
 70
               0
  9
$SPLINETYPE
 70
               6
  9
$SPLINESEGS
 70
               8
  9
$ATTDIA
 70
               0
  9
$ATTREQ
 70
               1
  9
$HANDLING
 70
               1
  9
$HANDSEED
  5
1AF
  9
$SURFTAB1
 70
               6
  9
$SURFTAB2
 70
               6
  9
$SURFTYPE
 70
               6
  9
$SURFU
 70
               6
  9
$SURFV
 70
               6
  9
$UCSNAME
  2

  9
$UCSORG
 10
0.0
 20
0.0
 30
0.0
  9
$UCSXDIR
 10
1.0
 20
0.0
 30
0.0
  9
$UCSYDIR
 10
0.0
 20
1.0
 30
0.0
  9
$PUCSNAME
  2

  9
$PUCSORG
 10
0.0
 20
0.0
 30
0.0
  9
$PUCSXDIR
 10
1.0
 20
0.0
 30
0.0
  9
$PUCSYDIR
 10
0.0
 20
1.0
 30
0.0
  9
$USERI1
 70
               0
  9
$USERI2
 70
               0
  9
$USERI3
 70
               0
  9
$USERI4
 70
               0
  9
$USERI5
 70
               0
  9
$USERR1
 40
0.0
  9
$USERR2
 40
0.0
  9
$USERR3
 40
0.0
  9
$USERR4
 40
0.0
  9
$USERR5
 40
0.0
  9
$WORLDVIEW
 70
               1
  9
$SHADEDGE
 70
               3
  9
$SHADEDIF
 70
              70
  9
$TILEMODE
 70
               1
  9
$MAXACTVP
 70
              16
  9
$PINSBASE
 10
0.0
 20
0.0
 30
0.0
  9
$PLIMCHECK
 70
               0
  9
$PEXTMIN
 10
1.0000000000000000E+20
 20
1.0000000000000000E+20
 30
1.0000000000000000E+20
  9
$PEXTMAX
 10
-1.0000000000000000E+20
 20
-1.0000000000000000E+20
 30
-1.0000000000000000E+20
  9
$PLIMMIN
 10
0.0
 20
0.0
  9
$PLIMMAX
 10
12.0
 20
9.0
  9
$UNITMODE
 70
               0
  9
$VISRETAIN
 70
               0
  9
$PLINEGEN
 70
               1
  9
$PSLTSCALE
 70
               0
  9
$TREEDEPTH
 70
            3020
  9
$DWGCODEPAGE
  3
dos932
  0
ENDSEC
  0
SECTION
  2
TABLES
  0
TABLE
  2
VPORT
 70
               1
  0
VPORT
  2
*ACTIVE
 70
               0
 10
0.0
 20
0.0
 11
1.0
 21
1.0
 12
-101.834946
 22
207.5
 13
0.0
 23
0.0
 14
1.0
 24
1.0
 15
0.0
 25
0.0
 16
0.0
 26
0.0
 36
1.0
 17
0.0
 27
0.0
 37
0.0
 40
419.14999999999998
 41
1.7320508075688772
 42
50.0
 43
0.0
 44
0.0
 50
0.0
 51
0.0
 71
               0
 72
             100
 73
               1
 74
               1
 75
               0
 76
               0
 77
               0
 78
               0
  0
ENDTAB
  0
TABLE
  2
LTYPE
 70
               2
  0
LTYPE
  2
CONTINUOUS
 70
              64
  3
Solid line
 72
              65
 73
               0
 40
0.0
  0
LTYPE
  2
DASHED
 70
              64
  3
Dashed __ __ __ __ __ __ __ __ __ __ __ __ __ _
 72
              65
 73
               2
 40
19.049999999999997
 49
12.699999999999999
 49
-6.3499999999999996
  0
ENDTAB
  0
TABLE
  2
LAYER
 70
               3
  0
LAYER
  2
0
 70
               0
 62
               7
  6
CONTINUOUS
  0
LAYER
  2
DEFPOINTS
 70
               0
 62
               7
  6
CONTINUOUS
  0
LAYER
  2
LY_3
 70
               0
 62
               7
  6
CONTINUOUS
  0
ENDTAB
  0
TABLE
  2
STYLE
 70
               1
  0
STYLE
  2
MX_NOTE_STANDARD
 70
               0
 40
0.0
 41
1.0
 50
0.0
 71
               0
 42
4.1655998229980469
  3
txt.shx
  4
extfont.shx
  0
ENDTAB
  0
TABLE
  2
VIEW
 70
               0
  0
ENDTAB
  0
TABLE
  2
UCS
 70
               0
  0
ENDTAB
  0
TABLE
  2
APPID
 70
               1
  0
APPID
  2
ACAD
 70
               0
  0
ENDTAB
  0
TABLE
  2
DIMSTYLE
 70
               1
  0
DIMSTYLE
  2
MXDIMSTYLE
 70
               0
  3

  4

  5

  6

  7

 40
1.0
 41
2.5
 42
0.5
 43
3.75
 44
1.0
 45
0.0
 46
0.0
 47
0.0
 48
0.0
 71
               0
 72
               0
 73
               0
 74
               0
 75
               0
 76
               0
 77
               1
 78
               8
140
2.5
141
2.5
142
0.0
143
0.03937007874016
144
1.0
145
0.0
146
1.0
147
1.0
170
               0
171
               4
172
               1
173
               0
174
               0
175
               0
176
               0
177
               0
178
               0
  0
ENDTAB
  0
ENDSEC
  0
SECTION
  2
BLOCKS
  0
ENDSEC
  0
SECTION
  2
ENTITIES
  0
LINE
  8
LY_3
  6
DASHED
 62
              50
  5
20
 10
-41.5
 20
290.0
 30
0.0
 11
41.5
 21
290.0
 31
0.0
  0
LINE
  8
LY_3
  6
DASHED
 62
              50
  5
21
 10
-41.5
 20
390.0
 30
0.0
 11
41.5
 21
390.0
 31
0.0
  0
LINE
  8
LY_3
  6
DASHED
 62
              50
  5
22
 10
-41.5
 20
290.0
 30
0.0
 11
-41.5
 21
390.0
 31
0.0
  0
LINE
  8
LY_3
  6
DASHED
 62
              50
  5
23
 10
41.5
 20
290.0
 30
0.0
 11
41.5
 21
390.0
 31
0.0
  0
CIRCLE
  8
LY_3
  6
DASHED
 62
              50
  5
24
 10
32.0
 20
299.0
 30
0.0
 40
4.5
  0
CIRCLE
  8
LY_3
  6
DASHED
 62
              50
  5
25
 10
-32.0
 20
299.0
 30
0.0
 40
4.5
  0
CIRCLE
  8
LY_3
  6
DASHED
 62
              50
  5
26
 10
32.0
 20
381.0
 30
0.0
 40
4.5
  0
CIRCLE
  8
LY_3
  6
DASHED
 62
              50
  5
27
 10
-32.0
 20
381.0
 30
0.0
 40
4.5
  0
LINE
  8
LY_3
  6
CONTINUOUS
 62
               3
  5
28
 10
-92.0
 20
270.0
 30
0.0
 11
-92.0
 21
410.0
 31
0.0
  0
LINE
  8
LY_3
  6
CONTINUOUS
 62
               3
  5
29
 10
-87.0
 20
415.0
 30
0.0
 11
-84.0
 21
415.0
 31
0.0
  0
LINE
  8
LY_3
  6
CONTINUOUS
 62
               3
  5
2A
 10
-87.0
 20
265.0
 30
0.0
 11
-84.0
 21
265.0
 31
0.0
  0
LINE
  8
LY_3
  6
CONTINUOUS
 62
               3
  5
2B
 10
98.0
 20
283.5
 30
0.0
 11
98.0
 21
396.54300000000001
 31
0.0
  0
LINE
  8
LY_3
  6
CONTINUOUS
 62
               3
  5
2C
 10
42.0
 20
401.54300000000001
 30
0.0
 11
93.0
 21
401.54300000000001
 31
0.0
  0
LINE
  8
LY_3
  6
CONTINUOUS
 62
               3
  5
2D
 10
42.0
 20
278.5
 30
0.0
 11
93.0
 21
278.5
 31
0.0
  0
ARC
  8
LY_3
  6
CONTINUOUS
 62
               3
  5
2E
 10
93.0
 20
396.54300000000001
 30
0.0
 40
5.0
 50
0.0
 51
90.0
  0
ARC
  8
LY_3
  6
CONTINUOUS
 62
               3
  5
2F
 10
93.0
 20
283.5
 30
0.0
 40
5.0
 50
270.0
 51
0.0
  0
ARC
  8
LY_3
  6
CONTINUOUS
 62
               3
  5
30
 10
-87.0
 20
410.0
 30
0.0
 40
5.0
 50
90.0
 51
180.0
  0
ARC
  8
LY_3
  6
CONTINUOUS
 62
               3
  5
31
 10
-87.0
 20
270.0
 30
0.0
 40
5.0
 50
180.0
 51
270.0
  0
LINE
  8
LY_3
  6
CONTINUOUS
 62
               3
  5
32
 10
-32.0
 20
265.0
 30
0.0
 11
-32.0
 21
415.0
 31
0.0
  0
LINE
  8
LY_3
  6
CONTINUOUS
 62
               3
  5
33
 10
-34.0
 20
265.0
 30
0.0
 11
-34.0
 21
415.0
 31
0.0
  0
LINE
  8
LY_3
  6
CONTINUOUS
 62
               3
  5
34
 10
-22.0
 20
403.5
 30
0.0
 11
-22.0
 21
276.5
 31
0.0
  0
LINE
  8
LY_3
  6
CONTINUOUS
 62
               3
  5
35
 10
42.0
 20
278.5
 30
0.0
 11
42.0
 21
401.54300000000001
 31
0.0
  0
LINE
  8
LY_3
  6
CONTINUOUS
 62
               3
  5
36
 10
40.0
 20
276.5
 30
0.0
 11
40.0
 21
403.5
 31
0.0
  0
LINE
  8
LY_3
  6
CONTINUOUS
 62
               3
  5
37
 10
-22.0
 20
403.5
 30
0.0
 11
40.0
 21
403.5
 31
0.0
  0
LINE
  8
LY_3
  6
CONTINUOUS
 62
               3
  5
38
 10
-22.0
 20
276.5
 30
0.0
 11
40.0
 21
276.5
 31
0.0
  0
LINE
  8
LY_3
  6
CONTINUOUS
 62
               3
  5
39
 10
-32.0
 20
415.0
 30
0.0
 11
-22.0
 21
403.5
 31
0.0
  0
LINE
  8
LY_3
  6
CONTINUOUS
 62
               3
  5
3A
 10
-22.0
 20
276.5
 30
0.0
 11
-32.0
 21
265.0
 31
0.0
  0
LINE
  8
LY_3
  6
CONTINUOUS
 62
               3
  5
3B
 10
40.0
 20
403.5
 30
0.0
 11
42.0
 21
401.54300000000001
 31
0.0
  0
LINE
  8
LY_3
  6
CONTINUOUS
 62
               3
  5
3C
 10
40.0
 20
276.5
 30
0.0
 11
42.0
 21
278.5
 31
0.0
  0
LINE
  8
LY_3
  6
CONTINUOUS
 62
               3
  5
3D
 10
-84.0
 20
355.0
 30
0.0
 11
-77.0
 21
355.0
 31
0.0
  0
LINE
  8
LY_3
  6
CONTINUOUS
 62
               3
  5
3E
 10
-84.0
 20
325.0
 30
0.0
 11
-77.0
 21
325.0
 31
0.0
  0
LINE
  8
LY_3
  6
CONTINUOUS
 62
               3
  5
3F
 10
-84.0
 20
325.0
 30
0.0
 11
-84.0
 21
355.0
 31
0.0
  0
LINE
  8
LY_3
  6
CONTINUOUS
 62
               3
  5
40
 10
-77.0
 20
325.0
 30
0.0
 11
-77.0
 21
355.0
 31
0.0
  0
LINE
  8
LY_3
  6
CONTINUOUS
 62
               3
  5
41
 10
-74.0
 20
325.0
 30
0.0
 11
-74.0
 21
355.0
 31
0.0
  0
LINE
  8
LY_3
  6
CONTINUOUS
 62
               3
  5
42
 10
-67.0
 20
325.0
 30
0.0
 11
-67.0
 21
355.0
 31
0.0
  0
LINE
  8
LY_3
  6
CONTINUOUS
 62
               3
  5
43
 10
-64.0
 20
325.0
 30
0.0
 11
-64.0
 21
355.0
 31
0.0
  0
LINE
  8
LY_3
  6
CONTINUOUS
 62
               3
  5
44
 10
-57.0
 20
325.0
 30
0.0
 11
-57.0
 21
355.0
 31
0.0
  0
LINE
  8
LY_3
  6
CONTINUOUS
 62
               3
  5
45
 10
-54.0
 20
325.0
 30
0.0
 11
-54.0
 21
355.0
 31
0.0
  0
LINE
  8
LY_3
  6
CONTINUOUS
 62
               3
  5
46
 10
-47.0
 20
325.0
 30
0.0
 11
-47.0
 21
355.0
 31
0.0
  0
LINE
  8
LY_3
  6
CONTINUOUS
 62
               3
  5
47
 10
-74.0
 20
355.0
 30
0.0
 11
-67.0
 21
355.0
 31
0.0
  0
LINE
  8
LY_3
  6
CONTINUOUS
 62
               3
  5
48
 10
-74.0
 20
325.0
 30
0.0
 11
-67.0
 21
325.0
 31
0.0
  0
LINE
  8
LY_3
  6
CONTINUOUS
 62
               3
  5
49
 10
-64.0
 20
325.0
 30
0.0
 11
-57.0
 21
325.0
 31
0.0
  0
LINE
  8
LY_3
  6
CONTINUOUS
 62
               3
  5
4A
 10
-54.0
 20
325.0
 30
0.0
 11
-47.0
 21
325.0
 31
0.0
  0
LINE
  8
LY_3
  6
CONTINUOUS
 62
               3
  5
4B
 10
-64.0
 20
355.0
 30
0.0
 11
-57.0
 21
355.0
 31
0.0
  0
LINE
  8
LY_3
  6
CONTINUOUS
 62
               3
  5
4C
 10
-54.0
 20
355.0
 30
0.0
 11
-47.0
 21
355.0
 31
0.0
  0
LINE
  8
LY_3
  6
CONTINUOUS
 62
               3
  5
4D
 10
-47.0
 20
381.35492299999999
 30
0.0
 11
-47.0
 21
402.56812600000001
 31
0.0
  0
LINE
  8
LY_3
  6
CONTINUOUS
 62
               3
  5
4E
 10
-84.0
 20
381.35492299999999
 30
0.0
 11
-84.0
 21
402.56812600000001
 31
0.0
  0
LINE
  8
LY_3
  6
CONTINUOUS
 62
               3
  5
4F
 10
-84.0
 20
381.35492299999999
 30
0.0
 11
-77.0
 21
381.35492299999999
 31
0.0
  0
LINE
  8
LY_3
  6
CONTINUOUS
 62
               3
  5
50
 10
-84.0
 20
402.56812600000001
 30
0.0
 11
-77.0
 21
402.56812600000001
 31
0.0
  0
LINE
  8
LY_3
  6
CONTINUOUS
 62
               3
  5
51
 10
-77.0
 20
381.35492299999999
 30
0.0
 11
-77.0
 21
402.56812600000001
 31
0.0
  0
LINE
  8
LY_3
  6
CONTINUOUS
 62
               3
  5
52
 10
-74.0
 20
381.35492299999999
 30
0.0
 11
-74.0
 21
402.56812600000001
 31
0.0
  0
LINE
  8
LY_3
  6
CONTINUOUS
 62
               3
  5
53
 10
-67.0
 20
381.35492299999999
 30
0.0
 11
-67.0
 21
402.56812600000001
 31
0.0
  0
LINE
  8
LY_3
  6
CONTINUOUS
 62
               3
  5
54
 10
-64.0
 20
381.35492299999999
 30
0.0
 11
-64.0
 21
402.56812600000001
 31
0.0
  0
LINE
  8
LY_3
  6
CONTINUOUS
 62
               3
  5
55
 10
-57.0
 20
381.35492299999999
 30
0.0
 11
-57.0
 21
402.56812600000001
 31
0.0
  0
LINE
  8
LY_3
  6
CONTINUOUS
 62
               3
  5
56
 10
-54.0
 20
381.35492299999999
 30
0.0
 11
-54.0
 21
402.56812600000001
 31
0.0
  0
LINE
  8
LY_3
  6
CONTINUOUS
 62
               3
  5
57
 10
-54.0
 20
381.35492299999999
 30
0.0
 11
-47.0
 21
381.35492299999999
 31
0.0
  0
LINE
  8
LY_3
  6
CONTINUOUS
 62
               3
  5
58
 10
-54.0
 20
402.56812600000001
 30
0.0
 11
-47.0
 21
402.56812600000001
 31
0.0
  0
LINE
  8
LY_3
  6
CONTINUOUS
 62
               3
  5
59
 10
-64.0
 20
381.35492299999999
 30
0.0
 11
-57.0
 21
381.35492299999999
 31
0.0
  0
LINE
  8
LY_3
  6
CONTINUOUS
 62
               3
  5
5A
 10
-64.0
 20
402.56812600000001
 30
0.0
 11
-57.0
 21
402.56812600000001
 31
0.0
  0
LINE
  8
LY_3
  6
CONTINUOUS
 62
               3
  5
5B
 10
-74.0
 20
381.35492299999999
 30
0.0
 11
-67.0
 21
381.35492299999999
 31
0.0
  0
LINE
  8
LY_3
  6
CONTINUOUS
 62
               3
  5
5C
 10
-74.0
 20
402.56812600000001
 30
0.0
 11
-67.0
 21
402.56812600000001
 31
0.0
  0
LINE
  8
LY_3
  6
CONTINUOUS
 62
               3
  5
5D
 10
-84.0
 20
382.14967999999999
 30
0.0
 11
-77.0
 21
382.14967999999999
 31
0.0
  0
LINE
  8
LY_3
  6
CONTINUOUS
 62
               3
  5
5E
 10
-54.0
 20
382.14967999999999
 30
0.0
 11
-47.0
 21
382.14967999999999
 31
0.0
  0
LINE
  8
LY_3
  6
CONTINUOUS
 62
               3
  5
5F
 10
-64.0
 20
382.14967999999999
 30
0.0
 11
-57.0
 21
382.14967999999999
 31
0.0
  0
LINE
  8
LY_3
  6
CONTINUOUS
 62
               3
  5
60
 10
-74.0
 20
382.14967999999999
 30
0.0
 11
-67.0
 21
382.14967999999999
 31
0.0
  0
LINE
  8
LY_3
  6
CONTINUOUS
 62
               3
  5
61
 10
-84.0
 20
399.60205100000002
 30
0.0
 11
-77.0
 21
399.60205100000002
 31
0.0
  0
LINE
  8
LY_3
  6
CONTINUOUS
 62
               3
  5
62
 10
-54.0
 20
399.60205100000002
 30
0.0
 11
-47.0
 21
399.60205100000002
 31
0.0
  0
LINE
  8
LY_3
  6
CONTINUOUS
 62
               3
  5
63
 10
-64.0
 20
399.60205100000002
 30
0.0
 11
-57.0
 21
399.60205100000002
 31
0.0
  0
LINE
  8
LY_3
  6
CONTINUOUS
 62
               3
  5
64
 10
-74.0
 20
399.60205100000002
 30
0.0
 11
-67.0
 21
399.60205100000002
 31
0.0
  0
LINE
  8
LY_3
  6
CONTINUOUS
 62
               3
  5
65
 10
-74.0
 20
280.39794899999998
 30
0.0
 11
-67.0
 21
280.39794899999998
 31
0.0
  0
LINE
  8
LY_3
  6
CONTINUOUS
 62
               3
  5
66
 10
-64.0
 20
280.39794899999998
 30
0.0
 11
-57.0
 21
280.39794899999998
 31
0.0
  0
LINE
  8
LY_3
  6
CONTINUOUS
 62
               3
  5
67
 10
-54.0
 20
280.39794899999998
 30
0.0
 11
-47.0
 21
280.39794899999998
 31
0.0
  0
LINE
  8
LY_3
  6
CONTINUOUS
 62
               3
  5
68
 10
-84.0
 20
280.39794899999998
 30
0.0
 11
-77.0
 21
280.39794899999998
 31
0.0
  0
LINE
  8
LY_3
  6
CONTINUOUS
 62
               3
  5
69
 10
-74.0
 20
297.85032000000001
 30
0.0
 11
-67.0
 21
297.85032000000001
 31
0.0
  0
LINE
  8
LY_3
  6
CONTINUOUS
 62
               3
  5
6A
 10
-64.0
 20
297.85032000000001
 30
0.0
 11
-57.0
 21
297.85032000000001
 31
0.0
  0
LINE
  8
LY_3
  6
CONTINUOUS
 62
               3
  5
6B
 10
-54.0
 20
297.85032000000001
 30
0.0
 11
-47.0
 21
297.85032000000001
 31
0.0
  0
LINE
  8
LY_3
  6
CONTINUOUS
 62
               3
  5
6C
 10
-84.0
 20
297.85032000000001
 30
0.0
 11
-77.0
 21
297.85032000000001
 31
0.0
  0
LINE
  8
LY_3
  6
CONTINUOUS
 62
               3
  5
6D
 10
-74.0
 20
277.43187399999999
 30
0.0
 11
-67.0
 21
277.43187399999999
 31
0.0
  0
LINE
  8
LY_3
  6
CONTINUOUS
 62
               3
  5
6E
 10
-74.0
 20
298.64507700000001
 30
0.0
 11
-67.0
 21
298.64507700000001
 31
0.0
  0
LINE
  8
LY_3
  6
CONTINUOUS
 62
               3
  5
6F
 10
-64.0
 20
277.43187399999999
 30
0.0
 11
-57.0
 21
277.43187399999999
 31
0.0
  0
LINE
  8
LY_3
  6
CONTINUOUS
 62
               3
  5
70
 10
-64.0
 20
298.64507700000001
 30
0.0
 11
-57.0
 21
298.64507700000001
 31
0.0
  0
LINE
  8
LY_3
  6
CONTINUOUS
 62
               3
  5
71
 10
-54.0
 20
277.43187399999999
 30
0.0
 11
-47.0
 21
277.43187399999999
 31
0.0
  0
LINE
  8
LY_3
  6
CONTINUOUS
 62
               3
  5
72
 10
-54.0
 20
298.64507700000001
 30
0.0
 11
-47.0
 21
298.64507700000001
 31
0.0
  0
LINE
  8
LY_3
  6
CONTINUOUS
 62
               3
  5
73
 10
-54.0
 20
298.64507700000001
 30
0.0
 11
-54.0
 21
277.43187399999999
 31
0.0
  0
LINE
  8
LY_3
  6
CONTINUOUS
 62
               3
  5
74
 10
-57.0
 20
298.64507700000001
 30
0.0
 11
-57.0
 21
277.43187399999999
 31
0.0
  0
LINE
  8
LY_3
  6
CONTINUOUS
 62
               3
  5
75
 10
-64.0
 20
298.64507700000001
 30
0.0
 11
-64.0
 21
277.43187399999999
 31
0.0
  0
LINE
  8
LY_3
  6
CONTINUOUS
 62
               3
  5
76
 10
-67.0
 20
298.64507700000001
 30
0.0
 11
-67.0
 21
277.43187399999999
 31
0.0
  0
LINE
  8
LY_3
  6
CONTINUOUS
 62
               3
  5
77
 10
-74.0
 20
298.64507700000001
 30
0.0
 11
-74.0
 21
277.43187399999999
 31
0.0
  0
LINE
  8
LY_3
  6
CONTINUOUS
 62
               3
  5
78
 10
-77.0
 20
298.64507700000001
 30
0.0
 11
-77.0
 21
277.43187399999999
 31
0.0
  0
LINE
  8
LY_3
  6
CONTINUOUS
 62
               3
  5
79
 10
-84.0
 20
277.43187399999999
 30
0.0
 11
-77.0
 21
277.43187399999999
 31
0.0
  0
LINE
  8
LY_3
  6
CONTINUOUS
 62
               3
  5
7A
 10
-84.0
 20
298.64507700000001
 30
0.0
 11
-77.0
 21
298.64507700000001
 31
0.0
  0
LINE
  8
LY_3
  6
CONTINUOUS
 62
               3
  5
7B
 10
-84.0
 20
298.64507700000001
 30
0.0
 11
-84.0
 21
277.43187399999999
 31
0.0
  0
LINE
  8
LY_3
  6
CONTINUOUS
 62
               3
  5
7C
 10
-47.0
 20
298.64507700000001
 30
0.0
 11
-47.0
 21
277.43187399999999
 31
0.0
  0
LINE
  8
LY_3
  6
CONTINUOUS
 62
               3
  5
7D
 10
-54.0
 20
352.34069
 30
0.0
 11
-47.0
 21
352.34069
 31
0.0
  0
LINE
  8
LY_3
  6
CONTINUOUS
 62
               3
  5
7E
 10
-64.0
 20
352.34069
 30
0.0
 11
-57.0
 21
352.34069
 31
0.0
  0
LINE
  8
LY_3
  6
CONTINUOUS
 62
               3
  5
7F
 10
-74.0
 20
352.34069
 30
0.0
 11
-67.0
 21
352.34069
 31
0.0
  0
LINE
  8
LY_3
  6
CONTINUOUS
 62
               3
  5
80
 10
-84.0
 20
352.34069
 30
0.0
 11
-77.0
 21
352.34069
 31
0.0
  0
LINE
  8
LY_3
  6
CONTINUOUS
 62
               3
  5
81
 10
-54.0
 20
327.65931
 30
0.0
 11
-47.0
 21
327.65931
 31
0.0
  0
LINE
  8
LY_3
  6
CONTINUOUS
 62
               3
  5
82
 10
-64.0
 20
327.65931
 30
0.0
 11
-57.0
 21
327.65931
 31
0.0
  0
LINE
  8
LY_3
  6
CONTINUOUS
 62
               3
  5
83
 10
-74.0
 20
327.65931
 30
0.0
 11
-67.0
 21
327.65931
 31
0.0
  0
LINE
  8
LY_3
  6
CONTINUOUS
 62
               3
  5
84
 10
-84.0
 20
327.65931
 30
0.0
 11
-77.0
 21
327.65931
 31
0.0
  0
LINE
  8
LY_3
  6
CONTINUOUS
 62
               3
  5
85
 10
-84.0
 20
411.44228399999997
 30
0.0
 11
-84.0
 21
415.0
 31
0.0
  0
LINE
  8
LY_3
  6
CONTINUOUS
 62
               3
  5
86
 10
-47.0
 20
411.44228399999997
 30
0.0
 11
-47.0
 21
415.0
 31
0.0
  0
LINE
  8
LY_3
  6
CONTINUOUS
 62
               3
  5
87
 10
-77.0
 20
411.44228399999997
 30
0.0
 11
-77.0
 21
415.0
 31
0.0
  0
LINE
  8
LY_3
  6
CONTINUOUS
 62
               3
  5
88
 10
-74.0
 20
411.44228399999997
 30
0.0
 11
-74.0
 21
415.0
 31
0.0
  0
LINE
  8
LY_3
  6
CONTINUOUS
 62
               3
  5
89
 10
-67.0
 20
411.44228399999997
 30
0.0
 11
-67.0
 21
415.0
 31
0.0
  0
LINE
  8
LY_3
  6
CONTINUOUS
 62
               3
  5
8A
 10
-64.0
 20
411.44228399999997
 30
0.0
 11
-64.0
 21
415.0
 31
0.0
  0
LINE
  8
LY_3
  6
CONTINUOUS
 62
               3
  5
8B
 10
-57.0
 20
411.44228399999997
 30
0.0
 11
-57.0
 21
415.0
 31
0.0
  0
LINE
  8
LY_3
  6
CONTINUOUS
 62
               3
  5
8C
 10
-54.0
 20
411.44228399999997
 30
0.0
 11
-54.0
 21
415.0
 31
0.0
  0
LINE
  8
LY_3
  6
CONTINUOUS
 62
               3
  5
8D
 10
-84.0
 20
411.44228399999997
 30
0.0
 11
-77.0
 21
411.44228399999997
 31
0.0
  0
LINE
  8
LY_3
  6
CONTINUOUS
 62
               3
  5
8E
 10
-74.0
 20
411.44228399999997
 30
0.0
 11
-67.0
 21
411.44228399999997
 31
0.0
  0
LINE
  8
LY_3
  6
CONTINUOUS
 62
               3
  5
8F
 10
-64.0
 20
411.44228399999997
 30
0.0
 11
-57.0
 21
411.44228399999997
 31
0.0
  0
LINE
  8
LY_3
  6
CONTINUOUS
 62
               3
  5
90
 10
-54.0
 20
411.44228399999997
 30
0.0
 11
-47.0
 21
411.44228399999997
 31
0.0
  0
LINE
  8
LY_3
  6
CONTINUOUS
 62
               3
  5
91
 10
-47.0
 20
415.0
 30
0.0
 11
-32.0
 21
415.0
 31
0.0
  0
LINE
  8
LY_3
  6
CONTINUOUS
 62
               3
  5
92
 10
-57.0
 20
415.0
 30
0.0
 11
-54.0
 21
415.0
 31
0.0
  0
LINE
  8
LY_3
  6
CONTINUOUS
 62
               3
  5
93
 10
-67.0
 20
415.0
 30
0.0
 11
-64.0
 21
415.0
 31
0.0
  0
LINE
  8
LY_3
  6
CONTINUOUS
 62
               3
  5
94
 10
-77.0
 20
415.0
 30
0.0
 11
-74.0
 21
415.0
 31
0.0
  0
LINE
  8
LY_3
  6
CONTINUOUS
 62
               3
  5
95
 10
-84.0
 20
268.55771600000003
 30
0.0
 11
-84.0
 21
265.0
 31
0.0
  0
LINE
  8
LY_3
  6
CONTINUOUS
 62
               3
  5
96
 10
-47.0
 20
268.55771600000003
 30
0.0
 11
-47.0
 21
265.0
 31
0.0
  0
LINE
  8
LY_3
  6
CONTINUOUS
 62
               3
  5
97
 10
-77.0
 20
268.55771600000003
 30
0.0
 11
-77.0
 21
265.0
 31
0.0
  0
LINE
  8
LY_3
  6
CONTINUOUS
 62
               3
  5
98
 10
-74.0
 20
268.55771600000003
 30
0.0
 11
-74.0
 21
265.0
 31
0.0
  0
LINE
  8
LY_3
  6
CONTINUOUS
 62
               3
  5
99
 10
-67.0
 20
268.55771600000003
 30
0.0
 11
-67.0
 21
265.0
 31
0.0
  0
LINE
  8
LY_3
  6
CONTINUOUS
 62
               3
  5
9A
 10
-64.0
 20
268.55771600000003
 30
0.0
 11
-64.0
 21
265.0
 31
0.0
  0
LINE
  8
LY_3
  6
CONTINUOUS
 62
               3
  5
9B
 10
-57.0
 20
268.55771600000003
 30
0.0
 11
-57.0
 21
265.0
 31
0.0
  0
LINE
  8
LY_3
  6
CONTINUOUS
 62
               3
  5
9C
 10
-54.0
 20
268.55771600000003
 30
0.0
 11
-54.0
 21
265.0
 31
0.0
  0
LINE
  8
LY_3
  6
CONTINUOUS
 62
               3
  5
9D
 10
-54.0
 20
268.55771600000003
 30
0.0
 11
-47.0
 21
268.55771600000003
 31
0.0
  0
LINE
  8
LY_3
  6
CONTINUOUS
 62
               3
  5
9E
 10
-64.0
 20
268.55771600000003
 30
0.0
 11
-57.0
 21
268.55771600000003
 31
0.0
  0
LINE
  8
LY_3
  6
CONTINUOUS
 62
               3
  5
9F
 10
-74.0
 20
268.55771600000003
 30
0.0
 11
-67.0
 21
268.55771600000003
 31
0.0
  0
LINE
  8
LY_3
  6
CONTINUOUS
 62
               3
  5
A0
 10
-84.0
 20
268.55771600000003
 30
0.0
 11
-77.0
 21
268.55771600000003
 31
0.0
  0
LINE
  8
LY_3
  6
CONTINUOUS
 62
               3
  5
A1
 10
-47.0
 20
265.0
 30
0.0
 11
-32.0
 21
265.0
 31
0.0
  0
LINE
  8
LY_3
  6
CONTINUOUS
 62
               3
  5
A2
 10
-57.0
 20
265.0
 30
0.0
 11
-54.0
 21
265.0
 31
0.0
  0
LINE
  8
LY_3
  6
CONTINUOUS
 62
               3
  5
A3
 10
-67.0
 20
265.0
 30
0.0
 11
-64.0
 21
265.0
 31
0.0
  0
LINE
  8
LY_3
  6
CONTINUOUS
 62
               3
  5
A4
 10
-77.0
 20
265.0
 30
0.0
 11
-74.0
 21
265.0
 31
0.0
  0
CIRCLE
  8
LY_3
  6
DASHED
 62
              80
  5
A5
 10
0.0
 20
14.98846
 30
0.0
 40
2.8799999999999999
  0
ARC
  8
LY_3
  6
DASHED
 62
              80
  5
A6
 10
1.060781
 20
16.049240999999999
 30
0.0
 40
0.6528000000000001
 50
179.99999099999999
 51
270.000001
  0
ARC
  8
LY_3
  6
DASHED
 62
              80
  5
A7
 10
1.060781
 20
13.927678999999999
 30
0.0
 40
0.6528000000000001
 50
90.000003000000007
 51
180.00000499999999
  0
LINE
  8
LY_3
  6
DASHED
 62
              80
  5
A8
 10
1.060781
 20
14.580451999999999
 30
0.0
 11
1.6319920000000001
 21
14.580451999999999
 31
0.0
  0
LINE
  8
LY_3
  6
DASHED
 62
              80
  5
A9
 10
1.060781
 20
15.396468
 30
0.0
 11
1.6319920000000001
 21
15.396468
 31
0.0
  0
LINE
  8
LY_3
  6
DASHED
 62
              80
  5
AA
 10
1.6319920000000001
 20
15.396468
 30
0.0
 11
1.6319920000000001
 21
14.580451999999999
 31
0.0
  0
ARC
  8
LY_3
  6
DASHED
 62
              80
  5
AB
 10
-1.060781
 20
13.927678999999999
 30
0.0
 40
0.6528000000000001
 50
0.0
 51
90.000003000000007
  0
ARC
  8
LY_3
  6
DASHED
 62
              80
  5
AC
 10
-1.060781
 20
16.049240999999999
 30
0.0
 40
0.6528000000000001
 50
269.99999700000001
 51
0.0
  0
LINE
  8
LY_3
  6
DASHED
 62
              80
  5
AD
 10
-0.408008
 20
13.927678999999999
 30
0.0
 11
-0.408008
 21
13.356468
 31
0.0
  0
LINE
  8
LY_3
  6
DASHED
 62
              80
  5
AE
 10
-1.6319920000000001
 20
14.580451999999999
 30
0.0
 11
-1.060781
 21
14.580451999999999
 31
0.0
  0
LINE
  8
LY_3
  6
DASHED
 62
              80
  5
AF
 10
0.408008
 20
13.927678999999999
 30
0.0
 11
0.408008
 21
13.356468
 31
0.0
  0
LINE
  8
LY_3
  6
DASHED
 62
              80
  5
B0
 10
-0.408008
 20
13.356468
 30
0.0
 11
0.408008
 21
13.356468
 31
0.0
  0
LINE
  8
LY_3
  6
DASHED
 62
              80
  5
B1
 10
0.408008
 20
16.620452
 30
0.0
 11
0.408008
 21
16.049240999999999
 31
0.0
  0
LINE
  8
LY_3
  6
DASHED
 62
              80
  5
B2
 10
-1.6319920000000001
 20
15.396468
 30
0.0
 11
-1.060781
 21
15.396468
 31
0.0
  0
LINE
  8
LY_3
  6
DASHED
 62
              80
  5
B3
 10
-0.408008
 20
16.620452
 30
0.0
 11
-0.408008
 21
16.049240999999999
 31
0.0
  0
LINE
  8
LY_3
  6
DASHED
 62
              80
  5
B4
 10
-0.408008
 20
16.620452
 30
0.0
 11
0.408008
 21
16.620452
 31
0.0
  0
LINE
  8
LY_3
  6
DASHED
 62
              80
  5
B5
 10
-1.6319920000000001
 20
15.396468
 30
0.0
 11
-1.6319920000000001
 21
14.580451999999999
 31
0.0
  0
POLYLINE
  8
LY_3
  6
CONTINUOUS
 62
               3
  5
B6
 66
               1
 10
0.0
 20
0.0
 30
0.0
  0
VERTEX
  8
LY_3
  6
CONTINUOUS
 62
               3
  5
17C
 10
55.532828000000002
 20
25.008011
 30
0.0
  0
VERTEX
  8
LY_3
  6
CONTINUOUS
 62
               3
  5
17D
 10
55.136648999999998
 20
24.741419
 30
0.0
  0
VERTEX
  8
LY_3
  6
CONTINUOUS
 62
               3
  5
17E
 10
54.719231000000001
 20
24.441412
 30
0.0
  0
VERTEX
  8
LY_3
  6
CONTINUOUS
 62
               3
  5
17F
 10
54.288741000000002
 20
24.112245000000001
 30
0.0
  0
VERTEX
  8
LY_3
  6
CONTINUOUS
 62
               3
  5
180
 10
53.853346000000002
 20
23.758175000000001
 30
0.0
  0
VERTEX
  8
LY_3
  6
CONTINUOUS
 62
               3
  5
181
 10
53.421214999999997
 20
23.383457
 30
0.0
  0
VERTEX
  8
LY_3
  6
CONTINUOUS
 62
               3
  5
182
 10
53.000512999999998
 20
22.992346999999999
 30
0.0
  0
VERTEX
  8
LY_3
  6
CONTINUOUS
 62
               3
  5
183
 10
52.599409999999999
 20
22.589102
 30
0.0
  0
VERTEX
  8
LY_3
  6
CONTINUOUS
 62
               3
  5
184
 10
52.226073
 20
22.177976999999998
 30
0.0
  0
VERTEX
  8
LY_3
  6
CONTINUOUS
 62
               3
  5
185
 10
51.888669
 20
21.763228000000002
 30
0.0
  0
VERTEX
  8
LY_3
  6
CONTINUOUS
 62
               3
  5
186
 10
51.595365000000001
 20
21.34911
 30
0.0
  0
VERTEX
  8
LY_3
  6
CONTINUOUS
 62
               3
  5
187
 10
51.354329
 20
20.939881
 30
0.0
  0
VERTEX
  8
LY_3
  6
CONTINUOUS
 62
               3
  5
188
 10
51.173729999999999
 20
20.539795000000002
 30
0.0
  0
VERTEX
  8
LY_3
  6
CONTINUOUS
 62
               3
  5
189
 10
51.061732999999997
 20
20.153108
 30
0.0
  0
VERTEX
  8
LY_3
  6
CONTINUOUS
 62
               3
  5
18A
 10
51.026507000000002
 20
19.784077
 30
0.0
  0
VERTEX
  8
LY_3
  6
CONTINUOUS
 62
               3
  5
18B
 10
51.076219000000002
 20
19.436957
 30
0.0
  0
VERTEX
  8
LY_3
  6
CONTINUOUS
 62
               3
  5
18C
 10
51.219037
 20
19.116004
 30
0.0
  0
VERTEX
  8
LY_3
  6
CONTINUOUS
 62
               3
  5
18D
 10
51.356748000000003
 20
18.931667000000001
 30
0.0
  0
VERTEX
  8
LY_3
  6
CONTINUOUS
 62
               3
  5
18E
 10
51.528663999999999
 20
18.75742
 30
0.0
  0
VERTEX
  8
LY_3
  6
CONTINUOUS
 62
               3
  5
18F
 10
51.730099000000003
 20
18.591673
 30
0.0
  0
VERTEX
  8
LY_3
  6
CONTINUOUS
 62
               3
  5
190
 10
51.956361999999999
 20
18.432831
 30
0.0
  0
VERTEX
  8
LY_3
  6
CONTINUOUS
 62
               3
  5
191
 10
52.202764999999999
 20
18.279302999999999
 30
0.0
  0
VERTEX
  8
LY_3
  6
CONTINUOUS
 62
               3
  5
192
 10
52.464621000000001
 20
18.129494999999999
 30
0.0
  0
VERTEX
  8
LY_3
  6
CONTINUOUS
 62
               3
  5
193
 10
52.737239000000002
 20
17.981815000000001
 30
0.0
  0
VERTEX
  8
LY_3
  6
CONTINUOUS
 62
               3
  5
194
 10
53.015932999999997
 20
17.834669999999999
 30
0.0
  0
VERTEX
  8
LY_3
  6
CONTINUOUS
 62
               3
  5
195
 10
53.296011999999997
 20
17.686467
 30
0.0
  0
VERTEX
  8
LY_3
  6
CONTINUOUS
 62
               3
  5
196
 10
53.572789
 20
17.535613999999999
 30
0.0
  0
VERTEX
  8
LY_3
  6
CONTINUOUS
 62
               3
  5
197
 10
53.841574999999999
 20
17.380517999999999
 30
0.0
  0
VERTEX
  8
LY_3
  6
CONTINUOUS
 62
               3
  5
198
 10
54.097681999999999
 20
17.219586
 30
0.0
  0
VERTEX
  8
LY_3
  6
CONTINUOUS
 62
               3
  5
199
 10
54.336419999999997
 20
17.051224999999999
 30
0.0
  0
VERTEX
  8
LY_3
  6
CONTINUOUS
 62
               3
  5
19A
 10
54.553102000000003
 20
16.873843000000001
 30
0.0
  0
VERTEX
  8
LY_3
  6
CONTINUOUS
 62
               3
  5
19B
 10
54.743039000000003
 20
16.685846999999999
 30
0.0
  0
VERTEX
  8
LY_3
  6
CONTINUOUS
 62
               3
  5
19C
 10
54.901541000000002
 20
16.485644000000001
 30
0.0
  0
VERTEX
  8
LY_3
  6
CONTINUOUS
 62
               3
  5
19D
 10
55.071776
 20
16.165565999999998
 30
0.0
  0
VERTEX
  8
LY_3
  6
CONTINUOUS
 62
               3
  5
19E
 10
55.169018999999999
 20
15.819228000000001
 30
0.0
  0
VERTEX
  8
LY_3
  6
CONTINUOUS
 62
               3
  5
19F
 10
55.199162999999999
 20
15.450505
 30
0.0
  0
VERTEX
  8
LY_3
  6
CONTINUOUS
 62
               3
  5
1A0
 10
55.168100000000003
 20
15.063271
 30
0.0
  0
VERTEX
  8
LY_3
  6
CONTINUOUS
 62
               3
  5
1A1
 10
55.081721999999999
 20
14.661403
 30
0.0
  0
VERTEX
  8
LY_3
  6
CONTINUOUS
 62
               3
  5
1A2
 10
54.945922000000003
 20
14.248775
 30
0.0
  0
VERTEX
  8
LY_3
  6
CONTINUOUS
 62
               3
  5
1A3
 10
54.766592000000003
 20
13.829262
 30
0.0
  0
VERTEX
  8
LY_3
  6
CONTINUOUS
 62
               3
  5
1A4
 10
54.549622999999997
 20
13.406739
 30
0.0
  0
VERTEX
  8
LY_3
  6
CONTINUOUS
 62
               3
  5
1A5
 10
54.300908999999997
 20
12.985080999999999
 30
0.0
  0
VERTEX
  8
LY_3
  6
CONTINUOUS
 62
               3
  5
1A6
 10
54.026341000000002
 20
12.568163999999999
 30
0.0
  0
VERTEX
  8
LY_3
  6
CONTINUOUS
 62
               3
  5
1A7
 10
53.731811
 20
12.159862
 30
0.0
  0
VERTEX
  8
LY_3
  6
CONTINUOUS
 62
               3
  5
1A8
 10
53.423211999999999
 20
11.764049999999999
 30
0.0
  0
VERTEX
  8
LY_3
  6
CONTINUOUS
 62
               3
  5
1A9
 10
53.106436000000002
 20
11.384604
 30
0.0
  0
VERTEX
  8
LY_3
  6
CONTINUOUS
 62
               3
  5
1AA
 10
52.787374999999997
 20
11.025399
 30
0.0
  0
VERTEX
  8
LY_3
  6
CONTINUOUS
 62
               3
  5
1AB
 10
52.471921000000002
 20
10.690308
 30
0.0
  0
VERTEX
  8
LY_3
  6
CONTINUOUS
 62
               3
  5
1AC
 10
52.165967000000002
 20
10.383209000000001
 30
0.0
  0
SEQEND
  8
LY_3
  6
CONTINUOUS
 62
               3
  5
1AD
  0
LINE
  8
LY_3
  6
CONTINUOUS
 62
               3
  5
B7
 10
19.339970000000001
 20
15.287611
 30
0.0
 11
55.193072999999998
 21
15.287611
 31
0.0
  0
LINE
  8
LY_3
  6
CONTINUOUS
 62
               3
  5
B8
 10
18.591014999999999
 20
21.287610999999998
 30
0.0
 11
51.555867999999997
 21
21.287610999999998
 31
0.0
  0
CIRCLE
  8
LY_3
  6
CONTINUOUS
 62
               3
  5
B9
 10
-226.669892
 20
90.0
 30
0.0
 40
41.5
  0
ARC
  8
LY_3
  6
CONTINUOUS
 62
               3
  5
BA
 10
-326.66639400000003
 20
33.333703999999997
 30
0.0
 40
70.0
 50
340.528458
 51
350.42782599999998
  0
ARC
  8
LY_3
  6
CONTINUOUS
 62
               3
  5
BB
 10
-126.67339
 20
33.333703999999997
 30
0.0
 40
70.0
 50
189.57217399999999
 51
199.471542
  0
LINE
  8
LY_3
  6
CONTINUOUS
 62
               3
  5
BC
 10
17.940373999999998
 20
26.5
 30
0.0
 11
40.0
 21
26.5
 31
0.0
  0
LINE
  8
LY_3
  6
CONTINUOUS
 62
               3
  5
BD
 10
17.0
 20
34.033492000000003
 30
0.0
 11
20.0
 21
10.0
 31
0.0
  0
LINE
  8
LY_3
  6
CONTINUOUS
 62
               3
  5
BE
 10
-17.0
 20
34.033492000000003
 30
0.0
 11
-20.0
 21
10.0
 31
0.0
  0
LINE
  8
LY_3
  6
CONTINUOUS
 62
               3
  5
BF
 10
-17.0
 20
34.033492000000003
 30
0.0
 11
17.0
 21
34.033492000000003
 31
0.0
  0
LINE
  8
LY_3
  6
DASHED
 62
              80
  5
C0
 10
36.5
 20
0.0
 30
0.0
 11
36.5
 21
10.0
 31
0.0
  0
LINE
  8
LY_3
  6
DASHED
 62
              80
  5
C1
 10
27.5
 20
0.0
 30
0.0
 11
27.5
 21
10.0
 31
0.0
  0
LINE
  8
LY_3
  6
DASHED
 62
              80
  5
C2
 10
-27.5
 20
0.0
 30
0.0
 11
-27.5
 21
10.0
 31
0.0
  0
LINE
  8
LY_3
  6
DASHED
 62
              80
  5
C3
 10
-36.5
 20
0.0
 30
0.0
 11
-36.5
 21
10.0
 31
0.0
  0
LINE
  8
LY_3
  6
CONTINUOUS
 62
               3
  5
C4
 10
38.5
 20
10.0
 30
0.0
 11
41.5
 21
0.0
 31
0.0
  0
LINE
  8
LY_3
  6
CONTINUOUS
 62
               3
  5
C5
 10
-195.669892
 20
10.0
 30
0.0
 11
-198.669892
 21
0.0
 31
0.0
  0
LINE
  8
LY_3
  6
CONTINUOUS
 62
               3
  5
C6
 10
-38.5
 20
10.0
 30
0.0
 11
38.5
 21
10.0
 31
0.0
  0
LINE
  8
LY_3
  6
CONTINUOUS
 62
               3
  5
C7
 10
-41.5
 20
0.0
 30
0.0
 11
41.5
 21
0.0
 31
0.0
  0
LINE
  8
LY_3
  6
DASHED
 62
              80
  5
C8
 10
-272.169892
 20
0.0
 30
0.0
 11
-272.169892
 21
10.0
 31
0.0
  0
LINE
  8
LY_3
  6
DASHED
 62
              80
  5
C9
 10
-263.169892
 20
0.0
 30
0.0
 11
-263.169892
 21
10.0
 31
0.0
  0
LINE
  8
LY_3
  6
DASHED
 62
              80
  5
CA
 10
-181.169892
 20
0.0
 30
0.0
 11
-181.169892
 21
10.0
 31
0.0
  0
LINE
  8
LY_3
  6
DASHED
 62
              80
  5
CB
 10
-190.169892
 20
0.0
 30
0.0
 11
-190.169892
 21
10.0
 31
0.0
  0
LINE
  8
LY_3
  6
CONTINUOUS
 62
               3
  5
CC
 10
-206.669892
 20
0.0
 30
0.0
 11
-176.669892
 21
0.0
 31
0.0
  0
ARC
  8
LY_3
  6
CONTINUOUS
 62
               3
  5
CD
 10
-209.669892
 20
1.0
 30
0.0
 40
3.0
 50
0.0
 51
90.0
  0
ARC
  8
LY_3
  6
CONTINUOUS
 62
               3
  5
CE
 10
-243.669892
 20
1.0
 30
0.0
 40
3.0
 50
90.0
 51
180.0
  0
LINE
  8
LY_3
  6
CONTINUOUS
 62
               3
  5
CF
 10
-195.669892
 20
10.0
 30
0.0
 11
-179.669892
 21
10.0
 31
0.0
  0
LINE
  8
LY_3
  6
CONTINUOUS
 62
               3
  5
D0
 10
-243.669892
 20
4.0
 30
0.0
 11
-209.669892
 21
4.0
 31
0.0
  0
LINE
  8
LY_3
  6
CONTINUOUS
 62
               3
  5
D1
 10
-206.669892
 20
0.0
 30
0.0
 11
-206.669892
 21
1.0
 31
0.0
  0
LINE
  8
LY_3
  6
CONTINUOUS
 62
               3
  5
D2
 10
-246.669892
 20
0.0
 30
0.0
 11
-246.669892
 21
1.0
 31
0.0
  0
LINE
  8
LY_3
  6
CONTINUOUS
 62
               3
  5
D3
 10
-257.669892
 20
10.0
 30
0.0
 11
-254.669892
 21
0.0
 31
0.0
  0
LINE
  8
LY_3
  6
CONTINUOUS
 62
               3
  5
D4
 10
-38.5
 20
10.0
 30
0.0
 11
-41.5
 21
0.0
 31
0.0
  0
LINE
  8
LY_3
  6
CONTINUOUS
 62
               3
  5
D5
 10
-273.669892
 20
10.0
 30
0.0
 11
-276.669892
 21
0.0
 31
0.0
  0
LINE
  8
LY_3
  6
CONTINUOUS
 62
               3
  5
D6
 10
-179.669892
 20
10.0
 30
0.0
 11
-176.669892
 21
0.0
 31
0.0
  0
LINE
  8
LY_3
  6
CONTINUOUS
 62
               3
  5
D7
 10
-273.669892
 20
10.0
 30
0.0
 11
-257.669892
 21
10.0
 31
0.0
  0
LINE
  8
LY_3
  6
CONTINUOUS
 62
               3
  5
D8
 10
-276.669892
 20
0.0
 30
0.0
 11
-246.669892
 21
0.0
 31
0.0
  0
LINE
  8
LY_3
  6
CONTINUOUS
 62
               3
  5
D9
 10
-77.0
 20
15.0
 30
0.0
 11
-74.0
 21
15.0
 31
0.0
  0
LINE
  8
LY_3
  6
CONTINUOUS
 62
               3
  5
DA
 10
-67.0
 20
15.0
 30
0.0
 11
-64.0
 21
15.0
 31
0.0
  0
LINE
  8
LY_3
  6
CONTINUOUS
 62
               3
  5
DB
 10
-57.0
 20
15.0
 30
0.0
 11
-54.0
 21
15.0
 31
0.0
  0
LINE
  8
LY_3
  6
CONTINUOUS
 62
               3
  5
DC
 10
-47.0
 20
15.0
 30
0.0
 11
-32.0
 21
15.0
 31
0.0
  0
LINE
  8
LY_3
  6
CONTINUOUS
 62
               3
  5
DD
 10
-84.0
 20
18.557715999999999
 30
0.0
 11
-77.0
 21
18.557715999999999
 31
0.0
  0
LINE
  8
LY_3
  6
CONTINUOUS
 62
               3
  5
DE
 10
-74.0
 20
18.557715999999999
 30
0.0
 11
-67.0
 21
18.557715999999999
 31
0.0
  0
LINE
  8
LY_3
  6
CONTINUOUS
 62
               3
  5
DF
 10
-64.0
 20
18.557715999999999
 30
0.0
 11
-57.0
 21
18.557715999999999
 31
0.0
  0
LINE
  8
LY_3
  6
CONTINUOUS
 62
               3
  5
E0
 10
-54.0
 20
18.557715999999999
 30
0.0
 11
-47.0
 21
18.557715999999999
 31
0.0
  0
LINE
  8
LY_3
  6
CONTINUOUS
 62
               3
  5
E1
 10
-54.0
 20
18.557715999999999
 30
0.0
 11
-54.0
 21
15.0
 31
0.0
  0
LINE
  8
LY_3
  6
CONTINUOUS
 62
               3
  5
E2
 10
-57.0
 20
18.557715999999999
 30
0.0
 11
-57.0
 21
15.0
 31
0.0
  0
LINE
  8
LY_3
  6
CONTINUOUS
 62
               3
  5
E3
 10
-64.0
 20
18.557715999999999
 30
0.0
 11
-64.0
 21
15.0
 31
0.0
  0
LINE
  8
LY_3
  6
CONTINUOUS
 62
               3
  5
E4
 10
-67.0
 20
18.557715999999999
 30
0.0
 11
-67.0
 21
15.0
 31
0.0
  0
LINE
  8
LY_3
  6
CONTINUOUS
 62
               3
  5
E5
 10
-74.0
 20
18.557715999999999
 30
0.0
 11
-74.0
 21
15.0
 31
0.0
  0
LINE
  8
LY_3
  6
CONTINUOUS
 62
               3
  5
E6
 10
-77.0
 20
18.557715999999999
 30
0.0
 11
-77.0
 21
15.0
 31
0.0
  0
LINE
  8
LY_3
  6
CONTINUOUS
 62
               3
  5
E7
 10
-47.0
 20
18.557715999999999
 30
0.0
 11
-47.0
 21
15.0
 31
0.0
  0
LINE
  8
LY_3
  6
CONTINUOUS
 62
               3
  5
E8
 10
-84.0
 20
18.557715999999999
 30
0.0
 11
-84.0
 21
15.0
 31
0.0
  0
LINE
  8
LY_3
  6
CONTINUOUS
 62
               3
  5
E9
 10
-77.0
 20
165.0
 30
0.0
 11
-74.0
 21
165.0
 31
0.0
  0
LINE
  8
LY_3
  6
CONTINUOUS
 62
               3
  5
EA
 10
-67.0
 20
165.0
 30
0.0
 11
-64.0
 21
165.0
 31
0.0
  0
LINE
  8
LY_3
  6
CONTINUOUS
 62
               3
  5
EB
 10
-57.0
 20
165.0
 30
0.0
 11
-54.0
 21
165.0
 31
0.0
  0
LINE
  8
LY_3
  6
CONTINUOUS
 62
               3
  5
EC
 10
-47.0
 20
165.0
 30
0.0
 11
-32.0
 21
165.0
 31
0.0
  0
LINE
  8
LY_3
  6
CONTINUOUS
 62
               3
  5
ED
 10
-54.0
 20
161.442284
 30
0.0
 11
-47.0
 21
161.442284
 31
0.0
  0
LINE
  8
LY_3
  6
CONTINUOUS
 62
               3
  5
EE
 10
-64.0
 20
161.442284
 30
0.0
 11
-57.0
 21
161.442284
 31
0.0
  0
LINE
  8
LY_3
  6
CONTINUOUS
 62
               3
  5
EF
 10
-74.0
 20
161.442284
 30
0.0
 11
-67.0
 21
161.442284
 31
0.0
  0
LINE
  8
LY_3
  6
CONTINUOUS
 62
               3
  5
F0
 10
-84.0
 20
161.442284
 30
0.0
 11
-77.0
 21
161.442284
 31
0.0
  0
LINE
  8
LY_3
  6
CONTINUOUS
 62
               3
  5
F1
 10
-54.0
 20
161.442284
 30
0.0
 11
-54.0
 21
165.0
 31
0.0
  0
LINE
  8
LY_3
  6
CONTINUOUS
 62
               3
  5
F2
 10
-57.0
 20
161.442284
 30
0.0
 11
-57.0
 21
165.0
 31
0.0
  0
LINE
  8
LY_3
  6
CONTINUOUS
 62
               3
  5
F3
 10
-64.0
 20
161.442284
 30
0.0
 11
-64.0
 21
165.0
 31
0.0
  0
LINE
  8
LY_3
  6
CONTINUOUS
 62
               3
  5
F4
 10
-67.0
 20
161.442284
 30
0.0
 11
-67.0
 21
165.0
 31
0.0
  0
LINE
  8
LY_3
  6
CONTINUOUS
 62
               3
  5
F5
 10
-74.0
 20
161.442284
 30
0.0
 11
-74.0
 21
165.0
 31
0.0
  0
LINE
  8
LY_3
  6
CONTINUOUS
 62
               3
  5
F6
 10
-77.0
 20
161.442284
 30
0.0
 11
-77.0
 21
165.0
 31
0.0
  0
LINE
  8
LY_3
  6
CONTINUOUS
 62
               3
  5
F7
 10
-47.0
 20
161.442284
 30
0.0
 11
-47.0
 21
165.0
 31
0.0
  0
LINE
  8
LY_3
  6
CONTINUOUS
 62
               3
  5
F8
 10
-84.0
 20
161.442284
 30
0.0
 11
-84.0
 21
165.0
 31
0.0
  0
LINE
  8
LY_3
  6
CONTINUOUS
 62
               3
  5
F9
 10
-84.0
 20
77.659310000000005
 30
0.0
 11
-77.0
 21
77.659310000000005
 31
0.0
  0
LINE
  8
LY_3
  6
CONTINUOUS
 62
               3
  5
FA
 10
-74.0
 20
77.659310000000005
 30
0.0
 11
-67.0
 21
77.659310000000005
 31
0.0
  0
LINE
  8
LY_3
  6
CONTINUOUS
 62
               3
  5
FB
 10
-64.0
 20
77.659310000000005
 30
0.0
 11
-57.0
 21
77.659310000000005
 31
0.0
  0
LINE
  8
LY_3
  6
CONTINUOUS
 62
               3
  5
FC
 10
-54.0
 20
77.659310000000005
 30
0.0
 11
-47.0
 21
77.659310000000005
 31
0.0
  0
LINE
  8
LY_3
  6
CONTINUOUS
 62
               3
  5
FD
 10
-84.0
 20
102.34069
 30
0.0
 11
-77.0
 21
102.34069
 31
0.0
  0
LINE
  8
LY_3
  6
CONTINUOUS
 62
               3
  5
FE
 10
-74.0
 20
102.34069
 30
0.0
 11
-67.0
 21
102.34069
 31
0.0
  0
LINE
  8
LY_3
  6
CONTINUOUS
 62
               3
  5
FF
 10
-64.0
 20
102.34069
 30
0.0
 11
-57.0
 21
102.34069
 31
0.0
  0
LINE
  8
LY_3
  6
CONTINUOUS
 62
               3
  5
100
 10
-54.0
 20
102.34069
 30
0.0
 11
-47.0
 21
102.34069
 31
0.0
  0
LINE
  8
LY_3
  6
CONTINUOUS
 62
               3
  5
101
 10
-47.0
 20
48.645077000000001
 30
0.0
 11
-47.0
 21
27.431874000000001
 31
0.0
  0
LINE
  8
LY_3
  6
CONTINUOUS
 62
               3
  5
102
 10
-84.0
 20
48.645077000000001
 30
0.0
 11
-84.0
 21
27.431874000000001
 31
0.0
  0
LINE
  8
LY_3
  6
CONTINUOUS
 62
               3
  5
103
 10
-84.0
 20
48.645077000000001
 30
0.0
 11
-77.0
 21
48.645077000000001
 31
0.0
  0
LINE
  8
LY_3
  6
CONTINUOUS
 62
               3
  5
104
 10
-84.0
 20
27.431874000000001
 30
0.0
 11
-77.0
 21
27.431874000000001
 31
0.0
  0
LINE
  8
LY_3
  6
CONTINUOUS
 62
               3
  5
105
 10
-77.0
 20
48.645077000000001
 30
0.0
 11
-77.0
 21
27.431874000000001
 31
0.0
  0
LINE
  8
LY_3
  6
CONTINUOUS
 62
               3
  5
106
 10
-74.0
 20
48.645077000000001
 30
0.0
 11
-74.0
 21
27.431874000000001
 31
0.0
  0
LINE
  8
LY_3
  6
CONTINUOUS
 62
               3
  5
107
 10
-67.0
 20
48.645077000000001
 30
0.0
 11
-67.0
 21
27.431874000000001
 31
0.0
  0
LINE
  8
LY_3
  6
CONTINUOUS
 62
               3
  5
108
 10
-64.0
 20
48.645077000000001
 30
0.0
 11
-64.0
 21
27.431874000000001
 31
0.0
  0
LINE
  8
LY_3
  6
CONTINUOUS
 62
               3
  5
109
 10
-57.0
 20
48.645077000000001
 30
0.0
 11
-57.0
 21
27.431874000000001
 31
0.0
  0
LINE
  8
LY_3
  6
CONTINUOUS
 62
               3
  5
10A
 10
-54.0
 20
48.645077000000001
 30
0.0
 11
-54.0
 21
27.431874000000001
 31
0.0
  0
LINE
  8
LY_3
  6
CONTINUOUS
 62
               3
  5
10B
 10
-54.0
 20
48.645077000000001
 30
0.0
 11
-47.0
 21
48.645077000000001
 31
0.0
  0
LINE
  8
LY_3
  6
CONTINUOUS
 62
               3
  5
10C
 10
-54.0
 20
27.431874000000001
 30
0.0
 11
-47.0
 21
27.431874000000001
 31
0.0
  0
LINE
  8
LY_3
  6
CONTINUOUS
 62
               3
  5
10D
 10
-64.0
 20
48.645077000000001
 30
0.0
 11
-57.0
 21
48.645077000000001
 31
0.0
  0
LINE
  8
LY_3
  6
CONTINUOUS
 62
               3
  5
10E
 10
-64.0
 20
27.431874000000001
 30
0.0
 11
-57.0
 21
27.431874000000001
 31
0.0
  0
LINE
  8
LY_3
  6
CONTINUOUS
 62
               3
  5
10F
 10
-74.0
 20
48.645077000000001
 30
0.0
 11
-67.0
 21
48.645077000000001
 31
0.0
  0
LINE
  8
LY_3
  6
CONTINUOUS
 62
               3
  5
110
 10
-74.0
 20
27.431874000000001
 30
0.0
 11
-67.0
 21
27.431874000000001
 31
0.0
  0
LINE
  8
LY_3
  6
CONTINUOUS
 62
               3
  5
111
 10
-84.0
 20
47.850320000000004
 30
0.0
 11
-77.0
 21
47.850320000000004
 31
0.0
  0
LINE
  8
LY_3
  6
CONTINUOUS
 62
               3
  5
112
 10
-54.0
 20
47.850320000000004
 30
0.0
 11
-47.0
 21
47.850320000000004
 31
0.0
  0
LINE
  8
LY_3
  6
CONTINUOUS
 62
               3
  5
113
 10
-64.0
 20
47.850320000000004
 30
0.0
 11
-57.0
 21
47.850320000000004
 31
0.0
  0
LINE
  8
LY_3
  6
CONTINUOUS
 62
               3
  5
114
 10
-74.0
 20
47.850320000000004
 30
0.0
 11
-67.0
 21
47.850320000000004
 31
0.0
  0
LINE
  8
LY_3
  6
CONTINUOUS
 62
               3
  5
115
 10
-84.0
 20
30.397949000000001
 30
0.0
 11
-77.0
 21
30.397949000000001
 31
0.0
  0
LINE
  8
LY_3
  6
CONTINUOUS
 62
               3
  5
116
 10
-54.0
 20
30.397949000000001
 30
0.0
 11
-47.0
 21
30.397949000000001
 31
0.0
  0
LINE
  8
LY_3
  6
CONTINUOUS
 62
               3
  5
117
 10
-64.0
 20
30.397949000000001
 30
0.0
 11
-57.0
 21
30.397949000000001
 31
0.0
  0
LINE
  8
LY_3
  6
CONTINUOUS
 62
               3
  5
118
 10
-74.0
 20
30.397949000000001
 30
0.0
 11
-67.0
 21
30.397949000000001
 31
0.0
  0
LINE
  8
LY_3
  6
CONTINUOUS
 62
               3
  5
119
 10
-74.0
 20
149.60205099999999
 30
0.0
 11
-67.0
 21
149.60205099999999
 31
0.0
  0
LINE
  8
LY_3
  6
CONTINUOUS
 62
               3
  5
11A
 10
-64.0
 20
149.60205099999999
 30
0.0
 11
-57.0
 21
149.60205099999999
 31
0.0
  0
LINE
  8
LY_3
  6
CONTINUOUS
 62
               3
  5
11B
 10
-54.0
 20
149.60205099999999
 30
0.0
 11
-47.0
 21
149.60205099999999
 31
0.0
  0
LINE
  8
LY_3
  6
CONTINUOUS
 62
               3
  5
11C
 10
-84.0
 20
149.60205099999999
 30
0.0
 11
-77.0
 21
149.60205099999999
 31
0.0
  0
LINE
  8
LY_3
  6
CONTINUOUS
 62
               3
  5
11D
 10
-74.0
 20
132.14967999999999
 30
0.0
 11
-67.0
 21
132.14967999999999
 31
0.0
  0
LINE
  8
LY_3
  6
CONTINUOUS
 62
               3
  5
11E
 10
-64.0
 20
132.14967999999999
 30
0.0
 11
-57.0
 21
132.14967999999999
 31
0.0
  0
LINE
  8
LY_3
  6
CONTINUOUS
 62
               3
  5
11F
 10
-54.0
 20
132.14967999999999
 30
0.0
 11
-47.0
 21
132.14967999999999
 31
0.0
  0
LINE
  8
LY_3
  6
CONTINUOUS
 62
               3
  5
120
 10
-84.0
 20
132.14967999999999
 30
0.0
 11
-77.0
 21
132.14967999999999
 31
0.0
  0
LINE
  8
LY_3
  6
CONTINUOUS
 62
               3
  5
121
 10
-74.0
 20
152.56812600000001
 30
0.0
 11
-67.0
 21
152.56812600000001
 31
0.0
  0
LINE
  8
LY_3
  6
CONTINUOUS
 62
               3
  5
122
 10
-74.0
 20
131.35492300000001
 30
0.0
 11
-67.0
 21
131.35492300000001
 31
0.0
  0
LINE
  8
LY_3
  6
CONTINUOUS
 62
               3
  5
123
 10
-64.0
 20
152.56812600000001
 30
0.0
 11
-57.0
 21
152.56812600000001
 31
0.0
  0
LINE
  8
LY_3
  6
CONTINUOUS
 62
               3
  5
124
 10
-64.0
 20
131.35492300000001
 30
0.0
 11
-57.0
 21
131.35492300000001
 31
0.0
  0
LINE
  8
LY_3
  6
CONTINUOUS
 62
               3
  5
125
 10
-54.0
 20
152.56812600000001
 30
0.0
 11
-47.0
 21
152.56812600000001
 31
0.0
  0
LINE
  8
LY_3
  6
CONTINUOUS
 62
               3
  5
126
 10
-54.0
 20
131.35492300000001
 30
0.0
 11
-47.0
 21
131.35492300000001
 31
0.0
  0
LINE
  8
LY_3
  6
CONTINUOUS
 62
               3
  5
127
 10
-54.0
 20
131.35492300000001
 30
0.0
 11
-54.0
 21
152.56812600000001
 31
0.0
  0
LINE
  8
LY_3
  6
CONTINUOUS
 62
               3
  5
128
 10
-57.0
 20
131.35492300000001
 30
0.0
 11
-57.0
 21
152.56812600000001
 31
0.0
  0
LINE
  8
LY_3
  6
CONTINUOUS
 62
               3
  5
129
 10
-64.0
 20
131.35492300000001
 30
0.0
 11
-64.0
 21
152.56812600000001
 31
0.0
  0
LINE
  8
LY_3
  6
CONTINUOUS
 62
               3
  5
12A
 10
-67.0
 20
131.35492300000001
 30
0.0
 11
-67.0
 21
152.56812600000001
 31
0.0
  0
LINE
  8
LY_3
  6
CONTINUOUS
 62
               3
  5
12B
 10
-74.0
 20
131.35492300000001
 30
0.0
 11
-74.0
 21
152.56812600000001
 31
0.0
  0
LINE
  8
LY_3
  6
CONTINUOUS
 62
               3
  5
12C
 10
-77.0
 20
131.35492300000001
 30
0.0
 11
-77.0
 21
152.56812600000001
 31
0.0
  0
LINE
  8
LY_3
  6
CONTINUOUS
 62
               3
  5
12D
 10
-84.0
 20
152.56812600000001
 30
0.0
 11
-77.0
 21
152.56812600000001
 31
0.0
  0
LINE
  8
LY_3
  6
CONTINUOUS
 62
               3
  5
12E
 10
-84.0
 20
131.35492300000001
 30
0.0
 11
-77.0
 21
131.35492300000001
 31
0.0
  0
LINE
  8
LY_3
  6
CONTINUOUS
 62
               3
  5
12F
 10
-84.0
 20
131.35492300000001
 30
0.0
 11
-84.0
 21
152.56812600000001
 31
0.0
  0
LINE
  8
LY_3
  6
CONTINUOUS
 62
               3
  5
130
 10
-47.0
 20
131.35492300000001
 30
0.0
 11
-47.0
 21
152.56812600000001
 31
0.0
  0
ARC
  8
LY_3
  6
CONTINUOUS
 62
               3
  5
131
 10
-226.669892
 20
90.0
 30
0.0
 40
12.0
 50
356.73692499999999
 51
28.977360000000022
  0
ARC
  8
LY_3
  6
CONTINUOUS
 62
               3
  5
132
 10
-226.669892
 20
90.0
 30
0.0
 40
15.0
 50
354.80511300000001
 51
30.909173000000024
  0
ARC
  8
LY_3
  6
CONTINUOUS
 62
               3
  5
133
 10
-226.669892
 20
90.0
 30
0.0
 40
12.0
 50
305.30835400000001
 51
337.548789
  0
ARC
  8
LY_3
  6
CONTINUOUS
 62
               3
  5
134
 10
-226.669892
 20
90.0
 30
0.0
 40
15.0
 50
303.37654099999997
 51
339.48060099999998
  0
ARC
  8
LY_3
  6
CONTINUOUS
 62
               3
  5
135
 10
-226.669892
 20
90.0
 30
0.0
 40
12.0
 50
253.87978199999998
 51
286.12021700000003
  0
ARC
  8
LY_3
  6
CONTINUOUS
 62
               3
  5
136
 10
-226.669892
 20
90.0
 30
0.0
 40
15.0
 50
251.94797000000003
 51
288.05203
  0
ARC
  8
LY_3
  6
CONTINUOUS
 62
               3
  5
137
 10
-226.669892
 20
90.0
 30
0.0
 40
12.0
 50
202.451211
 51
234.69164599999999
  0
ARC
  8
LY_3
  6
CONTINUOUS
 62
               3
  5
138
 10
-226.669892
 20
90.0
 30
0.0
 40
15.0
 50
200.519398
 51
236.623459
  0
ARC
  8
LY_3
  6
CONTINUOUS
 62
               3
  5
139
 10
-226.669892
 20
90.0
 30
0.0
 40
12.0
 50
151.02264
 51
183.26307499999999
  0
ARC
  8
LY_3
  6
CONTINUOUS
 62
               3
  5
13A
 10
-226.669892
 20
90.0
 30
0.0
 40
15.0
 50
149.09082699999999
 51
185.19488699999999
  0
ARC
  8
LY_3
  6
CONTINUOUS
 62
               3
  5
13B
 10
-226.669892
 20
90.0
 30
0.0
 40
12.0
 50
48.165497000000002
 51
80.405932000000007
  0
ARC
  8
LY_3
  6
CONTINUOUS
 62
               3
  5
13C
 10
-226.669892
 20
90.0
 30
0.0
 40
15.0
 50
46.233683999999997
 51
82.337744000000001
  0
LINE
  8
LY_3
  6
CONTINUOUS
 62
               3
  5
13D
 10
-216.172157
 20
95.813568000000004
 30
0.0
 11
-193.01460599999999
 21
114.281099
 31
0.0
  0
LINE
  8
LY_3
  6
CONTINUOUS
 62
               3
  5
13E
 10
-218.66611599999999
 20
98.940894
 30
0.0
 11
-195.508565
 21
117.408424
 31
0.0
  0
LINE
  8
LY_3
  6
CONTINUOUS
 62
               3
  5
13F
 10
-215.579431
 20
85.417241000000004
 30
0.0
 11
-186.702437
 21
78.826255000000003
 31
0.0
  0
LINE
  8
LY_3
  6
CONTINUOUS
 62
               3
  5
140
 10
-214.689347
 20
89.316952999999998
 30
0.0
 11
-185.812353
 21
82.725966999999997
 31
0.0
  0
LINE
  8
LY_3
  6
CONTINUOUS
 62
               3
  5
141
 10
-223.33804799999999
 20
78.471824999999995
 30
0.0
 11
-210.48657600000001
 21
51.785469999999997
 31
0.0
  0
LINE
  8
LY_3
  6
CONTINUOUS
 62
               3
  5
142
 10
-219.734172
 20
80.207359999999994
 30
0.0
 11
-206.882701
 21
53.521005000000002
 31
0.0
  0
LINE
  8
LY_3
  6
CONTINUOUS
 62
               3
  5
143
 10
-233.60561100000001
 20
80.207359999999994
 30
0.0
 11
-246.45708200000001
 21
53.521005000000002
 31
0.0
  0
LINE
  8
LY_3
  6
CONTINUOUS
 62
               3
  5
144
 10
-230.00173599999999
 20
78.471824999999995
 30
0.0
 11
-242.853207
 21
51.785469999999997
 31
0.0
  0
LINE
  8
LY_3
  6
CONTINUOUS
 62
               3
  5
145
 10
-238.65043600000001
 20
89.316952999999998
 30
0.0
 11
-267.52742999999998
 21
82.725966999999997
 31
0.0
  0
LINE
  8
LY_3
  6
CONTINUOUS
 62
               3
  5
146
 10
-237.76035200000001
 20
85.417241000000004
 30
0.0
 11
-266.63734599999998
 21
78.826256000000001
 31
0.0
  0
LINE
  8
LY_3
  6
CONTINUOUS
 62
               3
  5
147
 10
-234.67366699999999
 20
98.940894
 30
0.0
 11
-257.83121799999998
 21
117.40842499999999
 31
0.0
  0
LINE
  8
LY_3
  6
CONTINUOUS
 62
               3
  5
148
 10
-237.16762600000001
 20
95.813568000000004
 30
0.0
 11
-260.325177
 21
114.281099
 31
0.0
  0
LINE
  8
LY_3
  6
CONTINUOUS
 62
               3
  5
149
 10
-224.669892
 20
101.83216
 30
0.0
 11
-224.669892
 21
131.45177899999999
 31
0.0
  0
LINE
  8
LY_3
  6
CONTINUOUS
 62
               3
  5
14A
 10
-228.669892
 20
101.83216
 30
0.0
 11
-228.669892
 21
131.45177899999999
 31
0.0
  0
CIRCLE
  8
LY_3
  6
CONTINUOUS
 62
               3
  5
14B
 10
-226.669892
 20
90.0
 30
0.0
 40
5.0
  0
LINE
  8
LY_3
  6
CONTINUOUS
 62
               3
  5
14C
 10
-216.669892
 20
90.0
 30
0.0
 11
-221.669892
 21
81.339746000000005
 31
0.0
  0
LINE
  8
LY_3
  6
CONTINUOUS
 62
               3
  5
14D
 10
-221.669892
 20
81.339746000000005
 30
0.0
 11
-231.669892
 21
81.339746000000005
 31
0.0
  0
LINE
  8
LY_3
  6
CONTINUOUS
 62
               3
  5
14E
 10
-231.669892
 20
81.339746000000005
 30
0.0
 11
-236.669892
 21
90.0
 31
0.0
  0
LINE
  8
LY_3
  6
CONTINUOUS
 62
               3
  5
14F
 10
-236.669892
 20
90.0
 30
0.0
 11
-231.669892
 21
98.660253999999995
 31
0.0
  0
LINE
  8
LY_3
  6
CONTINUOUS
 62
               3
  5
150
 10
-231.669892
 20
98.660253999999995
 30
0.0
 11
-221.669892
 21
98.660253999999995
 31
0.0
  0
LINE
  8
LY_3
  6
CONTINUOUS
 62
               3
  5
151
 10
-221.669892
 20
98.660253999999995
 30
0.0
 11
-216.669892
 21
90.0
 31
0.0
  0
ARC
  8
LY_3
  6
CONTINUOUS
 62
               3
  5
152
 10
-226.669892
 20
90.0
 30
0.0
 40
12.0
 50
99.594067999999993
 51
131.83450300000001
  0
ARC
  8
LY_3
  6
CONTINUOUS
 62
               3
  5
153
 10
-226.669892
 20
90.0
 30
0.0
 40
15.0
 50
97.662255999999999
 51
133.76631599999999
  0
LINE
  8
LY_3
  6
CONTINUOUS
 62
               3
  5
154
 10
-54.0
 20
105.0
 30
0.0
 11
-47.0
 21
105.0
 31
0.0
  0
LINE
  8
LY_3
  6
CONTINUOUS
 62
               3
  5
155
 10
-64.0
 20
105.0
 30
0.0
 11
-57.0
 21
105.0
 31
0.0
  0
LINE
  8
LY_3
  6
CONTINUOUS
 62
               3
  5
156
 10
-54.0
 20
75.0
 30
0.0
 11
-47.0
 21
75.0
 31
0.0
  0
LINE
  8
LY_3
  6
CONTINUOUS
 62
               3
  5
157
 10
-64.0
 20
75.0
 30
0.0
 11
-57.0
 21
75.0
 31
0.0
  0
LINE
  8
LY_3
  6
CONTINUOUS
 62
               3
  5
158
 10
-74.0
 20
75.0
 30
0.0
 11
-67.0
 21
75.0
 31
0.0
  0
LINE
  8
LY_3
  6
CONTINUOUS
 62
               3
  5
159
 10
-74.0
 20
105.0
 30
0.0
 11
-67.0
 21
105.0
 31
0.0
  0
LINE
  8
LY_3
  6
CONTINUOUS
 62
               3
  5
15A
 10
-47.0
 20
75.0
 30
0.0
 11
-47.0
 21
105.0
 31
0.0
  0
LINE
  8
LY_3
  6
CONTINUOUS
 62
               3
  5
15B
 10
-54.0
 20
75.0
 30
0.0
 11
-54.0
 21
105.0
 31
0.0
  0
LINE
  8
LY_3
  6
CONTINUOUS
 62
               3
  5
15C
 10
-57.0
 20
75.0
 30
0.0
 11
-57.0
 21
105.0
 31
0.0
  0
LINE
  8
LY_3
  6
CONTINUOUS
 62
               3
  5
15D
 10
-64.0
 20
75.0
 30
0.0
 11
-64.0
 21
105.0
 31
0.0
  0
LINE
  8
LY_3
  6
CONTINUOUS
 62
               3
  5
15E
 10
-67.0
 20
75.0
 30
0.0
 11
-67.0
 21
105.0
 31
0.0
  0
LINE
  8
LY_3
  6
CONTINUOUS
 62
               3
  5
15F
 10
-74.0
 20
75.0
 30
0.0
 11
-74.0
 21
105.0
 31
0.0
  0
LINE
  8
LY_3
  6
CONTINUOUS
 62
               3
  5
160
 10
-77.0
 20
75.0
 30
0.0
 11
-77.0
 21
105.0
 31
0.0
  0
LINE
  8
LY_3
  6
CONTINUOUS
 62
               3
  5
161
 10
-84.0
 20
75.0
 30
0.0
 11
-84.0
 21
105.0
 31
0.0
  0
LINE
  8
LY_3
  6
CONTINUOUS
 62
               3
  5
162
 10
-84.0
 20
75.0
 30
0.0
 11
-77.0
 21
75.0
 31
0.0
  0
LINE
  8
LY_3
  6
CONTINUOUS
 62
               3
  5
163
 10
-84.0
 20
105.0
 30
0.0
 11
-77.0
 21
105.0
 31
0.0
  0
CIRCLE
  8
LY_3
  6
CONTINUOUS
 62
               3
  5
164
 10
-226.669892
 20
90.0
 30
0.0
 40
43.5
  0
LINE
  8
LY_3
  6
CONTINUOUS
 62
               3
  5
165
 10
40.0
 20
26.5
 30
0.0
 11
42.0
 21
28.5
 31
0.0
  0
LINE
  8
LY_3
  6
CONTINUOUS
 62
               3
  5
166
 10
40.0
 20
153.5
 30
0.0
 11
42.0
 21
151.54300000000001
 31
0.0
  0
LINE
  8
LY_3
  6
CONTINUOUS
 62
               3
  5
167
 10
-22.0
 20
26.5
 30
0.0
 11
-32.0
 21
15.0
 31
0.0
  0
LINE
  8
LY_3
  6
CONTINUOUS
 62
               3
  5
168
 10
-32.0
 20
165.0
 30
0.0
 11
-22.0
 21
153.5
 31
0.0
  0
LINE
  8
LY_3
  6
CONTINUOUS
 62
               3
  5
169
 10
-22.0
 20
26.5
 30
0.0
 11
-17.940373999999998
 21
26.5
 31
0.0
  0
LINE
  8
LY_3
  6
CONTINUOUS
 62
               3
  5
16A
 10
-22.0
 20
153.5
 30
0.0
 11
40.0
 21
153.5
 31
0.0
  0
LINE
  8
LY_3
  6
CONTINUOUS
 62
               3
  5
16B
 10
40.0
 20
26.5
 30
0.0
 11
40.0
 21
153.5
 31
0.0
  0
LINE
  8
LY_3
  6
CONTINUOUS
 62
               3
  5
16C
 10
42.0
 20
28.5
 30
0.0
 11
42.0
 21
151.54300000000001
 31
0.0
  0
LINE
  8
LY_3
  6
CONTINUOUS
 62
               3
  5
16D
 10
-22.0
 20
153.5
 30
0.0
 11
-22.0
 21
26.5
 31
0.0
  0
LINE
  8
LY_3
  6
CONTINUOUS
 62
               3
  5
16E
 10
-34.0
 20
15.0
 30
0.0
 11
-34.0
 21
165.0
 31
0.0
  0
LINE
  8
LY_3
  6
CONTINUOUS
 62
               3
  5
16F
 10
-32.0
 20
15.0
 30
0.0
 11
-32.0
 21
165.0
 31
0.0
  0
ARC
  8
LY_3
  6
CONTINUOUS
 62
               3
  5
170
 10
-87.0
 20
20.0
 30
0.0
 40
5.0
 50
180.0
 51
270.0
  0
ARC
  8
LY_3
  6
CONTINUOUS
 62
               3
  5
171
 10
-87.0
 20
160.0
 30
0.0
 40
5.0
 50
90.0
 51
180.0
  0
ARC
  8
LY_3
  6
CONTINUOUS
 62
               3
  5
172
 10
93.0
 20
33.5
 30
0.0
 40
5.0
 50
270.0
 51
0.0
  0
ARC
  8
LY_3
  6
CONTINUOUS
 62
               3
  5
173
 10
93.0
 20
146.54300000000001
 30
0.0
 40
5.0
 50
0.0
 51
90.0
  0
LINE
  8
LY_3
  6
CONTINUOUS
 62
               3
  5
174
 10
42.0
 20
28.5
 30
0.0
 11
93.0
 21
28.5
 31
0.0
  0
LINE
  8
LY_3
  6
CONTINUOUS
 62
               3
  5
175
 10
42.0
 20
151.54300000000001
 30
0.0
 11
93.0
 21
151.54300000000001
 31
0.0
  0
LINE
  8
LY_3
  6
CONTINUOUS
 62
               3
  5
176
 10
98.0
 20
33.5
 30
0.0
 11
98.0
 21
146.54300000000001
 31
0.0
  0
LINE
  8
LY_3
  6
CONTINUOUS
 62
               3
  5
177
 10
-87.0
 20
15.0
 30
0.0
 11
-84.0
 21
15.0
 31
0.0
  0
LINE
  8
LY_3
  6
CONTINUOUS
 62
               3
  5
178
 10
-87.0
 20
165.0
 30
0.0
 11
-84.0
 21
165.0
 31
0.0
  0
LINE
  8
LY_3
  6
CONTINUOUS
 62
               3
  5
179
 10
-92.0
 20
20.0
 30
0.0
 11
-92.0
 21
160.0
 31
0.0
  0
CIRCLE
  8
LY_3
  6
CONTINUOUS
 62
               3
  5
17A
 10
-226.669892
 20
90.0
 30
0.0
 40
75.0
  0
ENDSEC
  0
EOF
