  0
SECTION
  2
HEADER
  9
$ACADVER
  1
AC1009
  9
$DWGCODEPAGE
  3
dos932
  9
$INSBASE
 10
0.0
 20
0.0
 30
0.0
  9
$EXTMIN
 10
-320.373982
 20
0.0
 30
0.0
  9
$EXTMAX
 10
105.0
 20
425.7193
 30
0.0
  9
$LIMMIN
 10
-320.373982
 20
0.0
  9
$LIMMAX
 10
105.0
 20
425.7193
  9
$ORTHOMODE
 70
     0
  9
$REGENMODE
 70
     1
  9
$FILLMODE
 70
     1
  9
$QTEXTMODE
 70
     0
  9
$MIRRTEXT
 70
     1
  9
$DRAGMODE
 70
     2
  9
$LTSCALE
 40
1.0
  9
$OSMODE
 70
     0
  9
$ATTMODE
 70
     1
  9
$TEXTSIZE
 40
4.1656
  9
$TRACEWID
 40
0.05
  9
$TEXTSTYLE
  7
MX_NOTE_STANDARD
  9
$CLAYER
  8
LY_1
  9
$CELTYPE
  6
CONTINUOUS
  9
$CECOLOR
 62
   256
  9
$DIMSCALE
 40
1.0
  9
$DIMASZ
 40
2.5
  9
$DIMEXO
 40
0.5
  9
$DIMDLI
 40
3.75
  9
$DIMRND
 40
0.0
  9
$DIMDLE
 40
0.0
  9
$DIMEXE
 40
1.0
  9
$DIMTP
 40
0.0
  9
$DIMTM
 40
0.0
  9
$DIMTXT
 40
2.5
  9
$DIMCEN
 40
2.5
  9
$DIMTSZ
 40
0.0
  9
$DIMTOL
 70
     0
  9
$DIMLIM
 70
     0
  9
$DIMTIH
 70
     0
  9
$DIMTOH
 70
     0
  9
$DIMSE1
 70
     0
  9
$DIMSE2
 70
     0
  9
$DIMTAD
 70
     1
  9
$DIMZIN
 70
     8
  9
$DIMBLK
  1

  9
$DIMASO
 70
     1
  9
$DIMSHO
 70
     1
  9
$DIMPOST
  1

  9
$DIMAPOST
  1

  9
$DIMALT
 70
     0
  9
$DIMALTD
 70
     4
  9
$DIMALTF
 40
0.03937
  9
$DIMLFAC
 40
1.0
  9
$DIMTOFL
 70
     1
  9
$DIMTVP
 40
0.0
  9
$DIMTIX
 70
     0
  9
$DIMSOXD
 70
     0
  9
$DIMSAH
 70
     0
  9
$DIMBLK1
  1

  9
$DIMBLK2
  1

  9
$DIMSTYLE
  2
MXDIMSTYLE
  9
$DIMCLRD
 70
     0
  9
$DIMCLRE
 70
     0
  9
$DIMCLRT
 70
     0
  9
$DIMTFAC
 40
1.0
  9
$DIMGAP
 40
1.0
  9
$LUNITS
 70
     2
  9
$LUPREC
 70
     4
  9
$AXISMODE
 70
     0
  9
$AXISUNIT
 10
0.0
 20
0.0
  9
$SKETCHINC
 40
0.1
  9
$FILLETRAD
 40
0.0
  9
$AUNITS
 70
     0
  9
$AUPREC
 70
     0
  9
$MENU
  1
acad
  9
$ELEVATION
 40
0.0
  9
$PELEVATION
 40
0.0
  9
$THICKNESS
 40
0.0
  9
$LIMCHECK
 70
     0
  9
$BLIPMODE
 70
     1
  9
$CHAMFERA
 40
0.0
  9
$CHAMFERB
 40
0.0
  9
$SKPOLY
 70
     0
  9
$TDCREATE
 40
2453885.424502315
  9
$TDUPDATE
 40
2453885.424502315
  9
$TDINDWG
 40
0.0000000000
  9
$TDUSRTIMER
 40
0.0000000000
  9
$USRTIMER
 70
     1
  9
$ANGBASE
 50
0.0
  9
$ANGDIR
 70
     0
  9
$PDMODE
 70
     0
  9
$PDSIZE
 40
0.0
  9
$PLINEWID
 40
0.0
  9
$COORDS
 70
     1
  9
$SPLFRAME
 70
     0
  9
$SPLINETYPE
 70
     6
  9
$SPLINESEGS
 70
     8
  9
$ATTDIA
 70
     0
  9
$ATTREQ
 70
     1
  9
$HANDLING
 70
     1
  9
$HANDSEED
  5
9BB
  9
$SURFTAB1
 70
     6
  9
$SURFTAB2
 70
     6
  9
$SURFTYPE
 70
     6
  9
$SURFU
 70
     6
  9
$SURFV
 70
     6
  9
$UCSNAME
  2

  9
$UCSORG
 10
0.0
 20
0.0
 30
0.0
  9
$UCSXDIR
 10
1.0
 20
0.0
 30
0.0
  9
$UCSYDIR
 10
0.0
 20
1.0
 30
0.0
  9
$PUCSNAME
  2

  9
$PUCSORG
 10
0.0
 20
0.0
 30
0.0
  9
$PUCSXDIR
 10
1.0
 20
0.0
 30
0.0
  9
$PUCSYDIR
 10
0.0
 20
1.0
 30
0.0
  9
$USERI1
 70
     0
  9
$USERI2
 70
     0
  9
$USERI3
 70
     0
  9
$USERI4
 70
     0
  9
$USERI5
 70
     0
  9
$USERR1
 40
0.0
  9
$USERR2
 40
0.0
  9
$USERR3
 40
0.0
  9
$USERR4
 40
0.0
  9
$USERR5
 40
0.0
  9
$WORLDVIEW
 70
     1
  9
$SHADEDGE
 70
     3
  9
$SHADEDIF
 70
    70
  9
$TILEMODE
 70
     1
  9
$MAXACTVP
 70
    16
  9
$PINSBASE
 10
0.0
 20
0.0
 30
0.0
  9
$PLIMCHECK
 70
     0
  9
$PEXTMIN
 10
1.000000E+20
 20
1.000000E+20
 30
1.000000E+20
  9
$PEXTMAX
 10
-1.000000E+20
 20
-1.000000E+20
 30
-1.000000E+20
  9
$PLIMMIN
 10
0.0
 20
0.0
  9
$PLIMMAX
 10
12.0
 20
9.0
  9
$UNITMODE
 70
     0
  9
$VISRETAIN
 70
     0
  9
$PLINEGEN
 70
     1
  9
$PSLTSCALE
 70
     0
  9
$TREEDEPTH
 70
  3020
  9
$DWGCODEPAGE
  3
dos932
  0
ENDSEC
  0
SECTION
  2
TABLES
  0
TABLE
  2
VPORT
 70
     1
  0
VPORT
  2
*ACTIVE
 70
     0
 10
0.0
 20
0.0
 11
1.0
 21
1.0
 12
-107.686991
 22
212.85965
 13
0.0
 23
0.0
 14
1.0
 24
1.0
 15
0.0
 25
0.0
 16
0.0
 26
0.0
 36
1.0
 17
0.0
 27
0.0
 37
0.0
 40
429.976493
 41
1.732051
 42
50.0
 43
0.0
 44
0.0
 50
0.0
 51
0.0
 71
     0
 72
   100
 73
     1
 74
     1
 75
     0
 76
     0
 77
     0
 78
     0
  0
ENDTAB
  0
TABLE
  2
LTYPE
 70
     2
  0
LTYPE
  2
CONTINUOUS
 70
    64
  3
Solid line
 72
    65
 73
     0
 40
0.0
  0
LTYPE
  2
DASHED
 70
    64
  3
Dashed __ __ __ __ __ __ __ __ __ __ __ __ __ _
 72
    65
 73
     2
 40
19.05
 49
12.7
 49
-6.35
  0
ENDTAB
  0
TABLE
  2
LAYER
 70
     3
  0
LAYER
  2
0
 70
     0
 62
     7
  6
CONTINUOUS
  0
LAYER
  2
LY_1
 70
     0
 62
     7
  6
CONTINUOUS
  0
LAYER
  2
DEFPOINTS
 70
     0
 62
     7
  6
CONTINUOUS
  0
ENDTAB
  0
TABLE
  2
STYLE
 70
     1
  0
STYLE
  2
MX_NOTE_STANDARD
 70
     0
 40
0.0
 41
1.0
 50
0.0
 71
     0
 42
4.1656
  3
txt.shx
  4
extfont.shx
  0
ENDTAB
  0
TABLE
  2
VIEW
 70
     0
  0
ENDTAB
  0
TABLE
  2
UCS
 70
     0
  0
ENDTAB
  0
TABLE
  2
APPID
 70
     1
  0
APPID
  2
ACAD
 70
     0
  0
ENDTAB
  0
TABLE
  2
DIMSTYLE
 70
     1
  0
DIMSTYLE
  2
MXDIMSTYLE
 70
     0
  3

  4

  5

  6

  7

 40
1.0
 41
2.5
 42
0.5
 43
3.75
 44
1.0
 45
0.0
 46
0.0
 47
0.0
 48
0.0
 71
     0
 72
     0
 73
     0
 74
     0
 75
     0
 76
     0
 77
     1
 78
     8
140
2.5
141
2.5
142
0.0
143
0.03937
144
1.0
145
0.0
146
1.0
147
1.0
170
     0
171
     4
172
     1
173
     0
174
     0
175
     0
176
     0
177
     0
178
     0
  0
ENDTAB
  0
ENDSEC
  0
SECTION
  2
BLOCKS
  0
ENDSEC
  0
SECTION
  2
ENTITIES
  0
CIRCLE
  8
LY_1
  6
DASHED
 62
    80
  5
20
 10
37.5
 20
325.0
 30
0.0
 40
4.5
  0
CIRCLE
  8
LY_1
  6
DASHED
 62
    80
  5
21
 10
-37.5
 20
325.0
 30
0.0
 40
4.5
  0
CIRCLE
  8
LY_1
  6
DASHED
 62
    80
  5
22
 10
-37.5
 20
415.0
 30
0.0
 40
4.5
  0
CIRCLE
  8
LY_1
  6
DASHED
 62
    80
  5
23
 10
37.5
 20
415.0
 30
0.0
 40
4.5
  0
LINE
  8
LY_1
  6
DASHED
 62
    80
  5
24
 10
-50.0
 20
315.0
 30
0.0
 11
49.0
 21
315.0
 31
0.0
  0
LINE
  8
LY_1
  6
DASHED
 62
    80
  5
25
 10
-50.0
 20
425.0
 30
0.0
 11
-27.463833
 21
425.0
 31
0.0
  0
LINE
  8
LY_1
  6
DASHED
 62
    80
  5
26
 10
-50.0
 20
315.0
 30
0.0
 11
-50.0
 21
425.0
 31
0.0
  0
LINE
  8
LY_1
  6
CONTINUOUS
 62
     3
  5
27
 10
50.0
 20
419.366817
 30
0.0
 11
50.0
 21
425.0
 31
0.0
  0
LINE
  8
LY_1
  6
CONTINUOUS
 62
     3
  5
28
 10
50.0
 20
315.0
 30
0.0
 11
50.0
 21
320.633183
 31
0.0
  0
LINE
  8
LY_1
  6
CONTINUOUS
 62
     3
  5
29
 10
49.0
 20
315.0
 30
0.0
 11
50.0
 21
315.0
 31
0.0
  0
LINE
  8
LY_1
  6
CONTINUOUS
 62
     3
  5
2A
 10
-27.463833
 20
425.0
 30
0.0
 11
50.0
 21
425.0
 31
0.0
  0
LINE
  8
LY_1
  6
CONTINUOUS
 62
     3
  5
2B
 10
-34.0
 20
295.564389
 30
0.0
 11
46.0
 21
295.564389
 31
0.0
  0
POLYLINE
  8
LY_1
  6
CONTINUOUS
 62
     3
  5
2C
 66
     1
 10
0.0
 20
0.0
 30
0.0
  0
VERTEX
  8
LY_1
  6
CONTINUOUS
 62
     3
  5
1C0
 10
49.0
 20
338.711032
 30
0.0
  0
VERTEX
  8
LY_1
  6
CONTINUOUS
 62
     3
  5
1C1
 10
48.56232
 20
341.687728
 30
0.0
  0
VERTEX
  8
LY_1
  6
CONTINUOUS
 62
     3
  5
1C2
 10
47.258193
 20
344.603827
 30
0.0
  0
VERTEX
  8
LY_1
  6
CONTINUOUS
 62
     3
  5
1C3
 10
45.114169
 20
347.399965
 30
0.0
  0
VERTEX
  8
LY_1
  6
CONTINUOUS
 62
     3
  5
1C4
 10
42.173893
 20
350.019222
 30
0.0
  0
VERTEX
  8
LY_1
  6
CONTINUOUS
 62
     3
  5
1C5
 10
38.497221
 20
352.408276
 30
0.0
  0
VERTEX
  8
LY_1
  6
CONTINUOUS
 62
     3
  5
1C6
 10
34.158999
 20
354.518494
 30
0.0
  0
VERTEX
  8
LY_1
  6
CONTINUOUS
 62
     3
  5
1C7
 10
29.247542
 20
356.306917
 30
0.0
  0
VERTEX
  8
LY_1
  6
CONTINUOUS
 62
     3
  5
1C8
 10
23.862831
 20
357.737138
 30
0.0
  0
VERTEX
  8
LY_1
  6
CONTINUOUS
 62
     3
  5
1C9
 10
18.114484
 20
358.780043
 30
0.0
  0
VERTEX
  8
LY_1
  6
CONTINUOUS
 62
     3
  5
1CA
 10
12.119522
 20
359.414401
 30
0.0
  0
VERTEX
  8
LY_1
  6
CONTINUOUS
 62
     3
  5
1CB
 10
5.999984
 20
359.627297
 30
0.0
  0
VERTEX
  8
LY_1
  6
CONTINUOUS
 62
     3
  5
1CC
 10
-0.119554
 20
359.414398
 30
0.0
  0
VERTEX
  8
LY_1
  6
CONTINUOUS
 62
     3
  5
1CD
 10
-6.114515
 20
358.780039
 30
0.0
  0
VERTEX
  8
LY_1
  6
CONTINUOUS
 62
     3
  5
1CE
 10
-11.86286
 20
357.737132
 30
0.0
  0
VERTEX
  8
LY_1
  6
CONTINUOUS
 62
     3
  5
1CF
 10
-17.247569
 20
356.306908
 30
0.0
  0
VERTEX
  8
LY_1
  6
CONTINUOUS
 62
     3
  5
1D0
 10
-22.159024
 20
354.518483
 30
0.0
  0
VERTEX
  8
LY_1
  6
CONTINUOUS
 62
     3
  5
1D1
 10
-26.497242
 20
352.408264
 30
0.0
  0
VERTEX
  8
LY_1
  6
CONTINUOUS
 62
     3
  5
1D2
 10
-30.173911
 20
350.019208
 30
0.0
  0
VERTEX
  8
LY_1
  6
CONTINUOUS
 62
     3
  5
1D3
 10
-33.114182
 20
347.399951
 30
0.0
  0
VERTEX
  8
LY_1
  6
CONTINUOUS
 62
     3
  5
1D4
 10
-35.258202
 20
344.603812
 30
0.0
  0
VERTEX
  8
LY_1
  6
CONTINUOUS
 62
     3
  5
1D5
 10
-36.562324
 20
341.687713
 30
0.0
  0
VERTEX
  8
LY_1
  6
CONTINUOUS
 62
     3
  5
1D6
 10
-37.0
 20
338.711016
 30
0.0
  0
VERTEX
  8
LY_1
  6
CONTINUOUS
 62
     3
  5
1D7
 10
-37.0
 20
338.711016
 30
0.0
  0
SEQEND
  8
LY_1
  6
CONTINUOUS
 62
     3
  5
1D8
  0
LINE
  8
LY_1
  6
CONTINUOUS
 62
     3
  5
2D
 10
49.0
 20
302.859459
 30
0.0
 11
49.0
 21
338.711024
 31
0.0
  0
LINE
  8
LY_1
  6
CONTINUOUS
 62
     3
  5
2E
 10
-37.0
 20
302.859459
 30
0.0
 11
-37.0
 21
338.711024
 31
0.0
  0
POLYLINE
  8
LY_1
  6
CONTINUOUS
 62
     3
  5
2F
 66
     1
 10
0.0
 20
0.0
 30
0.0
 70
     1
  0
VERTEX
  8
LY_1
  6
CONTINUOUS
 62
     3
  5
1D9
 10
-24.0
 20
249.850616
 30
0.0
  0
VERTEX
  8
LY_1
  6
CONTINUOUS
 62
     3
  5
1DA
 10
-24.038053
 20
250.107808
 30
0.0
  0
VERTEX
  8
LY_1
  6
CONTINUOUS
 62
     3
  5
1DB
 10
-24.151922
 20
250.363042
 30
0.0
  0
VERTEX
  8
LY_1
  6
CONTINUOUS
 62
     3
  5
1DC
 10
-24.340742
 20
250.614376
 30
0.0
  0
VERTEX
  8
LY_1
  6
CONTINUOUS
 62
     3
  5
1DD
 10
-24.603074
 20
250.859897
 30
0.0
  0
VERTEX
  8
LY_1
  6
CONTINUOUS
 62
     3
  5
1DE
 10
-24.936922
 20
251.097737
 30
0.0
  0
VERTEX
  8
LY_1
  6
CONTINUOUS
 62
     3
  5
1DF
 10
-25.339746
 20
251.326086
 30
0.0
  0
VERTEX
  8
LY_1
  6
CONTINUOUS
 62
     3
  5
1E0
 10
-25.80848
 20
251.543206
 30
0.0
  0
VERTEX
  8
LY_1
  6
CONTINUOUS
 62
     3
  5
1E1
 10
-26.339556
 20
251.747444
 30
0.0
  0
VERTEX
  8
LY_1
  6
CONTINUOUS
 62
     3
  5
1E2
 10
-26.928932
 20
251.937246
 30
0.0
  0
VERTEX
  8
LY_1
  6
CONTINUOUS
 62
     3
  5
1E3
 10
-27.572124
 20
252.111168
 30
0.0
  0
VERTEX
  8
LY_1
  6
CONTINUOUS
 62
     3
  5
1E4
 10
-28.264236
 20
252.267885
 30
0.0
  0
VERTEX
  8
LY_1
  6
CONTINUOUS
 62
     3
  5
1E5
 10
-29.0
 20
252.406205
 30
0.0
  0
VERTEX
  8
LY_1
  6
CONTINUOUS
 62
     3
  5
1E6
 10
-29.773817
 20
252.525076
 30
0.0
  0
VERTEX
  8
LY_1
  6
CONTINUOUS
 62
     3
  5
1E7
 10
-30.579799
 20
252.623593
 30
0.0
  0
VERTEX
  8
LY_1
  6
CONTINUOUS
 62
     3
  5
1E8
 10
-31.41181
 20
252.701006
 30
0.0
  0
VERTEX
  8
LY_1
  6
CONTINUOUS
 62
     3
  5
1E9
 10
-32.263518
 20
252.756725
 30
0.0
  0
VERTEX
  8
LY_1
  6
CONTINUOUS
 62
     3
  5
1EA
 10
-33.128443
 20
252.790327
 30
0.0
  0
VERTEX
  8
LY_1
  6
CONTINUOUS
 62
     3
  5
1EB
 10
-34.0
 20
252.801556
 30
0.0
  0
VERTEX
  8
LY_1
  6
CONTINUOUS
 62
     3
  5
1EC
 10
-34.871557
 20
252.790327
 30
0.0
  0
VERTEX
  8
LY_1
  6
CONTINUOUS
 62
     3
  5
1ED
 10
-35.736482
 20
252.756725
 30
0.0
  0
VERTEX
  8
LY_1
  6
CONTINUOUS
 62
     3
  5
1EE
 10
-36.58819
 20
252.701006
 30
0.0
  0
VERTEX
  8
LY_1
  6
CONTINUOUS
 62
     3
  5
1EF
 10
-37.420201
 20
252.623593
 30
0.0
  0
VERTEX
  8
LY_1
  6
CONTINUOUS
 62
     3
  5
1F0
 10
-38.226183
 20
252.525076
 30
0.0
  0
VERTEX
  8
LY_1
  6
CONTINUOUS
 62
     3
  5
1F1
 10
-39.0
 20
252.406205
 30
0.0
  0
VERTEX
  8
LY_1
  6
CONTINUOUS
 62
     3
  5
1F2
 10
-39.735764
 20
252.267885
 30
0.0
  0
VERTEX
  8
LY_1
  6
CONTINUOUS
 62
     3
  5
1F3
 10
-40.427876
 20
252.111168
 30
0.0
  0
VERTEX
  8
LY_1
  6
CONTINUOUS
 62
     3
  5
1F4
 10
-41.071068
 20
251.937246
 30
0.0
  0
VERTEX
  8
LY_1
  6
CONTINUOUS
 62
     3
  5
1F5
 10
-41.660444
 20
251.747444
 30
0.0
  0
VERTEX
  8
LY_1
  6
CONTINUOUS
 62
     3
  5
1F6
 10
-42.19152
 20
251.543206
 30
0.0
  0
VERTEX
  8
LY_1
  6
CONTINUOUS
 62
     3
  5
1F7
 10
-42.660254
 20
251.326086
 30
0.0
  0
VERTEX
  8
LY_1
  6
CONTINUOUS
 62
     3
  5
1F8
 10
-43.063078
 20
251.097737
 30
0.0
  0
VERTEX
  8
LY_1
  6
CONTINUOUS
 62
     3
  5
1F9
 10
-43.396926
 20
250.859897
 30
0.0
  0
VERTEX
  8
LY_1
  6
CONTINUOUS
 62
     3
  5
1FA
 10
-43.659258
 20
250.614376
 30
0.0
  0
VERTEX
  8
LY_1
  6
CONTINUOUS
 62
     3
  5
1FB
 10
-43.848078
 20
250.363042
 30
0.0
  0
VERTEX
  8
LY_1
  6
CONTINUOUS
 62
     3
  5
1FC
 10
-43.961947
 20
250.107808
 30
0.0
  0
VERTEX
  8
LY_1
  6
CONTINUOUS
 62
     3
  5
1FD
 10
-44.0
 20
249.850616
 30
0.0
  0
VERTEX
  8
LY_1
  6
CONTINUOUS
 62
     3
  5
1FE
 10
-43.961947
 20
249.593425
 30
0.0
  0
VERTEX
  8
LY_1
  6
CONTINUOUS
 62
     3
  5
1FF
 10
-43.848078
 20
249.338191
 30
0.0
  0
VERTEX
  8
LY_1
  6
CONTINUOUS
 62
     3
  5
200
 10
-43.659258
 20
249.086857
 30
0.0
  0
VERTEX
  8
LY_1
  6
CONTINUOUS
 62
     3
  5
201
 10
-43.396926
 20
248.841335
 30
0.0
  0
VERTEX
  8
LY_1
  6
CONTINUOUS
 62
     3
  5
202
 10
-43.063078
 20
248.603495
 30
0.0
  0
VERTEX
  8
LY_1
  6
CONTINUOUS
 62
     3
  5
203
 10
-42.660254
 20
248.375146
 30
0.0
  0
VERTEX
  8
LY_1
  6
CONTINUOUS
 62
     3
  5
204
 10
-42.19152
 20
248.158027
 30
0.0
  0
VERTEX
  8
LY_1
  6
CONTINUOUS
 62
     3
  5
205
 10
-41.660444
 20
247.953789
 30
0.0
  0
VERTEX
  8
LY_1
  6
CONTINUOUS
 62
     3
  5
206
 10
-41.071068
 20
247.763987
 30
0.0
  0
VERTEX
  8
LY_1
  6
CONTINUOUS
 62
     3
  5
207
 10
-40.427876
 20
247.590065
 30
0.0
  0
VERTEX
  8
LY_1
  6
CONTINUOUS
 62
     3
  5
208
 10
-39.735764
 20
247.433348
 30
0.0
  0
VERTEX
  8
LY_1
  6
CONTINUOUS
 62
     3
  5
209
 10
-39.0
 20
247.295027
 30
0.0
  0
VERTEX
  8
LY_1
  6
CONTINUOUS
 62
     3
  5
20A
 10
-38.226183
 20
247.176156
 30
0.0
  0
VERTEX
  8
LY_1
  6
CONTINUOUS
 62
     3
  5
20B
 10
-37.420201
 20
247.07764
 30
0.0
  0
VERTEX
  8
LY_1
  6
CONTINUOUS
 62
     3
  5
20C
 10
-36.58819
 20
247.000227
 30
0.0
  0
VERTEX
  8
LY_1
  6
CONTINUOUS
 62
     3
  5
20D
 10
-35.736482
 20
246.944508
 30
0.0
  0
VERTEX
  8
LY_1
  6
CONTINUOUS
 62
     3
  5
20E
 10
-34.871557
 20
246.910905
 30
0.0
  0
VERTEX
  8
LY_1
  6
CONTINUOUS
 62
     3
  5
20F
 10
-34.0
 20
246.899676
 30
0.0
  0
VERTEX
  8
LY_1
  6
CONTINUOUS
 62
     3
  5
210
 10
-33.128443
 20
246.910905
 30
0.0
  0
VERTEX
  8
LY_1
  6
CONTINUOUS
 62
     3
  5
211
 10
-32.263518
 20
246.944508
 30
0.0
  0
VERTEX
  8
LY_1
  6
CONTINUOUS
 62
     3
  5
212
 10
-31.41181
 20
247.000227
 30
0.0
  0
VERTEX
  8
LY_1
  6
CONTINUOUS
 62
     3
  5
213
 10
-30.579799
 20
247.07764
 30
0.0
  0
VERTEX
  8
LY_1
  6
CONTINUOUS
 62
     3
  5
214
 10
-29.773817
 20
247.176156
 30
0.0
  0
VERTEX
  8
LY_1
  6
CONTINUOUS
 62
     3
  5
215
 10
-29.0
 20
247.295027
 30
0.0
  0
VERTEX
  8
LY_1
  6
CONTINUOUS
 62
     3
  5
216
 10
-28.264236
 20
247.433348
 30
0.0
  0
VERTEX
  8
LY_1
  6
CONTINUOUS
 62
     3
  5
217
 10
-27.572124
 20
247.590065
 30
0.0
  0
VERTEX
  8
LY_1
  6
CONTINUOUS
 62
     3
  5
218
 10
-26.928932
 20
247.763987
 30
0.0
  0
VERTEX
  8
LY_1
  6
CONTINUOUS
 62
     3
  5
219
 10
-26.339556
 20
247.953789
 30
0.0
  0
VERTEX
  8
LY_1
  6
CONTINUOUS
 62
     3
  5
21A
 10
-25.80848
 20
248.158027
 30
0.0
  0
VERTEX
  8
LY_1
  6
CONTINUOUS
 62
     3
  5
21B
 10
-25.339746
 20
248.375146
 30
0.0
  0
VERTEX
  8
LY_1
  6
CONTINUOUS
 62
     3
  5
21C
 10
-24.936922
 20
248.603495
 30
0.0
  0
VERTEX
  8
LY_1
  6
CONTINUOUS
 62
     3
  5
21D
 10
-24.603074
 20
248.841335
 30
0.0
  0
VERTEX
  8
LY_1
  6
CONTINUOUS
 62
     3
  5
21E
 10
-24.340742
 20
249.086857
 30
0.0
  0
VERTEX
  8
LY_1
  6
CONTINUOUS
 62
     3
  5
21F
 10
-24.151922
 20
249.338191
 30
0.0
  0
VERTEX
  8
LY_1
  6
CONTINUOUS
 62
     3
  5
220
 10
-24.038053
 20
249.593425
 30
0.0
  0
VERTEX
  8
LY_1
  6
CONTINUOUS
 62
     3
  5
221
 10
-24.0
 20
249.850616
 30
0.0
  0
SEQEND
  8
LY_1
  6
CONTINUOUS
 62
     3
  5
222
  0
POLYLINE
  8
LY_1
  6
CONTINUOUS
 62
     3
  5
30
 66
     1
 10
0.0
 20
0.0
 30
0.0
 70
     1
  0
VERTEX
  8
LY_1
  6
CONTINUOUS
 62
     3
  5
223
 10
-27.5
 20
249.850616
 30
0.0
  0
VERTEX
  8
LY_1
  6
CONTINUOUS
 62
     3
  5
224
 10
-27.524734
 20
250.017791
 30
0.0
  0
VERTEX
  8
LY_1
  6
CONTINUOUS
 62
     3
  5
225
 10
-27.59875
 20
250.183693
 30
0.0
  0
VERTEX
  8
LY_1
  6
CONTINUOUS
 62
     3
  5
226
 10
-27.721482
 20
250.34706
 30
0.0
  0
VERTEX
  8
LY_1
  6
CONTINUOUS
 62
     3
  5
227
 10
-27.891998
 20
250.506649
 30
0.0
  0
VERTEX
  8
LY_1
  6
CONTINUOUS
 62
     3
  5
228
 10
-28.108999
 20
250.661245
 30
0.0
  0
VERTEX
  8
LY_1
  6
CONTINUOUS
 62
     3
  5
229
 10
-28.370835
 20
250.809672
 30
0.0
  0
VERTEX
  8
LY_1
  6
CONTINUOUS
 62
     3
  5
22A
 10
-28.675512
 20
250.9508
 30
0.0
  0
VERTEX
  8
LY_1
  6
CONTINUOUS
 62
     3
  5
22B
 10
-29.020711
 20
251.083554
 30
0.0
  0
VERTEX
  8
LY_1
  6
CONTINUOUS
 62
     3
  5
22C
 10
-29.403806
 20
251.206926
 30
0.0
  0
VERTEX
  8
LY_1
  6
CONTINUOUS
 62
     3
  5
22D
 10
-29.821881
 20
251.319975
 30
0.0
  0
VERTEX
  8
LY_1
  6
CONTINUOUS
 62
     3
  5
22E
 10
-30.271753
 20
251.421841
 30
0.0
  0
VERTEX
  8
LY_1
  6
CONTINUOUS
 62
     3
  5
22F
 10
-30.75
 20
251.511749
 30
0.0
  0
VERTEX
  8
LY_1
  6
CONTINUOUS
 62
     3
  5
230
 10
-31.252981
 20
251.589015
 30
0.0
  0
VERTEX
  8
LY_1
  6
CONTINUOUS
 62
     3
  5
231
 10
-31.776869
 20
251.653051
 30
0.0
  0
VERTEX
  8
LY_1
  6
CONTINUOUS
 62
     3
  5
232
 10
-32.317676
 20
251.703369
 30
0.0
  0
VERTEX
  8
LY_1
  6
CONTINUOUS
 62
     3
  5
233
 10
-32.871287
 20
251.739587
 30
0.0
  0
VERTEX
  8
LY_1
  6
CONTINUOUS
 62
     3
  5
234
 10
-33.433488
 20
251.761428
 30
0.0
  0
VERTEX
  8
LY_1
  6
CONTINUOUS
 62
     3
  5
235
 10
-34.0
 20
251.768727
 30
0.0
  0
VERTEX
  8
LY_1
  6
CONTINUOUS
 62
     3
  5
236
 10
-34.566512
 20
251.761428
 30
0.0
  0
VERTEX
  8
LY_1
  6
CONTINUOUS
 62
     3
  5
237
 10
-35.128713
 20
251.739587
 30
0.0
  0
VERTEX
  8
LY_1
  6
CONTINUOUS
 62
     3
  5
238
 10
-35.682324
 20
251.703369
 30
0.0
  0
VERTEX
  8
LY_1
  6
CONTINUOUS
 62
     3
  5
239
 10
-36.223131
 20
251.653051
 30
0.0
  0
VERTEX
  8
LY_1
  6
CONTINUOUS
 62
     3
  5
23A
 10
-36.747019
 20
251.589015
 30
0.0
  0
VERTEX
  8
LY_1
  6
CONTINUOUS
 62
     3
  5
23B
 10
-37.25
 20
251.511749
 30
0.0
  0
VERTEX
  8
LY_1
  6
CONTINUOUS
 62
     3
  5
23C
 10
-37.728247
 20
251.421841
 30
0.0
  0
VERTEX
  8
LY_1
  6
CONTINUOUS
 62
     3
  5
23D
 10
-38.178119
 20
251.319975
 30
0.0
  0
VERTEX
  8
LY_1
  6
CONTINUOUS
 62
     3
  5
23E
 10
-38.596194
 20
251.206926
 30
0.0
  0
VERTEX
  8
LY_1
  6
CONTINUOUS
 62
     3
  5
23F
 10
-38.979289
 20
251.083554
 30
0.0
  0
VERTEX
  8
LY_1
  6
CONTINUOUS
 62
     3
  5
240
 10
-39.324488
 20
250.9508
 30
0.0
  0
VERTEX
  8
LY_1
  6
CONTINUOUS
 62
     3
  5
241
 10
-39.629165
 20
250.809672
 30
0.0
  0
VERTEX
  8
LY_1
  6
CONTINUOUS
 62
     3
  5
242
 10
-39.891001
 20
250.661245
 30
0.0
  0
VERTEX
  8
LY_1
  6
CONTINUOUS
 62
     3
  5
243
 10
-40.108002
 20
250.506649
 30
0.0
  0
VERTEX
  8
LY_1
  6
CONTINUOUS
 62
     3
  5
244
 10
-40.278518
 20
250.34706
 30
0.0
  0
VERTEX
  8
LY_1
  6
CONTINUOUS
 62
     3
  5
245
 10
-40.40125
 20
250.183693
 30
0.0
  0
VERTEX
  8
LY_1
  6
CONTINUOUS
 62
     3
  5
246
 10
-40.475266
 20
250.017791
 30
0.0
  0
VERTEX
  8
LY_1
  6
CONTINUOUS
 62
     3
  5
247
 10
-40.5
 20
249.850616
 30
0.0
  0
VERTEX
  8
LY_1
  6
CONTINUOUS
 62
     3
  5
248
 10
-40.475266
 20
249.683442
 30
0.0
  0
VERTEX
  8
LY_1
  6
CONTINUOUS
 62
     3
  5
249
 10
-40.40125
 20
249.51754
 30
0.0
  0
VERTEX
  8
LY_1
  6
CONTINUOUS
 62
     3
  5
24A
 10
-40.278518
 20
249.354173
 30
0.0
  0
VERTEX
  8
LY_1
  6
CONTINUOUS
 62
     3
  5
24B
 10
-40.108002
 20
249.194584
 30
0.0
  0
VERTEX
  8
LY_1
  6
CONTINUOUS
 62
     3
  5
24C
 10
-39.891001
 20
249.039988
 30
0.0
  0
VERTEX
  8
LY_1
  6
CONTINUOUS
 62
     3
  5
24D
 10
-39.629165
 20
248.891561
 30
0.0
  0
VERTEX
  8
LY_1
  6
CONTINUOUS
 62
     3
  5
24E
 10
-39.324488
 20
248.750433
 30
0.0
  0
VERTEX
  8
LY_1
  6
CONTINUOUS
 62
     3
  5
24F
 10
-38.979289
 20
248.617678
 30
0.0
  0
VERTEX
  8
LY_1
  6
CONTINUOUS
 62
     3
  5
250
 10
-38.596194
 20
248.494307
 30
0.0
  0
VERTEX
  8
LY_1
  6
CONTINUOUS
 62
     3
  5
251
 10
-38.178119
 20
248.381258
 30
0.0
  0
VERTEX
  8
LY_1
  6
CONTINUOUS
 62
     3
  5
252
 10
-37.728247
 20
248.279392
 30
0.0
  0
VERTEX
  8
LY_1
  6
CONTINUOUS
 62
     3
  5
253
 10
-37.25
 20
248.189483
 30
0.0
  0
VERTEX
  8
LY_1
  6
CONTINUOUS
 62
     3
  5
254
 10
-36.747019
 20
248.112217
 30
0.0
  0
VERTEX
  8
LY_1
  6
CONTINUOUS
 62
     3
  5
255
 10
-36.223131
 20
248.048181
 30
0.0
  0
VERTEX
  8
LY_1
  6
CONTINUOUS
 62
     3
  5
256
 10
-35.682324
 20
247.997863
 30
0.0
  0
VERTEX
  8
LY_1
  6
CONTINUOUS
 62
     3
  5
257
 10
-35.128713
 20
247.961646
 30
0.0
  0
VERTEX
  8
LY_1
  6
CONTINUOUS
 62
     3
  5
258
 10
-34.566512
 20
247.939804
 30
0.0
  0
VERTEX
  8
LY_1
  6
CONTINUOUS
 62
     3
  5
259
 10
-34.0
 20
247.932505
 30
0.0
  0
VERTEX
  8
LY_1
  6
CONTINUOUS
 62
     3
  5
25A
 10
-33.433488
 20
247.939804
 30
0.0
  0
VERTEX
  8
LY_1
  6
CONTINUOUS
 62
     3
  5
25B
 10
-32.871287
 20
247.961646
 30
0.0
  0
VERTEX
  8
LY_1
  6
CONTINUOUS
 62
     3
  5
25C
 10
-32.317676
 20
247.997863
 30
0.0
  0
VERTEX
  8
LY_1
  6
CONTINUOUS
 62
     3
  5
25D
 10
-31.776869
 20
248.048181
 30
0.0
  0
VERTEX
  8
LY_1
  6
CONTINUOUS
 62
     3
  5
25E
 10
-31.252981
 20
248.112217
 30
0.0
  0
VERTEX
  8
LY_1
  6
CONTINUOUS
 62
     3
  5
25F
 10
-30.75
 20
248.189483
 30
0.0
  0
VERTEX
  8
LY_1
  6
CONTINUOUS
 62
     3
  5
260
 10
-30.271753
 20
248.279392
 30
0.0
  0
VERTEX
  8
LY_1
  6
CONTINUOUS
 62
     3
  5
261
 10
-29.821881
 20
248.381258
 30
0.0
  0
VERTEX
  8
LY_1
  6
CONTINUOUS
 62
     3
  5
262
 10
-29.403806
 20
248.494307
 30
0.0
  0
VERTEX
  8
LY_1
  6
CONTINUOUS
 62
     3
  5
263
 10
-29.020711
 20
248.617678
 30
0.0
  0
VERTEX
  8
LY_1
  6
CONTINUOUS
 62
     3
  5
264
 10
-28.675512
 20
248.750433
 30
0.0
  0
VERTEX
  8
LY_1
  6
CONTINUOUS
 62
     3
  5
265
 10
-28.370835
 20
248.891561
 30
0.0
  0
VERTEX
  8
LY_1
  6
CONTINUOUS
 62
     3
  5
266
 10
-28.108999
 20
249.039988
 30
0.0
  0
VERTEX
  8
LY_1
  6
CONTINUOUS
 62
     3
  5
267
 10
-27.891998
 20
249.194584
 30
0.0
  0
VERTEX
  8
LY_1
  6
CONTINUOUS
 62
     3
  5
268
 10
-27.721482
 20
249.354173
 30
0.0
  0
VERTEX
  8
LY_1
  6
CONTINUOUS
 62
     3
  5
269
 10
-27.59875
 20
249.51754
 30
0.0
  0
VERTEX
  8
LY_1
  6
CONTINUOUS
 62
     3
  5
26A
 10
-27.524734
 20
249.683442
 30
0.0
  0
VERTEX
  8
LY_1
  6
CONTINUOUS
 62
     3
  5
26B
 10
-27.5
 20
249.850616
 30
0.0
  0
SEQEND
  8
LY_1
  6
CONTINUOUS
 62
     3
  5
26C
  0
POLYLINE
  8
LY_1
  6
CONTINUOUS
 62
     3
  5
31
 66
     1
 10
0.0
 20
0.0
 30
0.0
 70
     1
  0
VERTEX
  8
LY_1
  6
CONTINUOUS
 62
     3
  5
26D
 10
-24.0
 20
273.576989
 30
0.0
  0
VERTEX
  8
LY_1
  6
CONTINUOUS
 62
     3
  5
26E
 10
-24.038053
 20
273.83418
 30
0.0
  0
VERTEX
  8
LY_1
  6
CONTINUOUS
 62
     3
  5
26F
 10
-24.151922
 20
274.089414
 30
0.0
  0
VERTEX
  8
LY_1
  6
CONTINUOUS
 62
     3
  5
270
 10
-24.340742
 20
274.340749
 30
0.0
  0
VERTEX
  8
LY_1
  6
CONTINUOUS
 62
     3
  5
271
 10
-24.603074
 20
274.58627
 30
0.0
  0
VERTEX
  8
LY_1
  6
CONTINUOUS
 62
     3
  5
272
 10
-24.936922
 20
274.82411
 30
0.0
  0
VERTEX
  8
LY_1
  6
CONTINUOUS
 62
     3
  5
273
 10
-25.339746
 20
275.052459
 30
0.0
  0
VERTEX
  8
LY_1
  6
CONTINUOUS
 62
     3
  5
274
 10
-25.80848
 20
275.269579
 30
0.0
  0
VERTEX
  8
LY_1
  6
CONTINUOUS
 62
     3
  5
275
 10
-26.339556
 20
275.473817
 30
0.0
  0
VERTEX
  8
LY_1
  6
CONTINUOUS
 62
     3
  5
276
 10
-26.928932
 20
275.663619
 30
0.0
  0
VERTEX
  8
LY_1
  6
CONTINUOUS
 62
     3
  5
277
 10
-27.572124
 20
275.83754
 30
0.0
  0
VERTEX
  8
LY_1
  6
CONTINUOUS
 62
     3
  5
278
 10
-28.264236
 20
275.994258
 30
0.0
  0
VERTEX
  8
LY_1
  6
CONTINUOUS
 62
     3
  5
279
 10
-29.0
 20
276.132578
 30
0.0
  0
VERTEX
  8
LY_1
  6
CONTINUOUS
 62
     3
  5
27A
 10
-29.773817
 20
276.251449
 30
0.0
  0
VERTEX
  8
LY_1
  6
CONTINUOUS
 62
     3
  5
27B
 10
-30.579799
 20
276.349966
 30
0.0
  0
VERTEX
  8
LY_1
  6
CONTINUOUS
 62
     3
  5
27C
 10
-31.41181
 20
276.427378
 30
0.0
  0
VERTEX
  8
LY_1
  6
CONTINUOUS
 62
     3
  5
27D
 10
-32.263518
 20
276.483098
 30
0.0
  0
VERTEX
  8
LY_1
  6
CONTINUOUS
 62
     3
  5
27E
 10
-33.128443
 20
276.5167
 30
0.0
  0
VERTEX
  8
LY_1
  6
CONTINUOUS
 62
     3
  5
27F
 10
-34.0
 20
276.527929
 30
0.0
  0
VERTEX
  8
LY_1
  6
CONTINUOUS
 62
     3
  5
280
 10
-34.871557
 20
276.5167
 30
0.0
  0
VERTEX
  8
LY_1
  6
CONTINUOUS
 62
     3
  5
281
 10
-35.736482
 20
276.483098
 30
0.0
  0
VERTEX
  8
LY_1
  6
CONTINUOUS
 62
     3
  5
282
 10
-36.58819
 20
276.427378
 30
0.0
  0
VERTEX
  8
LY_1
  6
CONTINUOUS
 62
     3
  5
283
 10
-37.420201
 20
276.349966
 30
0.0
  0
VERTEX
  8
LY_1
  6
CONTINUOUS
 62
     3
  5
284
 10
-38.226183
 20
276.251449
 30
0.0
  0
VERTEX
  8
LY_1
  6
CONTINUOUS
 62
     3
  5
285
 10
-39.0
 20
276.132578
 30
0.0
  0
VERTEX
  8
LY_1
  6
CONTINUOUS
 62
     3
  5
286
 10
-39.735764
 20
275.994258
 30
0.0
  0
VERTEX
  8
LY_1
  6
CONTINUOUS
 62
     3
  5
287
 10
-40.427876
 20
275.83754
 30
0.0
  0
VERTEX
  8
LY_1
  6
CONTINUOUS
 62
     3
  5
288
 10
-41.071068
 20
275.663619
 30
0.0
  0
VERTEX
  8
LY_1
  6
CONTINUOUS
 62
     3
  5
289
 10
-41.660444
 20
275.473817
 30
0.0
  0
VERTEX
  8
LY_1
  6
CONTINUOUS
 62
     3
  5
28A
 10
-42.19152
 20
275.269579
 30
0.0
  0
VERTEX
  8
LY_1
  6
CONTINUOUS
 62
     3
  5
28B
 10
-42.660254
 20
275.052459
 30
0.0
  0
VERTEX
  8
LY_1
  6
CONTINUOUS
 62
     3
  5
28C
 10
-43.063078
 20
274.82411
 30
0.0
  0
VERTEX
  8
LY_1
  6
CONTINUOUS
 62
     3
  5
28D
 10
-43.396926
 20
274.58627
 30
0.0
  0
VERTEX
  8
LY_1
  6
CONTINUOUS
 62
     3
  5
28E
 10
-43.659258
 20
274.340749
 30
0.0
  0
VERTEX
  8
LY_1
  6
CONTINUOUS
 62
     3
  5
28F
 10
-43.848078
 20
274.089414
 30
0.0
  0
VERTEX
  8
LY_1
  6
CONTINUOUS
 62
     3
  5
290
 10
-43.961947
 20
273.83418
 30
0.0
  0
VERTEX
  8
LY_1
  6
CONTINUOUS
 62
     3
  5
291
 10
-44.0
 20
273.576989
 30
0.0
  0
VERTEX
  8
LY_1
  6
CONTINUOUS
 62
     3
  5
292
 10
-43.961947
 20
273.319798
 30
0.0
  0
VERTEX
  8
LY_1
  6
CONTINUOUS
 62
     3
  5
293
 10
-43.848078
 20
273.064564
 30
0.0
  0
VERTEX
  8
LY_1
  6
CONTINUOUS
 62
     3
  5
294
 10
-43.659258
 20
272.81323
 30
0.0
  0
VERTEX
  8
LY_1
  6
CONTINUOUS
 62
     3
  5
295
 10
-43.396926
 20
272.567708
 30
0.0
  0
VERTEX
  8
LY_1
  6
CONTINUOUS
 62
     3
  5
296
 10
-43.063078
 20
272.329868
 30
0.0
  0
VERTEX
  8
LY_1
  6
CONTINUOUS
 62
     3
  5
297
 10
-42.660254
 20
272.101519
 30
0.0
  0
VERTEX
  8
LY_1
  6
CONTINUOUS
 62
     3
  5
298
 10
-42.19152
 20
271.884399
 30
0.0
  0
VERTEX
  8
LY_1
  6
CONTINUOUS
 62
     3
  5
299
 10
-41.660444
 20
271.680161
 30
0.0
  0
VERTEX
  8
LY_1
  6
CONTINUOUS
 62
     3
  5
29A
 10
-41.071068
 20
271.490359
 30
0.0
  0
VERTEX
  8
LY_1
  6
CONTINUOUS
 62
     3
  5
29B
 10
-40.427876
 20
271.316438
 30
0.0
  0
VERTEX
  8
LY_1
  6
CONTINUOUS
 62
     3
  5
29C
 10
-39.735764
 20
271.15972
 30
0.0
  0
VERTEX
  8
LY_1
  6
CONTINUOUS
 62
     3
  5
29D
 10
-39.0
 20
271.0214
 30
0.0
  0
VERTEX
  8
LY_1
  6
CONTINUOUS
 62
     3
  5
29E
 10
-38.226183
 20
270.902529
 30
0.0
  0
VERTEX
  8
LY_1
  6
CONTINUOUS
 62
     3
  5
29F
 10
-37.420201
 20
270.804012
 30
0.0
  0
VERTEX
  8
LY_1
  6
CONTINUOUS
 62
     3
  5
2A0
 10
-36.58819
 20
270.7266
 30
0.0
  0
VERTEX
  8
LY_1
  6
CONTINUOUS
 62
     3
  5
2A1
 10
-35.736482
 20
270.67088
 30
0.0
  0
VERTEX
  8
LY_1
  6
CONTINUOUS
 62
     3
  5
2A2
 10
-34.871557
 20
270.637278
 30
0.0
  0
VERTEX
  8
LY_1
  6
CONTINUOUS
 62
     3
  5
2A3
 10
-34.0
 20
270.626049
 30
0.0
  0
VERTEX
  8
LY_1
  6
CONTINUOUS
 62
     3
  5
2A4
 10
-33.128443
 20
270.637278
 30
0.0
  0
VERTEX
  8
LY_1
  6
CONTINUOUS
 62
     3
  5
2A5
 10
-32.263518
 20
270.67088
 30
0.0
  0
VERTEX
  8
LY_1
  6
CONTINUOUS
 62
     3
  5
2A6
 10
-31.41181
 20
270.7266
 30
0.0
  0
VERTEX
  8
LY_1
  6
CONTINUOUS
 62
     3
  5
2A7
 10
-30.579799
 20
270.804012
 30
0.0
  0
VERTEX
  8
LY_1
  6
CONTINUOUS
 62
     3
  5
2A8
 10
-29.773817
 20
270.902529
 30
0.0
  0
VERTEX
  8
LY_1
  6
CONTINUOUS
 62
     3
  5
2A9
 10
-29.0
 20
271.0214
 30
0.0
  0
VERTEX
  8
LY_1
  6
CONTINUOUS
 62
     3
  5
2AA
 10
-28.264236
 20
271.15972
 30
0.0
  0
VERTEX
  8
LY_1
  6
CONTINUOUS
 62
     3
  5
2AB
 10
-27.572124
 20
271.316438
 30
0.0
  0
VERTEX
  8
LY_1
  6
CONTINUOUS
 62
     3
  5
2AC
 10
-26.928932
 20
271.490359
 30
0.0
  0
VERTEX
  8
LY_1
  6
CONTINUOUS
 62
     3
  5
2AD
 10
-26.339556
 20
271.680161
 30
0.0
  0
VERTEX
  8
LY_1
  6
CONTINUOUS
 62
     3
  5
2AE
 10
-25.80848
 20
271.884399
 30
0.0
  0
VERTEX
  8
LY_1
  6
CONTINUOUS
 62
     3
  5
2AF
 10
-25.339746
 20
272.101519
 30
0.0
  0
VERTEX
  8
LY_1
  6
CONTINUOUS
 62
     3
  5
2B0
 10
-24.936922
 20
272.329868
 30
0.0
  0
VERTEX
  8
LY_1
  6
CONTINUOUS
 62
     3
  5
2B1
 10
-24.603074
 20
272.567708
 30
0.0
  0
VERTEX
  8
LY_1
  6
CONTINUOUS
 62
     3
  5
2B2
 10
-24.340742
 20
272.81323
 30
0.0
  0
VERTEX
  8
LY_1
  6
CONTINUOUS
 62
     3
  5
2B3
 10
-24.151922
 20
273.064564
 30
0.0
  0
VERTEX
  8
LY_1
  6
CONTINUOUS
 62
     3
  5
2B4
 10
-24.038053
 20
273.319798
 30
0.0
  0
VERTEX
  8
LY_1
  6
CONTINUOUS
 62
     3
  5
2B5
 10
-24.0
 20
273.576989
 30
0.0
  0
SEQEND
  8
LY_1
  6
CONTINUOUS
 62
     3
  5
2B6
  0
POLYLINE
  8
LY_1
  6
CONTINUOUS
 62
     3
  5
32
 66
     1
 10
0.0
 20
0.0
 30
0.0
 70
     1
  0
VERTEX
  8
LY_1
  6
CONTINUOUS
 62
     3
  5
2B7
 10
-27.5
 20
273.576989
 30
0.0
  0
VERTEX
  8
LY_1
  6
CONTINUOUS
 62
     3
  5
2B8
 10
-27.524734
 20
273.744163
 30
0.0
  0
VERTEX
  8
LY_1
  6
CONTINUOUS
 62
     3
  5
2B9
 10
-27.59875
 20
273.910066
 30
0.0
  0
VERTEX
  8
LY_1
  6
CONTINUOUS
 62
     3
  5
2BA
 10
-27.721482
 20
274.073433
 30
0.0
  0
VERTEX
  8
LY_1
  6
CONTINUOUS
 62
     3
  5
2BB
 10
-27.891998
 20
274.233022
 30
0.0
  0
VERTEX
  8
LY_1
  6
CONTINUOUS
 62
     3
  5
2BC
 10
-28.108999
 20
274.387618
 30
0.0
  0
VERTEX
  8
LY_1
  6
CONTINUOUS
 62
     3
  5
2BD
 10
-28.370835
 20
274.536045
 30
0.0
  0
VERTEX
  8
LY_1
  6
CONTINUOUS
 62
     3
  5
2BE
 10
-28.675512
 20
274.677172
 30
0.0
  0
VERTEX
  8
LY_1
  6
CONTINUOUS
 62
     3
  5
2BF
 10
-29.020711
 20
274.809927
 30
0.0
  0
VERTEX
  8
LY_1
  6
CONTINUOUS
 62
     3
  5
2C0
 10
-29.403806
 20
274.933298
 30
0.0
  0
VERTEX
  8
LY_1
  6
CONTINUOUS
 62
     3
  5
2C1
 10
-29.821881
 20
275.046347
 30
0.0
  0
VERTEX
  8
LY_1
  6
CONTINUOUS
 62
     3
  5
2C2
 10
-30.271753
 20
275.148214
 30
0.0
  0
VERTEX
  8
LY_1
  6
CONTINUOUS
 62
     3
  5
2C3
 10
-30.75
 20
275.238122
 30
0.0
  0
VERTEX
  8
LY_1
  6
CONTINUOUS
 62
     3
  5
2C4
 10
-31.252981
 20
275.315388
 30
0.0
  0
VERTEX
  8
LY_1
  6
CONTINUOUS
 62
     3
  5
2C5
 10
-31.776869
 20
275.379424
 30
0.0
  0
VERTEX
  8
LY_1
  6
CONTINUOUS
 62
     3
  5
2C6
 10
-32.317676
 20
275.429742
 30
0.0
  0
VERTEX
  8
LY_1
  6
CONTINUOUS
 62
     3
  5
2C7
 10
-32.871287
 20
275.46596
 30
0.0
  0
VERTEX
  8
LY_1
  6
CONTINUOUS
 62
     3
  5
2C8
 10
-33.433488
 20
275.487801
 30
0.0
  0
VERTEX
  8
LY_1
  6
CONTINUOUS
 62
     3
  5
2C9
 10
-34.0
 20
275.4951
 30
0.0
  0
VERTEX
  8
LY_1
  6
CONTINUOUS
 62
     3
  5
2CA
 10
-34.566512
 20
275.487801
 30
0.0
  0
VERTEX
  8
LY_1
  6
CONTINUOUS
 62
     3
  5
2CB
 10
-35.128713
 20
275.46596
 30
0.0
  0
VERTEX
  8
LY_1
  6
CONTINUOUS
 62
     3
  5
2CC
 10
-35.682324
 20
275.429742
 30
0.0
  0
VERTEX
  8
LY_1
  6
CONTINUOUS
 62
     3
  5
2CD
 10
-36.223131
 20
275.379424
 30
0.0
  0
VERTEX
  8
LY_1
  6
CONTINUOUS
 62
     3
  5
2CE
 10
-36.747019
 20
275.315388
 30
0.0
  0
VERTEX
  8
LY_1
  6
CONTINUOUS
 62
     3
  5
2CF
 10
-37.25
 20
275.238122
 30
0.0
  0
VERTEX
  8
LY_1
  6
CONTINUOUS
 62
     3
  5
2D0
 10
-37.728247
 20
275.148214
 30
0.0
  0
VERTEX
  8
LY_1
  6
CONTINUOUS
 62
     3
  5
2D1
 10
-38.178119
 20
275.046347
 30
0.0
  0
VERTEX
  8
LY_1
  6
CONTINUOUS
 62
     3
  5
2D2
 10
-38.596194
 20
274.933298
 30
0.0
  0
VERTEX
  8
LY_1
  6
CONTINUOUS
 62
     3
  5
2D3
 10
-38.979289
 20
274.809927
 30
0.0
  0
VERTEX
  8
LY_1
  6
CONTINUOUS
 62
     3
  5
2D4
 10
-39.324488
 20
274.677172
 30
0.0
  0
VERTEX
  8
LY_1
  6
CONTINUOUS
 62
     3
  5
2D5
 10
-39.629165
 20
274.536045
 30
0.0
  0
VERTEX
  8
LY_1
  6
CONTINUOUS
 62
     3
  5
2D6
 10
-39.891001
 20
274.387618
 30
0.0
  0
VERTEX
  8
LY_1
  6
CONTINUOUS
 62
     3
  5
2D7
 10
-40.108002
 20
274.233022
 30
0.0
  0
VERTEX
  8
LY_1
  6
CONTINUOUS
 62
     3
  5
2D8
 10
-40.278518
 20
274.073433
 30
0.0
  0
VERTEX
  8
LY_1
  6
CONTINUOUS
 62
     3
  5
2D9
 10
-40.40125
 20
273.910066
 30
0.0
  0
VERTEX
  8
LY_1
  6
CONTINUOUS
 62
     3
  5
2DA
 10
-40.475266
 20
273.744163
 30
0.0
  0
VERTEX
  8
LY_1
  6
CONTINUOUS
 62
     3
  5
2DB
 10
-40.5
 20
273.576989
 30
0.0
  0
VERTEX
  8
LY_1
  6
CONTINUOUS
 62
     3
  5
2DC
 10
-40.475266
 20
273.409815
 30
0.0
  0
VERTEX
  8
LY_1
  6
CONTINUOUS
 62
     3
  5
2DD
 10
-40.40125
 20
273.243913
 30
0.0
  0
VERTEX
  8
LY_1
  6
CONTINUOUS
 62
     3
  5
2DE
 10
-40.278518
 20
273.080545
 30
0.0
  0
VERTEX
  8
LY_1
  6
CONTINUOUS
 62
     3
  5
2DF
 10
-40.108002
 20
272.920956
 30
0.0
  0
VERTEX
  8
LY_1
  6
CONTINUOUS
 62
     3
  5
2E0
 10
-39.891001
 20
272.76636
 30
0.0
  0
VERTEX
  8
LY_1
  6
CONTINUOUS
 62
     3
  5
2E1
 10
-39.629165
 20
272.617934
 30
0.0
  0
VERTEX
  8
LY_1
  6
CONTINUOUS
 62
     3
  5
2E2
 10
-39.324488
 20
272.476806
 30
0.0
  0
VERTEX
  8
LY_1
  6
CONTINUOUS
 62
     3
  5
2E3
 10
-38.979289
 20
272.344051
 30
0.0
  0
VERTEX
  8
LY_1
  6
CONTINUOUS
 62
     3
  5
2E4
 10
-38.596194
 20
272.22068
 30
0.0
  0
VERTEX
  8
LY_1
  6
CONTINUOUS
 62
     3
  5
2E5
 10
-38.178119
 20
272.107631
 30
0.0
  0
VERTEX
  8
LY_1
  6
CONTINUOUS
 62
     3
  5
2E6
 10
-37.728247
 20
272.005764
 30
0.0
  0
VERTEX
  8
LY_1
  6
CONTINUOUS
 62
     3
  5
2E7
 10
-37.25
 20
271.915856
 30
0.0
  0
VERTEX
  8
LY_1
  6
CONTINUOUS
 62
     3
  5
2E8
 10
-36.747019
 20
271.83859
 30
0.0
  0
VERTEX
  8
LY_1
  6
CONTINUOUS
 62
     3
  5
2E9
 10
-36.223131
 20
271.774554
 30
0.0
  0
VERTEX
  8
LY_1
  6
CONTINUOUS
 62
     3
  5
2EA
 10
-35.682324
 20
271.724236
 30
0.0
  0
VERTEX
  8
LY_1
  6
CONTINUOUS
 62
     3
  5
2EB
 10
-35.128713
 20
271.688018
 30
0.0
  0
VERTEX
  8
LY_1
  6
CONTINUOUS
 62
     3
  5
2EC
 10
-34.566512
 20
271.666177
 30
0.0
  0
VERTEX
  8
LY_1
  6
CONTINUOUS
 62
     3
  5
2ED
 10
-34.0
 20
271.658878
 30
0.0
  0
VERTEX
  8
LY_1
  6
CONTINUOUS
 62
     3
  5
2EE
 10
-33.433488
 20
271.666177
 30
0.0
  0
VERTEX
  8
LY_1
  6
CONTINUOUS
 62
     3
  5
2EF
 10
-32.871287
 20
271.688018
 30
0.0
  0
VERTEX
  8
LY_1
  6
CONTINUOUS
 62
     3
  5
2F0
 10
-32.317676
 20
271.724236
 30
0.0
  0
VERTEX
  8
LY_1
  6
CONTINUOUS
 62
     3
  5
2F1
 10
-31.776869
 20
271.774554
 30
0.0
  0
VERTEX
  8
LY_1
  6
CONTINUOUS
 62
     3
  5
2F2
 10
-31.252981
 20
271.83859
 30
0.0
  0
VERTEX
  8
LY_1
  6
CONTINUOUS
 62
     3
  5
2F3
 10
-30.75
 20
271.915856
 30
0.0
  0
VERTEX
  8
LY_1
  6
CONTINUOUS
 62
     3
  5
2F4
 10
-30.271753
 20
272.005764
 30
0.0
  0
VERTEX
  8
LY_1
  6
CONTINUOUS
 62
     3
  5
2F5
 10
-29.821881
 20
272.107631
 30
0.0
  0
VERTEX
  8
LY_1
  6
CONTINUOUS
 62
     3
  5
2F6
 10
-29.403806
 20
272.22068
 30
0.0
  0
VERTEX
  8
LY_1
  6
CONTINUOUS
 62
     3
  5
2F7
 10
-29.020711
 20
272.344051
 30
0.0
  0
VERTEX
  8
LY_1
  6
CONTINUOUS
 62
     3
  5
2F8
 10
-28.675512
 20
272.476806
 30
0.0
  0
VERTEX
  8
LY_1
  6
CONTINUOUS
 62
     3
  5
2F9
 10
-28.370835
 20
272.617934
 30
0.0
  0
VERTEX
  8
LY_1
  6
CONTINUOUS
 62
     3
  5
2FA
 10
-28.108999
 20
272.76636
 30
0.0
  0
VERTEX
  8
LY_1
  6
CONTINUOUS
 62
     3
  5
2FB
 10
-27.891998
 20
272.920956
 30
0.0
  0
VERTEX
  8
LY_1
  6
CONTINUOUS
 62
     3
  5
2FC
 10
-27.721482
 20
273.080545
 30
0.0
  0
VERTEX
  8
LY_1
  6
CONTINUOUS
 62
     3
  5
2FD
 10
-27.59875
 20
273.243913
 30
0.0
  0
VERTEX
  8
LY_1
  6
CONTINUOUS
 62
     3
  5
2FE
 10
-27.524734
 20
273.409815
 30
0.0
  0
VERTEX
  8
LY_1
  6
CONTINUOUS
 62
     3
  5
2FF
 10
-27.5
 20
273.576989
 30
0.0
  0
SEQEND
  8
LY_1
  6
CONTINUOUS
 62
     3
  5
300
  0
POLYLINE
  8
LY_1
  6
CONTINUOUS
 62
     3
  5
33
 66
     1
 10
0.0
 20
0.0
 30
0.0
 70
     1
  0
VERTEX
  8
LY_1
  6
CONTINUOUS
 62
     3
  5
301
 10
56.0
 20
273.576989
 30
0.0
  0
VERTEX
  8
LY_1
  6
CONTINUOUS
 62
     3
  5
302
 10
55.961947
 20
273.83418
 30
0.0
  0
VERTEX
  8
LY_1
  6
CONTINUOUS
 62
     3
  5
303
 10
55.848078
 20
274.089414
 30
0.0
  0
VERTEX
  8
LY_1
  6
CONTINUOUS
 62
     3
  5
304
 10
55.659258
 20
274.340749
 30
0.0
  0
VERTEX
  8
LY_1
  6
CONTINUOUS
 62
     3
  5
305
 10
55.396926
 20
274.58627
 30
0.0
  0
VERTEX
  8
LY_1
  6
CONTINUOUS
 62
     3
  5
306
 10
55.063078
 20
274.82411
 30
0.0
  0
VERTEX
  8
LY_1
  6
CONTINUOUS
 62
     3
  5
307
 10
54.660254
 20
275.052459
 30
0.0
  0
VERTEX
  8
LY_1
  6
CONTINUOUS
 62
     3
  5
308
 10
54.19152
 20
275.269579
 30
0.0
  0
VERTEX
  8
LY_1
  6
CONTINUOUS
 62
     3
  5
309
 10
53.660444
 20
275.473817
 30
0.0
  0
VERTEX
  8
LY_1
  6
CONTINUOUS
 62
     3
  5
30A
 10
53.071068
 20
275.663619
 30
0.0
  0
VERTEX
  8
LY_1
  6
CONTINUOUS
 62
     3
  5
30B
 10
52.427876
 20
275.83754
 30
0.0
  0
VERTEX
  8
LY_1
  6
CONTINUOUS
 62
     3
  5
30C
 10
51.735764
 20
275.994258
 30
0.0
  0
VERTEX
  8
LY_1
  6
CONTINUOUS
 62
     3
  5
30D
 10
51.0
 20
276.132578
 30
0.0
  0
VERTEX
  8
LY_1
  6
CONTINUOUS
 62
     3
  5
30E
 10
50.226183
 20
276.251449
 30
0.0
  0
VERTEX
  8
LY_1
  6
CONTINUOUS
 62
     3
  5
30F
 10
49.420201
 20
276.349966
 30
0.0
  0
VERTEX
  8
LY_1
  6
CONTINUOUS
 62
     3
  5
310
 10
48.58819
 20
276.427378
 30
0.0
  0
VERTEX
  8
LY_1
  6
CONTINUOUS
 62
     3
  5
311
 10
47.736482
 20
276.483098
 30
0.0
  0
VERTEX
  8
LY_1
  6
CONTINUOUS
 62
     3
  5
312
 10
46.871557
 20
276.5167
 30
0.0
  0
VERTEX
  8
LY_1
  6
CONTINUOUS
 62
     3
  5
313
 10
46.0
 20
276.527929
 30
0.0
  0
VERTEX
  8
LY_1
  6
CONTINUOUS
 62
     3
  5
314
 10
45.128443
 20
276.5167
 30
0.0
  0
VERTEX
  8
LY_1
  6
CONTINUOUS
 62
     3
  5
315
 10
44.263518
 20
276.483098
 30
0.0
  0
VERTEX
  8
LY_1
  6
CONTINUOUS
 62
     3
  5
316
 10
43.41181
 20
276.427378
 30
0.0
  0
VERTEX
  8
LY_1
  6
CONTINUOUS
 62
     3
  5
317
 10
42.579799
 20
276.349966
 30
0.0
  0
VERTEX
  8
LY_1
  6
CONTINUOUS
 62
     3
  5
318
 10
41.773817
 20
276.251449
 30
0.0
  0
VERTEX
  8
LY_1
  6
CONTINUOUS
 62
     3
  5
319
 10
41.0
 20
276.132578
 30
0.0
  0
VERTEX
  8
LY_1
  6
CONTINUOUS
 62
     3
  5
31A
 10
40.264236
 20
275.994258
 30
0.0
  0
VERTEX
  8
LY_1
  6
CONTINUOUS
 62
     3
  5
31B
 10
39.572124
 20
275.83754
 30
0.0
  0
VERTEX
  8
LY_1
  6
CONTINUOUS
 62
     3
  5
31C
 10
38.928932
 20
275.663619
 30
0.0
  0
VERTEX
  8
LY_1
  6
CONTINUOUS
 62
     3
  5
31D
 10
38.339556
 20
275.473817
 30
0.0
  0
VERTEX
  8
LY_1
  6
CONTINUOUS
 62
     3
  5
31E
 10
37.80848
 20
275.269579
 30
0.0
  0
VERTEX
  8
LY_1
  6
CONTINUOUS
 62
     3
  5
31F
 10
37.339746
 20
275.052459
 30
0.0
  0
VERTEX
  8
LY_1
  6
CONTINUOUS
 62
     3
  5
320
 10
36.936922
 20
274.82411
 30
0.0
  0
VERTEX
  8
LY_1
  6
CONTINUOUS
 62
     3
  5
321
 10
36.603074
 20
274.58627
 30
0.0
  0
VERTEX
  8
LY_1
  6
CONTINUOUS
 62
     3
  5
322
 10
36.340742
 20
274.340749
 30
0.0
  0
VERTEX
  8
LY_1
  6
CONTINUOUS
 62
     3
  5
323
 10
36.151922
 20
274.089414
 30
0.0
  0
VERTEX
  8
LY_1
  6
CONTINUOUS
 62
     3
  5
324
 10
36.038053
 20
273.83418
 30
0.0
  0
VERTEX
  8
LY_1
  6
CONTINUOUS
 62
     3
  5
325
 10
36.0
 20
273.576989
 30
0.0
  0
VERTEX
  8
LY_1
  6
CONTINUOUS
 62
     3
  5
326
 10
36.038053
 20
273.319798
 30
0.0
  0
VERTEX
  8
LY_1
  6
CONTINUOUS
 62
     3
  5
327
 10
36.151922
 20
273.064564
 30
0.0
  0
VERTEX
  8
LY_1
  6
CONTINUOUS
 62
     3
  5
328
 10
36.340742
 20
272.81323
 30
0.0
  0
VERTEX
  8
LY_1
  6
CONTINUOUS
 62
     3
  5
329
 10
36.603074
 20
272.567708
 30
0.0
  0
VERTEX
  8
LY_1
  6
CONTINUOUS
 62
     3
  5
32A
 10
36.936922
 20
272.329868
 30
0.0
  0
VERTEX
  8
LY_1
  6
CONTINUOUS
 62
     3
  5
32B
 10
37.339746
 20
272.101519
 30
0.0
  0
VERTEX
  8
LY_1
  6
CONTINUOUS
 62
     3
  5
32C
 10
37.80848
 20
271.884399
 30
0.0
  0
VERTEX
  8
LY_1
  6
CONTINUOUS
 62
     3
  5
32D
 10
38.339556
 20
271.680161
 30
0.0
  0
VERTEX
  8
LY_1
  6
CONTINUOUS
 62
     3
  5
32E
 10
38.928932
 20
271.490359
 30
0.0
  0
VERTEX
  8
LY_1
  6
CONTINUOUS
 62
     3
  5
32F
 10
39.572124
 20
271.316438
 30
0.0
  0
VERTEX
  8
LY_1
  6
CONTINUOUS
 62
     3
  5
330
 10
40.264236
 20
271.15972
 30
0.0
  0
VERTEX
  8
LY_1
  6
CONTINUOUS
 62
     3
  5
331
 10
41.0
 20
271.0214
 30
0.0
  0
VERTEX
  8
LY_1
  6
CONTINUOUS
 62
     3
  5
332
 10
41.773817
 20
270.902529
 30
0.0
  0
VERTEX
  8
LY_1
  6
CONTINUOUS
 62
     3
  5
333
 10
42.579799
 20
270.804012
 30
0.0
  0
VERTEX
  8
LY_1
  6
CONTINUOUS
 62
     3
  5
334
 10
43.41181
 20
270.7266
 30
0.0
  0
VERTEX
  8
LY_1
  6
CONTINUOUS
 62
     3
  5
335
 10
44.263518
 20
270.67088
 30
0.0
  0
VERTEX
  8
LY_1
  6
CONTINUOUS
 62
     3
  5
336
 10
45.128443
 20
270.637278
 30
0.0
  0
VERTEX
  8
LY_1
  6
CONTINUOUS
 62
     3
  5
337
 10
46.0
 20
270.626049
 30
0.0
  0
VERTEX
  8
LY_1
  6
CONTINUOUS
 62
     3
  5
338
 10
46.871557
 20
270.637278
 30
0.0
  0
VERTEX
  8
LY_1
  6
CONTINUOUS
 62
     3
  5
339
 10
47.736482
 20
270.67088
 30
0.0
  0
VERTEX
  8
LY_1
  6
CONTINUOUS
 62
     3
  5
33A
 10
48.58819
 20
270.7266
 30
0.0
  0
VERTEX
  8
LY_1
  6
CONTINUOUS
 62
     3
  5
33B
 10
49.420201
 20
270.804012
 30
0.0
  0
VERTEX
  8
LY_1
  6
CONTINUOUS
 62
     3
  5
33C
 10
50.226183
 20
270.902529
 30
0.0
  0
VERTEX
  8
LY_1
  6
CONTINUOUS
 62
     3
  5
33D
 10
51.0
 20
271.0214
 30
0.0
  0
VERTEX
  8
LY_1
  6
CONTINUOUS
 62
     3
  5
33E
 10
51.735764
 20
271.15972
 30
0.0
  0
VERTEX
  8
LY_1
  6
CONTINUOUS
 62
     3
  5
33F
 10
52.427876
 20
271.316438
 30
0.0
  0
VERTEX
  8
LY_1
  6
CONTINUOUS
 62
     3
  5
340
 10
53.071068
 20
271.490359
 30
0.0
  0
VERTEX
  8
LY_1
  6
CONTINUOUS
 62
     3
  5
341
 10
53.660444
 20
271.680161
 30
0.0
  0
VERTEX
  8
LY_1
  6
CONTINUOUS
 62
     3
  5
342
 10
54.19152
 20
271.884399
 30
0.0
  0
VERTEX
  8
LY_1
  6
CONTINUOUS
 62
     3
  5
343
 10
54.660254
 20
272.101519
 30
0.0
  0
VERTEX
  8
LY_1
  6
CONTINUOUS
 62
     3
  5
344
 10
55.063078
 20
272.329868
 30
0.0
  0
VERTEX
  8
LY_1
  6
CONTINUOUS
 62
     3
  5
345
 10
55.396926
 20
272.567708
 30
0.0
  0
VERTEX
  8
LY_1
  6
CONTINUOUS
 62
     3
  5
346
 10
55.659258
 20
272.81323
 30
0.0
  0
VERTEX
  8
LY_1
  6
CONTINUOUS
 62
     3
  5
347
 10
55.848078
 20
273.064564
 30
0.0
  0
VERTEX
  8
LY_1
  6
CONTINUOUS
 62
     3
  5
348
 10
55.961947
 20
273.319798
 30
0.0
  0
VERTEX
  8
LY_1
  6
CONTINUOUS
 62
     3
  5
349
 10
56.0
 20
273.576989
 30
0.0
  0
SEQEND
  8
LY_1
  6
CONTINUOUS
 62
     3
  5
34A
  0
POLYLINE
  8
LY_1
  6
CONTINUOUS
 62
     3
  5
34
 66
     1
 10
0.0
 20
0.0
 30
0.0
 70
     1
  0
VERTEX
  8
LY_1
  6
CONTINUOUS
 62
     3
  5
34B
 10
52.5
 20
273.576989
 30
0.0
  0
VERTEX
  8
LY_1
  6
CONTINUOUS
 62
     3
  5
34C
 10
52.475266
 20
273.744163
 30
0.0
  0
VERTEX
  8
LY_1
  6
CONTINUOUS
 62
     3
  5
34D
 10
52.40125
 20
273.910066
 30
0.0
  0
VERTEX
  8
LY_1
  6
CONTINUOUS
 62
     3
  5
34E
 10
52.278518
 20
274.073433
 30
0.0
  0
VERTEX
  8
LY_1
  6
CONTINUOUS
 62
     3
  5
34F
 10
52.108002
 20
274.233022
 30
0.0
  0
VERTEX
  8
LY_1
  6
CONTINUOUS
 62
     3
  5
350
 10
51.891001
 20
274.387618
 30
0.0
  0
VERTEX
  8
LY_1
  6
CONTINUOUS
 62
     3
  5
351
 10
51.629165
 20
274.536045
 30
0.0
  0
VERTEX
  8
LY_1
  6
CONTINUOUS
 62
     3
  5
352
 10
51.324488
 20
274.677172
 30
0.0
  0
VERTEX
  8
LY_1
  6
CONTINUOUS
 62
     3
  5
353
 10
50.979289
 20
274.809927
 30
0.0
  0
VERTEX
  8
LY_1
  6
CONTINUOUS
 62
     3
  5
354
 10
50.596194
 20
274.933298
 30
0.0
  0
VERTEX
  8
LY_1
  6
CONTINUOUS
 62
     3
  5
355
 10
50.178119
 20
275.046347
 30
0.0
  0
VERTEX
  8
LY_1
  6
CONTINUOUS
 62
     3
  5
356
 10
49.728247
 20
275.148214
 30
0.0
  0
VERTEX
  8
LY_1
  6
CONTINUOUS
 62
     3
  5
357
 10
49.25
 20
275.238122
 30
0.0
  0
VERTEX
  8
LY_1
  6
CONTINUOUS
 62
     3
  5
358
 10
48.747019
 20
275.315388
 30
0.0
  0
VERTEX
  8
LY_1
  6
CONTINUOUS
 62
     3
  5
359
 10
48.223131
 20
275.379424
 30
0.0
  0
VERTEX
  8
LY_1
  6
CONTINUOUS
 62
     3
  5
35A
 10
47.682324
 20
275.429742
 30
0.0
  0
VERTEX
  8
LY_1
  6
CONTINUOUS
 62
     3
  5
35B
 10
47.128713
 20
275.46596
 30
0.0
  0
VERTEX
  8
LY_1
  6
CONTINUOUS
 62
     3
  5
35C
 10
46.566512
 20
275.487801
 30
0.0
  0
VERTEX
  8
LY_1
  6
CONTINUOUS
 62
     3
  5
35D
 10
46.0
 20
275.4951
 30
0.0
  0
VERTEX
  8
LY_1
  6
CONTINUOUS
 62
     3
  5
35E
 10
45.433488
 20
275.487801
 30
0.0
  0
VERTEX
  8
LY_1
  6
CONTINUOUS
 62
     3
  5
35F
 10
44.871287
 20
275.46596
 30
0.0
  0
VERTEX
  8
LY_1
  6
CONTINUOUS
 62
     3
  5
360
 10
44.317676
 20
275.429742
 30
0.0
  0
VERTEX
  8
LY_1
  6
CONTINUOUS
 62
     3
  5
361
 10
43.776869
 20
275.379424
 30
0.0
  0
VERTEX
  8
LY_1
  6
CONTINUOUS
 62
     3
  5
362
 10
43.252981
 20
275.315388
 30
0.0
  0
VERTEX
  8
LY_1
  6
CONTINUOUS
 62
     3
  5
363
 10
42.75
 20
275.238122
 30
0.0
  0
VERTEX
  8
LY_1
  6
CONTINUOUS
 62
     3
  5
364
 10
42.271753
 20
275.148214
 30
0.0
  0
VERTEX
  8
LY_1
  6
CONTINUOUS
 62
     3
  5
365
 10
41.821881
 20
275.046347
 30
0.0
  0
VERTEX
  8
LY_1
  6
CONTINUOUS
 62
     3
  5
366
 10
41.403806
 20
274.933298
 30
0.0
  0
VERTEX
  8
LY_1
  6
CONTINUOUS
 62
     3
  5
367
 10
41.020711
 20
274.809927
 30
0.0
  0
VERTEX
  8
LY_1
  6
CONTINUOUS
 62
     3
  5
368
 10
40.675512
 20
274.677172
 30
0.0
  0
VERTEX
  8
LY_1
  6
CONTINUOUS
 62
     3
  5
369
 10
40.370835
 20
274.536045
 30
0.0
  0
VERTEX
  8
LY_1
  6
CONTINUOUS
 62
     3
  5
36A
 10
40.108999
 20
274.387618
 30
0.0
  0
VERTEX
  8
LY_1
  6
CONTINUOUS
 62
     3
  5
36B
 10
39.891998
 20
274.233022
 30
0.0
  0
VERTEX
  8
LY_1
  6
CONTINUOUS
 62
     3
  5
36C
 10
39.721482
 20
274.073433
 30
0.0
  0
VERTEX
  8
LY_1
  6
CONTINUOUS
 62
     3
  5
36D
 10
39.59875
 20
273.910066
 30
0.0
  0
VERTEX
  8
LY_1
  6
CONTINUOUS
 62
     3
  5
36E
 10
39.524734
 20
273.744163
 30
0.0
  0
VERTEX
  8
LY_1
  6
CONTINUOUS
 62
     3
  5
36F
 10
39.5
 20
273.576989
 30
0.0
  0
VERTEX
  8
LY_1
  6
CONTINUOUS
 62
     3
  5
370
 10
39.524734
 20
273.409815
 30
0.0
  0
VERTEX
  8
LY_1
  6
CONTINUOUS
 62
     3
  5
371
 10
39.59875
 20
273.243913
 30
0.0
  0
VERTEX
  8
LY_1
  6
CONTINUOUS
 62
     3
  5
372
 10
39.721482
 20
273.080545
 30
0.0
  0
VERTEX
  8
LY_1
  6
CONTINUOUS
 62
     3
  5
373
 10
39.891998
 20
272.920956
 30
0.0
  0
VERTEX
  8
LY_1
  6
CONTINUOUS
 62
     3
  5
374
 10
40.108999
 20
272.76636
 30
0.0
  0
VERTEX
  8
LY_1
  6
CONTINUOUS
 62
     3
  5
375
 10
40.370835
 20
272.617934
 30
0.0
  0
VERTEX
  8
LY_1
  6
CONTINUOUS
 62
     3
  5
376
 10
40.675512
 20
272.476806
 30
0.0
  0
VERTEX
  8
LY_1
  6
CONTINUOUS
 62
     3
  5
377
 10
41.020711
 20
272.344051
 30
0.0
  0
VERTEX
  8
LY_1
  6
CONTINUOUS
 62
     3
  5
378
 10
41.403806
 20
272.22068
 30
0.0
  0
VERTEX
  8
LY_1
  6
CONTINUOUS
 62
     3
  5
379
 10
41.821881
 20
272.107631
 30
0.0
  0
VERTEX
  8
LY_1
  6
CONTINUOUS
 62
     3
  5
37A
 10
42.271753
 20
272.005764
 30
0.0
  0
VERTEX
  8
LY_1
  6
CONTINUOUS
 62
     3
  5
37B
 10
42.75
 20
271.915856
 30
0.0
  0
VERTEX
  8
LY_1
  6
CONTINUOUS
 62
     3
  5
37C
 10
43.252981
 20
271.83859
 30
0.0
  0
VERTEX
  8
LY_1
  6
CONTINUOUS
 62
     3
  5
37D
 10
43.776869
 20
271.774554
 30
0.0
  0
VERTEX
  8
LY_1
  6
CONTINUOUS
 62
     3
  5
37E
 10
44.317676
 20
271.724236
 30
0.0
  0
VERTEX
  8
LY_1
  6
CONTINUOUS
 62
     3
  5
37F
 10
44.871287
 20
271.688018
 30
0.0
  0
VERTEX
  8
LY_1
  6
CONTINUOUS
 62
     3
  5
380
 10
45.433488
 20
271.666177
 30
0.0
  0
VERTEX
  8
LY_1
  6
CONTINUOUS
 62
     3
  5
381
 10
46.0
 20
271.658878
 30
0.0
  0
VERTEX
  8
LY_1
  6
CONTINUOUS
 62
     3
  5
382
 10
46.566512
 20
271.666177
 30
0.0
  0
VERTEX
  8
LY_1
  6
CONTINUOUS
 62
     3
  5
383
 10
47.128713
 20
271.688018
 30
0.0
  0
VERTEX
  8
LY_1
  6
CONTINUOUS
 62
     3
  5
384
 10
47.682324
 20
271.724236
 30
0.0
  0
VERTEX
  8
LY_1
  6
CONTINUOUS
 62
     3
  5
385
 10
48.223131
 20
271.774554
 30
0.0
  0
VERTEX
  8
LY_1
  6
CONTINUOUS
 62
     3
  5
386
 10
48.747019
 20
271.83859
 30
0.0
  0
VERTEX
  8
LY_1
  6
CONTINUOUS
 62
     3
  5
387
 10
49.25
 20
271.915856
 30
0.0
  0
VERTEX
  8
LY_1
  6
CONTINUOUS
 62
     3
  5
388
 10
49.728247
 20
272.005764
 30
0.0
  0
VERTEX
  8
LY_1
  6
CONTINUOUS
 62
     3
  5
389
 10
50.178119
 20
272.107631
 30
0.0
  0
VERTEX
  8
LY_1
  6
CONTINUOUS
 62
     3
  5
38A
 10
50.596194
 20
272.22068
 30
0.0
  0
VERTEX
  8
LY_1
  6
CONTINUOUS
 62
     3
  5
38B
 10
50.979289
 20
272.344051
 30
0.0
  0
VERTEX
  8
LY_1
  6
CONTINUOUS
 62
     3
  5
38C
 10
51.324488
 20
272.476806
 30
0.0
  0
VERTEX
  8
LY_1
  6
CONTINUOUS
 62
     3
  5
38D
 10
51.629165
 20
272.617934
 30
0.0
  0
VERTEX
  8
LY_1
  6
CONTINUOUS
 62
     3
  5
38E
 10
51.891001
 20
272.76636
 30
0.0
  0
VERTEX
  8
LY_1
  6
CONTINUOUS
 62
     3
  5
38F
 10
52.108002
 20
272.920956
 30
0.0
  0
VERTEX
  8
LY_1
  6
CONTINUOUS
 62
     3
  5
390
 10
52.278518
 20
273.080545
 30
0.0
  0
VERTEX
  8
LY_1
  6
CONTINUOUS
 62
     3
  5
391
 10
52.40125
 20
273.243913
 30
0.0
  0
VERTEX
  8
LY_1
  6
CONTINUOUS
 62
     3
  5
392
 10
52.475266
 20
273.409815
 30
0.0
  0
VERTEX
  8
LY_1
  6
CONTINUOUS
 62
     3
  5
393
 10
52.5
 20
273.576989
 30
0.0
  0
SEQEND
  8
LY_1
  6
CONTINUOUS
 62
     3
  5
394
  0
POLYLINE
  8
LY_1
  6
CONTINUOUS
 62
     3
  5
35
 66
     1
 10
0.0
 20
0.0
 30
0.0
 70
     1
  0
VERTEX
  8
LY_1
  6
CONTINUOUS
 62
     3
  5
395
 10
56.0
 20
249.850616
 30
0.0
  0
VERTEX
  8
LY_1
  6
CONTINUOUS
 62
     3
  5
396
 10
55.961947
 20
250.107808
 30
0.0
  0
VERTEX
  8
LY_1
  6
CONTINUOUS
 62
     3
  5
397
 10
55.848078
 20
250.363042
 30
0.0
  0
VERTEX
  8
LY_1
  6
CONTINUOUS
 62
     3
  5
398
 10
55.659258
 20
250.614376
 30
0.0
  0
VERTEX
  8
LY_1
  6
CONTINUOUS
 62
     3
  5
399
 10
55.396926
 20
250.859897
 30
0.0
  0
VERTEX
  8
LY_1
  6
CONTINUOUS
 62
     3
  5
39A
 10
55.063078
 20
251.097737
 30
0.0
  0
VERTEX
  8
LY_1
  6
CONTINUOUS
 62
     3
  5
39B
 10
54.660254
 20
251.326086
 30
0.0
  0
VERTEX
  8
LY_1
  6
CONTINUOUS
 62
     3
  5
39C
 10
54.19152
 20
251.543206
 30
0.0
  0
VERTEX
  8
LY_1
  6
CONTINUOUS
 62
     3
  5
39D
 10
53.660444
 20
251.747444
 30
0.0
  0
VERTEX
  8
LY_1
  6
CONTINUOUS
 62
     3
  5
39E
 10
53.071068
 20
251.937246
 30
0.0
  0
VERTEX
  8
LY_1
  6
CONTINUOUS
 62
     3
  5
39F
 10
52.427876
 20
252.111168
 30
0.0
  0
VERTEX
  8
LY_1
  6
CONTINUOUS
 62
     3
  5
3A0
 10
51.735764
 20
252.267885
 30
0.0
  0
VERTEX
  8
LY_1
  6
CONTINUOUS
 62
     3
  5
3A1
 10
51.0
 20
252.406205
 30
0.0
  0
VERTEX
  8
LY_1
  6
CONTINUOUS
 62
     3
  5
3A2
 10
50.226183
 20
252.525076
 30
0.0
  0
VERTEX
  8
LY_1
  6
CONTINUOUS
 62
     3
  5
3A3
 10
49.420201
 20
252.623593
 30
0.0
  0
VERTEX
  8
LY_1
  6
CONTINUOUS
 62
     3
  5
3A4
 10
48.58819
 20
252.701006
 30
0.0
  0
VERTEX
  8
LY_1
  6
CONTINUOUS
 62
     3
  5
3A5
 10
47.736482
 20
252.756725
 30
0.0
  0
VERTEX
  8
LY_1
  6
CONTINUOUS
 62
     3
  5
3A6
 10
46.871557
 20
252.790327
 30
0.0
  0
VERTEX
  8
LY_1
  6
CONTINUOUS
 62
     3
  5
3A7
 10
46.0
 20
252.801556
 30
0.0
  0
VERTEX
  8
LY_1
  6
CONTINUOUS
 62
     3
  5
3A8
 10
45.128443
 20
252.790327
 30
0.0
  0
VERTEX
  8
LY_1
  6
CONTINUOUS
 62
     3
  5
3A9
 10
44.263518
 20
252.756725
 30
0.0
  0
VERTEX
  8
LY_1
  6
CONTINUOUS
 62
     3
  5
3AA
 10
43.41181
 20
252.701006
 30
0.0
  0
VERTEX
  8
LY_1
  6
CONTINUOUS
 62
     3
  5
3AB
 10
42.579799
 20
252.623593
 30
0.0
  0
VERTEX
  8
LY_1
  6
CONTINUOUS
 62
     3
  5
3AC
 10
41.773817
 20
252.525076
 30
0.0
  0
VERTEX
  8
LY_1
  6
CONTINUOUS
 62
     3
  5
3AD
 10
41.0
 20
252.406205
 30
0.0
  0
VERTEX
  8
LY_1
  6
CONTINUOUS
 62
     3
  5
3AE
 10
40.264236
 20
252.267885
 30
0.0
  0
VERTEX
  8
LY_1
  6
CONTINUOUS
 62
     3
  5
3AF
 10
39.572124
 20
252.111168
 30
0.0
  0
VERTEX
  8
LY_1
  6
CONTINUOUS
 62
     3
  5
3B0
 10
38.928932
 20
251.937246
 30
0.0
  0
VERTEX
  8
LY_1
  6
CONTINUOUS
 62
     3
  5
3B1
 10
38.339556
 20
251.747444
 30
0.0
  0
VERTEX
  8
LY_1
  6
CONTINUOUS
 62
     3
  5
3B2
 10
37.80848
 20
251.543206
 30
0.0
  0
VERTEX
  8
LY_1
  6
CONTINUOUS
 62
     3
  5
3B3
 10
37.339746
 20
251.326086
 30
0.0
  0
VERTEX
  8
LY_1
  6
CONTINUOUS
 62
     3
  5
3B4
 10
36.936922
 20
251.097737
 30
0.0
  0
VERTEX
  8
LY_1
  6
CONTINUOUS
 62
     3
  5
3B5
 10
36.603074
 20
250.859897
 30
0.0
  0
VERTEX
  8
LY_1
  6
CONTINUOUS
 62
     3
  5
3B6
 10
36.340742
 20
250.614376
 30
0.0
  0
VERTEX
  8
LY_1
  6
CONTINUOUS
 62
     3
  5
3B7
 10
36.151922
 20
250.363042
 30
0.0
  0
VERTEX
  8
LY_1
  6
CONTINUOUS
 62
     3
  5
3B8
 10
36.038053
 20
250.107808
 30
0.0
  0
VERTEX
  8
LY_1
  6
CONTINUOUS
 62
     3
  5
3B9
 10
36.0
 20
249.850616
 30
0.0
  0
VERTEX
  8
LY_1
  6
CONTINUOUS
 62
     3
  5
3BA
 10
36.038053
 20
249.593425
 30
0.0
  0
VERTEX
  8
LY_1
  6
CONTINUOUS
 62
     3
  5
3BB
 10
36.151922
 20
249.338191
 30
0.0
  0
VERTEX
  8
LY_1
  6
CONTINUOUS
 62
     3
  5
3BC
 10
36.340742
 20
249.086857
 30
0.0
  0
VERTEX
  8
LY_1
  6
CONTINUOUS
 62
     3
  5
3BD
 10
36.603074
 20
248.841335
 30
0.0
  0
VERTEX
  8
LY_1
  6
CONTINUOUS
 62
     3
  5
3BE
 10
36.936922
 20
248.603495
 30
0.0
  0
VERTEX
  8
LY_1
  6
CONTINUOUS
 62
     3
  5
3BF
 10
37.339746
 20
248.375146
 30
0.0
  0
VERTEX
  8
LY_1
  6
CONTINUOUS
 62
     3
  5
3C0
 10
37.80848
 20
248.158027
 30
0.0
  0
VERTEX
  8
LY_1
  6
CONTINUOUS
 62
     3
  5
3C1
 10
38.339556
 20
247.953789
 30
0.0
  0
VERTEX
  8
LY_1
  6
CONTINUOUS
 62
     3
  5
3C2
 10
38.928932
 20
247.763987
 30
0.0
  0
VERTEX
  8
LY_1
  6
CONTINUOUS
 62
     3
  5
3C3
 10
39.572124
 20
247.590065
 30
0.0
  0
VERTEX
  8
LY_1
  6
CONTINUOUS
 62
     3
  5
3C4
 10
40.264236
 20
247.433348
 30
0.0
  0
VERTEX
  8
LY_1
  6
CONTINUOUS
 62
     3
  5
3C5
 10
41.0
 20
247.295027
 30
0.0
  0
VERTEX
  8
LY_1
  6
CONTINUOUS
 62
     3
  5
3C6
 10
41.773817
 20
247.176156
 30
0.0
  0
VERTEX
  8
LY_1
  6
CONTINUOUS
 62
     3
  5
3C7
 10
42.579799
 20
247.07764
 30
0.0
  0
VERTEX
  8
LY_1
  6
CONTINUOUS
 62
     3
  5
3C8
 10
43.41181
 20
247.000227
 30
0.0
  0
VERTEX
  8
LY_1
  6
CONTINUOUS
 62
     3
  5
3C9
 10
44.263518
 20
246.944508
 30
0.0
  0
VERTEX
  8
LY_1
  6
CONTINUOUS
 62
     3
  5
3CA
 10
45.128443
 20
246.910905
 30
0.0
  0
VERTEX
  8
LY_1
  6
CONTINUOUS
 62
     3
  5
3CB
 10
46.0
 20
246.899676
 30
0.0
  0
VERTEX
  8
LY_1
  6
CONTINUOUS
 62
     3
  5
3CC
 10
46.871557
 20
246.910905
 30
0.0
  0
VERTEX
  8
LY_1
  6
CONTINUOUS
 62
     3
  5
3CD
 10
47.736482
 20
246.944508
 30
0.0
  0
VERTEX
  8
LY_1
  6
CONTINUOUS
 62
     3
  5
3CE
 10
48.58819
 20
247.000227
 30
0.0
  0
VERTEX
  8
LY_1
  6
CONTINUOUS
 62
     3
  5
3CF
 10
49.420201
 20
247.07764
 30
0.0
  0
VERTEX
  8
LY_1
  6
CONTINUOUS
 62
     3
  5
3D0
 10
50.226183
 20
247.176156
 30
0.0
  0
VERTEX
  8
LY_1
  6
CONTINUOUS
 62
     3
  5
3D1
 10
51.0
 20
247.295027
 30
0.0
  0
VERTEX
  8
LY_1
  6
CONTINUOUS
 62
     3
  5
3D2
 10
51.735764
 20
247.433348
 30
0.0
  0
VERTEX
  8
LY_1
  6
CONTINUOUS
 62
     3
  5
3D3
 10
52.427876
 20
247.590065
 30
0.0
  0
VERTEX
  8
LY_1
  6
CONTINUOUS
 62
     3
  5
3D4
 10
53.071068
 20
247.763987
 30
0.0
  0
VERTEX
  8
LY_1
  6
CONTINUOUS
 62
     3
  5
3D5
 10
53.660444
 20
247.953789
 30
0.0
  0
VERTEX
  8
LY_1
  6
CONTINUOUS
 62
     3
  5
3D6
 10
54.19152
 20
248.158027
 30
0.0
  0
VERTEX
  8
LY_1
  6
CONTINUOUS
 62
     3
  5
3D7
 10
54.660254
 20
248.375146
 30
0.0
  0
VERTEX
  8
LY_1
  6
CONTINUOUS
 62
     3
  5
3D8
 10
55.063078
 20
248.603495
 30
0.0
  0
VERTEX
  8
LY_1
  6
CONTINUOUS
 62
     3
  5
3D9
 10
55.396926
 20
248.841335
 30
0.0
  0
VERTEX
  8
LY_1
  6
CONTINUOUS
 62
     3
  5
3DA
 10
55.659258
 20
249.086857
 30
0.0
  0
VERTEX
  8
LY_1
  6
CONTINUOUS
 62
     3
  5
3DB
 10
55.848078
 20
249.338191
 30
0.0
  0
VERTEX
  8
LY_1
  6
CONTINUOUS
 62
     3
  5
3DC
 10
55.961947
 20
249.593425
 30
0.0
  0
VERTEX
  8
LY_1
  6
CONTINUOUS
 62
     3
  5
3DD
 10
56.0
 20
249.850616
 30
0.0
  0
SEQEND
  8
LY_1
  6
CONTINUOUS
 62
     3
  5
3DE
  0
POLYLINE
  8
LY_1
  6
CONTINUOUS
 62
     3
  5
36
 66
     1
 10
0.0
 20
0.0
 30
0.0
 70
     1
  0
VERTEX
  8
LY_1
  6
CONTINUOUS
 62
     3
  5
3DF
 10
52.5
 20
249.850616
 30
0.0
  0
VERTEX
  8
LY_1
  6
CONTINUOUS
 62
     3
  5
3E0
 10
52.475266
 20
250.017791
 30
0.0
  0
VERTEX
  8
LY_1
  6
CONTINUOUS
 62
     3
  5
3E1
 10
52.40125
 20
250.183693
 30
0.0
  0
VERTEX
  8
LY_1
  6
CONTINUOUS
 62
     3
  5
3E2
 10
52.278518
 20
250.34706
 30
0.0
  0
VERTEX
  8
LY_1
  6
CONTINUOUS
 62
     3
  5
3E3
 10
52.108002
 20
250.506649
 30
0.0
  0
VERTEX
  8
LY_1
  6
CONTINUOUS
 62
     3
  5
3E4
 10
51.891001
 20
250.661245
 30
0.0
  0
VERTEX
  8
LY_1
  6
CONTINUOUS
 62
     3
  5
3E5
 10
51.629165
 20
250.809672
 30
0.0
  0
VERTEX
  8
LY_1
  6
CONTINUOUS
 62
     3
  5
3E6
 10
51.324488
 20
250.9508
 30
0.0
  0
VERTEX
  8
LY_1
  6
CONTINUOUS
 62
     3
  5
3E7
 10
50.979289
 20
251.083554
 30
0.0
  0
VERTEX
  8
LY_1
  6
CONTINUOUS
 62
     3
  5
3E8
 10
50.596194
 20
251.206926
 30
0.0
  0
VERTEX
  8
LY_1
  6
CONTINUOUS
 62
     3
  5
3E9
 10
50.178119
 20
251.319975
 30
0.0
  0
VERTEX
  8
LY_1
  6
CONTINUOUS
 62
     3
  5
3EA
 10
49.728247
 20
251.421841
 30
0.0
  0
VERTEX
  8
LY_1
  6
CONTINUOUS
 62
     3
  5
3EB
 10
49.25
 20
251.511749
 30
0.0
  0
VERTEX
  8
LY_1
  6
CONTINUOUS
 62
     3
  5
3EC
 10
48.747019
 20
251.589015
 30
0.0
  0
VERTEX
  8
LY_1
  6
CONTINUOUS
 62
     3
  5
3ED
 10
48.223131
 20
251.653051
 30
0.0
  0
VERTEX
  8
LY_1
  6
CONTINUOUS
 62
     3
  5
3EE
 10
47.682324
 20
251.703369
 30
0.0
  0
VERTEX
  8
LY_1
  6
CONTINUOUS
 62
     3
  5
3EF
 10
47.128713
 20
251.739587
 30
0.0
  0
VERTEX
  8
LY_1
  6
CONTINUOUS
 62
     3
  5
3F0
 10
46.566512
 20
251.761428
 30
0.0
  0
VERTEX
  8
LY_1
  6
CONTINUOUS
 62
     3
  5
3F1
 10
46.0
 20
251.768727
 30
0.0
  0
VERTEX
  8
LY_1
  6
CONTINUOUS
 62
     3
  5
3F2
 10
45.433488
 20
251.761428
 30
0.0
  0
VERTEX
  8
LY_1
  6
CONTINUOUS
 62
     3
  5
3F3
 10
44.871287
 20
251.739587
 30
0.0
  0
VERTEX
  8
LY_1
  6
CONTINUOUS
 62
     3
  5
3F4
 10
44.317676
 20
251.703369
 30
0.0
  0
VERTEX
  8
LY_1
  6
CONTINUOUS
 62
     3
  5
3F5
 10
43.776869
 20
251.653051
 30
0.0
  0
VERTEX
  8
LY_1
  6
CONTINUOUS
 62
     3
  5
3F6
 10
43.252981
 20
251.589015
 30
0.0
  0
VERTEX
  8
LY_1
  6
CONTINUOUS
 62
     3
  5
3F7
 10
42.75
 20
251.511749
 30
0.0
  0
VERTEX
  8
LY_1
  6
CONTINUOUS
 62
     3
  5
3F8
 10
42.271753
 20
251.421841
 30
0.0
  0
VERTEX
  8
LY_1
  6
CONTINUOUS
 62
     3
  5
3F9
 10
41.821881
 20
251.319975
 30
0.0
  0
VERTEX
  8
LY_1
  6
CONTINUOUS
 62
     3
  5
3FA
 10
41.403806
 20
251.206926
 30
0.0
  0
VERTEX
  8
LY_1
  6
CONTINUOUS
 62
     3
  5
3FB
 10
41.020711
 20
251.083554
 30
0.0
  0
VERTEX
  8
LY_1
  6
CONTINUOUS
 62
     3
  5
3FC
 10
40.675512
 20
250.9508
 30
0.0
  0
VERTEX
  8
LY_1
  6
CONTINUOUS
 62
     3
  5
3FD
 10
40.370835
 20
250.809672
 30
0.0
  0
VERTEX
  8
LY_1
  6
CONTINUOUS
 62
     3
  5
3FE
 10
40.108999
 20
250.661245
 30
0.0
  0
VERTEX
  8
LY_1
  6
CONTINUOUS
 62
     3
  5
3FF
 10
39.891998
 20
250.506649
 30
0.0
  0
VERTEX
  8
LY_1
  6
CONTINUOUS
 62
     3
  5
400
 10
39.721482
 20
250.34706
 30
0.0
  0
VERTEX
  8
LY_1
  6
CONTINUOUS
 62
     3
  5
401
 10
39.59875
 20
250.183693
 30
0.0
  0
VERTEX
  8
LY_1
  6
CONTINUOUS
 62
     3
  5
402
 10
39.524734
 20
250.017791
 30
0.0
  0
VERTEX
  8
LY_1
  6
CONTINUOUS
 62
     3
  5
403
 10
39.5
 20
249.850616
 30
0.0
  0
VERTEX
  8
LY_1
  6
CONTINUOUS
 62
     3
  5
404
 10
39.524734
 20
249.683442
 30
0.0
  0
VERTEX
  8
LY_1
  6
CONTINUOUS
 62
     3
  5
405
 10
39.59875
 20
249.51754
 30
0.0
  0
VERTEX
  8
LY_1
  6
CONTINUOUS
 62
     3
  5
406
 10
39.721482
 20
249.354173
 30
0.0
  0
VERTEX
  8
LY_1
  6
CONTINUOUS
 62
     3
  5
407
 10
39.891998
 20
249.194584
 30
0.0
  0
VERTEX
  8
LY_1
  6
CONTINUOUS
 62
     3
  5
408
 10
40.108999
 20
249.039988
 30
0.0
  0
VERTEX
  8
LY_1
  6
CONTINUOUS
 62
     3
  5
409
 10
40.370835
 20
248.891561
 30
0.0
  0
VERTEX
  8
LY_1
  6
CONTINUOUS
 62
     3
  5
40A
 10
40.675512
 20
248.750433
 30
0.0
  0
VERTEX
  8
LY_1
  6
CONTINUOUS
 62
     3
  5
40B
 10
41.020711
 20
248.617678
 30
0.0
  0
VERTEX
  8
LY_1
  6
CONTINUOUS
 62
     3
  5
40C
 10
41.403806
 20
248.494307
 30
0.0
  0
VERTEX
  8
LY_1
  6
CONTINUOUS
 62
     3
  5
40D
 10
41.821881
 20
248.381258
 30
0.0
  0
VERTEX
  8
LY_1
  6
CONTINUOUS
 62
     3
  5
40E
 10
42.271753
 20
248.279392
 30
0.0
  0
VERTEX
  8
LY_1
  6
CONTINUOUS
 62
     3
  5
40F
 10
42.75
 20
248.189483
 30
0.0
  0
VERTEX
  8
LY_1
  6
CONTINUOUS
 62
     3
  5
410
 10
43.252981
 20
248.112217
 30
0.0
  0
VERTEX
  8
LY_1
  6
CONTINUOUS
 62
     3
  5
411
 10
43.776869
 20
248.048181
 30
0.0
  0
VERTEX
  8
LY_1
  6
CONTINUOUS
 62
     3
  5
412
 10
44.317676
 20
247.997863
 30
0.0
  0
VERTEX
  8
LY_1
  6
CONTINUOUS
 62
     3
  5
413
 10
44.871287
 20
247.961646
 30
0.0
  0
VERTEX
  8
LY_1
  6
CONTINUOUS
 62
     3
  5
414
 10
45.433488
 20
247.939804
 30
0.0
  0
VERTEX
  8
LY_1
  6
CONTINUOUS
 62
     3
  5
415
 10
46.0
 20
247.932505
 30
0.0
  0
VERTEX
  8
LY_1
  6
CONTINUOUS
 62
     3
  5
416
 10
46.566512
 20
247.939804
 30
0.0
  0
VERTEX
  8
LY_1
  6
CONTINUOUS
 62
     3
  5
417
 10
47.128713
 20
247.961646
 30
0.0
  0
VERTEX
  8
LY_1
  6
CONTINUOUS
 62
     3
  5
418
 10
47.682324
 20
247.997863
 30
0.0
  0
VERTEX
  8
LY_1
  6
CONTINUOUS
 62
     3
  5
419
 10
48.223131
 20
248.048181
 30
0.0
  0
VERTEX
  8
LY_1
  6
CONTINUOUS
 62
     3
  5
41A
 10
48.747019
 20
248.112217
 30
0.0
  0
VERTEX
  8
LY_1
  6
CONTINUOUS
 62
     3
  5
41B
 10
49.25
 20
248.189483
 30
0.0
  0
VERTEX
  8
LY_1
  6
CONTINUOUS
 62
     3
  5
41C
 10
49.728247
 20
248.279392
 30
0.0
  0
VERTEX
  8
LY_1
  6
CONTINUOUS
 62
     3
  5
41D
 10
50.178119
 20
248.381258
 30
0.0
  0
VERTEX
  8
LY_1
  6
CONTINUOUS
 62
     3
  5
41E
 10
50.596194
 20
248.494307
 30
0.0
  0
VERTEX
  8
LY_1
  6
CONTINUOUS
 62
     3
  5
41F
 10
50.979289
 20
248.617678
 30
0.0
  0
VERTEX
  8
LY_1
  6
CONTINUOUS
 62
     3
  5
420
 10
51.324488
 20
248.750433
 30
0.0
  0
VERTEX
  8
LY_1
  6
CONTINUOUS
 62
     3
  5
421
 10
51.629165
 20
248.891561
 30
0.0
  0
VERTEX
  8
LY_1
  6
CONTINUOUS
 62
     3
  5
422
 10
51.891001
 20
249.039988
 30
0.0
  0
VERTEX
  8
LY_1
  6
CONTINUOUS
 62
     3
  5
423
 10
52.108002
 20
249.194584
 30
0.0
  0
VERTEX
  8
LY_1
  6
CONTINUOUS
 62
     3
  5
424
 10
52.278518
 20
249.354173
 30
0.0
  0
VERTEX
  8
LY_1
  6
CONTINUOUS
 62
     3
  5
425
 10
52.40125
 20
249.51754
 30
0.0
  0
VERTEX
  8
LY_1
  6
CONTINUOUS
 62
     3
  5
426
 10
52.475266
 20
249.683442
 30
0.0
  0
VERTEX
  8
LY_1
  6
CONTINUOUS
 62
     3
  5
427
 10
52.5
 20
249.850616
 30
0.0
  0
SEQEND
  8
LY_1
  6
CONTINUOUS
 62
     3
  5
428
  0
POLYLINE
  8
LY_1
  6
CONTINUOUS
 62
     3
  5
37
 66
     1
 10
0.0
 20
0.0
 30
0.0
 70
     1
  0
VERTEX
  8
LY_1
  6
CONTINUOUS
 62
     3
  5
429
 10
60.0
 20
249.850616
 30
0.0
  0
VERTEX
  8
LY_1
  6
CONTINUOUS
 62
     3
  5
42A
 10
59.946726
 20
250.210684
 30
0.0
  0
VERTEX
  8
LY_1
  6
CONTINUOUS
 62
     3
  5
42B
 10
59.787309
 20
250.568012
 30
0.0
  0
VERTEX
  8
LY_1
  6
CONTINUOUS
 62
     3
  5
42C
 10
59.522962
 20
250.91988
 30
0.0
  0
VERTEX
  8
LY_1
  6
CONTINUOUS
 62
     3
  5
42D
 10
59.155697
 20
251.26361
 30
0.0
  0
VERTEX
  8
LY_1
  6
CONTINUOUS
 62
     3
  5
42E
 10
58.688309
 20
251.596586
 30
0.0
  0
VERTEX
  8
LY_1
  6
CONTINUOUS
 62
     3
  5
42F
 10
58.124356
 20
251.916274
 30
0.0
  0
VERTEX
  8
LY_1
  6
CONTINUOUS
 62
     3
  5
430
 10
57.468129
 20
252.220242
 30
0.0
  0
VERTEX
  8
LY_1
  6
CONTINUOUS
 62
     3
  5
431
 10
56.724622
 20
252.506175
 30
0.0
  0
VERTEX
  8
LY_1
  6
CONTINUOUS
 62
     3
  5
432
 10
55.899495
 20
252.771898
 30
0.0
  0
VERTEX
  8
LY_1
  6
CONTINUOUS
 62
     3
  5
433
 10
54.999027
 20
253.015388
 30
0.0
  0
VERTEX
  8
LY_1
  6
CONTINUOUS
 62
     3
  5
434
 10
54.03007
 20
253.234792
 30
0.0
  0
VERTEX
  8
LY_1
  6
CONTINUOUS
 62
     3
  5
435
 10
53.0
 20
253.428441
 30
0.0
  0
VERTEX
  8
LY_1
  6
CONTINUOUS
 62
     3
  5
436
 10
51.916656
 20
253.59486
 30
0.0
  0
VERTEX
  8
LY_1
  6
CONTINUOUS
 62
     3
  5
437
 10
50.788282
 20
253.732784
 30
0.0
  0
VERTEX
  8
LY_1
  6
CONTINUOUS
 62
     3
  5
438
 10
49.623467
 20
253.841161
 30
0.0
  0
VERTEX
  8
LY_1
  6
CONTINUOUS
 62
     3
  5
439
 10
48.431074
 20
253.919169
 30
0.0
  0
VERTEX
  8
LY_1
  6
CONTINUOUS
 62
     3
  5
43A
 10
47.22018
 20
253.966212
 30
0.0
  0
VERTEX
  8
LY_1
  6
CONTINUOUS
 62
     3
  5
43B
 10
46.0
 20
253.981932
 30
0.0
  0
VERTEX
  8
LY_1
  6
CONTINUOUS
 62
     3
  5
43C
 10
44.77982
 20
253.966212
 30
0.0
  0
VERTEX
  8
LY_1
  6
CONTINUOUS
 62
     3
  5
43D
 10
43.568926
 20
253.919169
 30
0.0
  0
VERTEX
  8
LY_1
  6
CONTINUOUS
 62
     3
  5
43E
 10
42.376533
 20
253.841161
 30
0.0
  0
VERTEX
  8
LY_1
  6
CONTINUOUS
 62
     3
  5
43F
 10
41.211718
 20
253.732784
 30
0.0
  0
VERTEX
  8
LY_1
  6
CONTINUOUS
 62
     3
  5
440
 10
40.083344
 20
253.59486
 30
0.0
  0
VERTEX
  8
LY_1
  6
CONTINUOUS
 62
     3
  5
441
 10
39.0
 20
253.428441
 30
0.0
  0
VERTEX
  8
LY_1
  6
CONTINUOUS
 62
     3
  5
442
 10
37.96993
 20
253.234792
 30
0.0
  0
VERTEX
  8
LY_1
  6
CONTINUOUS
 62
     3
  5
443
 10
37.000973
 20
253.015388
 30
0.0
  0
VERTEX
  8
LY_1
  6
CONTINUOUS
 62
     3
  5
444
 10
36.100505
 20
252.771898
 30
0.0
  0
VERTEX
  8
LY_1
  6
CONTINUOUS
 62
     3
  5
445
 10
35.275378
 20
252.506175
 30
0.0
  0
VERTEX
  8
LY_1
  6
CONTINUOUS
 62
     3
  5
446
 10
34.531871
 20
252.220242
 30
0.0
  0
VERTEX
  8
LY_1
  6
CONTINUOUS
 62
     3
  5
447
 10
33.875644
 20
251.916274
 30
0.0
  0
VERTEX
  8
LY_1
  6
CONTINUOUS
 62
     3
  5
448
 10
33.311691
 20
251.596586
 30
0.0
  0
VERTEX
  8
LY_1
  6
CONTINUOUS
 62
     3
  5
449
 10
32.844303
 20
251.26361
 30
0.0
  0
VERTEX
  8
LY_1
  6
CONTINUOUS
 62
     3
  5
44A
 10
32.477038
 20
250.91988
 30
0.0
  0
VERTEX
  8
LY_1
  6
CONTINUOUS
 62
     3
  5
44B
 10
32.212691
 20
250.568012
 30
0.0
  0
VERTEX
  8
LY_1
  6
CONTINUOUS
 62
     3
  5
44C
 10
32.053274
 20
250.210684
 30
0.0
  0
VERTEX
  8
LY_1
  6
CONTINUOUS
 62
     3
  5
44D
 10
32.0
 20
249.850616
 30
0.0
  0
VERTEX
  8
LY_1
  6
CONTINUOUS
 62
     3
  5
44E
 10
32.053274
 20
249.490548
 30
0.0
  0
VERTEX
  8
LY_1
  6
CONTINUOUS
 62
     3
  5
44F
 10
32.212691
 20
249.133221
 30
0.0
  0
VERTEX
  8
LY_1
  6
CONTINUOUS
 62
     3
  5
450
 10
32.477038
 20
248.781353
 30
0.0
  0
VERTEX
  8
LY_1
  6
CONTINUOUS
 62
     3
  5
451
 10
32.844303
 20
248.437623
 30
0.0
  0
VERTEX
  8
LY_1
  6
CONTINUOUS
 62
     3
  5
452
 10
33.311691
 20
248.104647
 30
0.0
  0
VERTEX
  8
LY_1
  6
CONTINUOUS
 62
     3
  5
453
 10
33.875644
 20
247.784958
 30
0.0
  0
VERTEX
  8
LY_1
  6
CONTINUOUS
 62
     3
  5
454
 10
34.531871
 20
247.480991
 30
0.0
  0
VERTEX
  8
LY_1
  6
CONTINUOUS
 62
     3
  5
455
 10
35.275378
 20
247.195057
 30
0.0
  0
VERTEX
  8
LY_1
  6
CONTINUOUS
 62
     3
  5
456
 10
36.100505
 20
246.929335
 30
0.0
  0
VERTEX
  8
LY_1
  6
CONTINUOUS
 62
     3
  5
457
 10
37.000973
 20
246.685844
 30
0.0
  0
VERTEX
  8
LY_1
  6
CONTINUOUS
 62
     3
  5
458
 10
37.96993
 20
246.46644
 30
0.0
  0
VERTEX
  8
LY_1
  6
CONTINUOUS
 62
     3
  5
459
 10
39.0
 20
246.272792
 30
0.0
  0
VERTEX
  8
LY_1
  6
CONTINUOUS
 62
     3
  5
45A
 10
40.083344
 20
246.106372
 30
0.0
  0
VERTEX
  8
LY_1
  6
CONTINUOUS
 62
     3
  5
45B
 10
41.211718
 20
245.968449
 30
0.0
  0
VERTEX
  8
LY_1
  6
CONTINUOUS
 62
     3
  5
45C
 10
42.376533
 20
245.860071
 30
0.0
  0
VERTEX
  8
LY_1
  6
CONTINUOUS
 62
     3
  5
45D
 10
43.568926
 20
245.782064
 30
0.0
  0
VERTEX
  8
LY_1
  6
CONTINUOUS
 62
     3
  5
45E
 10
44.77982
 20
245.735021
 30
0.0
  0
VERTEX
  8
LY_1
  6
CONTINUOUS
 62
     3
  5
45F
 10
46.0
 20
245.7193
 30
0.0
  0
VERTEX
  8
LY_1
  6
CONTINUOUS
 62
     3
  5
460
 10
47.22018
 20
245.735021
 30
0.0
  0
VERTEX
  8
LY_1
  6
CONTINUOUS
 62
     3
  5
461
 10
48.431074
 20
245.782064
 30
0.0
  0
VERTEX
  8
LY_1
  6
CONTINUOUS
 62
     3
  5
462
 10
49.623467
 20
245.860071
 30
0.0
  0
VERTEX
  8
LY_1
  6
CONTINUOUS
 62
     3
  5
463
 10
50.788282
 20
245.968449
 30
0.0
  0
VERTEX
  8
LY_1
  6
CONTINUOUS
 62
     3
  5
464
 10
51.916656
 20
246.106372
 30
0.0
  0
VERTEX
  8
LY_1
  6
CONTINUOUS
 62
     3
  5
465
 10
53.0
 20
246.272792
 30
0.0
  0
VERTEX
  8
LY_1
  6
CONTINUOUS
 62
     3
  5
466
 10
54.03007
 20
246.46644
 30
0.0
  0
VERTEX
  8
LY_1
  6
CONTINUOUS
 62
     3
  5
467
 10
54.999027
 20
246.685844
 30
0.0
  0
VERTEX
  8
LY_1
  6
CONTINUOUS
 62
     3
  5
468
 10
55.899495
 20
246.929335
 30
0.0
  0
VERTEX
  8
LY_1
  6
CONTINUOUS
 62
     3
  5
469
 10
56.724622
 20
247.195057
 30
0.0
  0
VERTEX
  8
LY_1
  6
CONTINUOUS
 62
     3
  5
46A
 10
57.468129
 20
247.480991
 30
0.0
  0
VERTEX
  8
LY_1
  6
CONTINUOUS
 62
     3
  5
46B
 10
58.124356
 20
247.784958
 30
0.0
  0
VERTEX
  8
LY_1
  6
CONTINUOUS
 62
     3
  5
46C
 10
58.688309
 20
248.104647
 30
0.0
  0
VERTEX
  8
LY_1
  6
CONTINUOUS
 62
     3
  5
46D
 10
59.155697
 20
248.437623
 30
0.0
  0
VERTEX
  8
LY_1
  6
CONTINUOUS
 62
     3
  5
46E
 10
59.522962
 20
248.781353
 30
0.0
  0
VERTEX
  8
LY_1
  6
CONTINUOUS
 62
     3
  5
46F
 10
59.787309
 20
249.133221
 30
0.0
  0
VERTEX
  8
LY_1
  6
CONTINUOUS
 62
     3
  5
470
 10
59.946726
 20
249.490548
 30
0.0
  0
VERTEX
  8
LY_1
  6
CONTINUOUS
 62
     3
  5
471
 10
60.0
 20
249.850616
 30
0.0
  0
SEQEND
  8
LY_1
  6
CONTINUOUS
 62
     3
  5
472
  0
POLYLINE
  8
LY_1
  6
CONTINUOUS
 62
     3
  5
38
 66
     1
 10
0.0
 20
0.0
 30
0.0
 70
     1
  0
VERTEX
  8
LY_1
  6
CONTINUOUS
 62
     3
  5
473
 10
60.0
 20
273.576989
 30
0.0
  0
VERTEX
  8
LY_1
  6
CONTINUOUS
 62
     3
  5
474
 10
59.946726
 20
273.937057
 30
0.0
  0
VERTEX
  8
LY_1
  6
CONTINUOUS
 62
     3
  5
475
 10
59.787309
 20
274.294385
 30
0.0
  0
VERTEX
  8
LY_1
  6
CONTINUOUS
 62
     3
  5
476
 10
59.522962
 20
274.646252
 30
0.0
  0
VERTEX
  8
LY_1
  6
CONTINUOUS
 62
     3
  5
477
 10
59.155697
 20
274.989982
 30
0.0
  0
VERTEX
  8
LY_1
  6
CONTINUOUS
 62
     3
  5
478
 10
58.688309
 20
275.322959
 30
0.0
  0
VERTEX
  8
LY_1
  6
CONTINUOUS
 62
     3
  5
479
 10
58.124356
 20
275.642647
 30
0.0
  0
VERTEX
  8
LY_1
  6
CONTINUOUS
 62
     3
  5
47A
 10
57.468129
 20
275.946615
 30
0.0
  0
VERTEX
  8
LY_1
  6
CONTINUOUS
 62
     3
  5
47B
 10
56.724622
 20
276.232548
 30
0.0
  0
VERTEX
  8
LY_1
  6
CONTINUOUS
 62
     3
  5
47C
 10
55.899495
 20
276.498271
 30
0.0
  0
VERTEX
  8
LY_1
  6
CONTINUOUS
 62
     3
  5
47D
 10
54.999027
 20
276.741761
 30
0.0
  0
VERTEX
  8
LY_1
  6
CONTINUOUS
 62
     3
  5
47E
 10
54.03007
 20
276.961165
 30
0.0
  0
VERTEX
  8
LY_1
  6
CONTINUOUS
 62
     3
  5
47F
 10
53.0
 20
277.154814
 30
0.0
  0
VERTEX
  8
LY_1
  6
CONTINUOUS
 62
     3
  5
480
 10
51.916656
 20
277.321233
 30
0.0
  0
VERTEX
  8
LY_1
  6
CONTINUOUS
 62
     3
  5
481
 10
50.788282
 20
277.459156
 30
0.0
  0
VERTEX
  8
LY_1
  6
CONTINUOUS
 62
     3
  5
482
 10
49.623467
 20
277.567534
 30
0.0
  0
VERTEX
  8
LY_1
  6
CONTINUOUS
 62
     3
  5
483
 10
48.431074
 20
277.645541
 30
0.0
  0
VERTEX
  8
LY_1
  6
CONTINUOUS
 62
     3
  5
484
 10
47.22018
 20
277.692584
 30
0.0
  0
VERTEX
  8
LY_1
  6
CONTINUOUS
 62
     3
  5
485
 10
46.0
 20
277.708305
 30
0.0
  0
VERTEX
  8
LY_1
  6
CONTINUOUS
 62
     3
  5
486
 10
44.77982
 20
277.692584
 30
0.0
  0
VERTEX
  8
LY_1
  6
CONTINUOUS
 62
     3
  5
487
 10
43.568926
 20
277.645541
 30
0.0
  0
VERTEX
  8
LY_1
  6
CONTINUOUS
 62
     3
  5
488
 10
42.376533
 20
277.567534
 30
0.0
  0
VERTEX
  8
LY_1
  6
CONTINUOUS
 62
     3
  5
489
 10
41.211718
 20
277.459156
 30
0.0
  0
VERTEX
  8
LY_1
  6
CONTINUOUS
 62
     3
  5
48A
 10
40.083344
 20
277.321233
 30
0.0
  0
VERTEX
  8
LY_1
  6
CONTINUOUS
 62
     3
  5
48B
 10
39.0
 20
277.154814
 30
0.0
  0
VERTEX
  8
LY_1
  6
CONTINUOUS
 62
     3
  5
48C
 10
37.96993
 20
276.961165
 30
0.0
  0
VERTEX
  8
LY_1
  6
CONTINUOUS
 62
     3
  5
48D
 10
37.000973
 20
276.741761
 30
0.0
  0
VERTEX
  8
LY_1
  6
CONTINUOUS
 62
     3
  5
48E
 10
36.100505
 20
276.498271
 30
0.0
  0
VERTEX
  8
LY_1
  6
CONTINUOUS
 62
     3
  5
48F
 10
35.275378
 20
276.232548
 30
0.0
  0
VERTEX
  8
LY_1
  6
CONTINUOUS
 62
     3
  5
490
 10
34.531871
 20
275.946615
 30
0.0
  0
VERTEX
  8
LY_1
  6
CONTINUOUS
 62
     3
  5
491
 10
33.875644
 20
275.642647
 30
0.0
  0
VERTEX
  8
LY_1
  6
CONTINUOUS
 62
     3
  5
492
 10
33.311691
 20
275.322959
 30
0.0
  0
VERTEX
  8
LY_1
  6
CONTINUOUS
 62
     3
  5
493
 10
32.844303
 20
274.989982
 30
0.0
  0
VERTEX
  8
LY_1
  6
CONTINUOUS
 62
     3
  5
494
 10
32.477038
 20
274.646252
 30
0.0
  0
VERTEX
  8
LY_1
  6
CONTINUOUS
 62
     3
  5
495
 10
32.212691
 20
274.294385
 30
0.0
  0
VERTEX
  8
LY_1
  6
CONTINUOUS
 62
     3
  5
496
 10
32.053274
 20
273.937057
 30
0.0
  0
VERTEX
  8
LY_1
  6
CONTINUOUS
 62
     3
  5
497
 10
32.0
 20
273.576989
 30
0.0
  0
VERTEX
  8
LY_1
  6
CONTINUOUS
 62
     3
  5
498
 10
32.053274
 20
273.216921
 30
0.0
  0
VERTEX
  8
LY_1
  6
CONTINUOUS
 62
     3
  5
499
 10
32.212691
 20
272.859594
 30
0.0
  0
VERTEX
  8
LY_1
  6
CONTINUOUS
 62
     3
  5
49A
 10
32.477038
 20
272.507726
 30
0.0
  0
VERTEX
  8
LY_1
  6
CONTINUOUS
 62
     3
  5
49B
 10
32.844303
 20
272.163996
 30
0.0
  0
VERTEX
  8
LY_1
  6
CONTINUOUS
 62
     3
  5
49C
 10
33.311691
 20
271.831019
 30
0.0
  0
VERTEX
  8
LY_1
  6
CONTINUOUS
 62
     3
  5
49D
 10
33.875644
 20
271.511331
 30
0.0
  0
VERTEX
  8
LY_1
  6
CONTINUOUS
 62
     3
  5
49E
 10
34.531871
 20
271.207363
 30
0.0
  0
VERTEX
  8
LY_1
  6
CONTINUOUS
 62
     3
  5
49F
 10
35.275378
 20
270.92143
 30
0.0
  0
VERTEX
  8
LY_1
  6
CONTINUOUS
 62
     3
  5
4A0
 10
36.100505
 20
270.655707
 30
0.0
  0
VERTEX
  8
LY_1
  6
CONTINUOUS
 62
     3
  5
4A1
 10
37.000973
 20
270.412217
 30
0.0
  0
VERTEX
  8
LY_1
  6
CONTINUOUS
 62
     3
  5
4A2
 10
37.96993
 20
270.192813
 30
0.0
  0
VERTEX
  8
LY_1
  6
CONTINUOUS
 62
     3
  5
4A3
 10
39.0
 20
269.999164
 30
0.0
  0
VERTEX
  8
LY_1
  6
CONTINUOUS
 62
     3
  5
4A4
 10
40.083344
 20
269.832745
 30
0.0
  0
VERTEX
  8
LY_1
  6
CONTINUOUS
 62
     3
  5
4A5
 10
41.211718
 20
269.694822
 30
0.0
  0
VERTEX
  8
LY_1
  6
CONTINUOUS
 62
     3
  5
4A6
 10
42.376533
 20
269.586444
 30
0.0
  0
VERTEX
  8
LY_1
  6
CONTINUOUS
 62
     3
  5
4A7
 10
43.568926
 20
269.508437
 30
0.0
  0
VERTEX
  8
LY_1
  6
CONTINUOUS
 62
     3
  5
4A8
 10
44.77982
 20
269.461394
 30
0.0
  0
VERTEX
  8
LY_1
  6
CONTINUOUS
 62
     3
  5
4A9
 10
46.0
 20
269.445673
 30
0.0
  0
VERTEX
  8
LY_1
  6
CONTINUOUS
 62
     3
  5
4AA
 10
47.22018
 20
269.461394
 30
0.0
  0
VERTEX
  8
LY_1
  6
CONTINUOUS
 62
     3
  5
4AB
 10
48.431074
 20
269.508437
 30
0.0
  0
VERTEX
  8
LY_1
  6
CONTINUOUS
 62
     3
  5
4AC
 10
49.623467
 20
269.586444
 30
0.0
  0
VERTEX
  8
LY_1
  6
CONTINUOUS
 62
     3
  5
4AD
 10
50.788282
 20
269.694822
 30
0.0
  0
VERTEX
  8
LY_1
  6
CONTINUOUS
 62
     3
  5
4AE
 10
51.916656
 20
269.832745
 30
0.0
  0
VERTEX
  8
LY_1
  6
CONTINUOUS
 62
     3
  5
4AF
 10
53.0
 20
269.999164
 30
0.0
  0
VERTEX
  8
LY_1
  6
CONTINUOUS
 62
     3
  5
4B0
 10
54.03007
 20
270.192813
 30
0.0
  0
VERTEX
  8
LY_1
  6
CONTINUOUS
 62
     3
  5
4B1
 10
54.999027
 20
270.412217
 30
0.0
  0
VERTEX
  8
LY_1
  6
CONTINUOUS
 62
     3
  5
4B2
 10
55.899495
 20
270.655707
 30
0.0
  0
VERTEX
  8
LY_1
  6
CONTINUOUS
 62
     3
  5
4B3
 10
56.724622
 20
270.92143
 30
0.0
  0
VERTEX
  8
LY_1
  6
CONTINUOUS
 62
     3
  5
4B4
 10
57.468129
 20
271.207363
 30
0.0
  0
VERTEX
  8
LY_1
  6
CONTINUOUS
 62
     3
  5
4B5
 10
58.124356
 20
271.511331
 30
0.0
  0
VERTEX
  8
LY_1
  6
CONTINUOUS
 62
     3
  5
4B6
 10
58.688309
 20
271.831019
 30
0.0
  0
VERTEX
  8
LY_1
  6
CONTINUOUS
 62
     3
  5
4B7
 10
59.155697
 20
272.163996
 30
0.0
  0
VERTEX
  8
LY_1
  6
CONTINUOUS
 62
     3
  5
4B8
 10
59.522962
 20
272.507726
 30
0.0
  0
VERTEX
  8
LY_1
  6
CONTINUOUS
 62
     3
  5
4B9
 10
59.787309
 20
272.859594
 30
0.0
  0
VERTEX
  8
LY_1
  6
CONTINUOUS
 62
     3
  5
4BA
 10
59.946726
 20
273.216921
 30
0.0
  0
VERTEX
  8
LY_1
  6
CONTINUOUS
 62
     3
  5
4BB
 10
60.0
 20
273.576989
 30
0.0
  0
SEQEND
  8
LY_1
  6
CONTINUOUS
 62
     3
  5
4BC
  0
LINE
  8
LY_1
  6
CONTINUOUS
 62
     3
  5
39
 10
32.0
 20
249.850616
 30
0.0
 11
32.0
 21
264.44698
 31
0.0
  0
LINE
  8
LY_1
  6
CONTINUOUS
 62
     3
  5
3A
 10
60.0
 20
249.850616
 30
0.0
 11
60.0
 21
298.824109
 31
0.0
  0
LINE
  8
LY_1
  6
CONTINUOUS
 62
     3
  5
3B
 10
32.0
 20
273.576989
 30
0.0
 11
32.0
 21
291.433073
 31
0.0
  0
POLYLINE
  8
LY_1
  6
CONTINUOUS
 62
     3
  5
3C
 66
     1
 10
0.0
 20
0.0
 30
0.0
  0
VERTEX
  8
LY_1
  6
CONTINUOUS
 62
     3
  5
4BD
 10
32.0
 20
264.44698
 30
0.0
  0
VERTEX
  8
LY_1
  6
CONTINUOUS
 62
     3
  5
4BE
 10
32.097042
 20
264.932564
 30
0.0
  0
VERTEX
  8
LY_1
  6
CONTINUOUS
 62
     3
  5
4BF
 10
32.386821
 20
265.411416
 30
0.0
  0
VERTEX
  8
LY_1
  6
CONTINUOUS
 62
     3
  5
4C0
 10
32.865321
 20
265.876899
 30
0.0
  0
VERTEX
  8
LY_1
  6
CONTINUOUS
 62
     3
  5
4C1
 10
33.525909
 20
266.322558
 30
0.0
  0
VERTEX
  8
LY_1
  6
CONTINUOUS
 62
     3
  5
4C2
 10
34.359425
 20
266.742216
 30
0.0
  0
VERTEX
  8
LY_1
  6
CONTINUOUS
 62
     3
  5
4C3
 10
35.354316
 20
267.130055
 30
0.0
  0
VERTEX
  8
LY_1
  6
CONTINUOUS
 62
     3
  5
4C4
 10
36.49679
 20
267.480698
 30
0.0
  0
VERTEX
  8
LY_1
  6
CONTINUOUS
 62
     3
  5
4C5
 10
37.771006
 20
267.789285
 30
0.0
  0
VERTEX
  8
LY_1
  6
CONTINUOUS
 62
     3
  5
4C6
 10
39.159303
 20
268.051537
 30
0.0
  0
VERTEX
  8
LY_1
  6
CONTINUOUS
 62
     3
  5
4C7
 10
40.642432
 20
268.263818
 30
0.0
  0
VERTEX
  8
LY_1
  6
CONTINUOUS
 62
     3
  5
4C8
 10
42.199834
 20
268.423187
 30
0.0
  0
VERTEX
  8
LY_1
  6
CONTINUOUS
 62
     3
  5
4C9
 10
43.809917
 20
268.527432
 30
0.0
  0
VERTEX
  8
LY_1
  6
CONTINUOUS
 62
     3
  5
4CA
 10
44.901573
 20
268.56556
 30
0.0
  0
VERTEX
  8
LY_1
  6
CONTINUOUS
 62
     3
  5
4CB
 10
46.0
 20
268.578296
 30
0.0
  0
SEQEND
  8
LY_1
  6
CONTINUOUS
 62
     3
  5
4CC
  0
POLYLINE
  8
LY_1
  6
CONTINUOUS
 62
     3
  5
3D
 66
     1
 10
0.0
 20
0.0
 30
0.0
  0
VERTEX
  8
LY_1
  6
CONTINUOUS
 62
     3
  5
4CD
 10
46.0
 20
302.955425
 30
0.0
  0
VERTEX
  8
LY_1
  6
CONTINUOUS
 62
     3
  5
4CE
 10
48.190083
 20
302.904562
 30
0.0
  0
VERTEX
  8
LY_1
  6
CONTINUOUS
 62
     3
  5
4CF
 10
50.326238
 20
302.753224
 30
0.0
  0
VERTEX
  8
LY_1
  6
CONTINUOUS
 62
     3
  5
4D0
 10
52.355867
 20
302.505138
 30
0.0
  0
VERTEX
  8
LY_1
  6
CONTINUOUS
 62
     3
  5
4D1
 10
54.228994
 20
302.166414
 30
0.0
  0
VERTEX
  8
LY_1
  6
CONTINUOUS
 62
     3
  5
4D2
 10
55.899495
 20
301.74539
 30
0.0
  0
VERTEX
  8
LY_1
  6
CONTINUOUS
 62
     3
  5
4D3
 10
57.326238
 20
301.252436
 30
0.0
  0
VERTEX
  8
LY_1
  6
CONTINUOUS
 62
     3
  5
4D4
 10
58.474091
 20
300.699687
 30
0.0
  0
VERTEX
  8
LY_1
  6
CONTINUOUS
 62
     3
  5
4D5
 10
59.314791
 20
300.100756
 30
0.0
  0
VERTEX
  8
LY_1
  6
CONTINUOUS
 62
     3
  5
4D6
 10
59.827637
 20
299.470389
 30
0.0
  0
VERTEX
  8
LY_1
  6
CONTINUOUS
 62
     3
  5
4D7
 10
60.0
 20
298.824109
 30
0.0
  0
SEQEND
  8
LY_1
  6
CONTINUOUS
 62
     3
  5
4D8
  0
POLYLINE
  8
LY_1
  6
CONTINUOUS
 62
     3
  5
3E
 66
     1
 10
0.0
 20
0.0
 30
0.0
  0
VERTEX
  8
LY_1
  6
CONTINUOUS
 62
     3
  5
4D9
 10
60.0
 20
291.433073
 30
0.0
  0
VERTEX
  8
LY_1
  6
CONTINUOUS
 62
     3
  5
4DA
 10
59.880228
 20
291.972318
 30
0.0
  0
VERTEX
  8
LY_1
  6
CONTINUOUS
 62
     3
  5
4DB
 10
59.522962
 20
292.502336
 30
0.0
  0
VERTEX
  8
LY_1
  6
CONTINUOUS
 62
     3
  5
4DC
 10
58.934313
 20
293.014059
 30
0.0
  0
VERTEX
  8
LY_1
  6
CONTINUOUS
 62
     3
  5
4DD
 10
58.124356
 20
293.498731
 30
0.0
  0
VERTEX
  8
LY_1
  6
CONTINUOUS
 62
     3
  5
4DE
 10
57.106947
 20
293.948058
 30
0.0
  0
VERTEX
  8
LY_1
  6
CONTINUOUS
 62
     3
  5
4DF
 10
55.899495
 20
294.354354
 30
0.0
  0
VERTEX
  8
LY_1
  6
CONTINUOUS
 62
     3
  5
4E0
 10
54.52266
 20
294.710666
 30
0.0
  0
VERTEX
  8
LY_1
  6
CONTINUOUS
 62
     3
  5
4E1
 10
53.0
 20
295.010897
 30
0.0
  0
VERTEX
  8
LY_1
  6
CONTINUOUS
 62
     3
  5
4E2
 10
51.357568
 20
295.249911
 30
0.0
  0
VERTEX
  8
LY_1
  6
CONTINUOUS
 62
     3
  5
4E3
 10
49.623467
 20
295.423618
 30
0.0
  0
VERTEX
  8
LY_1
  6
CONTINUOUS
 62
     3
  5
4E4
 10
47.827367
 20
295.529045
 30
0.0
  0
VERTEX
  8
LY_1
  6
CONTINUOUS
 62
     3
  5
4E5
 10
46.0
 20
295.564389
 30
0.0
  0
VERTEX
  8
LY_1
  6
CONTINUOUS
 62
     3
  5
4E6
 10
44.172633
 20
295.529045
 30
0.0
  0
VERTEX
  8
LY_1
  6
CONTINUOUS
 62
     3
  5
4E7
 10
42.376533
 20
295.423618
 30
0.0
  0
VERTEX
  8
LY_1
  6
CONTINUOUS
 62
     3
  5
4E8
 10
40.642432
 20
295.249911
 30
0.0
  0
VERTEX
  8
LY_1
  6
CONTINUOUS
 62
     3
  5
4E9
 10
39.0
 20
295.010897
 30
0.0
  0
VERTEX
  8
LY_1
  6
CONTINUOUS
 62
     3
  5
4EA
 10
37.47734
 20
294.710666
 30
0.0
  0
VERTEX
  8
LY_1
  6
CONTINUOUS
 62
     3
  5
4EB
 10
36.100505
 20
294.354354
 30
0.0
  0
VERTEX
  8
LY_1
  6
CONTINUOUS
 62
     3
  5
4EC
 10
34.893053
 20
293.948058
 30
0.0
  0
VERTEX
  8
LY_1
  6
CONTINUOUS
 62
     3
  5
4ED
 10
33.875644
 20
293.498731
 30
0.0
  0
VERTEX
  8
LY_1
  6
CONTINUOUS
 62
     3
  5
4EE
 10
33.065687
 20
293.014059
 30
0.0
  0
VERTEX
  8
LY_1
  6
CONTINUOUS
 62
     3
  5
4EF
 10
32.477038
 20
292.502336
 30
0.0
  0
VERTEX
  8
LY_1
  6
CONTINUOUS
 62
     3
  5
4F0
 10
32.119772
 20
291.972318
 30
0.0
  0
VERTEX
  8
LY_1
  6
CONTINUOUS
 62
     3
  5
4F1
 10
32.0
 20
291.433073
 30
0.0
  0
VERTEX
  8
LY_1
  6
CONTINUOUS
 62
     3
  5
4F2
 10
32.0
 20
291.433073
 30
0.0
  0
SEQEND
  8
LY_1
  6
CONTINUOUS
 62
     3
  5
4F3
  0
LINE
  8
LY_1
  6
CONTINUOUS
 62
     3
  5
3F
 10
-34.0
 20
302.955425
 30
0.0
 11
46.0
 21
302.955425
 31
0.0
  0
LINE
  8
LY_1
  6
CONTINUOUS
 62
     3
  5
40
 10
32.0
 20
253.731844
 30
0.0
 11
-20.0
 21
253.731844
 31
0.0
  0
POLYLINE
  8
LY_1
  6
CONTINUOUS
 62
     3
  5
41
 66
     1
 10
0.0
 20
0.0
 30
0.0
  0
VERTEX
  8
LY_1
  6
CONTINUOUS
 62
     3
  5
4F4
 10
-20.0
 20
291.433073
 30
0.0
  0
VERTEX
  8
LY_1
  6
CONTINUOUS
 62
     3
  5
4F5
 10
-20.119772
 20
291.972318
 30
0.0
  0
VERTEX
  8
LY_1
  6
CONTINUOUS
 62
     3
  5
4F6
 10
-20.477038
 20
292.502336
 30
0.0
  0
VERTEX
  8
LY_1
  6
CONTINUOUS
 62
     3
  5
4F7
 10
-21.065687
 20
293.014059
 30
0.0
  0
VERTEX
  8
LY_1
  6
CONTINUOUS
 62
     3
  5
4F8
 10
-21.875644
 20
293.498731
 30
0.0
  0
VERTEX
  8
LY_1
  6
CONTINUOUS
 62
     3
  5
4F9
 10
-22.893053
 20
293.948058
 30
0.0
  0
VERTEX
  8
LY_1
  6
CONTINUOUS
 62
     3
  5
4FA
 10
-24.100505
 20
294.354354
 30
0.0
  0
VERTEX
  8
LY_1
  6
CONTINUOUS
 62
     3
  5
4FB
 10
-25.47734
 20
294.710666
 30
0.0
  0
VERTEX
  8
LY_1
  6
CONTINUOUS
 62
     3
  5
4FC
 10
-27.0
 20
295.010897
 30
0.0
  0
VERTEX
  8
LY_1
  6
CONTINUOUS
 62
     3
  5
4FD
 10
-28.642432
 20
295.249911
 30
0.0
  0
VERTEX
  8
LY_1
  6
CONTINUOUS
 62
     3
  5
4FE
 10
-30.376533
 20
295.423618
 30
0.0
  0
VERTEX
  8
LY_1
  6
CONTINUOUS
 62
     3
  5
4FF
 10
-32.172633
 20
295.529045
 30
0.0
  0
VERTEX
  8
LY_1
  6
CONTINUOUS
 62
     3
  5
500
 10
-34.0
 20
295.564389
 30
0.0
  0
VERTEX
  8
LY_1
  6
CONTINUOUS
 62
     3
  5
501
 10
-35.827367
 20
295.529045
 30
0.0
  0
VERTEX
  8
LY_1
  6
CONTINUOUS
 62
     3
  5
502
 10
-37.623467
 20
295.423618
 30
0.0
  0
VERTEX
  8
LY_1
  6
CONTINUOUS
 62
     3
  5
503
 10
-39.357568
 20
295.249911
 30
0.0
  0
VERTEX
  8
LY_1
  6
CONTINUOUS
 62
     3
  5
504
 10
-41.0
 20
295.010897
 30
0.0
  0
VERTEX
  8
LY_1
  6
CONTINUOUS
 62
     3
  5
505
 10
-42.52266
 20
294.710666
 30
0.0
  0
VERTEX
  8
LY_1
  6
CONTINUOUS
 62
     3
  5
506
 10
-43.899495
 20
294.354354
 30
0.0
  0
VERTEX
  8
LY_1
  6
CONTINUOUS
 62
     3
  5
507
 10
-45.106947
 20
293.948058
 30
0.0
  0
VERTEX
  8
LY_1
  6
CONTINUOUS
 62
     3
  5
508
 10
-46.124356
 20
293.498731
 30
0.0
  0
VERTEX
  8
LY_1
  6
CONTINUOUS
 62
     3
  5
509
 10
-46.934313
 20
293.014059
 30
0.0
  0
VERTEX
  8
LY_1
  6
CONTINUOUS
 62
     3
  5
50A
 10
-47.522962
 20
292.502336
 30
0.0
  0
VERTEX
  8
LY_1
  6
CONTINUOUS
 62
     3
  5
50B
 10
-47.880228
 20
291.972318
 30
0.0
  0
VERTEX
  8
LY_1
  6
CONTINUOUS
 62
     3
  5
50C
 10
-48.0
 20
291.433073
 30
0.0
  0
SEQEND
  8
LY_1
  6
CONTINUOUS
 62
     3
  5
50D
  0
POLYLINE
  8
LY_1
  6
CONTINUOUS
 62
     3
  5
42
 66
     1
 10
0.0
 20
0.0
 30
0.0
  0
VERTEX
  8
LY_1
  6
CONTINUOUS
 62
     3
  5
50E
 10
-34.0
 20
302.955425
 30
0.0
  0
VERTEX
  8
LY_1
  6
CONTINUOUS
 62
     3
  5
50F
 10
-35.645524
 20
302.926789
 30
0.0
  0
VERTEX
  8
LY_1
  6
CONTINUOUS
 62
     3
  5
510
 10
-37.268235
 20
302.841276
 30
0.0
  0
VERTEX
  8
LY_1
  6
CONTINUOUS
 62
     3
  5
511
 10
-38.845639
 20
302.700074
 30
0.0
  0
VERTEX
  8
LY_1
  6
CONTINUOUS
 62
     3
  5
512
 10
-40.355867
 20
302.505138
 30
0.0
  0
VERTEX
  8
LY_1
  6
CONTINUOUS
 62
     3
  5
513
 10
-41.777983
 20
302.259173
 30
0.0
  0
VERTEX
  8
LY_1
  6
CONTINUOUS
 62
     3
  5
514
 10
-43.092273
 20
301.965586
 30
0.0
  0
VERTEX
  8
LY_1
  6
CONTINUOUS
 62
     3
  5
515
 10
-44.280515
 20
301.628449
 30
0.0
  0
VERTEX
  8
LY_1
  6
CONTINUOUS
 62
     3
  5
516
 10
-45.326238
 20
301.252436
 30
0.0
  0
VERTEX
  8
LY_1
  6
CONTINUOUS
 62
     3
  5
517
 10
-46.214944
 20
300.842758
 30
0.0
  0
VERTEX
  8
LY_1
  6
CONTINUOUS
 62
     3
  5
518
 10
-46.934313
 20
300.405095
 30
0.0
  0
VERTEX
  8
LY_1
  6
CONTINUOUS
 62
     3
  5
519
 10
-47.474373
 20
299.945515
 30
0.0
  0
VERTEX
  8
LY_1
  6
CONTINUOUS
 62
     3
  5
51A
 10
-47.827637
 20
299.470389
 30
0.0
  0
VERTEX
  8
LY_1
  6
CONTINUOUS
 62
     3
  5
51B
 10
-47.956843
 20
299.148248
 30
0.0
  0
VERTEX
  8
LY_1
  6
CONTINUOUS
 62
     3
  5
51C
 10
-48.0
 20
298.824109
 30
0.0
  0
SEQEND
  8
LY_1
  6
CONTINUOUS
 62
     3
  5
51D
  0
LINE
  8
LY_1
  6
CONTINUOUS
 62
     3
  5
43
 10
-20.0
 20
253.731844
 30
0.0
 11
32.0
 21
253.731844
 31
0.0
  0
POLYLINE
  8
LY_1
  6
CONTINUOUS
 62
     3
  5
44
 66
     1
 10
0.0
 20
0.0
 30
0.0
  0
VERTEX
  8
LY_1
  6
CONTINUOUS
 62
     3
  5
51E
 10
-20.0
 20
264.44698
 30
0.0
  0
VERTEX
  8
LY_1
  6
CONTINUOUS
 62
     3
  5
51F
 10
-20.172363
 20
265.09326
 30
0.0
  0
VERTEX
  8
LY_1
  6
CONTINUOUS
 62
     3
  5
520
 10
-20.685209
 20
265.723627
 30
0.0
  0
VERTEX
  8
LY_1
  6
CONTINUOUS
 62
     3
  5
521
 10
-21.525909
 20
266.322558
 30
0.0
  0
VERTEX
  8
LY_1
  6
CONTINUOUS
 62
     3
  5
522
 10
-22.673762
 20
266.875306
 30
0.0
  0
VERTEX
  8
LY_1
  6
CONTINUOUS
 62
     3
  5
523
 10
-24.100505
 20
267.368261
 30
0.0
  0
VERTEX
  8
LY_1
  6
CONTINUOUS
 62
     3
  5
524
 10
-25.771006
 20
267.789285
 30
0.0
  0
VERTEX
  8
LY_1
  6
CONTINUOUS
 62
     3
  5
525
 10
-27.644133
 20
268.128009
 30
0.0
  0
VERTEX
  8
LY_1
  6
CONTINUOUS
 62
     3
  5
526
 10
-29.673762
 20
268.376095
 30
0.0
  0
VERTEX
  8
LY_1
  6
CONTINUOUS
 62
     3
  5
527
 10
-31.809917
 20
268.527432
 30
0.0
  0
VERTEX
  8
LY_1
  6
CONTINUOUS
 62
     3
  5
528
 10
-34.0
 20
268.578296
 30
0.0
  0
SEQEND
  8
LY_1
  6
CONTINUOUS
 62
     3
  5
529
  0
LINE
  8
LY_1
  6
CONTINUOUS
 62
     3
  5
45
 10
-20.0
 20
273.576989
 30
0.0
 11
-20.0
 21
291.433073
 31
0.0
  0
LINE
  8
LY_1
  6
CONTINUOUS
 62
     3
  5
46
 10
-48.0
 20
249.850616
 30
0.0
 11
-48.0
 21
298.824109
 31
0.0
  0
LINE
  8
LY_1
  6
CONTINUOUS
 62
     3
  5
47
 10
-20.0
 20
249.850616
 30
0.0
 11
-20.0
 21
264.44698
 31
0.0
  0
POLYLINE
  8
LY_1
  6
CONTINUOUS
 62
     3
  5
48
 66
     1
 10
0.0
 20
0.0
 30
0.0
 70
     1
  0
VERTEX
  8
LY_1
  6
CONTINUOUS
 62
     3
  5
52A
 10
-20.0
 20
273.576989
 30
0.0
  0
VERTEX
  8
LY_1
  6
CONTINUOUS
 62
     3
  5
52B
 10
-20.053274
 20
273.937057
 30
0.0
  0
VERTEX
  8
LY_1
  6
CONTINUOUS
 62
     3
  5
52C
 10
-20.212691
 20
274.294385
 30
0.0
  0
VERTEX
  8
LY_1
  6
CONTINUOUS
 62
     3
  5
52D
 10
-20.477038
 20
274.646252
 30
0.0
  0
VERTEX
  8
LY_1
  6
CONTINUOUS
 62
     3
  5
52E
 10
-20.844303
 20
274.989982
 30
0.0
  0
VERTEX
  8
LY_1
  6
CONTINUOUS
 62
     3
  5
52F
 10
-21.311691
 20
275.322959
 30
0.0
  0
VERTEX
  8
LY_1
  6
CONTINUOUS
 62
     3
  5
530
 10
-21.875644
 20
275.642647
 30
0.0
  0
VERTEX
  8
LY_1
  6
CONTINUOUS
 62
     3
  5
531
 10
-22.531871
 20
275.946615
 30
0.0
  0
VERTEX
  8
LY_1
  6
CONTINUOUS
 62
     3
  5
532
 10
-23.275378
 20
276.232548
 30
0.0
  0
VERTEX
  8
LY_1
  6
CONTINUOUS
 62
     3
  5
533
 10
-24.100505
 20
276.498271
 30
0.0
  0
VERTEX
  8
LY_1
  6
CONTINUOUS
 62
     3
  5
534
 10
-25.000973
 20
276.741761
 30
0.0
  0
VERTEX
  8
LY_1
  6
CONTINUOUS
 62
     3
  5
535
 10
-25.96993
 20
276.961165
 30
0.0
  0
VERTEX
  8
LY_1
  6
CONTINUOUS
 62
     3
  5
536
 10
-27.0
 20
277.154814
 30
0.0
  0
VERTEX
  8
LY_1
  6
CONTINUOUS
 62
     3
  5
537
 10
-28.083344
 20
277.321233
 30
0.0
  0
VERTEX
  8
LY_1
  6
CONTINUOUS
 62
     3
  5
538
 10
-29.211718
 20
277.459156
 30
0.0
  0
VERTEX
  8
LY_1
  6
CONTINUOUS
 62
     3
  5
539
 10
-30.376533
 20
277.567534
 30
0.0
  0
VERTEX
  8
LY_1
  6
CONTINUOUS
 62
     3
  5
53A
 10
-31.568926
 20
277.645541
 30
0.0
  0
VERTEX
  8
LY_1
  6
CONTINUOUS
 62
     3
  5
53B
 10
-32.77982
 20
277.692584
 30
0.0
  0
VERTEX
  8
LY_1
  6
CONTINUOUS
 62
     3
  5
53C
 10
-34.0
 20
277.708305
 30
0.0
  0
VERTEX
  8
LY_1
  6
CONTINUOUS
 62
     3
  5
53D
 10
-35.22018
 20
277.692584
 30
0.0
  0
VERTEX
  8
LY_1
  6
CONTINUOUS
 62
     3
  5
53E
 10
-36.431074
 20
277.645541
 30
0.0
  0
VERTEX
  8
LY_1
  6
CONTINUOUS
 62
     3
  5
53F
 10
-37.623467
 20
277.567534
 30
0.0
  0
VERTEX
  8
LY_1
  6
CONTINUOUS
 62
     3
  5
540
 10
-38.788282
 20
277.459156
 30
0.0
  0
VERTEX
  8
LY_1
  6
CONTINUOUS
 62
     3
  5
541
 10
-39.916656
 20
277.321233
 30
0.0
  0
VERTEX
  8
LY_1
  6
CONTINUOUS
 62
     3
  5
542
 10
-41.0
 20
277.154814
 30
0.0
  0
VERTEX
  8
LY_1
  6
CONTINUOUS
 62
     3
  5
543
 10
-42.03007
 20
276.961165
 30
0.0
  0
VERTEX
  8
LY_1
  6
CONTINUOUS
 62
     3
  5
544
 10
-42.999027
 20
276.741761
 30
0.0
  0
VERTEX
  8
LY_1
  6
CONTINUOUS
 62
     3
  5
545
 10
-43.899495
 20
276.498271
 30
0.0
  0
VERTEX
  8
LY_1
  6
CONTINUOUS
 62
     3
  5
546
 10
-44.724622
 20
276.232548
 30
0.0
  0
VERTEX
  8
LY_1
  6
CONTINUOUS
 62
     3
  5
547
 10
-45.468129
 20
275.946615
 30
0.0
  0
VERTEX
  8
LY_1
  6
CONTINUOUS
 62
     3
  5
548
 10
-46.124356
 20
275.642647
 30
0.0
  0
VERTEX
  8
LY_1
  6
CONTINUOUS
 62
     3
  5
549
 10
-46.688309
 20
275.322959
 30
0.0
  0
VERTEX
  8
LY_1
  6
CONTINUOUS
 62
     3
  5
54A
 10
-47.155697
 20
274.989982
 30
0.0
  0
VERTEX
  8
LY_1
  6
CONTINUOUS
 62
     3
  5
54B
 10
-47.522962
 20
274.646252
 30
0.0
  0
VERTEX
  8
LY_1
  6
CONTINUOUS
 62
     3
  5
54C
 10
-47.787309
 20
274.294385
 30
0.0
  0
VERTEX
  8
LY_1
  6
CONTINUOUS
 62
     3
  5
54D
 10
-47.946726
 20
273.937057
 30
0.0
  0
VERTEX
  8
LY_1
  6
CONTINUOUS
 62
     3
  5
54E
 10
-48.0
 20
273.576989
 30
0.0
  0
VERTEX
  8
LY_1
  6
CONTINUOUS
 62
     3
  5
54F
 10
-47.946726
 20
273.216921
 30
0.0
  0
VERTEX
  8
LY_1
  6
CONTINUOUS
 62
     3
  5
550
 10
-47.787309
 20
272.859594
 30
0.0
  0
VERTEX
  8
LY_1
  6
CONTINUOUS
 62
     3
  5
551
 10
-47.522962
 20
272.507726
 30
0.0
  0
VERTEX
  8
LY_1
  6
CONTINUOUS
 62
     3
  5
552
 10
-47.155697
 20
272.163996
 30
0.0
  0
VERTEX
  8
LY_1
  6
CONTINUOUS
 62
     3
  5
553
 10
-46.688309
 20
271.831019
 30
0.0
  0
VERTEX
  8
LY_1
  6
CONTINUOUS
 62
     3
  5
554
 10
-46.124356
 20
271.511331
 30
0.0
  0
VERTEX
  8
LY_1
  6
CONTINUOUS
 62
     3
  5
555
 10
-45.468129
 20
271.207363
 30
0.0
  0
VERTEX
  8
LY_1
  6
CONTINUOUS
 62
     3
  5
556
 10
-44.724622
 20
270.92143
 30
0.0
  0
VERTEX
  8
LY_1
  6
CONTINUOUS
 62
     3
  5
557
 10
-43.899495
 20
270.655707
 30
0.0
  0
VERTEX
  8
LY_1
  6
CONTINUOUS
 62
     3
  5
558
 10
-42.999027
 20
270.412217
 30
0.0
  0
VERTEX
  8
LY_1
  6
CONTINUOUS
 62
     3
  5
559
 10
-42.03007
 20
270.192813
 30
0.0
  0
VERTEX
  8
LY_1
  6
CONTINUOUS
 62
     3
  5
55A
 10
-41.0
 20
269.999164
 30
0.0
  0
VERTEX
  8
LY_1
  6
CONTINUOUS
 62
     3
  5
55B
 10
-39.916656
 20
269.832745
 30
0.0
  0
VERTEX
  8
LY_1
  6
CONTINUOUS
 62
     3
  5
55C
 10
-38.788282
 20
269.694822
 30
0.0
  0
VERTEX
  8
LY_1
  6
CONTINUOUS
 62
     3
  5
55D
 10
-37.623467
 20
269.586444
 30
0.0
  0
VERTEX
  8
LY_1
  6
CONTINUOUS
 62
     3
  5
55E
 10
-36.431074
 20
269.508437
 30
0.0
  0
VERTEX
  8
LY_1
  6
CONTINUOUS
 62
     3
  5
55F
 10
-35.22018
 20
269.461394
 30
0.0
  0
VERTEX
  8
LY_1
  6
CONTINUOUS
 62
     3
  5
560
 10
-34.0
 20
269.445673
 30
0.0
  0
VERTEX
  8
LY_1
  6
CONTINUOUS
 62
     3
  5
561
 10
-32.77982
 20
269.461394
 30
0.0
  0
VERTEX
  8
LY_1
  6
CONTINUOUS
 62
     3
  5
562
 10
-31.568926
 20
269.508437
 30
0.0
  0
VERTEX
  8
LY_1
  6
CONTINUOUS
 62
     3
  5
563
 10
-30.376533
 20
269.586444
 30
0.0
  0
VERTEX
  8
LY_1
  6
CONTINUOUS
 62
     3
  5
564
 10
-29.211718
 20
269.694822
 30
0.0
  0
VERTEX
  8
LY_1
  6
CONTINUOUS
 62
     3
  5
565
 10
-28.083344
 20
269.832745
 30
0.0
  0
VERTEX
  8
LY_1
  6
CONTINUOUS
 62
     3
  5
566
 10
-27.0
 20
269.999164
 30
0.0
  0
VERTEX
  8
LY_1
  6
CONTINUOUS
 62
     3
  5
567
 10
-25.96993
 20
270.192813
 30
0.0
  0
VERTEX
  8
LY_1
  6
CONTINUOUS
 62
     3
  5
568
 10
-25.000973
 20
270.412217
 30
0.0
  0
VERTEX
  8
LY_1
  6
CONTINUOUS
 62
     3
  5
569
 10
-24.100505
 20
270.655707
 30
0.0
  0
VERTEX
  8
LY_1
  6
CONTINUOUS
 62
     3
  5
56A
 10
-23.275378
 20
270.92143
 30
0.0
  0
VERTEX
  8
LY_1
  6
CONTINUOUS
 62
     3
  5
56B
 10
-22.531871
 20
271.207363
 30
0.0
  0
VERTEX
  8
LY_1
  6
CONTINUOUS
 62
     3
  5
56C
 10
-21.875644
 20
271.511331
 30
0.0
  0
VERTEX
  8
LY_1
  6
CONTINUOUS
 62
     3
  5
56D
 10
-21.311691
 20
271.831019
 30
0.0
  0
VERTEX
  8
LY_1
  6
CONTINUOUS
 62
     3
  5
56E
 10
-20.844303
 20
272.163996
 30
0.0
  0
VERTEX
  8
LY_1
  6
CONTINUOUS
 62
     3
  5
56F
 10
-20.477038
 20
272.507726
 30
0.0
  0
VERTEX
  8
LY_1
  6
CONTINUOUS
 62
     3
  5
570
 10
-20.212691
 20
272.859594
 30
0.0
  0
VERTEX
  8
LY_1
  6
CONTINUOUS
 62
     3
  5
571
 10
-20.053274
 20
273.216921
 30
0.0
  0
VERTEX
  8
LY_1
  6
CONTINUOUS
 62
     3
  5
572
 10
-20.0
 20
273.576989
 30
0.0
  0
SEQEND
  8
LY_1
  6
CONTINUOUS
 62
     3
  5
573
  0
POLYLINE
  8
LY_1
  6
CONTINUOUS
 62
     3
  5
49
 66
     1
 10
0.0
 20
0.0
 30
0.0
 70
     1
  0
VERTEX
  8
LY_1
  6
CONTINUOUS
 62
     3
  5
574
 10
-20.0
 20
249.850616
 30
0.0
  0
VERTEX
  8
LY_1
  6
CONTINUOUS
 62
     3
  5
575
 10
-20.053274
 20
250.210684
 30
0.0
  0
VERTEX
  8
LY_1
  6
CONTINUOUS
 62
     3
  5
576
 10
-20.212691
 20
250.568012
 30
0.0
  0
VERTEX
  8
LY_1
  6
CONTINUOUS
 62
     3
  5
577
 10
-20.477038
 20
250.91988
 30
0.0
  0
VERTEX
  8
LY_1
  6
CONTINUOUS
 62
     3
  5
578
 10
-20.844303
 20
251.26361
 30
0.0
  0
VERTEX
  8
LY_1
  6
CONTINUOUS
 62
     3
  5
579
 10
-21.311691
 20
251.596586
 30
0.0
  0
VERTEX
  8
LY_1
  6
CONTINUOUS
 62
     3
  5
57A
 10
-21.875644
 20
251.916274
 30
0.0
  0
VERTEX
  8
LY_1
  6
CONTINUOUS
 62
     3
  5
57B
 10
-22.531871
 20
252.220242
 30
0.0
  0
VERTEX
  8
LY_1
  6
CONTINUOUS
 62
     3
  5
57C
 10
-23.275378
 20
252.506175
 30
0.0
  0
VERTEX
  8
LY_1
  6
CONTINUOUS
 62
     3
  5
57D
 10
-24.100505
 20
252.771898
 30
0.0
  0
VERTEX
  8
LY_1
  6
CONTINUOUS
 62
     3
  5
57E
 10
-25.000973
 20
253.015388
 30
0.0
  0
VERTEX
  8
LY_1
  6
CONTINUOUS
 62
     3
  5
57F
 10
-25.96993
 20
253.234792
 30
0.0
  0
VERTEX
  8
LY_1
  6
CONTINUOUS
 62
     3
  5
580
 10
-27.0
 20
253.428441
 30
0.0
  0
VERTEX
  8
LY_1
  6
CONTINUOUS
 62
     3
  5
581
 10
-28.083344
 20
253.59486
 30
0.0
  0
VERTEX
  8
LY_1
  6
CONTINUOUS
 62
     3
  5
582
 10
-29.211718
 20
253.732784
 30
0.0
  0
VERTEX
  8
LY_1
  6
CONTINUOUS
 62
     3
  5
583
 10
-30.376533
 20
253.841161
 30
0.0
  0
VERTEX
  8
LY_1
  6
CONTINUOUS
 62
     3
  5
584
 10
-31.568926
 20
253.919169
 30
0.0
  0
VERTEX
  8
LY_1
  6
CONTINUOUS
 62
     3
  5
585
 10
-32.77982
 20
253.966212
 30
0.0
  0
VERTEX
  8
LY_1
  6
CONTINUOUS
 62
     3
  5
586
 10
-34.0
 20
253.981932
 30
0.0
  0
VERTEX
  8
LY_1
  6
CONTINUOUS
 62
     3
  5
587
 10
-35.22018
 20
253.966212
 30
0.0
  0
VERTEX
  8
LY_1
  6
CONTINUOUS
 62
     3
  5
588
 10
-36.431074
 20
253.919169
 30
0.0
  0
VERTEX
  8
LY_1
  6
CONTINUOUS
 62
     3
  5
589
 10
-37.623467
 20
253.841161
 30
0.0
  0
VERTEX
  8
LY_1
  6
CONTINUOUS
 62
     3
  5
58A
 10
-38.788282
 20
253.732784
 30
0.0
  0
VERTEX
  8
LY_1
  6
CONTINUOUS
 62
     3
  5
58B
 10
-39.916656
 20
253.59486
 30
0.0
  0
VERTEX
  8
LY_1
  6
CONTINUOUS
 62
     3
  5
58C
 10
-41.0
 20
253.428441
 30
0.0
  0
VERTEX
  8
LY_1
  6
CONTINUOUS
 62
     3
  5
58D
 10
-42.03007
 20
253.234792
 30
0.0
  0
VERTEX
  8
LY_1
  6
CONTINUOUS
 62
     3
  5
58E
 10
-42.999027
 20
253.015388
 30
0.0
  0
VERTEX
  8
LY_1
  6
CONTINUOUS
 62
     3
  5
58F
 10
-43.899495
 20
252.771898
 30
0.0
  0
VERTEX
  8
LY_1
  6
CONTINUOUS
 62
     3
  5
590
 10
-44.724622
 20
252.506175
 30
0.0
  0
VERTEX
  8
LY_1
  6
CONTINUOUS
 62
     3
  5
591
 10
-45.468129
 20
252.220242
 30
0.0
  0
VERTEX
  8
LY_1
  6
CONTINUOUS
 62
     3
  5
592
 10
-46.124356
 20
251.916274
 30
0.0
  0
VERTEX
  8
LY_1
  6
CONTINUOUS
 62
     3
  5
593
 10
-46.688309
 20
251.596586
 30
0.0
  0
VERTEX
  8
LY_1
  6
CONTINUOUS
 62
     3
  5
594
 10
-47.155697
 20
251.26361
 30
0.0
  0
VERTEX
  8
LY_1
  6
CONTINUOUS
 62
     3
  5
595
 10
-47.522962
 20
250.91988
 30
0.0
  0
VERTEX
  8
LY_1
  6
CONTINUOUS
 62
     3
  5
596
 10
-47.787309
 20
250.568012
 30
0.0
  0
VERTEX
  8
LY_1
  6
CONTINUOUS
 62
     3
  5
597
 10
-47.946726
 20
250.210684
 30
0.0
  0
VERTEX
  8
LY_1
  6
CONTINUOUS
 62
     3
  5
598
 10
-48.0
 20
249.850616
 30
0.0
  0
VERTEX
  8
LY_1
  6
CONTINUOUS
 62
     3
  5
599
 10
-47.946726
 20
249.490548
 30
0.0
  0
VERTEX
  8
LY_1
  6
CONTINUOUS
 62
     3
  5
59A
 10
-47.787309
 20
249.133221
 30
0.0
  0
VERTEX
  8
LY_1
  6
CONTINUOUS
 62
     3
  5
59B
 10
-47.522962
 20
248.781353
 30
0.0
  0
VERTEX
  8
LY_1
  6
CONTINUOUS
 62
     3
  5
59C
 10
-47.155697
 20
248.437623
 30
0.0
  0
VERTEX
  8
LY_1
  6
CONTINUOUS
 62
     3
  5
59D
 10
-46.688309
 20
248.104647
 30
0.0
  0
VERTEX
  8
LY_1
  6
CONTINUOUS
 62
     3
  5
59E
 10
-46.124356
 20
247.784958
 30
0.0
  0
VERTEX
  8
LY_1
  6
CONTINUOUS
 62
     3
  5
59F
 10
-45.468129
 20
247.480991
 30
0.0
  0
VERTEX
  8
LY_1
  6
CONTINUOUS
 62
     3
  5
5A0
 10
-44.724622
 20
247.195057
 30
0.0
  0
VERTEX
  8
LY_1
  6
CONTINUOUS
 62
     3
  5
5A1
 10
-43.899495
 20
246.929335
 30
0.0
  0
VERTEX
  8
LY_1
  6
CONTINUOUS
 62
     3
  5
5A2
 10
-42.999027
 20
246.685844
 30
0.0
  0
VERTEX
  8
LY_1
  6
CONTINUOUS
 62
     3
  5
5A3
 10
-42.03007
 20
246.46644
 30
0.0
  0
VERTEX
  8
LY_1
  6
CONTINUOUS
 62
     3
  5
5A4
 10
-41.0
 20
246.272792
 30
0.0
  0
VERTEX
  8
LY_1
  6
CONTINUOUS
 62
     3
  5
5A5
 10
-39.916656
 20
246.106372
 30
0.0
  0
VERTEX
  8
LY_1
  6
CONTINUOUS
 62
     3
  5
5A6
 10
-38.788282
 20
245.968449
 30
0.0
  0
VERTEX
  8
LY_1
  6
CONTINUOUS
 62
     3
  5
5A7
 10
-37.623467
 20
245.860071
 30
0.0
  0
VERTEX
  8
LY_1
  6
CONTINUOUS
 62
     3
  5
5A8
 10
-36.431074
 20
245.782064
 30
0.0
  0
VERTEX
  8
LY_1
  6
CONTINUOUS
 62
     3
  5
5A9
 10
-35.22018
 20
245.735021
 30
0.0
  0
VERTEX
  8
LY_1
  6
CONTINUOUS
 62
     3
  5
5AA
 10
-34.0
 20
245.7193
 30
0.0
  0
VERTEX
  8
LY_1
  6
CONTINUOUS
 62
     3
  5
5AB
 10
-32.77982
 20
245.735021
 30
0.0
  0
VERTEX
  8
LY_1
  6
CONTINUOUS
 62
     3
  5
5AC
 10
-31.568926
 20
245.782064
 30
0.0
  0
VERTEX
  8
LY_1
  6
CONTINUOUS
 62
     3
  5
5AD
 10
-30.376533
 20
245.860071
 30
0.0
  0
VERTEX
  8
LY_1
  6
CONTINUOUS
 62
     3
  5
5AE
 10
-29.211718
 20
245.968449
 30
0.0
  0
VERTEX
  8
LY_1
  6
CONTINUOUS
 62
     3
  5
5AF
 10
-28.083344
 20
246.106372
 30
0.0
  0
VERTEX
  8
LY_1
  6
CONTINUOUS
 62
     3
  5
5B0
 10
-27.0
 20
246.272792
 30
0.0
  0
VERTEX
  8
LY_1
  6
CONTINUOUS
 62
     3
  5
5B1
 10
-25.96993
 20
246.46644
 30
0.0
  0
VERTEX
  8
LY_1
  6
CONTINUOUS
 62
     3
  5
5B2
 10
-25.000973
 20
246.685844
 30
0.0
  0
VERTEX
  8
LY_1
  6
CONTINUOUS
 62
     3
  5
5B3
 10
-24.100505
 20
246.929335
 30
0.0
  0
VERTEX
  8
LY_1
  6
CONTINUOUS
 62
     3
  5
5B4
 10
-23.275378
 20
247.195057
 30
0.0
  0
VERTEX
  8
LY_1
  6
CONTINUOUS
 62
     3
  5
5B5
 10
-22.531871
 20
247.480991
 30
0.0
  0
VERTEX
  8
LY_1
  6
CONTINUOUS
 62
     3
  5
5B6
 10
-21.875644
 20
247.784958
 30
0.0
  0
VERTEX
  8
LY_1
  6
CONTINUOUS
 62
     3
  5
5B7
 10
-21.311691
 20
248.104647
 30
0.0
  0
VERTEX
  8
LY_1
  6
CONTINUOUS
 62
     3
  5
5B8
 10
-20.844303
 20
248.437623
 30
0.0
  0
VERTEX
  8
LY_1
  6
CONTINUOUS
 62
     3
  5
5B9
 10
-20.477038
 20
248.781353
 30
0.0
  0
VERTEX
  8
LY_1
  6
CONTINUOUS
 62
     3
  5
5BA
 10
-20.212691
 20
249.133221
 30
0.0
  0
VERTEX
  8
LY_1
  6
CONTINUOUS
 62
     3
  5
5BB
 10
-20.053274
 20
249.490548
 30
0.0
  0
VERTEX
  8
LY_1
  6
CONTINUOUS
 62
     3
  5
5BC
 10
-20.0
 20
249.850616
 30
0.0
  0
SEQEND
  8
LY_1
  6
CONTINUOUS
 62
     3
  5
5BD
  0
LINE
  8
LY_1
  6
CONTINUOUS
 62
     3
  5
4A
 10
-101.0
 20
416.0
 30
0.0
 11
-101.0
 21
324.0
 31
0.0
  0
ARC
  8
LY_1
  6
CONTINUOUS
 62
     3
  5
4B
 10
-18.666667
 20
370.0
 30
0.0
 40
88.333333
 50
158.760689
 51
201.239311
  0
LINE
  8
LY_1
  6
CONTINUOUS
 62
     3
  5
4C
 10
-55.0
 20
418.0
 30
0.0
 11
-99.0
 21
418.0
 31
0.0
  0
LINE
  8
LY_1
  6
CONTINUOUS
 62
     3
  5
4D
 10
-55.0
 20
322.0
 30
0.0
 11
-99.0
 21
322.0
 31
0.0
  0
LINE
  8
LY_1
  6
CONTINUOUS
 62
     3
  5
4E
 10
-55.0
 20
423.7193
 30
0.0
 11
-55.0
 21
316.2807
 31
0.0
  0
ARC
  8
LY_1
  6
CONTINUOUS
 62
     3
  5
4F
 10
-99.0
 20
324.0
 30
0.0
 40
2.0
 50
180.0
 51
270.0
  0
ARC
  8
LY_1
  6
CONTINUOUS
 62
     3
  5
50
 10
-99.0
 20
416.0
 30
0.0
 40
2.0
 50
90.0
 51
180.0
  0
LINE
  8
LY_1
  6
CONTINUOUS
 62
     3
  5
51
 10
-29.0
 20
425.7193
 30
0.0
 11
-53.0
 21
425.7193
 31
0.0
  0
ARC
  8
LY_1
  6
CONTINUOUS
 62
     3
  5
52
 10
-53.0
 20
423.7193
 30
0.0
 40
2.0
 50
90.0
 51
180.0
  0
LINE
  8
LY_1
  6
CONTINUOUS
 62
     3
  5
53
 10
-37.0
 20
314.2807
 30
0.0
 11
-53.0
 21
314.2807
 31
0.0
  0
ARC
  8
LY_1
  6
CONTINUOUS
 62
     3
  5
54
 10
-53.0
 20
316.2807
 30
0.0
 40
2.0
 50
180.0
 51
270.0
  0
ARC
  8
LY_1
  6
CONTINUOUS
 62
     3
  5
55
 10
-29.0
 20
423.7193
 30
0.0
 40
2.0
 50
0.0
 51
90.0
  0
LINE
  8
LY_1
  6
CONTINUOUS
 62
     3
  5
56
 10
-27.0
 20
423.7193
 30
0.0
 11
-27.0
 21
416.730011
 31
0.0
  0
LINE
  8
LY_1
  6
CONTINUOUS
 62
     3
  5
57
 10
-27.0
 20
420.0
 30
0.0
 11
40.768874
 21
420.0
 31
0.0
  0
ARC
  8
LY_1
  6
CONTINUOUS
 62
     3
  5
58
 10
85.0
 20
370.0
 30
0.0
 40
20.0
 50
338.294588
 51
21.705412
  0
ARC
  8
LY_1
  6
CONTINUOUS
 62
     3
  5
59
 10
40.768874
 20
352.393458
 30
0.0
 40
67.606542
 50
21.705412
 51
90.0
  0
ARC
  8
LY_1
  6
CONTINUOUS
 62
     3
  5
5A
 10
40.768874
 20
387.606542
 30
0.0
 40
67.606542
 50
276.993136
 51
338.294588
  0
LINE
  8
LY_1
  6
CONTINUOUS
 62
     3
  5
5B
 10
-96.0
 20
379.0
 30
0.0
 11
-96.0
 21
361.0
 31
0.0
  0
LINE
  8
LY_1
  6
CONTINUOUS
 62
     3
  5
5C
 10
-91.0
 20
379.0
 30
0.0
 11
-91.0
 21
361.0
 31
0.0
  0
LINE
  8
LY_1
  6
CONTINUOUS
 62
     3
  5
5D
 10
-88.0
 20
379.0
 30
0.0
 11
-88.0
 21
361.0
 31
0.0
  0
LINE
  8
LY_1
  6
CONTINUOUS
 62
     3
  5
5E
 10
-83.0
 20
379.0
 30
0.0
 11
-83.0
 21
361.0
 31
0.0
  0
LINE
  8
LY_1
  6
CONTINUOUS
 62
     3
  5
5F
 10
-80.0
 20
379.0
 30
0.0
 11
-80.0
 21
361.0
 31
0.0
  0
LINE
  8
LY_1
  6
CONTINUOUS
 62
     3
  5
60
 10
-75.0
 20
379.0
 30
0.0
 11
-75.0
 21
361.0
 31
0.0
  0
LINE
  8
LY_1
  6
CONTINUOUS
 62
     3
  5
61
 10
-75.0
 20
379.0
 30
0.0
 11
-80.0
 21
379.0
 31
0.0
  0
LINE
  8
LY_1
  6
CONTINUOUS
 62
     3
  5
62
 10
-75.0
 20
361.0
 30
0.0
 11
-80.0
 21
361.0
 31
0.0
  0
LINE
  8
LY_1
  6
CONTINUOUS
 62
     3
  5
63
 10
-75.0
 20
352.0
 30
0.0
 11
-80.0
 21
352.0
 31
0.0
  0
LINE
  8
LY_1
  6
CONTINUOUS
 62
     3
  5
64
 10
-75.0
 20
334.0
 30
0.0
 11
-80.0
 21
334.0
 31
0.0
  0
LINE
  8
LY_1
  6
CONTINUOUS
 62
     3
  5
65
 10
-83.0
 20
352.0
 30
0.0
 11
-88.0
 21
352.0
 31
0.0
  0
LINE
  8
LY_1
  6
CONTINUOUS
 62
     3
  5
66
 10
-83.0
 20
334.0
 30
0.0
 11
-88.0
 21
334.0
 31
0.0
  0
LINE
  8
LY_1
  6
CONTINUOUS
 62
     3
  5
67
 10
-91.0
 20
352.0
 30
0.0
 11
-96.0
 21
352.0
 31
0.0
  0
LINE
  8
LY_1
  6
CONTINUOUS
 62
     3
  5
68
 10
-91.0
 20
334.0
 30
0.0
 11
-96.0
 21
334.0
 31
0.0
  0
LINE
  8
LY_1
  6
CONTINUOUS
 62
     3
  5
69
 10
-96.0
 20
352.0
 30
0.0
 11
-96.0
 21
334.0
 31
0.0
  0
LINE
  8
LY_1
  6
CONTINUOUS
 62
     3
  5
6A
 10
-91.0
 20
352.0
 30
0.0
 11
-91.0
 21
334.0
 31
0.0
  0
LINE
  8
LY_1
  6
CONTINUOUS
 62
     3
  5
6B
 10
-88.0
 20
352.0
 30
0.0
 11
-88.0
 21
334.0
 31
0.0
  0
LINE
  8
LY_1
  6
CONTINUOUS
 62
     3
  5
6C
 10
-83.0
 20
352.0
 30
0.0
 11
-83.0
 21
334.0
 31
0.0
  0
LINE
  8
LY_1
  6
CONTINUOUS
 62
     3
  5
6D
 10
-80.0
 20
352.0
 30
0.0
 11
-80.0
 21
334.0
 31
0.0
  0
LINE
  8
LY_1
  6
CONTINUOUS
 62
     3
  5
6E
 10
-75.0
 20
352.0
 30
0.0
 11
-75.0
 21
334.0
 31
0.0
  0
LINE
  8
LY_1
  6
CONTINUOUS
 62
     3
  5
6F
 10
-83.0
 20
361.0
 30
0.0
 11
-88.0
 21
361.0
 31
0.0
  0
LINE
  8
LY_1
  6
CONTINUOUS
 62
     3
  5
70
 10
-91.0
 20
361.0
 30
0.0
 11
-96.0
 21
361.0
 31
0.0
  0
LINE
  8
LY_1
  6
CONTINUOUS
 62
     3
  5
71
 10
-83.0
 20
379.0
 30
0.0
 11
-88.0
 21
379.0
 31
0.0
  0
LINE
  8
LY_1
  6
CONTINUOUS
 62
     3
  5
72
 10
-91.0
 20
379.0
 30
0.0
 11
-96.0
 21
379.0
 31
0.0
  0
LINE
  8
LY_1
  6
CONTINUOUS
 62
     3
  5
73
 10
-75.0
 20
388.0
 30
0.0
 11
-75.0
 21
406.0
 31
0.0
  0
LINE
  8
LY_1
  6
CONTINUOUS
 62
     3
  5
74
 10
-80.0
 20
388.0
 30
0.0
 11
-80.0
 21
406.0
 31
0.0
  0
LINE
  8
LY_1
  6
CONTINUOUS
 62
     3
  5
75
 10
-83.0
 20
388.0
 30
0.0
 11
-83.0
 21
406.0
 31
0.0
  0
LINE
  8
LY_1
  6
CONTINUOUS
 62
     3
  5
76
 10
-88.0
 20
388.0
 30
0.0
 11
-88.0
 21
406.0
 31
0.0
  0
LINE
  8
LY_1
  6
CONTINUOUS
 62
     3
  5
77
 10
-91.0
 20
388.0
 30
0.0
 11
-91.0
 21
406.0
 31
0.0
  0
LINE
  8
LY_1
  6
CONTINUOUS
 62
     3
  5
78
 10
-96.0
 20
388.0
 30
0.0
 11
-96.0
 21
406.0
 31
0.0
  0
LINE
  8
LY_1
  6
CONTINUOUS
 62
     3
  5
79
 10
-91.0
 20
406.0
 30
0.0
 11
-96.0
 21
406.0
 31
0.0
  0
LINE
  8
LY_1
  6
CONTINUOUS
 62
     3
  5
7A
 10
-91.0
 20
388.0
 30
0.0
 11
-96.0
 21
388.0
 31
0.0
  0
LINE
  8
LY_1
  6
CONTINUOUS
 62
     3
  5
7B
 10
-83.0
 20
406.0
 30
0.0
 11
-88.0
 21
406.0
 31
0.0
  0
LINE
  8
LY_1
  6
CONTINUOUS
 62
     3
  5
7C
 10
-83.0
 20
388.0
 30
0.0
 11
-88.0
 21
388.0
 31
0.0
  0
LINE
  8
LY_1
  6
CONTINUOUS
 62
     3
  5
7D
 10
-75.0
 20
406.0
 30
0.0
 11
-80.0
 21
406.0
 31
0.0
  0
LINE
  8
LY_1
  6
CONTINUOUS
 62
     3
  5
7E
 10
-75.0
 20
388.0
 30
0.0
 11
-80.0
 21
388.0
 31
0.0
  0
CIRCLE
  8
LY_1
  6
CONTINUOUS
 62
     3
  5
7F
 10
-222.935382
 20
161.7193
 30
0.0
 40
6.5
  0
CIRCLE
  8
LY_1
  6
CONTINUOUS
 62
     3
  5
80
 10
-222.935382
 20
161.7193
 30
0.0
 40
6.0
  0
LINE
  8
LY_1
  6
CONTINUOUS
 62
     3
  5
81
 10
-219.935382
 20
163.451351
 30
0.0
 11
-219.935382
 21
159.987249
 31
0.0
  0
LINE
  8
LY_1
  6
CONTINUOUS
 62
     3
  5
82
 10
-225.935382
 20
163.451351
 30
0.0
 11
-225.935382
 21
159.987249
 31
0.0
  0
LINE
  8
LY_1
  6
CONTINUOUS
 62
     3
  5
83
 10
-222.935382
 20
165.183402
 30
0.0
 11
-219.935382
 21
163.451351
 31
0.0
  0
LINE
  8
LY_1
  6
CONTINUOUS
 62
     3
  5
84
 10
-225.935382
 20
159.987249
 30
0.0
 11
-222.935382
 21
158.255198
 31
0.0
  0
LINE
  8
LY_1
  6
CONTINUOUS
 62
     3
  5
85
 10
-225.935382
 20
163.451351
 30
0.0
 11
-222.935382
 21
165.183402
 31
0.0
  0
LINE
  8
LY_1
  6
CONTINUOUS
 62
     3
  5
86
 10
-222.935382
 20
158.255198
 30
0.0
 11
-219.935382
 21
159.987249
 31
0.0
  0
CIRCLE
  8
LY_1
  6
CONTINUOUS
 62
     3
  5
87
 10
-306.373982
 20
161.7193
 30
0.0
 40
6.5
  0
CIRCLE
  8
LY_1
  6
CONTINUOUS
 62
     3
  5
88
 10
-306.373982
 20
161.7193
 30
0.0
 40
6.0
  0
LINE
  8
LY_1
  6
CONTINUOUS
 62
     3
  5
89
 10
-308.106033
 20
164.7193
 30
0.0
 11
-304.641931
 21
164.7193
 31
0.0
  0
LINE
  8
LY_1
  6
CONTINUOUS
 62
     3
  5
8A
 10
-308.106033
 20
158.7193
 30
0.0
 11
-304.641931
 21
158.7193
 31
0.0
  0
LINE
  8
LY_1
  6
CONTINUOUS
 62
     3
  5
8B
 10
-309.838084
 20
161.7193
 30
0.0
 11
-308.106033
 21
164.7193
 31
0.0
  0
LINE
  8
LY_1
  6
CONTINUOUS
 62
     3
  5
8C
 10
-304.641931
 20
158.7193
 30
0.0
 11
-302.909881
 21
161.7193
 31
0.0
  0
LINE
  8
LY_1
  6
CONTINUOUS
 62
     3
  5
8D
 10
-308.106033
 20
158.7193
 30
0.0
 11
-309.838084
 21
161.7193
 31
0.0
  0
LINE
  8
LY_1
  6
CONTINUOUS
 62
     3
  5
8E
 10
-302.909881
 20
161.7193
 30
0.0
 11
-304.641931
 21
164.7193
 31
0.0
  0
CIRCLE
  8
LY_1
  6
CONTINUOUS
 62
     3
  5
8F
 10
-306.373982
 20
78.2807
 30
0.0
 40
6.5
  0
CIRCLE
  8
LY_1
  6
CONTINUOUS
 62
     3
  5
90
 10
-306.373982
 20
78.2807
 30
0.0
 40
6.0
  0
LINE
  8
LY_1
  6
CONTINUOUS
 62
     3
  5
91
 10
-309.373982
 20
76.548649
 30
0.0
 11
-309.373982
 21
80.012751
 31
0.0
  0
LINE
  8
LY_1
  6
CONTINUOUS
 62
     3
  5
92
 10
-303.373982
 20
76.548649
 30
0.0
 11
-303.373982
 21
80.012751
 31
0.0
  0
LINE
  8
LY_1
  6
CONTINUOUS
 62
     3
  5
93
 10
-306.373982
 20
74.816598
 30
0.0
 11
-309.373982
 21
76.548649
 31
0.0
  0
LINE
  8
LY_1
  6
CONTINUOUS
 62
     3
  5
94
 10
-303.373982
 20
80.012751
 30
0.0
 11
-306.373982
 21
81.744802
 31
0.0
  0
LINE
  8
LY_1
  6
CONTINUOUS
 62
     3
  5
95
 10
-303.373982
 20
76.548649
 30
0.0
 11
-306.373982
 21
74.816598
 31
0.0
  0
LINE
  8
LY_1
  6
CONTINUOUS
 62
     3
  5
96
 10
-306.373982
 20
81.744802
 30
0.0
 11
-309.373982
 21
80.012751
 31
0.0
  0
CIRCLE
  8
LY_1
  6
CONTINUOUS
 62
     3
  5
97
 10
-222.935382
 20
78.2807
 30
0.0
 40
6.5
  0
CIRCLE
  8
LY_1
  6
CONTINUOUS
 62
     3
  5
98
 10
-222.935382
 20
78.2807
 30
0.0
 40
6.0
  0
LINE
  8
LY_1
  6
CONTINUOUS
 62
     3
  5
99
 10
-221.203331
 20
75.2807
 30
0.0
 11
-224.667433
 21
75.2807
 31
0.0
  0
LINE
  8
LY_1
  6
CONTINUOUS
 62
     3
  5
9A
 10
-221.203331
 20
81.2807
 30
0.0
 11
-224.667433
 21
81.2807
 31
0.0
  0
LINE
  8
LY_1
  6
CONTINUOUS
 62
     3
  5
9B
 10
-219.47128
 20
78.2807
 30
0.0
 11
-221.203331
 21
75.2807
 31
0.0
  0
LINE
  8
LY_1
  6
CONTINUOUS
 62
     3
  5
9C
 10
-224.667433
 20
81.2807
 30
0.0
 11
-226.399484
 21
78.2807
 31
0.0
  0
LINE
  8
LY_1
  6
CONTINUOUS
 62
     3
  5
9D
 10
-221.203331
 20
81.2807
 30
0.0
 11
-219.47128
 21
78.2807
 31
0.0
  0
LINE
  8
LY_1
  6
CONTINUOUS
 62
     3
  5
9E
 10
-226.399484
 20
78.2807
 30
0.0
 11
-224.667433
 21
75.2807
 31
0.0
  0
ARC
  8
LY_1
  6
CONTINUOUS
 62
     3
  5
9F
 10
-4.38678
 20
11.623596
 30
0.0
 40
2.3764
 50
54.299289
 51
125.700721
  0
ARC
  8
LY_1
  6
CONTINUOUS
 62
     3
  5
A0
 10
0.0
 20
3.700195
 30
0.0
 40
10.299829
 50
73.066177
 51
106.93382
  0
ARC
  8
LY_1
  6
CONTINUOUS
 62
     3
  5
A1
 10
4.38678
 20
11.623596
 30
0.0
 40
2.3764
 50
54.299289
 51
125.700721
  0
LINE
  8
LY_1
  6
CONTINUOUS
 62
     3
  5
A2
 10
-5.773486
 20
13.553445
 30
0.0
 11
-5.000014
 21
14.000008
 31
0.0
  0
LINE
  8
LY_1
  6
CONTINUOUS
 62
     3
  5
A3
 10
-3.0
 20
13.553406
 30
0.0
 11
-3.0
 21
10.0
 31
0.0
  0
LINE
  8
LY_1
  6
CONTINUOUS
 62
     3
  5
A4
 10
-5.773499
 20
13.553406
 30
0.0
 11
-5.773499
 21
10.0
 31
0.0
  0
LINE
  8
LY_1
  6
CONTINUOUS
 62
     3
  5
A5
 10
5.0
 20
14.0
 30
0.0
 11
-5.0
 21
14.0
 31
0.0
  0
LINE
  8
LY_1
  6
CONTINUOUS
 62
     3
  5
A6
 10
5.773506
 20
13.553424
 30
0.0
 11
5.000004
 21
14.000006
 31
0.0
  0
LINE
  8
LY_1
  6
CONTINUOUS
 62
     3
  5
A7
 10
5.773499
 20
10.0
 30
0.0
 11
-5.773499
 21
10.0
 31
0.0
  0
LINE
  8
LY_1
  6
CONTINUOUS
 62
     3
  5
A8
 10
3.0
 20
13.553406
 30
0.0
 11
3.0
 21
10.0
 31
0.0
  0
LINE
  8
LY_1
  6
CONTINUOUS
 62
     3
  5
A9
 10
5.773499
 20
13.553406
 30
0.0
 11
5.773499
 21
10.0
 31
0.0
  0
LINE
  8
LY_1
  6
DASHED
 62
    80
  5
AA
 10
3.0
 20
0.0
 30
0.0
 11
-2.88678
 21
0.0
 31
0.0
  0
LINE
  8
LY_1
  6
DASHED
 62
    80
  5
AB
 10
-3.0
 20
10.0
 30
0.0
 11
-3.0
 21
0.0
 31
0.0
  0
LINE
  8
LY_1
  6
DASHED
 62
    80
  5
AC
 10
-2.3
 20
10.0
 30
0.0
 11
-2.3
 21
0.0
 31
0.0
  0
LINE
  8
LY_1
  6
DASHED
 62
    80
  5
AD
 10
3.0
 20
10.0
 30
0.0
 11
3.0
 21
0.0
 31
0.0
  0
LINE
  8
LY_1
  6
DASHED
 62
    80
  5
AE
 10
2.3
 20
10.0
 30
0.0
 11
2.3
 21
0.0
 31
0.0
  0
LINE
  8
LY_1
  6
CONTINUOUS
 62
     3
  5
AF
 10
-245.894696
 20
136.524616
 30
0.0
 11
-240.583222
 21
141.83609
 31
0.0
  0
LINE
  8
LY_1
  6
CONTINUOUS
 62
     3
  5
B0
 10
-248.129524
 20
138.760528
 30
0.0
 11
-242.830814
 21
144.059238
 31
0.0
  0
LINE
  8
LY_1
  6
CONTINUOUS
 62
     3
  5
B1
 10
-254.780394
 20
121.580645
 30
0.0
 11
-246.724218
 21
121.580645
 31
0.0
  0
LINE
  8
LY_1
  6
CONTINUOUS
 62
     3
  5
B2
 10
-254.674583
 20
118.419355
 30
0.0
 11
-246.725879
 21
118.419355
 31
0.0
  0
LINE
  8
LY_1
  6
CONTINUOUS
 62
     3
  5
B3
 10
-258.790191
 20
128.099861
 30
0.0
 11
-253.093614
 21
133.796438
 31
0.0
  0
LINE
  8
LY_1
  6
CONTINUOUS
 62
     3
  5
B4
 10
-256.554821
 20
125.864491
 30
0.0
 11
-250.858244
 21
131.561068
 31
0.0
  0
LINE
  8
LY_1
  6
CONTINUOUS
 62
     3
  5
B5
 10
-242.818592
 20
95.92854
 30
0.0
 11
-248.129524
 21
101.239472
 31
0.0
  0
LINE
  8
LY_1
  6
CONTINUOUS
 62
     3
  5
B6
 10
-240.583222
 20
98.16391
 30
0.0
 11
-245.894696
 21
103.475384
 31
0.0
  0
LINE
  8
LY_1
  6
CONTINUOUS
 62
     3
  5
B7
 10
-266.235327
 20
87.53846
 30
0.0
 11
-266.235327
 21
95.050019
 31
0.0
  0
LINE
  8
LY_1
  6
CONTINUOUS
 62
     3
  5
B8
 10
-263.074037
 20
87.53846
 30
0.0
 11
-263.074037
 21
95.050019
 31
0.0
  0
LINE
  8
LY_1
  6
CONTINUOUS
 62
     3
  5
B9
 10
-266.235327
 20
102.069535
 30
0.0
 11
-266.235327
 21
110.125712
 31
0.0
  0
LINE
  8
LY_1
  6
CONTINUOUS
 62
     3
  5
BA
 10
-263.074037
 20
102.069535
 30
0.0
 11
-263.074037
 21
110.125712
 31
0.0
  0
LINE
  8
LY_1
  6
CONTINUOUS
 62
     3
  5
BB
 10
-253.285754
 20
106.395702
 30
0.0
 11
-258.816953
 21
111.926901
 31
0.0
  0
LINE
  8
LY_1
  6
CONTINUOUS
 62
     3
  5
BC
 10
-276.02361
 20
106.395702
 30
0.0
 11
-270.519173
 21
111.900139
 31
0.0
  0
LINE
  8
LY_1
  6
CONTINUOUS
 62
     3
  5
BD
 10
-288.726142
 20
98.16391
 30
0.0
 11
-283.414668
 21
103.475384
 31
0.0
  0
LINE
  8
LY_1
  6
CONTINUOUS
 62
     3
  5
BE
 10
-286.490772
 20
95.92854
 30
0.0
 11
-281.179298
 21
101.240014
 31
0.0
  0
LINE
  8
LY_1
  6
CONTINUOUS
 62
     3
  5
BF
 10
-282.585147
 20
121.580645
 30
0.0
 11
-274.52897
 21
121.580645
 31
0.0
  0
LINE
  8
LY_1
  6
CONTINUOUS
 62
     3
  5
C0
 10
-282.583486
 20
118.419355
 30
0.0
 11
-274.634781
 21
118.419355
 31
0.0
  0
LINE
  8
LY_1
  6
CONTINUOUS
 62
     3
  5
C1
 10
-272.754543
 20
125.864491
 30
0.0
 11
-278.45112
 21
131.561068
 31
0.0
  0
LINE
  8
LY_1
  6
CONTINUOUS
 62
     3
  5
C2
 10
-270.519173
 20
128.099861
 30
0.0
 11
-276.21575
 21
133.796438
 31
0.0
  0
LINE
  8
LY_1
  6
CONTINUOUS
 62
     3
  5
C3
 10
-283.414668
 20
136.524616
 30
0.0
 11
-288.726142
 21
141.83609
 31
0.0
  0
LINE
  8
LY_1
  6
CONTINUOUS
 62
     3
  5
C4
 10
-281.17984
 20
138.760528
 30
0.0
 11
-286.490772
 21
144.07146
 31
0.0
  0
LINE
  8
LY_1
  6
CONTINUOUS
 62
     3
  5
C5
 10
-263.074037
 20
144.949981
 30
0.0
 11
-263.074037
 21
152.46154
 31
0.0
  0
LINE
  8
LY_1
  6
CONTINUOUS
 62
     3
  5
C6
 10
-266.235327
 20
144.949981
 30
0.0
 11
-266.235327
 21
152.46154
 31
0.0
  0
LINE
  8
LY_1
  6
CONTINUOUS
 62
     3
  5
C7
 10
-75.0
 20
138.0
 30
0.0
 11
-80.0
 21
138.0
 31
0.0
  0
LINE
  8
LY_1
  6
CONTINUOUS
 62
     3
  5
C8
 10
-75.0
 20
156.0
 30
0.0
 11
-80.0
 21
156.0
 31
0.0
  0
LINE
  8
LY_1
  6
CONTINUOUS
 62
     3
  5
C9
 10
-83.0
 20
138.0
 30
0.0
 11
-88.0
 21
138.0
 31
0.0
  0
LINE
  8
LY_1
  6
CONTINUOUS
 62
     3
  5
CA
 10
-83.0
 20
156.0
 30
0.0
 11
-88.0
 21
156.0
 31
0.0
  0
LINE
  8
LY_1
  6
CONTINUOUS
 62
     3
  5
CB
 10
-91.0
 20
138.0
 30
0.0
 11
-96.0
 21
138.0
 31
0.0
  0
LINE
  8
LY_1
  6
CONTINUOUS
 62
     3
  5
CC
 10
-91.0
 20
156.0
 30
0.0
 11
-96.0
 21
156.0
 31
0.0
  0
LINE
  8
LY_1
  6
CONTINUOUS
 62
     3
  5
CD
 10
-96.0
 20
138.0
 30
0.0
 11
-96.0
 21
156.0
 31
0.0
  0
LINE
  8
LY_1
  6
CONTINUOUS
 62
     3
  5
CE
 10
-91.0
 20
138.0
 30
0.0
 11
-91.0
 21
156.0
 31
0.0
  0
LINE
  8
LY_1
  6
CONTINUOUS
 62
     3
  5
CF
 10
-88.0
 20
138.0
 30
0.0
 11
-88.0
 21
156.0
 31
0.0
  0
LINE
  8
LY_1
  6
CONTINUOUS
 62
     3
  5
D0
 10
-83.0
 20
138.0
 30
0.0
 11
-83.0
 21
156.0
 31
0.0
  0
LINE
  8
LY_1
  6
CONTINUOUS
 62
     3
  5
D1
 10
-80.0
 20
138.0
 30
0.0
 11
-80.0
 21
156.0
 31
0.0
  0
LINE
  8
LY_1
  6
CONTINUOUS
 62
     3
  5
D2
 10
-75.0
 20
138.0
 30
0.0
 11
-75.0
 21
156.0
 31
0.0
  0
LINE
  8
LY_1
  6
CONTINUOUS
 62
     3
  5
D3
 10
-91.0
 20
129.0
 30
0.0
 11
-96.0
 21
129.0
 31
0.0
  0
LINE
  8
LY_1
  6
CONTINUOUS
 62
     3
  5
D4
 10
-83.0
 20
129.0
 30
0.0
 11
-88.0
 21
129.0
 31
0.0
  0
LINE
  8
LY_1
  6
CONTINUOUS
 62
     3
  5
D5
 10
-91.0
 20
111.0
 30
0.0
 11
-96.0
 21
111.0
 31
0.0
  0
LINE
  8
LY_1
  6
CONTINUOUS
 62
     3
  5
D6
 10
-83.0
 20
111.0
 30
0.0
 11
-88.0
 21
111.0
 31
0.0
  0
LINE
  8
LY_1
  6
CONTINUOUS
 62
     3
  5
D7
 10
-75.0
 20
102.0
 30
0.0
 11
-75.0
 21
84.0
 31
0.0
  0
LINE
  8
LY_1
  6
CONTINUOUS
 62
     3
  5
D8
 10
-80.0
 20
102.0
 30
0.0
 11
-80.0
 21
84.0
 31
0.0
  0
LINE
  8
LY_1
  6
CONTINUOUS
 62
     3
  5
D9
 10
-83.0
 20
102.0
 30
0.0
 11
-83.0
 21
84.0
 31
0.0
  0
LINE
  8
LY_1
  6
CONTINUOUS
 62
     3
  5
DA
 10
-88.0
 20
102.0
 30
0.0
 11
-88.0
 21
84.0
 31
0.0
  0
LINE
  8
LY_1
  6
CONTINUOUS
 62
     3
  5
DB
 10
-91.0
 20
102.0
 30
0.0
 11
-91.0
 21
84.0
 31
0.0
  0
LINE
  8
LY_1
  6
CONTINUOUS
 62
     3
  5
DC
 10
-96.0
 20
102.0
 30
0.0
 11
-96.0
 21
84.0
 31
0.0
  0
LINE
  8
LY_1
  6
CONTINUOUS
 62
     3
  5
DD
 10
-91.0
 20
84.0
 30
0.0
 11
-96.0
 21
84.0
 31
0.0
  0
LINE
  8
LY_1
  6
CONTINUOUS
 62
     3
  5
DE
 10
-91.0
 20
102.0
 30
0.0
 11
-96.0
 21
102.0
 31
0.0
  0
LINE
  8
LY_1
  6
CONTINUOUS
 62
     3
  5
DF
 10
-83.0
 20
84.0
 30
0.0
 11
-88.0
 21
84.0
 31
0.0
  0
LINE
  8
LY_1
  6
CONTINUOUS
 62
     3
  5
E0
 10
-83.0
 20
102.0
 30
0.0
 11
-88.0
 21
102.0
 31
0.0
  0
LINE
  8
LY_1
  6
CONTINUOUS
 62
     3
  5
E1
 10
-75.0
 20
84.0
 30
0.0
 11
-80.0
 21
84.0
 31
0.0
  0
LINE
  8
LY_1
  6
CONTINUOUS
 62
     3
  5
E2
 10
-75.0
 20
102.0
 30
0.0
 11
-80.0
 21
102.0
 31
0.0
  0
LINE
  8
LY_1
  6
CONTINUOUS
 62
     3
  5
E3
 10
-75.0
 20
111.0
 30
0.0
 11
-80.0
 21
111.0
 31
0.0
  0
LINE
  8
LY_1
  6
CONTINUOUS
 62
     3
  5
E4
 10
-75.0
 20
129.0
 30
0.0
 11
-80.0
 21
129.0
 31
0.0
  0
LINE
  8
LY_1
  6
CONTINUOUS
 62
     3
  5
E5
 10
-75.0
 20
129.0
 30
0.0
 11
-75.0
 21
111.0
 31
0.0
  0
LINE
  8
LY_1
  6
CONTINUOUS
 62
     3
  5
E6
 10
-80.0
 20
129.0
 30
0.0
 11
-80.0
 21
111.0
 31
0.0
  0
LINE
  8
LY_1
  6
CONTINUOUS
 62
     3
  5
E7
 10
-83.0
 20
129.0
 30
0.0
 11
-83.0
 21
111.0
 31
0.0
  0
LINE
  8
LY_1
  6
CONTINUOUS
 62
     3
  5
E8
 10
-88.0
 20
129.0
 30
0.0
 11
-88.0
 21
111.0
 31
0.0
  0
LINE
  8
LY_1
  6
CONTINUOUS
 62
     3
  5
E9
 10
-91.0
 20
129.0
 30
0.0
 11
-91.0
 21
111.0
 31
0.0
  0
LINE
  8
LY_1
  6
CONTINUOUS
 62
     3
  5
EA
 10
-96.0
 20
129.0
 30
0.0
 11
-96.0
 21
111.0
 31
0.0
  0
LINE
  8
LY_1
  6
DASHED
 62
    80
  5
EB
 10
33.0
 20
0.0
 30
0.0
 11
33.0
 21
10.0
 31
0.0
  0
LINE
  8
LY_1
  6
DASHED
 62
    80
  5
EC
 10
42.0
 20
0.0
 30
0.0
 11
42.0
 21
10.0
 31
0.0
  0
LINE
  8
LY_1
  6
DASHED
 62
    80
  5
ED
 10
-33.0
 20
0.0
 30
0.0
 11
-33.0
 21
10.0
 31
0.0
  0
LINE
  8
LY_1
  6
DASHED
 62
    80
  5
EE
 10
-42.0
 20
0.0
 30
0.0
 11
-42.0
 21
10.0
 31
0.0
  0
ARC
  8
LY_1
  6
CONTINUOUS
 62
     3
  5
EF
 10
-96.606542
 20
56.989878
 30
0.0
 40
67.606542
 50
315.968857
 51
0.0
  0
ARC
  8
LY_1
  6
CONTINUOUS
 62
     3
  5
F0
 10
96.606542
 20
56.989878
 30
0.0
 40
67.606542
 50
180.0
 51
224.031143
  0
ARC
  8
LY_1
  6
CONTINUOUS
 62
     3
  5
F1
 10
-48.0
 20
8.0
 30
0.0
 40
2.0
 50
90.0
 51
180.0
  0
ARC
  8
LY_1
  6
CONTINUOUS
 62
     3
  5
F2
 10
48.0
 20
8.0
 30
0.0
 40
2.0
 50
0.0
 51
90.0
  0
LINE
  8
LY_1
  6
CONTINUOUS
 62
     3
  5
F3
 10
-48.0
 20
10.0
 30
0.0
 11
48.0
 21
10.0
 31
0.0
  0
LINE
  8
LY_1
  6
CONTINUOUS
 62
     3
  5
F4
 10
-50.0
 20
0.0
 30
0.0
 11
50.0
 21
0.0
 31
0.0
  0
LINE
  8
LY_1
  6
CONTINUOUS
 62
     3
  5
F5
 10
-50.0
 20
0.0
 30
0.0
 11
-50.0
 21
8.0
 31
0.0
  0
LINE
  8
LY_1
  6
CONTINUOUS
 62
     3
  5
F6
 10
50.0
 20
0.0
 30
0.0
 11
50.0
 21
8.0
 31
0.0
  0
LINE
  8
LY_1
  6
CONTINUOUS
 62
     3
  5
F7
 10
-29.0
 20
58.0
 30
0.0
 11
29.0
 21
58.0
 31
0.0
  0
ARC
  8
LY_1
  6
CONTINUOUS
 62
     3
  5
F8
 10
31.0
 20
68.0
 30
0.0
 40
2.0
 50
90.0
 51
180.0
  0
LINE
  8
LY_1
  6
CONTINUOUS
 62
     3
  5
F9
 10
29.0
 20
56.989878
 30
0.0
 11
29.0
 21
68.0
 31
0.0
  0
LINE
  8
LY_1
  6
CONTINUOUS
 62
     3
  5
FA
 10
-29.0
 20
56.989878
 30
0.0
 11
-29.0
 21
64.2807
 31
0.0
  0
LINE
  8
LY_1
  6
CONTINUOUS
 62
     3
  5
FB
 10
20.0
 20
70.0
 30
0.0
 11
40.768874
 21
70.0
 31
0.0
  0
LINE
  8
LY_1
  6
CONTINUOUS
 62
     3
  5
FC
 10
15.0
 20
64.0
 30
0.0
 11
-5.0
 21
64.0
 31
0.0
  0
LINE
  8
LY_1
  6
DASHED
 62
    80
  5
FD
 10
15.0
 20
64.0
 30
0.0
 11
15.0
 21
32.718865
 31
0.0
  0
LINE
  8
LY_1
  6
DASHED
 62
    80
  5
FE
 10
-5.0
 20
64.0
 30
0.0
 11
-5.0
 21
32.718865
 31
0.0
  0
ARC
  8
LY_1
  6
DASHED
 62
    80
  5
FF
 10
10.0
 20
41.379119
 30
0.0
 40
10.0
 50
240.0
 51
300.0
  0
ARC
  8
LY_1
  6
DASHED
 62
    80
  5
100
 10
0.0
 20
41.379119
 30
0.0
 40
10.0
 50
240.0
 51
300.0
  0
ARC
  8
LY_1
  6
DASHED
 62
    80
  5
101
 10
0.0
 20
24.058611
 30
0.0
 40
10.0
 50
60.0
 51
120.0
  0
ARC
  8
LY_1
  6
CONTINUOUS
 62
     3
  5
102
 10
-5.0
 20
69.0
 30
0.0
 40
5.0
 50
180.0
 51
270.0
  0
ARC
  8
LY_1
  6
CONTINUOUS
 62
     3
  5
103
 10
15.0
 20
69.0
 30
0.0
 40
5.0
 50
270.0
 51
0.0
  0
LINE
  8
LY_1
  6
CONTINUOUS
 62
     3
  5
104
 10
20.0
 20
69.0
 30
0.0
 11
20.0
 21
75.363954
 31
0.0
  0
LINE
  8
LY_1
  6
CONTINUOUS
 62
     3
  5
105
 10
-10.0
 20
69.0
 30
0.0
 11
-10.0
 21
75.363954
 31
0.0
  0
ARC
  8
LY_1
  6
CONTINUOUS
 62
     3
  5
106
 10
40.768874
 20
137.606542
 30
0.0
 40
67.606542
 50
270.0
 51
338.294588
  0
ARC
  8
LY_1
  6
CONTINUOUS
 62
     3
  5
107
 10
40.768874
 20
102.393458
 30
0.0
 40
67.606542
 50
21.705412
 51
90.0
  0
ARC
  8
LY_1
  6
CONTINUOUS
 62
     3
  5
108
 10
85.0
 20
120.0
 30
0.0
 40
20.0
 50
338.294588
 51
21.705412
  0
POLYLINE
  8
LY_1
  6
CONTINUOUS
 62
     3
  5
109
 66
     1
 10
0.0
 20
0.0
 30
0.0
  0
VERTEX
  8
LY_1
  6
CONTINUOUS
 62
     3
  5
5BE
 10
59.901613
 20
89.829001
 30
0.0
  0
VERTEX
  8
LY_1
  6
CONTINUOUS
 62
     3
  5
5BF
 10
59.996563
 20
88.011662
 30
0.0
  0
VERTEX
  8
LY_1
  6
CONTINUOUS
 62
     3
  5
5C0
 10
59.814552
 20
86.199994
 30
0.0
  0
VERTEX
  8
LY_1
  6
CONTINUOUS
 62
     3
  5
5C1
 10
59.359184
 20
84.429846
 30
0.0
  0
VERTEX
  8
LY_1
  6
CONTINUOUS
 62
     3
  5
5C2
 10
58.639467
 20
82.736246
 30
0.0
  0
VERTEX
  8
LY_1
  6
CONTINUOUS
 62
     3
  5
5C3
 10
57.669644
 20
81.152705
 30
0.0
  0
VERTEX
  8
LY_1
  6
CONTINUOUS
 62
     3
  5
5C4
 10
56.468905
 20
79.710559
 30
0.0
  0
VERTEX
  8
LY_1
  6
CONTINUOUS
 62
     3
  5
5C5
 10
55.061011
 20
78.438343
 30
0.0
  0
VERTEX
  8
LY_1
  6
CONTINUOUS
 62
     3
  5
5C6
 10
53.47382
 20
77.361234
 30
0.0
  0
VERTEX
  8
LY_1
  6
CONTINUOUS
 62
     3
  5
5C7
 10
51.738738
 20
76.500543
 30
0.0
  0
VERTEX
  8
LY_1
  6
CONTINUOUS
 62
     3
  5
5C8
 10
49.890101
 20
75.873303
 30
0.0
  0
VERTEX
  8
LY_1
  6
CONTINUOUS
 62
     3
  5
5C9
 10
47.964487
 20
75.491924
 30
0.0
  0
VERTEX
  8
LY_1
  6
CONTINUOUS
 62
     3
  5
5CA
 10
46.0
 20
75.363954
 30
0.0
  0
VERTEX
  8
LY_1
  6
CONTINUOUS
 62
     3
  5
5CB
 10
46.0
 20
75.363954
 30
0.0
  0
SEQEND
  8
LY_1
  6
CONTINUOUS
 62
     3
  5
5CC
  0
LINE
  8
LY_1
  6
CONTINUOUS
 62
     3
  5
10A
 10
32.0
 20
98.248036
 30
0.0
 11
32.0
 21
91.359734
 31
0.0
  0
POLYLINE
  8
LY_1
  6
CONTINUOUS
 62
     3
  5
10B
 66
     1
 10
0.0
 20
0.0
 30
0.0
  0
VERTEX
  8
LY_1
  6
CONTINUOUS
 62
     3
  5
5CD
 10
59.901613
 20
89.829001
 30
0.0
  0
VERTEX
  8
LY_1
  6
CONTINUOUS
 62
     3
  5
5CE
 10
59.543633
 20
88.084194
 30
0.0
  0
VERTEX
  8
LY_1
  6
CONTINUOUS
 62
     3
  5
5CF
 10
58.93034
 20
86.401134
 30
0.0
  0
VERTEX
  8
LY_1
  6
CONTINUOUS
 62
     3
  5
5D0
 10
58.073295
 20
84.811551
 30
0.0
  0
VERTEX
  8
LY_1
  6
CONTINUOUS
 62
     3
  5
5D1
 10
56.988655
 20
83.345408
 30
0.0
  0
VERTEX
  8
LY_1
  6
CONTINUOUS
 62
     3
  5
5D2
 10
55.696865
 20
82.030344
 30
0.0
  0
VERTEX
  8
LY_1
  6
CONTINUOUS
 62
     3
  5
5D3
 10
54.222279
 20
80.891151
 30
0.0
  0
VERTEX
  8
LY_1
  6
CONTINUOUS
 62
     3
  5
5D4
 10
52.592692
 20
79.949302
 30
0.0
  0
VERTEX
  8
LY_1
  6
CONTINUOUS
 62
     3
  5
5D5
 10
50.838826
 20
79.222553
 30
0.0
  0
VERTEX
  8
LY_1
  6
CONTINUOUS
 62
     3
  5
5D6
 10
48.993742
 20
78.724605
 30
0.0
  0
VERTEX
  8
LY_1
  6
CONTINUOUS
 62
     3
  5
5D7
 10
47.092223
 20
78.464843
 30
0.0
  0
VERTEX
  8
LY_1
  6
CONTINUOUS
 62
     3
  5
5D8
 10
45.170114
 20
78.448166
 30
0.0
  0
VERTEX
  8
LY_1
  6
CONTINUOUS
 62
     3
  5
5D9
 10
43.263649
 20
78.674886
 30
0.0
  0
VERTEX
  8
LY_1
  6
CONTINUOUS
 62
     3
  5
5DA
 10
41.408768
 20
79.140731
 30
0.0
  0
VERTEX
  8
LY_1
  6
CONTINUOUS
 62
     3
  5
5DB
 10
39.640436
 20
79.836918
 30
0.0
  0
VERTEX
  8
LY_1
  6
CONTINUOUS
 62
     3
  5
5DC
 10
37.99199
 20
80.750323
 30
0.0
  0
VERTEX
  8
LY_1
  6
CONTINUOUS
 62
     3
  5
5DD
 10
36.494505
 20
81.863729
 30
0.0
  0
VERTEX
  8
LY_1
  6
CONTINUOUS
 62
     3
  5
5DE
 10
35.176209
 20
83.156145
 30
0.0
  0
VERTEX
  8
LY_1
  6
CONTINUOUS
 62
     3
  5
5DF
 10
34.061954
 20
84.603209
 30
0.0
  0
VERTEX
  8
LY_1
  6
CONTINUOUS
 62
     3
  5
5E0
 10
33.172745
 20
86.177641
 30
0.0
  0
VERTEX
  8
LY_1
  6
CONTINUOUS
 62
     3
  5
5E1
 10
32.525345
 20
87.849761
 30
0.0
  0
VERTEX
  8
LY_1
  6
CONTINUOUS
 62
     3
  5
5E2
 10
32.131958
 20
89.588049
 30
0.0
  0
VERTEX
  8
LY_1
  6
CONTINUOUS
 62
     3
  5
5E3
 10
32.0
 20
91.359734
 30
0.0
  0
VERTEX
  8
LY_1
  6
CONTINUOUS
 62
     3
  5
5E4
 10
32.0
 20
91.359734
 30
0.0
  0
SEQEND
  8
LY_1
  6
CONTINUOUS
 62
     3
  5
5E5
  0
LINE
  8
LY_1
  6
CONTINUOUS
 62
     3
  5
10C
 10
32.0
 20
155.528567
 30
0.0
 11
32.0
 21
148.640266
 31
0.0
  0
POLYLINE
  8
LY_1
  6
CONTINUOUS
 62
     3
  5
10D
 66
     1
 10
0.0
 20
0.0
 30
0.0
  0
VERTEX
  8
LY_1
  6
CONTINUOUS
 62
     3
  5
5E6
 10
59.901613
 20
147.109532
 30
0.0
  0
VERTEX
  8
LY_1
  6
CONTINUOUS
 62
     3
  5
5E7
 10
59.543633
 20
145.364725
 30
0.0
  0
VERTEX
  8
LY_1
  6
CONTINUOUS
 62
     3
  5
5E8
 10
58.93034
 20
143.681665
 30
0.0
  0
VERTEX
  8
LY_1
  6
CONTINUOUS
 62
     3
  5
5E9
 10
58.073295
 20
142.092082
 30
0.0
  0
VERTEX
  8
LY_1
  6
CONTINUOUS
 62
     3
  5
5EA
 10
56.988655
 20
140.625939
 30
0.0
  0
VERTEX
  8
LY_1
  6
CONTINUOUS
 62
     3
  5
5EB
 10
55.696865
 20
139.310875
 30
0.0
  0
VERTEX
  8
LY_1
  6
CONTINUOUS
 62
     3
  5
5EC
 10
54.222279
 20
138.171682
 30
0.0
  0
VERTEX
  8
LY_1
  6
CONTINUOUS
 62
     3
  5
5ED
 10
52.592692
 20
137.229833
 30
0.0
  0
VERTEX
  8
LY_1
  6
CONTINUOUS
 62
     3
  5
5EE
 10
50.838826
 20
136.503084
 30
0.0
  0
VERTEX
  8
LY_1
  6
CONTINUOUS
 62
     3
  5
5EF
 10
48.993742
 20
136.005136
 30
0.0
  0
VERTEX
  8
LY_1
  6
CONTINUOUS
 62
     3
  5
5F0
 10
47.092223
 20
135.745374
 30
0.0
  0
VERTEX
  8
LY_1
  6
CONTINUOUS
 62
     3
  5
5F1
 10
45.170114
 20
135.728697
 30
0.0
  0
VERTEX
  8
LY_1
  6
CONTINUOUS
 62
     3
  5
5F2
 10
43.263649
 20
135.955417
 30
0.0
  0
VERTEX
  8
LY_1
  6
CONTINUOUS
 62
     3
  5
5F3
 10
41.408768
 20
136.421262
 30
0.0
  0
VERTEX
  8
LY_1
  6
CONTINUOUS
 62
     3
  5
5F4
 10
39.640436
 20
137.117449
 30
0.0
  0
VERTEX
  8
LY_1
  6
CONTINUOUS
 62
     3
  5
5F5
 10
37.99199
 20
138.030854
 30
0.0
  0
VERTEX
  8
LY_1
  6
CONTINUOUS
 62
     3
  5
5F6
 10
36.494505
 20
139.14426
 30
0.0
  0
VERTEX
  8
LY_1
  6
CONTINUOUS
 62
     3
  5
5F7
 10
35.176209
 20
140.436676
 30
0.0
  0
VERTEX
  8
LY_1
  6
CONTINUOUS
 62
     3
  5
5F8
 10
34.061954
 20
141.88374
 30
0.0
  0
VERTEX
  8
LY_1
  6
CONTINUOUS
 62
     3
  5
5F9
 10
33.172745
 20
143.458172
 30
0.0
  0
VERTEX
  8
LY_1
  6
CONTINUOUS
 62
     3
  5
5FA
 10
32.525345
 20
145.130292
 30
0.0
  0
VERTEX
  8
LY_1
  6
CONTINUOUS
 62
     3
  5
5FB
 10
32.131958
 20
146.86858
 30
0.0
  0
VERTEX
  8
LY_1
  6
CONTINUOUS
 62
     3
  5
5FC
 10
32.0
 20
148.640266
 30
0.0
  0
VERTEX
  8
LY_1
  6
CONTINUOUS
 62
     3
  5
5FD
 10
32.0
 20
148.640266
 30
0.0
  0
SEQEND
  8
LY_1
  6
CONTINUOUS
 62
     3
  5
5FE
  0
LINE
  8
LY_1
  6
CONTINUOUS
 62
     3
  5
10E
 10
-20.0
 20
155.528567
 30
0.0
 11
-20.0
 21
148.640266
 31
0.0
  0
POLYLINE
  8
LY_1
  6
CONTINUOUS
 62
     3
  5
10F
 66
     1
 10
0.0
 20
0.0
 30
0.0
  0
VERTEX
  8
LY_1
  6
CONTINUOUS
 62
     3
  5
5FF
 10
-47.901613
 20
147.109532
 30
0.0
  0
VERTEX
  8
LY_1
  6
CONTINUOUS
 62
     3
  5
600
 10
-47.549166
 20
145.384314
 30
0.0
  0
VERTEX
  8
LY_1
  6
CONTINUOUS
 62
     3
  5
601
 10
-46.947079
 20
143.719087
 30
0.0
  0
VERTEX
  8
LY_1
  6
CONTINUOUS
 62
     3
  5
602
 10
-46.106444
 20
142.144531
 30
0.0
  0
VERTEX
  8
LY_1
  6
CONTINUOUS
 62
     3
  5
603
 10
-45.042751
 20
140.689658
 30
0.0
  0
VERTEX
  8
LY_1
  6
CONTINUOUS
 62
     3
  5
604
 10
-43.775597
 20
139.381273
 30
0.0
  0
VERTEX
  8
LY_1
  6
CONTINUOUS
 62
     3
  5
605
 10
-42.32833
 20
138.243483
 30
0.0
  0
VERTEX
  8
LY_1
  6
CONTINUOUS
 62
     3
  5
606
 10
-40.727615
 20
137.297252
 30
0.0
  0
VERTEX
  8
LY_1
  6
CONTINUOUS
 62
     3
  5
607
 10
-39.002945
 20
136.560014
 30
0.0
  0
VERTEX
  8
LY_1
  6
CONTINUOUS
 62
     3
  5
608
 10
-37.186097
 20
136.045351
 30
0.0
  0
VERTEX
  8
LY_1
  6
CONTINUOUS
 62
     3
  5
609
 10
-35.310546
 20
135.762748
 30
0.0
  0
VERTEX
  8
LY_1
  6
CONTINUOUS
 62
     3
  5
60A
 10
-33.410848
 20
135.71741
 30
0.0
  0
VERTEX
  8
LY_1
  6
CONTINUOUS
 62
     3
  5
60B
 10
-31.522005
 20
135.910173
 30
0.0
  0
VERTEX
  8
LY_1
  6
CONTINUOUS
 62
     3
  5
60C
 10
-29.678819
 20
136.337485
 30
0.0
  0
VERTEX
  8
LY_1
  6
CONTINUOUS
 62
     3
  5
60D
 10
-27.915249
 20
136.991474
 30
0.0
  0
VERTEX
  8
LY_1
  6
CONTINUOUS
 62
     3
  5
60E
 10
-26.26379
 20
137.860089
 30
0.0
  0
VERTEX
  8
LY_1
  6
CONTINUOUS
 62
     3
  5
60F
 10
-24.754869
 20
138.927327
 30
0.0
  0
VERTEX
  8
LY_1
  6
CONTINUOUS
 62
     3
  5
610
 10
-23.416288
 20
140.173524
 30
0.0
  0
VERTEX
  8
LY_1
  6
CONTINUOUS
 62
     3
  5
611
 10
-22.272709
 20
141.575719
 30
0.0
  0
VERTEX
  8
LY_1
  6
CONTINUOUS
 62
     3
  5
612
 10
-21.345204
 20
143.108076
 30
0.0
  0
VERTEX
  8
LY_1
  6
CONTINUOUS
 62
     3
  5
613
 10
-20.65086
 20
144.742363
 30
0.0
  0
VERTEX
  8
LY_1
  6
CONTINUOUS
 62
     3
  5
614
 10
-20.202471
 20
146.448468
 30
0.0
  0
VERTEX
  8
LY_1
  6
CONTINUOUS
 62
     3
  5
615
 10
-20.0083
 20
148.194957
 30
0.0
  0
VERTEX
  8
LY_1
  6
CONTINUOUS
 62
     3
  5
616
 10
-20.002075
 20
148.417578
 30
0.0
  0
VERTEX
  8
LY_1
  6
CONTINUOUS
 62
     3
  5
617
 10
-20.0
 20
148.640266
 30
0.0
  0
SEQEND
  8
LY_1
  6
CONTINUOUS
 62
     3
  5
618
  0
LINE
  8
LY_1
  6
CONTINUOUS
 62
     3
  5
110
 10
-20.0
 20
98.248036
 30
0.0
 11
-20.0
 21
91.359734
 31
0.0
  0
POLYLINE
  8
LY_1
  6
CONTINUOUS
 62
     3
  5
111
 66
     1
 10
0.0
 20
0.0
 30
0.0
  0
VERTEX
  8
LY_1
  6
CONTINUOUS
 62
     3
  5
619
 10
-47.901613
 20
89.829001
 30
0.0
  0
VERTEX
  8
LY_1
  6
CONTINUOUS
 62
     3
  5
61A
 10
-47.996563
 20
88.011662
 30
0.0
  0
VERTEX
  8
LY_1
  6
CONTINUOUS
 62
     3
  5
61B
 10
-47.814552
 20
86.199994
 30
0.0
  0
VERTEX
  8
LY_1
  6
CONTINUOUS
 62
     3
  5
61C
 10
-47.359184
 20
84.429846
 30
0.0
  0
VERTEX
  8
LY_1
  6
CONTINUOUS
 62
     3
  5
61D
 10
-46.639467
 20
82.736246
 30
0.0
  0
VERTEX
  8
LY_1
  6
CONTINUOUS
 62
     3
  5
61E
 10
-45.669644
 20
81.152705
 30
0.0
  0
VERTEX
  8
LY_1
  6
CONTINUOUS
 62
     3
  5
61F
 10
-44.468905
 20
79.710559
 30
0.0
  0
VERTEX
  8
LY_1
  6
CONTINUOUS
 62
     3
  5
620
 10
-43.061011
 20
78.438343
 30
0.0
  0
VERTEX
  8
LY_1
  6
CONTINUOUS
 62
     3
  5
621
 10
-41.47382
 20
77.361234
 30
0.0
  0
VERTEX
  8
LY_1
  6
CONTINUOUS
 62
     3
  5
622
 10
-39.738738
 20
76.500543
 30
0.0
  0
VERTEX
  8
LY_1
  6
CONTINUOUS
 62
     3
  5
623
 10
-37.890101
 20
75.873303
 30
0.0
  0
VERTEX
  8
LY_1
  6
CONTINUOUS
 62
     3
  5
624
 10
-35.964487
 20
75.491924
 30
0.0
  0
VERTEX
  8
LY_1
  6
CONTINUOUS
 62
     3
  5
625
 10
-34.0
 20
75.363954
 30
0.0
  0
VERTEX
  8
LY_1
  6
CONTINUOUS
 62
     3
  5
626
 10
-34.0
 20
75.363954
 30
0.0
  0
SEQEND
  8
LY_1
  6
CONTINUOUS
 62
     3
  5
627
  0
POLYLINE
  8
LY_1
  6
CONTINUOUS
 62
     3
  5
112
 66
     1
 10
0.0
 20
0.0
 30
0.0
  0
VERTEX
  8
LY_1
  6
CONTINUOUS
 62
     3
  5
628
 10
-47.901613
 20
89.829001
 30
0.0
  0
VERTEX
  8
LY_1
  6
CONTINUOUS
 62
     3
  5
629
 10
-47.549166
 20
88.103783
 30
0.0
  0
VERTEX
  8
LY_1
  6
CONTINUOUS
 62
     3
  5
62A
 10
-46.947079
 20
86.438556
 30
0.0
  0
VERTEX
  8
LY_1
  6
CONTINUOUS
 62
     3
  5
62B
 10
-46.106444
 20
84.864
 30
0.0
  0
VERTEX
  8
LY_1
  6
CONTINUOUS
 62
     3
  5
62C
 10
-45.042751
 20
83.409127
 30
0.0
  0
VERTEX
  8
LY_1
  6
CONTINUOUS
 62
     3
  5
62D
 10
-43.775597
 20
82.100742
 30
0.0
  0
VERTEX
  8
LY_1
  6
CONTINUOUS
 62
     3
  5
62E
 10
-42.32833
 20
80.962952
 30
0.0
  0
VERTEX
  8
LY_1
  6
CONTINUOUS
 62
     3
  5
62F
 10
-40.727615
 20
80.016721
 30
0.0
  0
VERTEX
  8
LY_1
  6
CONTINUOUS
 62
     3
  5
630
 10
-39.002945
 20
79.279483
 30
0.0
  0
VERTEX
  8
LY_1
  6
CONTINUOUS
 62
     3
  5
631
 10
-37.186097
 20
78.76482
 30
0.0
  0
VERTEX
  8
LY_1
  6
CONTINUOUS
 62
     3
  5
632
 10
-35.310546
 20
78.482217
 30
0.0
  0
VERTEX
  8
LY_1
  6
CONTINUOUS
 62
     3
  5
633
 10
-33.410848
 20
78.436879
 30
0.0
  0
VERTEX
  8
LY_1
  6
CONTINUOUS
 62
     3
  5
634
 10
-31.522005
 20
78.629642
 30
0.0
  0
VERTEX
  8
LY_1
  6
CONTINUOUS
 62
     3
  5
635
 10
-29.678819
 20
79.056954
 30
0.0
  0
VERTEX
  8
LY_1
  6
CONTINUOUS
 62
     3
  5
636
 10
-27.915249
 20
79.710943
 30
0.0
  0
VERTEX
  8
LY_1
  6
CONTINUOUS
 62
     3
  5
637
 10
-26.26379
 20
80.579558
 30
0.0
  0
VERTEX
  8
LY_1
  6
CONTINUOUS
 62
     3
  5
638
 10
-24.754869
 20
81.646796
 30
0.0
  0
VERTEX
  8
LY_1
  6
CONTINUOUS
 62
     3
  5
639
 10
-23.416288
 20
82.892993
 30
0.0
  0
VERTEX
  8
LY_1
  6
CONTINUOUS
 62
     3
  5
63A
 10
-22.272709
 20
84.295188
 30
0.0
  0
VERTEX
  8
LY_1
  6
CONTINUOUS
 62
     3
  5
63B
 10
-21.345204
 20
85.827545
 30
0.0
  0
VERTEX
  8
LY_1
  6
CONTINUOUS
 62
     3
  5
63C
 10
-20.65086
 20
87.461832
 30
0.0
  0
VERTEX
  8
LY_1
  6
CONTINUOUS
 62
     3
  5
63D
 10
-20.202471
 20
89.167937
 30
0.0
  0
VERTEX
  8
LY_1
  6
CONTINUOUS
 62
     3
  5
63E
 10
-20.0083
 20
90.914426
 30
0.0
  0
VERTEX
  8
LY_1
  6
CONTINUOUS
 62
     3
  5
63F
 10
-20.002075
 20
91.137047
 30
0.0
  0
VERTEX
  8
LY_1
  6
CONTINUOUS
 62
     3
  5
640
 10
-20.0
 20
91.359734
 30
0.0
  0
SEQEND
  8
LY_1
  6
CONTINUOUS
 62
     3
  5
641
  0
LINE
  8
LY_1
  6
CONTINUOUS
 62
     3
  5
113
 10
46.0
 20
75.363954
 30
0.0
 11
-34.0
 21
75.363954
 31
0.0
  0
LINE
  8
LY_1
  6
CONTINUOUS
 62
     3
  5
114
 10
46.0
 20
78.425421
 30
0.0
 11
-34.0
 21
78.425421
 31
0.0
  0
LINE
  8
LY_1
  6
CONTINUOUS
 62
     3
  5
115
 10
60.0
 20
155.528567
 30
0.0
 11
60.0
 21
88.298267
 31
0.0
  0
LINE
  8
LY_1
  6
CONTINUOUS
 62
     3
  5
116
 10
-48.0
 20
155.528567
 30
0.0
 11
-48.0
 21
88.298267
 31
0.0
  0
LINE
  8
LY_1
  6
CONTINUOUS
 62
     3
  5
117
 10
-27.0
 20
75.363954
 30
0.0
 11
-27.0
 21
66.2807
 31
0.0
  0
LINE
  8
LY_1
  6
CONTINUOUS
 62
     3
  5
118
 10
36.238226
 20
164.8
 30
0.0
 11
-24.238226
 21
164.8
 31
0.0
  0
LINE
  8
LY_1
  6
CONTINUOUS
 62
     3
  5
119
 10
46.0
 20
94.66494
 30
0.0
 11
49.0
 21
96.265147
 31
0.0
  0
LINE
  8
LY_1
  6
CONTINUOUS
 62
     3
  5
11A
 10
43.0
 20
96.265147
 30
0.0
 11
46.0
 21
94.66494
 31
0.0
  0
LINE
  8
LY_1
  6
CONTINUOUS
 62
     3
  5
11B
 10
46.0
 20
101.065765
 30
0.0
 11
43.0
 21
99.465559
 31
0.0
  0
LINE
  8
LY_1
  6
CONTINUOUS
 62
     3
  5
11C
 10
43.0
 20
99.465559
 30
0.0
 11
43.0
 21
96.265147
 31
0.0
  0
LINE
  8
LY_1
  6
CONTINUOUS
 62
     3
  5
11D
 10
46.0
 20
101.065765
 30
0.0
 11
49.0
 21
99.465559
 31
0.0
  0
LINE
  8
LY_1
  6
CONTINUOUS
 62
     3
  5
11E
 10
49.0
 20
99.465559
 30
0.0
 11
49.0
 21
96.265147
 31
0.0
  0
POLYLINE
  8
LY_1
  6
CONTINUOUS
 62
     3
  5
11F
 66
     1
 10
0.0
 20
0.0
 30
0.0
 70
     1
  0
VERTEX
  8
LY_1
  6
CONTINUOUS
 62
     3
  5
642
 10
52.5
 20
97.865353
 30
0.0
  0
VERTEX
  8
LY_1
  6
CONTINUOUS
 62
     3
  5
643
 10
52.475266
 20
98.388742
 30
0.0
  0
VERTEX
  8
LY_1
  6
CONTINUOUS
 62
     3
  5
644
 10
52.40125
 20
98.908148
 30
0.0
  0
VERTEX
  8
LY_1
  6
CONTINUOUS
 62
     3
  5
645
 10
52.278518
 20
99.419617
 30
0.0
  0
VERTEX
  8
LY_1
  6
CONTINUOUS
 62
     3
  5
646
 10
52.108002
 20
99.919258
 30
0.0
  0
VERTEX
  8
LY_1
  6
CONTINUOUS
 62
     3
  5
647
 10
51.891001
 20
100.403267
 30
0.0
  0
VERTEX
  8
LY_1
  6
CONTINUOUS
 62
     3
  5
648
 10
51.629165
 20
100.867961
 30
0.0
  0
VERTEX
  8
LY_1
  6
CONTINUOUS
 62
     3
  5
649
 10
51.324488
 20
101.309804
 30
0.0
  0
VERTEX
  8
LY_1
  6
CONTINUOUS
 62
     3
  5
64A
 10
50.979289
 20
101.725432
 30
0.0
  0
VERTEX
  8
LY_1
  6
CONTINUOUS
 62
     3
  5
64B
 10
50.596194
 20
102.111682
 30
0.0
  0
VERTEX
  8
LY_1
  6
CONTINUOUS
 62
     3
  5
64C
 10
50.178119
 20
102.465616
 30
0.0
  0
VERTEX
  8
LY_1
  6
CONTINUOUS
 62
     3
  5
64D
 10
49.728247
 20
102.784539
 30
0.0
  0
VERTEX
  8
LY_1
  6
CONTINUOUS
 62
     3
  5
64E
 10
49.25
 20
103.066023
 30
0.0
  0
VERTEX
  8
LY_1
  6
CONTINUOUS
 62
     3
  5
64F
 10
48.747019
 20
103.307928
 30
0.0
  0
VERTEX
  8
LY_1
  6
CONTINUOUS
 62
     3
  5
650
 10
48.223131
 20
103.508411
 30
0.0
  0
VERTEX
  8
LY_1
  6
CONTINUOUS
 62
     3
  5
651
 10
47.682324
 20
103.665947
 30
0.0
  0
VERTEX
  8
LY_1
  6
CONTINUOUS
 62
     3
  5
652
 10
47.128713
 20
103.779337
 30
0.0
  0
VERTEX
  8
LY_1
  6
CONTINUOUS
 62
     3
  5
653
 10
46.566512
 20
103.847718
 30
0.0
  0
VERTEX
  8
LY_1
  6
CONTINUOUS
 62
     3
  5
654
 10
46.0
 20
103.87057
 30
0.0
  0
VERTEX
  8
LY_1
  6
CONTINUOUS
 62
     3
  5
655
 10
45.433488
 20
103.847718
 30
0.0
  0
VERTEX
  8
LY_1
  6
CONTINUOUS
 62
     3
  5
656
 10
44.871287
 20
103.779337
 30
0.0
  0
VERTEX
  8
LY_1
  6
CONTINUOUS
 62
     3
  5
657
 10
44.317676
 20
103.665947
 30
0.0
  0
VERTEX
  8
LY_1
  6
CONTINUOUS
 62
     3
  5
658
 10
43.776869
 20
103.508411
 30
0.0
  0
VERTEX
  8
LY_1
  6
CONTINUOUS
 62
     3
  5
659
 10
43.252981
 20
103.307928
 30
0.0
  0
VERTEX
  8
LY_1
  6
CONTINUOUS
 62
     3
  5
65A
 10
42.75
 20
103.066023
 30
0.0
  0
VERTEX
  8
LY_1
  6
CONTINUOUS
 62
     3
  5
65B
 10
42.271753
 20
102.784539
 30
0.0
  0
VERTEX
  8
LY_1
  6
CONTINUOUS
 62
     3
  5
65C
 10
41.821881
 20
102.465616
 30
0.0
  0
VERTEX
  8
LY_1
  6
CONTINUOUS
 62
     3
  5
65D
 10
41.403806
 20
102.111682
 30
0.0
  0
VERTEX
  8
LY_1
  6
CONTINUOUS
 62
     3
  5
65E
 10
41.020711
 20
101.725432
 30
0.0
  0
VERTEX
  8
LY_1
  6
CONTINUOUS
 62
     3
  5
65F
 10
40.675512
 20
101.309804
 30
0.0
  0
VERTEX
  8
LY_1
  6
CONTINUOUS
 62
     3
  5
660
 10
40.370835
 20
100.867961
 30
0.0
  0
VERTEX
  8
LY_1
  6
CONTINUOUS
 62
     3
  5
661
 10
40.108999
 20
100.403267
 30
0.0
  0
VERTEX
  8
LY_1
  6
CONTINUOUS
 62
     3
  5
662
 10
39.891998
 20
99.919258
 30
0.0
  0
VERTEX
  8
LY_1
  6
CONTINUOUS
 62
     3
  5
663
 10
39.721482
 20
99.419617
 30
0.0
  0
VERTEX
  8
LY_1
  6
CONTINUOUS
 62
     3
  5
664
 10
39.59875
 20
98.908148
 30
0.0
  0
VERTEX
  8
LY_1
  6
CONTINUOUS
 62
     3
  5
665
 10
39.524734
 20
98.388742
 30
0.0
  0
VERTEX
  8
LY_1
  6
CONTINUOUS
 62
     3
  5
666
 10
39.5
 20
97.865353
 30
0.0
  0
VERTEX
  8
LY_1
  6
CONTINUOUS
 62
     3
  5
667
 10
39.524734
 20
97.341964
 30
0.0
  0
VERTEX
  8
LY_1
  6
CONTINUOUS
 62
     3
  5
668
 10
39.59875
 20
96.822558
 30
0.0
  0
VERTEX
  8
LY_1
  6
CONTINUOUS
 62
     3
  5
669
 10
39.721482
 20
96.311088
 30
0.0
  0
VERTEX
  8
LY_1
  6
CONTINUOUS
 62
     3
  5
66A
 10
39.891998
 20
95.811448
 30
0.0
  0
VERTEX
  8
LY_1
  6
CONTINUOUS
 62
     3
  5
66B
 10
40.108999
 20
95.327438
 30
0.0
  0
VERTEX
  8
LY_1
  6
CONTINUOUS
 62
     3
  5
66C
 10
40.370835
 20
94.862744
 30
0.0
  0
VERTEX
  8
LY_1
  6
CONTINUOUS
 62
     3
  5
66D
 10
40.675512
 20
94.420902
 30
0.0
  0
VERTEX
  8
LY_1
  6
CONTINUOUS
 62
     3
  5
66E
 10
41.020711
 20
94.005274
 30
0.0
  0
VERTEX
  8
LY_1
  6
CONTINUOUS
 62
     3
  5
66F
 10
41.403806
 20
93.619023
 30
0.0
  0
VERTEX
  8
LY_1
  6
CONTINUOUS
 62
     3
  5
670
 10
41.821881
 20
93.26509
 30
0.0
  0
VERTEX
  8
LY_1
  6
CONTINUOUS
 62
     3
  5
671
 10
42.271753
 20
92.946167
 30
0.0
  0
VERTEX
  8
LY_1
  6
CONTINUOUS
 62
     3
  5
672
 10
42.75
 20
92.664682
 30
0.0
  0
VERTEX
  8
LY_1
  6
CONTINUOUS
 62
     3
  5
673
 10
43.252981
 20
92.422778
 30
0.0
  0
VERTEX
  8
LY_1
  6
CONTINUOUS
 62
     3
  5
674
 10
43.776869
 20
92.222295
 30
0.0
  0
VERTEX
  8
LY_1
  6
CONTINUOUS
 62
     3
  5
675
 10
44.317676
 20
92.064759
 30
0.0
  0
VERTEX
  8
LY_1
  6
CONTINUOUS
 62
     3
  5
676
 10
44.871287
 20
91.951369
 30
0.0
  0
VERTEX
  8
LY_1
  6
CONTINUOUS
 62
     3
  5
677
 10
45.433488
 20
91.882988
 30
0.0
  0
VERTEX
  8
LY_1
  6
CONTINUOUS
 62
     3
  5
678
 10
46.0
 20
91.860136
 30
0.0
  0
VERTEX
  8
LY_1
  6
CONTINUOUS
 62
     3
  5
679
 10
46.566512
 20
91.882988
 30
0.0
  0
VERTEX
  8
LY_1
  6
CONTINUOUS
 62
     3
  5
67A
 10
47.128713
 20
91.951369
 30
0.0
  0
VERTEX
  8
LY_1
  6
CONTINUOUS
 62
     3
  5
67B
 10
47.682324
 20
92.064759
 30
0.0
  0
VERTEX
  8
LY_1
  6
CONTINUOUS
 62
     3
  5
67C
 10
48.223131
 20
92.222295
 30
0.0
  0
VERTEX
  8
LY_1
  6
CONTINUOUS
 62
     3
  5
67D
 10
48.747019
 20
92.422778
 30
0.0
  0
VERTEX
  8
LY_1
  6
CONTINUOUS
 62
     3
  5
67E
 10
49.25
 20
92.664682
 30
0.0
  0
VERTEX
  8
LY_1
  6
CONTINUOUS
 62
     3
  5
67F
 10
49.728247
 20
92.946167
 30
0.0
  0
VERTEX
  8
LY_1
  6
CONTINUOUS
 62
     3
  5
680
 10
50.178119
 20
93.26509
 30
0.0
  0
VERTEX
  8
LY_1
  6
CONTINUOUS
 62
     3
  5
681
 10
50.596194
 20
93.619023
 30
0.0
  0
VERTEX
  8
LY_1
  6
CONTINUOUS
 62
     3
  5
682
 10
50.979289
 20
94.005274
 30
0.0
  0
VERTEX
  8
LY_1
  6
CONTINUOUS
 62
     3
  5
683
 10
51.324488
 20
94.420902
 30
0.0
  0
VERTEX
  8
LY_1
  6
CONTINUOUS
 62
     3
  5
684
 10
51.629165
 20
94.862744
 30
0.0
  0
VERTEX
  8
LY_1
  6
CONTINUOUS
 62
     3
  5
685
 10
51.891001
 20
95.327438
 30
0.0
  0
VERTEX
  8
LY_1
  6
CONTINUOUS
 62
     3
  5
686
 10
52.108002
 20
95.811448
 30
0.0
  0
VERTEX
  8
LY_1
  6
CONTINUOUS
 62
     3
  5
687
 10
52.278518
 20
96.311088
 30
0.0
  0
VERTEX
  8
LY_1
  6
CONTINUOUS
 62
     3
  5
688
 10
52.40125
 20
96.822558
 30
0.0
  0
VERTEX
  8
LY_1
  6
CONTINUOUS
 62
     3
  5
689
 10
52.475266
 20
97.341964
 30
0.0
  0
VERTEX
  8
LY_1
  6
CONTINUOUS
 62
     3
  5
68A
 10
52.5
 20
97.865353
 30
0.0
  0
SEQEND
  8
LY_1
  6
CONTINUOUS
 62
     3
  5
68B
  0
POLYLINE
  8
LY_1
  6
CONTINUOUS
 62
     3
  5
120
 66
     1
 10
0.0
 20
0.0
 30
0.0
 70
     1
  0
VERTEX
  8
LY_1
  6
CONTINUOUS
 62
     3
  5
68C
 10
56.0
 20
98.248036
 30
0.0
  0
VERTEX
  8
LY_1
  6
CONTINUOUS
 62
     3
  5
68D
 10
55.961947
 20
99.05325
 30
0.0
  0
VERTEX
  8
LY_1
  6
CONTINUOUS
 62
     3
  5
68E
 10
55.848078
 20
99.852336
 30
0.0
  0
VERTEX
  8
LY_1
  6
CONTINUOUS
 62
     3
  5
68F
 10
55.659258
 20
100.639212
 30
0.0
  0
VERTEX
  8
LY_1
  6
CONTINUOUS
 62
     3
  5
690
 10
55.396926
 20
101.40789
 30
0.0
  0
VERTEX
  8
LY_1
  6
CONTINUOUS
 62
     3
  5
691
 10
55.063078
 20
102.15252
 30
0.0
  0
VERTEX
  8
LY_1
  6
CONTINUOUS
 62
     3
  5
692
 10
54.660254
 20
102.867434
 30
0.0
  0
VERTEX
  8
LY_1
  6
CONTINUOUS
 62
     3
  5
693
 10
54.19152
 20
103.547192
 30
0.0
  0
VERTEX
  8
LY_1
  6
CONTINUOUS
 62
     3
  5
694
 10
53.660444
 20
104.186619
 30
0.0
  0
VERTEX
  8
LY_1
  6
CONTINUOUS
 62
     3
  5
695
 10
53.071068
 20
104.780851
 30
0.0
  0
VERTEX
  8
LY_1
  6
CONTINUOUS
 62
     3
  5
696
 10
52.427876
 20
105.325364
 30
0.0
  0
VERTEX
  8
LY_1
  6
CONTINUOUS
 62
     3
  5
697
 10
51.735764
 20
105.816014
 30
0.0
  0
VERTEX
  8
LY_1
  6
CONTINUOUS
 62
     3
  5
698
 10
51.0
 20
106.249068
 30
0.0
  0
VERTEX
  8
LY_1
  6
CONTINUOUS
 62
     3
  5
699
 10
50.226183
 20
106.621228
 30
0.0
  0
VERTEX
  8
LY_1
  6
CONTINUOUS
 62
     3
  5
69A
 10
49.420201
 20
106.929664
 30
0.0
  0
VERTEX
  8
LY_1
  6
CONTINUOUS
 62
     3
  5
69B
 10
48.58819
 20
107.172027
 30
0.0
  0
VERTEX
  8
LY_1
  6
CONTINUOUS
 62
     3
  5
69C
 10
47.736482
 20
107.346474
 30
0.0
  0
VERTEX
  8
LY_1
  6
CONTINUOUS
 62
     3
  5
69D
 10
46.871557
 20
107.451675
 30
0.0
  0
VERTEX
  8
LY_1
  6
CONTINUOUS
 62
     3
  5
69E
 10
46.0
 20
107.486832
 30
0.0
  0
VERTEX
  8
LY_1
  6
CONTINUOUS
 62
     3
  5
69F
 10
45.128443
 20
107.451675
 30
0.0
  0
VERTEX
  8
LY_1
  6
CONTINUOUS
 62
     3
  5
6A0
 10
44.263518
 20
107.346474
 30
0.0
  0
VERTEX
  8
LY_1
  6
CONTINUOUS
 62
     3
  5
6A1
 10
43.41181
 20
107.172027
 30
0.0
  0
VERTEX
  8
LY_1
  6
CONTINUOUS
 62
     3
  5
6A2
 10
42.579799
 20
106.929664
 30
0.0
  0
VERTEX
  8
LY_1
  6
CONTINUOUS
 62
     3
  5
6A3
 10
41.773817
 20
106.621228
 30
0.0
  0
VERTEX
  8
LY_1
  6
CONTINUOUS
 62
     3
  5
6A4
 10
41.0
 20
106.249068
 30
0.0
  0
VERTEX
  8
LY_1
  6
CONTINUOUS
 62
     3
  5
6A5
 10
40.264236
 20
105.816014
 30
0.0
  0
VERTEX
  8
LY_1
  6
CONTINUOUS
 62
     3
  5
6A6
 10
39.572124
 20
105.325364
 30
0.0
  0
VERTEX
  8
LY_1
  6
CONTINUOUS
 62
     3
  5
6A7
 10
38.928932
 20
104.780851
 30
0.0
  0
VERTEX
  8
LY_1
  6
CONTINUOUS
 62
     3
  5
6A8
 10
38.339556
 20
104.186619
 30
0.0
  0
VERTEX
  8
LY_1
  6
CONTINUOUS
 62
     3
  5
6A9
 10
37.80848
 20
103.547192
 30
0.0
  0
VERTEX
  8
LY_1
  6
CONTINUOUS
 62
     3
  5
6AA
 10
37.339746
 20
102.867434
 30
0.0
  0
VERTEX
  8
LY_1
  6
CONTINUOUS
 62
     3
  5
6AB
 10
36.936922
 20
102.15252
 30
0.0
  0
VERTEX
  8
LY_1
  6
CONTINUOUS
 62
     3
  5
6AC
 10
36.603074
 20
101.40789
 30
0.0
  0
VERTEX
  8
LY_1
  6
CONTINUOUS
 62
     3
  5
6AD
 10
36.340742
 20
100.639212
 30
0.0
  0
VERTEX
  8
LY_1
  6
CONTINUOUS
 62
     3
  5
6AE
 10
36.151922
 20
99.852336
 30
0.0
  0
VERTEX
  8
LY_1
  6
CONTINUOUS
 62
     3
  5
6AF
 10
36.038053
 20
99.05325
 30
0.0
  0
VERTEX
  8
LY_1
  6
CONTINUOUS
 62
     3
  5
6B0
 10
36.0
 20
98.248036
 30
0.0
  0
VERTEX
  8
LY_1
  6
CONTINUOUS
 62
     3
  5
6B1
 10
36.038053
 20
97.442822
 30
0.0
  0
VERTEX
  8
LY_1
  6
CONTINUOUS
 62
     3
  5
6B2
 10
36.151922
 20
96.643736
 30
0.0
  0
VERTEX
  8
LY_1
  6
CONTINUOUS
 62
     3
  5
6B3
 10
36.340742
 20
95.85686
 30
0.0
  0
VERTEX
  8
LY_1
  6
CONTINUOUS
 62
     3
  5
6B4
 10
36.603074
 20
95.088182
 30
0.0
  0
VERTEX
  8
LY_1
  6
CONTINUOUS
 62
     3
  5
6B5
 10
36.936922
 20
94.343553
 30
0.0
  0
VERTEX
  8
LY_1
  6
CONTINUOUS
 62
     3
  5
6B6
 10
37.339746
 20
93.628639
 30
0.0
  0
VERTEX
  8
LY_1
  6
CONTINUOUS
 62
     3
  5
6B7
 10
37.80848
 20
92.948881
 30
0.0
  0
VERTEX
  8
LY_1
  6
CONTINUOUS
 62
     3
  5
6B8
 10
38.339556
 20
92.309453
 30
0.0
  0
VERTEX
  8
LY_1
  6
CONTINUOUS
 62
     3
  5
6B9
 10
38.928932
 20
91.715221
 30
0.0
  0
VERTEX
  8
LY_1
  6
CONTINUOUS
 62
     3
  5
6BA
 10
39.572124
 20
91.170708
 30
0.0
  0
VERTEX
  8
LY_1
  6
CONTINUOUS
 62
     3
  5
6BB
 10
40.264236
 20
90.680058
 30
0.0
  0
VERTEX
  8
LY_1
  6
CONTINUOUS
 62
     3
  5
6BC
 10
41.0
 20
90.247005
 30
0.0
  0
VERTEX
  8
LY_1
  6
CONTINUOUS
 62
     3
  5
6BD
 10
41.773817
 20
89.874844
 30
0.0
  0
VERTEX
  8
LY_1
  6
CONTINUOUS
 62
     3
  5
6BE
 10
42.579799
 20
89.566408
 30
0.0
  0
VERTEX
  8
LY_1
  6
CONTINUOUS
 62
     3
  5
6BF
 10
43.41181
 20
89.324045
 30
0.0
  0
VERTEX
  8
LY_1
  6
CONTINUOUS
 62
     3
  5
6C0
 10
44.263518
 20
89.149599
 30
0.0
  0
VERTEX
  8
LY_1
  6
CONTINUOUS
 62
     3
  5
6C1
 10
45.128443
 20
89.044397
 30
0.0
  0
VERTEX
  8
LY_1
  6
CONTINUOUS
 62
     3
  5
6C2
 10
46.0
 20
89.009241
 30
0.0
  0
VERTEX
  8
LY_1
  6
CONTINUOUS
 62
     3
  5
6C3
 10
46.871557
 20
89.044397
 30
0.0
  0
VERTEX
  8
LY_1
  6
CONTINUOUS
 62
     3
  5
6C4
 10
47.736482
 20
89.149599
 30
0.0
  0
VERTEX
  8
LY_1
  6
CONTINUOUS
 62
     3
  5
6C5
 10
48.58819
 20
89.324045
 30
0.0
  0
VERTEX
  8
LY_1
  6
CONTINUOUS
 62
     3
  5
6C6
 10
49.420201
 20
89.566408
 30
0.0
  0
VERTEX
  8
LY_1
  6
CONTINUOUS
 62
     3
  5
6C7
 10
50.226183
 20
89.874844
 30
0.0
  0
VERTEX
  8
LY_1
  6
CONTINUOUS
 62
     3
  5
6C8
 10
51.0
 20
90.247005
 30
0.0
  0
VERTEX
  8
LY_1
  6
CONTINUOUS
 62
     3
  5
6C9
 10
51.735764
 20
90.680058
 30
0.0
  0
VERTEX
  8
LY_1
  6
CONTINUOUS
 62
     3
  5
6CA
 10
52.427876
 20
91.170708
 30
0.0
  0
VERTEX
  8
LY_1
  6
CONTINUOUS
 62
     3
  5
6CB
 10
53.071068
 20
91.715221
 30
0.0
  0
VERTEX
  8
LY_1
  6
CONTINUOUS
 62
     3
  5
6CC
 10
53.660444
 20
92.309453
 30
0.0
  0
VERTEX
  8
LY_1
  6
CONTINUOUS
 62
     3
  5
6CD
 10
54.19152
 20
92.948881
 30
0.0
  0
VERTEX
  8
LY_1
  6
CONTINUOUS
 62
     3
  5
6CE
 10
54.660254
 20
93.628639
 30
0.0
  0
VERTEX
  8
LY_1
  6
CONTINUOUS
 62
     3
  5
6CF
 10
55.063078
 20
94.343553
 30
0.0
  0
VERTEX
  8
LY_1
  6
CONTINUOUS
 62
     3
  5
6D0
 10
55.396926
 20
95.088182
 30
0.0
  0
VERTEX
  8
LY_1
  6
CONTINUOUS
 62
     3
  5
6D1
 10
55.659258
 20
95.85686
 30
0.0
  0
VERTEX
  8
LY_1
  6
CONTINUOUS
 62
     3
  5
6D2
 10
55.848078
 20
96.643736
 30
0.0
  0
VERTEX
  8
LY_1
  6
CONTINUOUS
 62
     3
  5
6D3
 10
55.961947
 20
97.442822
 30
0.0
  0
VERTEX
  8
LY_1
  6
CONTINUOUS
 62
     3
  5
6D4
 10
56.0
 20
98.248036
 30
0.0
  0
SEQEND
  8
LY_1
  6
CONTINUOUS
 62
     3
  5
6D5
  0
POLYLINE
  8
LY_1
  6
CONTINUOUS
 62
     3
  5
121
 66
     1
 10
0.0
 20
0.0
 30
0.0
 70
     1
  0
VERTEX
  8
LY_1
  6
CONTINUOUS
 62
     3
  5
6D6
 10
60.0
 20
98.248036
 30
0.0
  0
VERTEX
  8
LY_1
  6
CONTINUOUS
 62
     3
  5
6D7
 10
59.946726
 20
99.375336
 30
0.0
  0
VERTEX
  8
LY_1
  6
CONTINUOUS
 62
     3
  5
6D8
 10
59.787309
 20
100.494056
 30
0.0
  0
VERTEX
  8
LY_1
  6
CONTINUOUS
 62
     3
  5
6D9
 10
59.522962
 20
101.595683
 30
0.0
  0
VERTEX
  8
LY_1
  6
CONTINUOUS
 62
     3
  5
6DA
 10
59.155697
 20
102.671832
 30
0.0
  0
VERTEX
  8
LY_1
  6
CONTINUOUS
 62
     3
  5
6DB
 10
58.688309
 20
103.714313
 30
0.0
  0
VERTEX
  8
LY_1
  6
CONTINUOUS
 62
     3
  5
6DC
 10
58.124356
 20
104.715193
 30
0.0
  0
VERTEX
  8
LY_1
  6
CONTINUOUS
 62
     3
  5
6DD
 10
57.468129
 20
105.666854
 30
0.0
  0
VERTEX
  8
LY_1
  6
CONTINUOUS
 62
     3
  5
6DE
 10
56.724622
 20
106.562053
 30
0.0
  0
VERTEX
  8
LY_1
  6
CONTINUOUS
 62
     3
  5
6DF
 10
55.899495
 20
107.393977
 30
0.0
  0
VERTEX
  8
LY_1
  6
CONTINUOUS
 62
     3
  5
6E0
 10
54.999027
 20
108.156295
 30
0.0
  0
VERTEX
  8
LY_1
  6
CONTINUOUS
 62
     3
  5
6E1
 10
54.03007
 20
108.843206
 30
0.0
  0
VERTEX
  8
LY_1
  6
CONTINUOUS
 62
     3
  5
6E2
 10
53.0
 20
109.44948
 30
0.0
  0
VERTEX
  8
LY_1
  6
CONTINUOUS
 62
     3
  5
6E3
 10
51.916656
 20
109.970505
 30
0.0
  0
VERTEX
  8
LY_1
  6
CONTINUOUS
 62
     3
  5
6E4
 10
50.788282
 20
110.402315
 30
0.0
  0
VERTEX
  8
LY_1
  6
CONTINUOUS
 62
     3
  5
6E5
 10
49.623467
 20
110.741624
 30
0.0
  0
VERTEX
  8
LY_1
  6
CONTINUOUS
 62
     3
  5
6E6
 10
48.431074
 20
110.985848
 30
0.0
  0
VERTEX
  8
LY_1
  6
CONTINUOUS
 62
     3
  5
6E7
 10
47.22018
 20
111.133131
 30
0.0
  0
VERTEX
  8
LY_1
  6
CONTINUOUS
 62
     3
  5
6E8
 10
46.0
 20
111.18235
 30
0.0
  0
VERTEX
  8
LY_1
  6
CONTINUOUS
 62
     3
  5
6E9
 10
44.77982
 20
111.133131
 30
0.0
  0
VERTEX
  8
LY_1
  6
CONTINUOUS
 62
     3
  5
6EA
 10
43.568926
 20
110.985848
 30
0.0
  0
VERTEX
  8
LY_1
  6
CONTINUOUS
 62
     3
  5
6EB
 10
42.376533
 20
110.741624
 30
0.0
  0
VERTEX
  8
LY_1
  6
CONTINUOUS
 62
     3
  5
6EC
 10
41.211718
 20
110.402315
 30
0.0
  0
VERTEX
  8
LY_1
  6
CONTINUOUS
 62
     3
  5
6ED
 10
40.083344
 20
109.970505
 30
0.0
  0
VERTEX
  8
LY_1
  6
CONTINUOUS
 62
     3
  5
6EE
 10
39.0
 20
109.44948
 30
0.0
  0
VERTEX
  8
LY_1
  6
CONTINUOUS
 62
     3
  5
6EF
 10
37.96993
 20
108.843206
 30
0.0
  0
VERTEX
  8
LY_1
  6
CONTINUOUS
 62
     3
  5
6F0
 10
37.000973
 20
108.156295
 30
0.0
  0
VERTEX
  8
LY_1
  6
CONTINUOUS
 62
     3
  5
6F1
 10
36.100505
 20
107.393977
 30
0.0
  0
VERTEX
  8
LY_1
  6
CONTINUOUS
 62
     3
  5
6F2
 10
35.275378
 20
106.562053
 30
0.0
  0
VERTEX
  8
LY_1
  6
CONTINUOUS
 62
     3
  5
6F3
 10
34.531871
 20
105.666854
 30
0.0
  0
VERTEX
  8
LY_1
  6
CONTINUOUS
 62
     3
  5
6F4
 10
33.875644
 20
104.715193
 30
0.0
  0
VERTEX
  8
LY_1
  6
CONTINUOUS
 62
     3
  5
6F5
 10
33.311691
 20
103.714313
 30
0.0
  0
VERTEX
  8
LY_1
  6
CONTINUOUS
 62
     3
  5
6F6
 10
32.844303
 20
102.671832
 30
0.0
  0
VERTEX
  8
LY_1
  6
CONTINUOUS
 62
     3
  5
6F7
 10
32.477038
 20
101.595683
 30
0.0
  0
VERTEX
  8
LY_1
  6
CONTINUOUS
 62
     3
  5
6F8
 10
32.212691
 20
100.494056
 30
0.0
  0
VERTEX
  8
LY_1
  6
CONTINUOUS
 62
     3
  5
6F9
 10
32.053274
 20
99.375336
 30
0.0
  0
VERTEX
  8
LY_1
  6
CONTINUOUS
 62
     3
  5
6FA
 10
32.0
 20
98.248036
 30
0.0
  0
VERTEX
  8
LY_1
  6
CONTINUOUS
 62
     3
  5
6FB
 10
32.053274
 20
97.120737
 30
0.0
  0
VERTEX
  8
LY_1
  6
CONTINUOUS
 62
     3
  5
6FC
 10
32.212691
 20
96.002016
 30
0.0
  0
VERTEX
  8
LY_1
  6
CONTINUOUS
 62
     3
  5
6FD
 10
32.477038
 20
94.90039
 30
0.0
  0
VERTEX
  8
LY_1
  6
CONTINUOUS
 62
     3
  5
6FE
 10
32.844303
 20
93.824241
 30
0.0
  0
VERTEX
  8
LY_1
  6
CONTINUOUS
 62
     3
  5
6FF
 10
33.311691
 20
92.781759
 30
0.0
  0
VERTEX
  8
LY_1
  6
CONTINUOUS
 62
     3
  5
700
 10
33.875644
 20
91.78088
 30
0.0
  0
VERTEX
  8
LY_1
  6
CONTINUOUS
 62
     3
  5
701
 10
34.531871
 20
90.829219
 30
0.0
  0
VERTEX
  8
LY_1
  6
CONTINUOUS
 62
     3
  5
702
 10
35.275378
 20
89.93402
 30
0.0
  0
VERTEX
  8
LY_1
  6
CONTINUOUS
 62
     3
  5
703
 10
36.100505
 20
89.102096
 30
0.0
  0
VERTEX
  8
LY_1
  6
CONTINUOUS
 62
     3
  5
704
 10
37.000973
 20
88.339777
 30
0.0
  0
VERTEX
  8
LY_1
  6
CONTINUOUS
 62
     3
  5
705
 10
37.96993
 20
87.652867
 30
0.0
  0
VERTEX
  8
LY_1
  6
CONTINUOUS
 62
     3
  5
706
 10
39.0
 20
87.046592
 30
0.0
  0
VERTEX
  8
LY_1
  6
CONTINUOUS
 62
     3
  5
707
 10
40.083344
 20
86.525567
 30
0.0
  0
VERTEX
  8
LY_1
  6
CONTINUOUS
 62
     3
  5
708
 10
41.211718
 20
86.093757
 30
0.0
  0
VERTEX
  8
LY_1
  6
CONTINUOUS
 62
     3
  5
709
 10
42.376533
 20
85.754449
 30
0.0
  0
VERTEX
  8
LY_1
  6
CONTINUOUS
 62
     3
  5
70A
 10
43.568926
 20
85.510224
 30
0.0
  0
VERTEX
  8
LY_1
  6
CONTINUOUS
 62
     3
  5
70B
 10
44.77982
 20
85.362942
 30
0.0
  0
VERTEX
  8
LY_1
  6
CONTINUOUS
 62
     3
  5
70C
 10
46.0
 20
85.313723
 30
0.0
  0
VERTEX
  8
LY_1
  6
CONTINUOUS
 62
     3
  5
70D
 10
47.22018
 20
85.362942
 30
0.0
  0
VERTEX
  8
LY_1
  6
CONTINUOUS
 62
     3
  5
70E
 10
48.431074
 20
85.510224
 30
0.0
  0
VERTEX
  8
LY_1
  6
CONTINUOUS
 62
     3
  5
70F
 10
49.623467
 20
85.754449
 30
0.0
  0
VERTEX
  8
LY_1
  6
CONTINUOUS
 62
     3
  5
710
 10
50.788282
 20
86.093757
 30
0.0
  0
VERTEX
  8
LY_1
  6
CONTINUOUS
 62
     3
  5
711
 10
51.916656
 20
86.525567
 30
0.0
  0
VERTEX
  8
LY_1
  6
CONTINUOUS
 62
     3
  5
712
 10
53.0
 20
87.046592
 30
0.0
  0
VERTEX
  8
LY_1
  6
CONTINUOUS
 62
     3
  5
713
 10
54.03007
 20
87.652867
 30
0.0
  0
VERTEX
  8
LY_1
  6
CONTINUOUS
 62
     3
  5
714
 10
54.999027
 20
88.339777
 30
0.0
  0
VERTEX
  8
LY_1
  6
CONTINUOUS
 62
     3
  5
715
 10
55.899495
 20
89.102096
 30
0.0
  0
VERTEX
  8
LY_1
  6
CONTINUOUS
 62
     3
  5
716
 10
56.724622
 20
89.93402
 30
0.0
  0
VERTEX
  8
LY_1
  6
CONTINUOUS
 62
     3
  5
717
 10
57.468129
 20
90.829219
 30
0.0
  0
VERTEX
  8
LY_1
  6
CONTINUOUS
 62
     3
  5
718
 10
58.124356
 20
91.78088
 30
0.0
  0
VERTEX
  8
LY_1
  6
CONTINUOUS
 62
     3
  5
719
 10
58.688309
 20
92.781759
 30
0.0
  0
VERTEX
  8
LY_1
  6
CONTINUOUS
 62
     3
  5
71A
 10
59.155697
 20
93.824241
 30
0.0
  0
VERTEX
  8
LY_1
  6
CONTINUOUS
 62
     3
  5
71B
 10
59.522962
 20
94.90039
 30
0.0
  0
VERTEX
  8
LY_1
  6
CONTINUOUS
 62
     3
  5
71C
 10
59.787309
 20
96.002016
 30
0.0
  0
VERTEX
  8
LY_1
  6
CONTINUOUS
 62
     3
  5
71D
 10
59.946726
 20
97.120737
 30
0.0
  0
VERTEX
  8
LY_1
  6
CONTINUOUS
 62
     3
  5
71E
 10
60.0
 20
98.248036
 30
0.0
  0
SEQEND
  8
LY_1
  6
CONTINUOUS
 62
     3
  5
71F
  0
LINE
  8
LY_1
  6
CONTINUOUS
 62
     3
  5
122
 10
-34.0
 20
94.66494
 30
0.0
 11
-31.0
 21
96.265147
 31
0.0
  0
LINE
  8
LY_1
  6
CONTINUOUS
 62
     3
  5
123
 10
-37.0
 20
96.265147
 30
0.0
 11
-34.0
 21
94.66494
 31
0.0
  0
LINE
  8
LY_1
  6
CONTINUOUS
 62
     3
  5
124
 10
-34.0
 20
101.065765
 30
0.0
 11
-37.0
 21
99.465559
 31
0.0
  0
LINE
  8
LY_1
  6
CONTINUOUS
 62
     3
  5
125
 10
-37.0
 20
99.465559
 30
0.0
 11
-37.0
 21
96.265147
 31
0.0
  0
LINE
  8
LY_1
  6
CONTINUOUS
 62
     3
  5
126
 10
-34.0
 20
101.065765
 30
0.0
 11
-31.0
 21
99.465559
 31
0.0
  0
LINE
  8
LY_1
  6
CONTINUOUS
 62
     3
  5
127
 10
-31.0
 20
99.465559
 30
0.0
 11
-31.0
 21
96.265147
 31
0.0
  0
POLYLINE
  8
LY_1
  6
CONTINUOUS
 62
     3
  5
128
 66
     1
 10
0.0
 20
0.0
 30
0.0
 70
     1
  0
VERTEX
  8
LY_1
  6
CONTINUOUS
 62
     3
  5
720
 10
-27.5
 20
97.865353
 30
0.0
  0
VERTEX
  8
LY_1
  6
CONTINUOUS
 62
     3
  5
721
 10
-27.524734
 20
98.388742
 30
0.0
  0
VERTEX
  8
LY_1
  6
CONTINUOUS
 62
     3
  5
722
 10
-27.59875
 20
98.908148
 30
0.0
  0
VERTEX
  8
LY_1
  6
CONTINUOUS
 62
     3
  5
723
 10
-27.721482
 20
99.419617
 30
0.0
  0
VERTEX
  8
LY_1
  6
CONTINUOUS
 62
     3
  5
724
 10
-27.891998
 20
99.919258
 30
0.0
  0
VERTEX
  8
LY_1
  6
CONTINUOUS
 62
     3
  5
725
 10
-28.108999
 20
100.403267
 30
0.0
  0
VERTEX
  8
LY_1
  6
CONTINUOUS
 62
     3
  5
726
 10
-28.370835
 20
100.867961
 30
0.0
  0
VERTEX
  8
LY_1
  6
CONTINUOUS
 62
     3
  5
727
 10
-28.675512
 20
101.309804
 30
0.0
  0
VERTEX
  8
LY_1
  6
CONTINUOUS
 62
     3
  5
728
 10
-29.020711
 20
101.725432
 30
0.0
  0
VERTEX
  8
LY_1
  6
CONTINUOUS
 62
     3
  5
729
 10
-29.403806
 20
102.111682
 30
0.0
  0
VERTEX
  8
LY_1
  6
CONTINUOUS
 62
     3
  5
72A
 10
-29.821881
 20
102.465616
 30
0.0
  0
VERTEX
  8
LY_1
  6
CONTINUOUS
 62
     3
  5
72B
 10
-30.271753
 20
102.784539
 30
0.0
  0
VERTEX
  8
LY_1
  6
CONTINUOUS
 62
     3
  5
72C
 10
-30.75
 20
103.066023
 30
0.0
  0
VERTEX
  8
LY_1
  6
CONTINUOUS
 62
     3
  5
72D
 10
-31.252981
 20
103.307928
 30
0.0
  0
VERTEX
  8
LY_1
  6
CONTINUOUS
 62
     3
  5
72E
 10
-31.776869
 20
103.508411
 30
0.0
  0
VERTEX
  8
LY_1
  6
CONTINUOUS
 62
     3
  5
72F
 10
-32.317676
 20
103.665947
 30
0.0
  0
VERTEX
  8
LY_1
  6
CONTINUOUS
 62
     3
  5
730
 10
-32.871287
 20
103.779337
 30
0.0
  0
VERTEX
  8
LY_1
  6
CONTINUOUS
 62
     3
  5
731
 10
-33.433488
 20
103.847718
 30
0.0
  0
VERTEX
  8
LY_1
  6
CONTINUOUS
 62
     3
  5
732
 10
-34.0
 20
103.87057
 30
0.0
  0
VERTEX
  8
LY_1
  6
CONTINUOUS
 62
     3
  5
733
 10
-34.566512
 20
103.847718
 30
0.0
  0
VERTEX
  8
LY_1
  6
CONTINUOUS
 62
     3
  5
734
 10
-35.128713
 20
103.779337
 30
0.0
  0
VERTEX
  8
LY_1
  6
CONTINUOUS
 62
     3
  5
735
 10
-35.682324
 20
103.665947
 30
0.0
  0
VERTEX
  8
LY_1
  6
CONTINUOUS
 62
     3
  5
736
 10
-36.223131
 20
103.508411
 30
0.0
  0
VERTEX
  8
LY_1
  6
CONTINUOUS
 62
     3
  5
737
 10
-36.747019
 20
103.307928
 30
0.0
  0
VERTEX
  8
LY_1
  6
CONTINUOUS
 62
     3
  5
738
 10
-37.25
 20
103.066023
 30
0.0
  0
VERTEX
  8
LY_1
  6
CONTINUOUS
 62
     3
  5
739
 10
-37.728247
 20
102.784539
 30
0.0
  0
VERTEX
  8
LY_1
  6
CONTINUOUS
 62
     3
  5
73A
 10
-38.178119
 20
102.465616
 30
0.0
  0
VERTEX
  8
LY_1
  6
CONTINUOUS
 62
     3
  5
73B
 10
-38.596194
 20
102.111682
 30
0.0
  0
VERTEX
  8
LY_1
  6
CONTINUOUS
 62
     3
  5
73C
 10
-38.979289
 20
101.725432
 30
0.0
  0
VERTEX
  8
LY_1
  6
CONTINUOUS
 62
     3
  5
73D
 10
-39.324488
 20
101.309804
 30
0.0
  0
VERTEX
  8
LY_1
  6
CONTINUOUS
 62
     3
  5
73E
 10
-39.629165
 20
100.867961
 30
0.0
  0
VERTEX
  8
LY_1
  6
CONTINUOUS
 62
     3
  5
73F
 10
-39.891001
 20
100.403267
 30
0.0
  0
VERTEX
  8
LY_1
  6
CONTINUOUS
 62
     3
  5
740
 10
-40.108002
 20
99.919258
 30
0.0
  0
VERTEX
  8
LY_1
  6
CONTINUOUS
 62
     3
  5
741
 10
-40.278518
 20
99.419617
 30
0.0
  0
VERTEX
  8
LY_1
  6
CONTINUOUS
 62
     3
  5
742
 10
-40.40125
 20
98.908148
 30
0.0
  0
VERTEX
  8
LY_1
  6
CONTINUOUS
 62
     3
  5
743
 10
-40.475266
 20
98.388742
 30
0.0
  0
VERTEX
  8
LY_1
  6
CONTINUOUS
 62
     3
  5
744
 10
-40.5
 20
97.865353
 30
0.0
  0
VERTEX
  8
LY_1
  6
CONTINUOUS
 62
     3
  5
745
 10
-40.475266
 20
97.341964
 30
0.0
  0
VERTEX
  8
LY_1
  6
CONTINUOUS
 62
     3
  5
746
 10
-40.40125
 20
96.822558
 30
0.0
  0
VERTEX
  8
LY_1
  6
CONTINUOUS
 62
     3
  5
747
 10
-40.278518
 20
96.311088
 30
0.0
  0
VERTEX
  8
LY_1
  6
CONTINUOUS
 62
     3
  5
748
 10
-40.108002
 20
95.811448
 30
0.0
  0
VERTEX
  8
LY_1
  6
CONTINUOUS
 62
     3
  5
749
 10
-39.891001
 20
95.327438
 30
0.0
  0
VERTEX
  8
LY_1
  6
CONTINUOUS
 62
     3
  5
74A
 10
-39.629165
 20
94.862744
 30
0.0
  0
VERTEX
  8
LY_1
  6
CONTINUOUS
 62
     3
  5
74B
 10
-39.324488
 20
94.420902
 30
0.0
  0
VERTEX
  8
LY_1
  6
CONTINUOUS
 62
     3
  5
74C
 10
-38.979289
 20
94.005274
 30
0.0
  0
VERTEX
  8
LY_1
  6
CONTINUOUS
 62
     3
  5
74D
 10
-38.596194
 20
93.619023
 30
0.0
  0
VERTEX
  8
LY_1
  6
CONTINUOUS
 62
     3
  5
74E
 10
-38.178119
 20
93.26509
 30
0.0
  0
VERTEX
  8
LY_1
  6
CONTINUOUS
 62
     3
  5
74F
 10
-37.728247
 20
92.946167
 30
0.0
  0
VERTEX
  8
LY_1
  6
CONTINUOUS
 62
     3
  5
750
 10
-37.25
 20
92.664682
 30
0.0
  0
VERTEX
  8
LY_1
  6
CONTINUOUS
 62
     3
  5
751
 10
-36.747019
 20
92.422778
 30
0.0
  0
VERTEX
  8
LY_1
  6
CONTINUOUS
 62
     3
  5
752
 10
-36.223131
 20
92.222295
 30
0.0
  0
VERTEX
  8
LY_1
  6
CONTINUOUS
 62
     3
  5
753
 10
-35.682324
 20
92.064759
 30
0.0
  0
VERTEX
  8
LY_1
  6
CONTINUOUS
 62
     3
  5
754
 10
-35.128713
 20
91.951369
 30
0.0
  0
VERTEX
  8
LY_1
  6
CONTINUOUS
 62
     3
  5
755
 10
-34.566512
 20
91.882988
 30
0.0
  0
VERTEX
  8
LY_1
  6
CONTINUOUS
 62
     3
  5
756
 10
-34.0
 20
91.860136
 30
0.0
  0
VERTEX
  8
LY_1
  6
CONTINUOUS
 62
     3
  5
757
 10
-33.433488
 20
91.882988
 30
0.0
  0
VERTEX
  8
LY_1
  6
CONTINUOUS
 62
     3
  5
758
 10
-32.871287
 20
91.951369
 30
0.0
  0
VERTEX
  8
LY_1
  6
CONTINUOUS
 62
     3
  5
759
 10
-32.317676
 20
92.064759
 30
0.0
  0
VERTEX
  8
LY_1
  6
CONTINUOUS
 62
     3
  5
75A
 10
-31.776869
 20
92.222295
 30
0.0
  0
VERTEX
  8
LY_1
  6
CONTINUOUS
 62
     3
  5
75B
 10
-31.252981
 20
92.422778
 30
0.0
  0
VERTEX
  8
LY_1
  6
CONTINUOUS
 62
     3
  5
75C
 10
-30.75
 20
92.664682
 30
0.0
  0
VERTEX
  8
LY_1
  6
CONTINUOUS
 62
     3
  5
75D
 10
-30.271753
 20
92.946167
 30
0.0
  0
VERTEX
  8
LY_1
  6
CONTINUOUS
 62
     3
  5
75E
 10
-29.821881
 20
93.26509
 30
0.0
  0
VERTEX
  8
LY_1
  6
CONTINUOUS
 62
     3
  5
75F
 10
-29.403806
 20
93.619023
 30
0.0
  0
VERTEX
  8
LY_1
  6
CONTINUOUS
 62
     3
  5
760
 10
-29.020711
 20
94.005274
 30
0.0
  0
VERTEX
  8
LY_1
  6
CONTINUOUS
 62
     3
  5
761
 10
-28.675512
 20
94.420902
 30
0.0
  0
VERTEX
  8
LY_1
  6
CONTINUOUS
 62
     3
  5
762
 10
-28.370835
 20
94.862744
 30
0.0
  0
VERTEX
  8
LY_1
  6
CONTINUOUS
 62
     3
  5
763
 10
-28.108999
 20
95.327438
 30
0.0
  0
VERTEX
  8
LY_1
  6
CONTINUOUS
 62
     3
  5
764
 10
-27.891998
 20
95.811448
 30
0.0
  0
VERTEX
  8
LY_1
  6
CONTINUOUS
 62
     3
  5
765
 10
-27.721482
 20
96.311088
 30
0.0
  0
VERTEX
  8
LY_1
  6
CONTINUOUS
 62
     3
  5
766
 10
-27.59875
 20
96.822558
 30
0.0
  0
VERTEX
  8
LY_1
  6
CONTINUOUS
 62
     3
  5
767
 10
-27.524734
 20
97.341964
 30
0.0
  0
VERTEX
  8
LY_1
  6
CONTINUOUS
 62
     3
  5
768
 10
-27.5
 20
97.865353
 30
0.0
  0
SEQEND
  8
LY_1
  6
CONTINUOUS
 62
     3
  5
769
  0
POLYLINE
  8
LY_1
  6
CONTINUOUS
 62
     3
  5
129
 66
     1
 10
0.0
 20
0.0
 30
0.0
 70
     1
  0
VERTEX
  8
LY_1
  6
CONTINUOUS
 62
     3
  5
76A
 10
-24.0
 20
98.248036
 30
0.0
  0
VERTEX
  8
LY_1
  6
CONTINUOUS
 62
     3
  5
76B
 10
-24.038053
 20
99.05325
 30
0.0
  0
VERTEX
  8
LY_1
  6
CONTINUOUS
 62
     3
  5
76C
 10
-24.151922
 20
99.852336
 30
0.0
  0
VERTEX
  8
LY_1
  6
CONTINUOUS
 62
     3
  5
76D
 10
-24.340742
 20
100.639212
 30
0.0
  0
VERTEX
  8
LY_1
  6
CONTINUOUS
 62
     3
  5
76E
 10
-24.603074
 20
101.40789
 30
0.0
  0
VERTEX
  8
LY_1
  6
CONTINUOUS
 62
     3
  5
76F
 10
-24.936922
 20
102.15252
 30
0.0
  0
VERTEX
  8
LY_1
  6
CONTINUOUS
 62
     3
  5
770
 10
-25.339746
 20
102.867434
 30
0.0
  0
VERTEX
  8
LY_1
  6
CONTINUOUS
 62
     3
  5
771
 10
-25.80848
 20
103.547192
 30
0.0
  0
VERTEX
  8
LY_1
  6
CONTINUOUS
 62
     3
  5
772
 10
-26.339556
 20
104.186619
 30
0.0
  0
VERTEX
  8
LY_1
  6
CONTINUOUS
 62
     3
  5
773
 10
-26.928932
 20
104.780851
 30
0.0
  0
VERTEX
  8
LY_1
  6
CONTINUOUS
 62
     3
  5
774
 10
-27.572124
 20
105.325364
 30
0.0
  0
VERTEX
  8
LY_1
  6
CONTINUOUS
 62
     3
  5
775
 10
-28.264236
 20
105.816014
 30
0.0
  0
VERTEX
  8
LY_1
  6
CONTINUOUS
 62
     3
  5
776
 10
-29.0
 20
106.249068
 30
0.0
  0
VERTEX
  8
LY_1
  6
CONTINUOUS
 62
     3
  5
777
 10
-29.773817
 20
106.621228
 30
0.0
  0
VERTEX
  8
LY_1
  6
CONTINUOUS
 62
     3
  5
778
 10
-30.579799
 20
106.929664
 30
0.0
  0
VERTEX
  8
LY_1
  6
CONTINUOUS
 62
     3
  5
779
 10
-31.41181
 20
107.172027
 30
0.0
  0
VERTEX
  8
LY_1
  6
CONTINUOUS
 62
     3
  5
77A
 10
-32.263518
 20
107.346474
 30
0.0
  0
VERTEX
  8
LY_1
  6
CONTINUOUS
 62
     3
  5
77B
 10
-33.128443
 20
107.451675
 30
0.0
  0
VERTEX
  8
LY_1
  6
CONTINUOUS
 62
     3
  5
77C
 10
-34.0
 20
107.486832
 30
0.0
  0
VERTEX
  8
LY_1
  6
CONTINUOUS
 62
     3
  5
77D
 10
-34.871557
 20
107.451675
 30
0.0
  0
VERTEX
  8
LY_1
  6
CONTINUOUS
 62
     3
  5
77E
 10
-35.736482
 20
107.346474
 30
0.0
  0
VERTEX
  8
LY_1
  6
CONTINUOUS
 62
     3
  5
77F
 10
-36.58819
 20
107.172027
 30
0.0
  0
VERTEX
  8
LY_1
  6
CONTINUOUS
 62
     3
  5
780
 10
-37.420201
 20
106.929664
 30
0.0
  0
VERTEX
  8
LY_1
  6
CONTINUOUS
 62
     3
  5
781
 10
-38.226183
 20
106.621228
 30
0.0
  0
VERTEX
  8
LY_1
  6
CONTINUOUS
 62
     3
  5
782
 10
-39.0
 20
106.249068
 30
0.0
  0
VERTEX
  8
LY_1
  6
CONTINUOUS
 62
     3
  5
783
 10
-39.735764
 20
105.816014
 30
0.0
  0
VERTEX
  8
LY_1
  6
CONTINUOUS
 62
     3
  5
784
 10
-40.427876
 20
105.325364
 30
0.0
  0
VERTEX
  8
LY_1
  6
CONTINUOUS
 62
     3
  5
785
 10
-41.071068
 20
104.780851
 30
0.0
  0
VERTEX
  8
LY_1
  6
CONTINUOUS
 62
     3
  5
786
 10
-41.660444
 20
104.186619
 30
0.0
  0
VERTEX
  8
LY_1
  6
CONTINUOUS
 62
     3
  5
787
 10
-42.19152
 20
103.547192
 30
0.0
  0
VERTEX
  8
LY_1
  6
CONTINUOUS
 62
     3
  5
788
 10
-42.660254
 20
102.867434
 30
0.0
  0
VERTEX
  8
LY_1
  6
CONTINUOUS
 62
     3
  5
789
 10
-43.063078
 20
102.15252
 30
0.0
  0
VERTEX
  8
LY_1
  6
CONTINUOUS
 62
     3
  5
78A
 10
-43.396926
 20
101.40789
 30
0.0
  0
VERTEX
  8
LY_1
  6
CONTINUOUS
 62
     3
  5
78B
 10
-43.659258
 20
100.639212
 30
0.0
  0
VERTEX
  8
LY_1
  6
CONTINUOUS
 62
     3
  5
78C
 10
-43.848078
 20
99.852336
 30
0.0
  0
VERTEX
  8
LY_1
  6
CONTINUOUS
 62
     3
  5
78D
 10
-43.961947
 20
99.05325
 30
0.0
  0
VERTEX
  8
LY_1
  6
CONTINUOUS
 62
     3
  5
78E
 10
-44.0
 20
98.248036
 30
0.0
  0
VERTEX
  8
LY_1
  6
CONTINUOUS
 62
     3
  5
78F
 10
-43.961947
 20
97.442822
 30
0.0
  0
VERTEX
  8
LY_1
  6
CONTINUOUS
 62
     3
  5
790
 10
-43.848078
 20
96.643736
 30
0.0
  0
VERTEX
  8
LY_1
  6
CONTINUOUS
 62
     3
  5
791
 10
-43.659258
 20
95.85686
 30
0.0
  0
VERTEX
  8
LY_1
  6
CONTINUOUS
 62
     3
  5
792
 10
-43.396926
 20
95.088182
 30
0.0
  0
VERTEX
  8
LY_1
  6
CONTINUOUS
 62
     3
  5
793
 10
-43.063078
 20
94.343553
 30
0.0
  0
VERTEX
  8
LY_1
  6
CONTINUOUS
 62
     3
  5
794
 10
-42.660254
 20
93.628639
 30
0.0
  0
VERTEX
  8
LY_1
  6
CONTINUOUS
 62
     3
  5
795
 10
-42.19152
 20
92.948881
 30
0.0
  0
VERTEX
  8
LY_1
  6
CONTINUOUS
 62
     3
  5
796
 10
-41.660444
 20
92.309453
 30
0.0
  0
VERTEX
  8
LY_1
  6
CONTINUOUS
 62
     3
  5
797
 10
-41.071068
 20
91.715221
 30
0.0
  0
VERTEX
  8
LY_1
  6
CONTINUOUS
 62
     3
  5
798
 10
-40.427876
 20
91.170708
 30
0.0
  0
VERTEX
  8
LY_1
  6
CONTINUOUS
 62
     3
  5
799
 10
-39.735764
 20
90.680058
 30
0.0
  0
VERTEX
  8
LY_1
  6
CONTINUOUS
 62
     3
  5
79A
 10
-39.0
 20
90.247005
 30
0.0
  0
VERTEX
  8
LY_1
  6
CONTINUOUS
 62
     3
  5
79B
 10
-38.226183
 20
89.874844
 30
0.0
  0
VERTEX
  8
LY_1
  6
CONTINUOUS
 62
     3
  5
79C
 10
-37.420201
 20
89.566408
 30
0.0
  0
VERTEX
  8
LY_1
  6
CONTINUOUS
 62
     3
  5
79D
 10
-36.58819
 20
89.324045
 30
0.0
  0
VERTEX
  8
LY_1
  6
CONTINUOUS
 62
     3
  5
79E
 10
-35.736482
 20
89.149599
 30
0.0
  0
VERTEX
  8
LY_1
  6
CONTINUOUS
 62
     3
  5
79F
 10
-34.871557
 20
89.044397
 30
0.0
  0
VERTEX
  8
LY_1
  6
CONTINUOUS
 62
     3
  5
7A0
 10
-34.0
 20
89.009241
 30
0.0
  0
VERTEX
  8
LY_1
  6
CONTINUOUS
 62
     3
  5
7A1
 10
-33.128443
 20
89.044397
 30
0.0
  0
VERTEX
  8
LY_1
  6
CONTINUOUS
 62
     3
  5
7A2
 10
-32.263518
 20
89.149599
 30
0.0
  0
VERTEX
  8
LY_1
  6
CONTINUOUS
 62
     3
  5
7A3
 10
-31.41181
 20
89.324045
 30
0.0
  0
VERTEX
  8
LY_1
  6
CONTINUOUS
 62
     3
  5
7A4
 10
-30.579799
 20
89.566408
 30
0.0
  0
VERTEX
  8
LY_1
  6
CONTINUOUS
 62
     3
  5
7A5
 10
-29.773817
 20
89.874844
 30
0.0
  0
VERTEX
  8
LY_1
  6
CONTINUOUS
 62
     3
  5
7A6
 10
-29.0
 20
90.247005
 30
0.0
  0
VERTEX
  8
LY_1
  6
CONTINUOUS
 62
     3
  5
7A7
 10
-28.264236
 20
90.680058
 30
0.0
  0
VERTEX
  8
LY_1
  6
CONTINUOUS
 62
     3
  5
7A8
 10
-27.572124
 20
91.170708
 30
0.0
  0
VERTEX
  8
LY_1
  6
CONTINUOUS
 62
     3
  5
7A9
 10
-26.928932
 20
91.715221
 30
0.0
  0
VERTEX
  8
LY_1
  6
CONTINUOUS
 62
     3
  5
7AA
 10
-26.339556
 20
92.309453
 30
0.0
  0
VERTEX
  8
LY_1
  6
CONTINUOUS
 62
     3
  5
7AB
 10
-25.80848
 20
92.948881
 30
0.0
  0
VERTEX
  8
LY_1
  6
CONTINUOUS
 62
     3
  5
7AC
 10
-25.339746
 20
93.628639
 30
0.0
  0
VERTEX
  8
LY_1
  6
CONTINUOUS
 62
     3
  5
7AD
 10
-24.936922
 20
94.343553
 30
0.0
  0
VERTEX
  8
LY_1
  6
CONTINUOUS
 62
     3
  5
7AE
 10
-24.603074
 20
95.088182
 30
0.0
  0
VERTEX
  8
LY_1
  6
CONTINUOUS
 62
     3
  5
7AF
 10
-24.340742
 20
95.85686
 30
0.0
  0
VERTEX
  8
LY_1
  6
CONTINUOUS
 62
     3
  5
7B0
 10
-24.151922
 20
96.643736
 30
0.0
  0
VERTEX
  8
LY_1
  6
CONTINUOUS
 62
     3
  5
7B1
 10
-24.038053
 20
97.442822
 30
0.0
  0
VERTEX
  8
LY_1
  6
CONTINUOUS
 62
     3
  5
7B2
 10
-24.0
 20
98.248036
 30
0.0
  0
SEQEND
  8
LY_1
  6
CONTINUOUS
 62
     3
  5
7B3
  0
POLYLINE
  8
LY_1
  6
CONTINUOUS
 62
     3
  5
12A
 66
     1
 10
0.0
 20
0.0
 30
0.0
 70
     1
  0
VERTEX
  8
LY_1
  6
CONTINUOUS
 62
     3
  5
7B4
 10
-20.0
 20
98.248036
 30
0.0
  0
VERTEX
  8
LY_1
  6
CONTINUOUS
 62
     3
  5
7B5
 10
-20.053274
 20
99.375336
 30
0.0
  0
VERTEX
  8
LY_1
  6
CONTINUOUS
 62
     3
  5
7B6
 10
-20.212691
 20
100.494056
 30
0.0
  0
VERTEX
  8
LY_1
  6
CONTINUOUS
 62
     3
  5
7B7
 10
-20.477038
 20
101.595683
 30
0.0
  0
VERTEX
  8
LY_1
  6
CONTINUOUS
 62
     3
  5
7B8
 10
-20.844303
 20
102.671832
 30
0.0
  0
VERTEX
  8
LY_1
  6
CONTINUOUS
 62
     3
  5
7B9
 10
-21.311691
 20
103.714313
 30
0.0
  0
VERTEX
  8
LY_1
  6
CONTINUOUS
 62
     3
  5
7BA
 10
-21.875644
 20
104.715193
 30
0.0
  0
VERTEX
  8
LY_1
  6
CONTINUOUS
 62
     3
  5
7BB
 10
-22.531871
 20
105.666854
 30
0.0
  0
VERTEX
  8
LY_1
  6
CONTINUOUS
 62
     3
  5
7BC
 10
-23.275378
 20
106.562053
 30
0.0
  0
VERTEX
  8
LY_1
  6
CONTINUOUS
 62
     3
  5
7BD
 10
-24.100505
 20
107.393977
 30
0.0
  0
VERTEX
  8
LY_1
  6
CONTINUOUS
 62
     3
  5
7BE
 10
-25.000973
 20
108.156295
 30
0.0
  0
VERTEX
  8
LY_1
  6
CONTINUOUS
 62
     3
  5
7BF
 10
-25.96993
 20
108.843206
 30
0.0
  0
VERTEX
  8
LY_1
  6
CONTINUOUS
 62
     3
  5
7C0
 10
-27.0
 20
109.44948
 30
0.0
  0
VERTEX
  8
LY_1
  6
CONTINUOUS
 62
     3
  5
7C1
 10
-28.083344
 20
109.970505
 30
0.0
  0
VERTEX
  8
LY_1
  6
CONTINUOUS
 62
     3
  5
7C2
 10
-29.211718
 20
110.402315
 30
0.0
  0
VERTEX
  8
LY_1
  6
CONTINUOUS
 62
     3
  5
7C3
 10
-30.376533
 20
110.741624
 30
0.0
  0
VERTEX
  8
LY_1
  6
CONTINUOUS
 62
     3
  5
7C4
 10
-31.568926
 20
110.985848
 30
0.0
  0
VERTEX
  8
LY_1
  6
CONTINUOUS
 62
     3
  5
7C5
 10
-32.77982
 20
111.133131
 30
0.0
  0
VERTEX
  8
LY_1
  6
CONTINUOUS
 62
     3
  5
7C6
 10
-34.0
 20
111.18235
 30
0.0
  0
VERTEX
  8
LY_1
  6
CONTINUOUS
 62
     3
  5
7C7
 10
-35.22018
 20
111.133131
 30
0.0
  0
VERTEX
  8
LY_1
  6
CONTINUOUS
 62
     3
  5
7C8
 10
-36.431074
 20
110.985848
 30
0.0
  0
VERTEX
  8
LY_1
  6
CONTINUOUS
 62
     3
  5
7C9
 10
-37.623467
 20
110.741624
 30
0.0
  0
VERTEX
  8
LY_1
  6
CONTINUOUS
 62
     3
  5
7CA
 10
-38.788282
 20
110.402315
 30
0.0
  0
VERTEX
  8
LY_1
  6
CONTINUOUS
 62
     3
  5
7CB
 10
-39.916656
 20
109.970505
 30
0.0
  0
VERTEX
  8
LY_1
  6
CONTINUOUS
 62
     3
  5
7CC
 10
-41.0
 20
109.44948
 30
0.0
  0
VERTEX
  8
LY_1
  6
CONTINUOUS
 62
     3
  5
7CD
 10
-42.03007
 20
108.843206
 30
0.0
  0
VERTEX
  8
LY_1
  6
CONTINUOUS
 62
     3
  5
7CE
 10
-42.999027
 20
108.156295
 30
0.0
  0
VERTEX
  8
LY_1
  6
CONTINUOUS
 62
     3
  5
7CF
 10
-43.899495
 20
107.393977
 30
0.0
  0
VERTEX
  8
LY_1
  6
CONTINUOUS
 62
     3
  5
7D0
 10
-44.724622
 20
106.562053
 30
0.0
  0
VERTEX
  8
LY_1
  6
CONTINUOUS
 62
     3
  5
7D1
 10
-45.468129
 20
105.666854
 30
0.0
  0
VERTEX
  8
LY_1
  6
CONTINUOUS
 62
     3
  5
7D2
 10
-46.124356
 20
104.715193
 30
0.0
  0
VERTEX
  8
LY_1
  6
CONTINUOUS
 62
     3
  5
7D3
 10
-46.688309
 20
103.714313
 30
0.0
  0
VERTEX
  8
LY_1
  6
CONTINUOUS
 62
     3
  5
7D4
 10
-47.155697
 20
102.671832
 30
0.0
  0
VERTEX
  8
LY_1
  6
CONTINUOUS
 62
     3
  5
7D5
 10
-47.522962
 20
101.595683
 30
0.0
  0
VERTEX
  8
LY_1
  6
CONTINUOUS
 62
     3
  5
7D6
 10
-47.787309
 20
100.494056
 30
0.0
  0
VERTEX
  8
LY_1
  6
CONTINUOUS
 62
     3
  5
7D7
 10
-47.946726
 20
99.375336
 30
0.0
  0
VERTEX
  8
LY_1
  6
CONTINUOUS
 62
     3
  5
7D8
 10
-48.0
 20
98.248036
 30
0.0
  0
VERTEX
  8
LY_1
  6
CONTINUOUS
 62
     3
  5
7D9
 10
-47.946726
 20
97.120737
 30
0.0
  0
VERTEX
  8
LY_1
  6
CONTINUOUS
 62
     3
  5
7DA
 10
-47.787309
 20
96.002016
 30
0.0
  0
VERTEX
  8
LY_1
  6
CONTINUOUS
 62
     3
  5
7DB
 10
-47.522962
 20
94.90039
 30
0.0
  0
VERTEX
  8
LY_1
  6
CONTINUOUS
 62
     3
  5
7DC
 10
-47.155697
 20
93.824241
 30
0.0
  0
VERTEX
  8
LY_1
  6
CONTINUOUS
 62
     3
  5
7DD
 10
-46.688309
 20
92.781759
 30
0.0
  0
VERTEX
  8
LY_1
  6
CONTINUOUS
 62
     3
  5
7DE
 10
-46.124356
 20
91.78088
 30
0.0
  0
VERTEX
  8
LY_1
  6
CONTINUOUS
 62
     3
  5
7DF
 10
-45.468129
 20
90.829219
 30
0.0
  0
VERTEX
  8
LY_1
  6
CONTINUOUS
 62
     3
  5
7E0
 10
-44.724622
 20
89.93402
 30
0.0
  0
VERTEX
  8
LY_1
  6
CONTINUOUS
 62
     3
  5
7E1
 10
-43.899495
 20
89.102096
 30
0.0
  0
VERTEX
  8
LY_1
  6
CONTINUOUS
 62
     3
  5
7E2
 10
-42.999027
 20
88.339777
 30
0.0
  0
VERTEX
  8
LY_1
  6
CONTINUOUS
 62
     3
  5
7E3
 10
-42.03007
 20
87.652867
 30
0.0
  0
VERTEX
  8
LY_1
  6
CONTINUOUS
 62
     3
  5
7E4
 10
-41.0
 20
87.046592
 30
0.0
  0
VERTEX
  8
LY_1
  6
CONTINUOUS
 62
     3
  5
7E5
 10
-39.916656
 20
86.525567
 30
0.0
  0
VERTEX
  8
LY_1
  6
CONTINUOUS
 62
     3
  5
7E6
 10
-38.788282
 20
86.093757
 30
0.0
  0
VERTEX
  8
LY_1
  6
CONTINUOUS
 62
     3
  5
7E7
 10
-37.623467
 20
85.754449
 30
0.0
  0
VERTEX
  8
LY_1
  6
CONTINUOUS
 62
     3
  5
7E8
 10
-36.431074
 20
85.510224
 30
0.0
  0
VERTEX
  8
LY_1
  6
CONTINUOUS
 62
     3
  5
7E9
 10
-35.22018
 20
85.362942
 30
0.0
  0
VERTEX
  8
LY_1
  6
CONTINUOUS
 62
     3
  5
7EA
 10
-34.0
 20
85.313723
 30
0.0
  0
VERTEX
  8
LY_1
  6
CONTINUOUS
 62
     3
  5
7EB
 10
-32.77982
 20
85.362942
 30
0.0
  0
VERTEX
  8
LY_1
  6
CONTINUOUS
 62
     3
  5
7EC
 10
-31.568926
 20
85.510224
 30
0.0
  0
VERTEX
  8
LY_1
  6
CONTINUOUS
 62
     3
  5
7ED
 10
-30.376533
 20
85.754449
 30
0.0
  0
VERTEX
  8
LY_1
  6
CONTINUOUS
 62
     3
  5
7EE
 10
-29.211718
 20
86.093757
 30
0.0
  0
VERTEX
  8
LY_1
  6
CONTINUOUS
 62
     3
  5
7EF
 10
-28.083344
 20
86.525567
 30
0.0
  0
VERTEX
  8
LY_1
  6
CONTINUOUS
 62
     3
  5
7F0
 10
-27.0
 20
87.046592
 30
0.0
  0
VERTEX
  8
LY_1
  6
CONTINUOUS
 62
     3
  5
7F1
 10
-25.96993
 20
87.652867
 30
0.0
  0
VERTEX
  8
LY_1
  6
CONTINUOUS
 62
     3
  5
7F2
 10
-25.000973
 20
88.339777
 30
0.0
  0
VERTEX
  8
LY_1
  6
CONTINUOUS
 62
     3
  5
7F3
 10
-24.100505
 20
89.102096
 30
0.0
  0
VERTEX
  8
LY_1
  6
CONTINUOUS
 62
     3
  5
7F4
 10
-23.275378
 20
89.93402
 30
0.0
  0
VERTEX
  8
LY_1
  6
CONTINUOUS
 62
     3
  5
7F5
 10
-22.531871
 20
90.829219
 30
0.0
  0
VERTEX
  8
LY_1
  6
CONTINUOUS
 62
     3
  5
7F6
 10
-21.875644
 20
91.78088
 30
0.0
  0
VERTEX
  8
LY_1
  6
CONTINUOUS
 62
     3
  5
7F7
 10
-21.311691
 20
92.781759
 30
0.0
  0
VERTEX
  8
LY_1
  6
CONTINUOUS
 62
     3
  5
7F8
 10
-20.844303
 20
93.824241
 30
0.0
  0
VERTEX
  8
LY_1
  6
CONTINUOUS
 62
     3
  5
7F9
 10
-20.477038
 20
94.90039
 30
0.0
  0
VERTEX
  8
LY_1
  6
CONTINUOUS
 62
     3
  5
7FA
 10
-20.212691
 20
96.002016
 30
0.0
  0
VERTEX
  8
LY_1
  6
CONTINUOUS
 62
     3
  5
7FB
 10
-20.053274
 20
97.120737
 30
0.0
  0
VERTEX
  8
LY_1
  6
CONTINUOUS
 62
     3
  5
7FC
 10
-20.0
 20
98.248036
 30
0.0
  0
SEQEND
  8
LY_1
  6
CONTINUOUS
 62
     3
  5
7FD
  0
LINE
  8
LY_1
  6
CONTINUOUS
 62
     3
  5
12B
 10
-34.0
 20
151.945471
 30
0.0
 11
-31.0
 21
153.545678
 31
0.0
  0
LINE
  8
LY_1
  6
CONTINUOUS
 62
     3
  5
12C
 10
-37.0
 20
153.545678
 30
0.0
 11
-34.0
 21
151.945471
 31
0.0
  0
LINE
  8
LY_1
  6
CONTINUOUS
 62
     3
  5
12D
 10
-34.0
 20
158.346296
 30
0.0
 11
-37.0
 21
156.74609
 31
0.0
  0
LINE
  8
LY_1
  6
CONTINUOUS
 62
     3
  5
12E
 10
-37.0
 20
156.74609
 30
0.0
 11
-37.0
 21
153.545678
 31
0.0
  0
LINE
  8
LY_1
  6
CONTINUOUS
 62
     3
  5
12F
 10
-34.0
 20
158.346296
 30
0.0
 11
-31.0
 21
156.74609
 31
0.0
  0
LINE
  8
LY_1
  6
CONTINUOUS
 62
     3
  5
130
 10
-31.0
 20
156.74609
 30
0.0
 11
-31.0
 21
153.545678
 31
0.0
  0
POLYLINE
  8
LY_1
  6
CONTINUOUS
 62
     3
  5
131
 66
     1
 10
0.0
 20
0.0
 30
0.0
 70
     1
  0
VERTEX
  8
LY_1
  6
CONTINUOUS
 62
     3
  5
7FE
 10
-27.5
 20
155.145884
 30
0.0
  0
VERTEX
  8
LY_1
  6
CONTINUOUS
 62
     3
  5
7FF
 10
-27.524734
 20
155.669273
 30
0.0
  0
VERTEX
  8
LY_1
  6
CONTINUOUS
 62
     3
  5
800
 10
-27.59875
 20
156.188679
 30
0.0
  0
VERTEX
  8
LY_1
  6
CONTINUOUS
 62
     3
  5
801
 10
-27.721482
 20
156.700148
 30
0.0
  0
VERTEX
  8
LY_1
  6
CONTINUOUS
 62
     3
  5
802
 10
-27.891998
 20
157.199789
 30
0.0
  0
VERTEX
  8
LY_1
  6
CONTINUOUS
 62
     3
  5
803
 10
-28.108999
 20
157.683798
 30
0.0
  0
VERTEX
  8
LY_1
  6
CONTINUOUS
 62
     3
  5
804
 10
-28.370835
 20
158.148492
 30
0.0
  0
VERTEX
  8
LY_1
  6
CONTINUOUS
 62
     3
  5
805
 10
-28.675512
 20
158.590335
 30
0.0
  0
VERTEX
  8
LY_1
  6
CONTINUOUS
 62
     3
  5
806
 10
-29.020711
 20
159.005963
 30
0.0
  0
VERTEX
  8
LY_1
  6
CONTINUOUS
 62
     3
  5
807
 10
-29.403806
 20
159.392213
 30
0.0
  0
VERTEX
  8
LY_1
  6
CONTINUOUS
 62
     3
  5
808
 10
-29.821881
 20
159.746147
 30
0.0
  0
VERTEX
  8
LY_1
  6
CONTINUOUS
 62
     3
  5
809
 10
-30.271753
 20
160.06507
 30
0.0
  0
VERTEX
  8
LY_1
  6
CONTINUOUS
 62
     3
  5
80A
 10
-30.75
 20
160.346554
 30
0.0
  0
VERTEX
  8
LY_1
  6
CONTINUOUS
 62
     3
  5
80B
 10
-31.252981
 20
160.588459
 30
0.0
  0
VERTEX
  8
LY_1
  6
CONTINUOUS
 62
     3
  5
80C
 10
-31.776869
 20
160.788942
 30
0.0
  0
VERTEX
  8
LY_1
  6
CONTINUOUS
 62
     3
  5
80D
 10
-32.317676
 20
160.946478
 30
0.0
  0
VERTEX
  8
LY_1
  6
CONTINUOUS
 62
     3
  5
80E
 10
-32.871287
 20
161.059868
 30
0.0
  0
VERTEX
  8
LY_1
  6
CONTINUOUS
 62
     3
  5
80F
 10
-33.433488
 20
161.128249
 30
0.0
  0
VERTEX
  8
LY_1
  6
CONTINUOUS
 62
     3
  5
810
 10
-34.0
 20
161.151101
 30
0.0
  0
VERTEX
  8
LY_1
  6
CONTINUOUS
 62
     3
  5
811
 10
-34.566512
 20
161.128249
 30
0.0
  0
VERTEX
  8
LY_1
  6
CONTINUOUS
 62
     3
  5
812
 10
-35.128713
 20
161.059868
 30
0.0
  0
VERTEX
  8
LY_1
  6
CONTINUOUS
 62
     3
  5
813
 10
-35.682324
 20
160.946478
 30
0.0
  0
VERTEX
  8
LY_1
  6
CONTINUOUS
 62
     3
  5
814
 10
-36.223131
 20
160.788942
 30
0.0
  0
VERTEX
  8
LY_1
  6
CONTINUOUS
 62
     3
  5
815
 10
-36.747019
 20
160.588459
 30
0.0
  0
VERTEX
  8
LY_1
  6
CONTINUOUS
 62
     3
  5
816
 10
-37.25
 20
160.346554
 30
0.0
  0
VERTEX
  8
LY_1
  6
CONTINUOUS
 62
     3
  5
817
 10
-37.728247
 20
160.06507
 30
0.0
  0
VERTEX
  8
LY_1
  6
CONTINUOUS
 62
     3
  5
818
 10
-38.178119
 20
159.746147
 30
0.0
  0
VERTEX
  8
LY_1
  6
CONTINUOUS
 62
     3
  5
819
 10
-38.596194
 20
159.392213
 30
0.0
  0
VERTEX
  8
LY_1
  6
CONTINUOUS
 62
     3
  5
81A
 10
-38.979289
 20
159.005963
 30
0.0
  0
VERTEX
  8
LY_1
  6
CONTINUOUS
 62
     3
  5
81B
 10
-39.324488
 20
158.590335
 30
0.0
  0
VERTEX
  8
LY_1
  6
CONTINUOUS
 62
     3
  5
81C
 10
-39.629165
 20
158.148492
 30
0.0
  0
VERTEX
  8
LY_1
  6
CONTINUOUS
 62
     3
  5
81D
 10
-39.891001
 20
157.683798
 30
0.0
  0
VERTEX
  8
LY_1
  6
CONTINUOUS
 62
     3
  5
81E
 10
-40.108002
 20
157.199789
 30
0.0
  0
VERTEX
  8
LY_1
  6
CONTINUOUS
 62
     3
  5
81F
 10
-40.278518
 20
156.700148
 30
0.0
  0
VERTEX
  8
LY_1
  6
CONTINUOUS
 62
     3
  5
820
 10
-40.40125
 20
156.188679
 30
0.0
  0
VERTEX
  8
LY_1
  6
CONTINUOUS
 62
     3
  5
821
 10
-40.475266
 20
155.669273
 30
0.0
  0
VERTEX
  8
LY_1
  6
CONTINUOUS
 62
     3
  5
822
 10
-40.5
 20
155.145884
 30
0.0
  0
VERTEX
  8
LY_1
  6
CONTINUOUS
 62
     3
  5
823
 10
-40.475266
 20
154.622495
 30
0.0
  0
VERTEX
  8
LY_1
  6
CONTINUOUS
 62
     3
  5
824
 10
-40.40125
 20
154.103089
 30
0.0
  0
VERTEX
  8
LY_1
  6
CONTINUOUS
 62
     3
  5
825
 10
-40.278518
 20
153.591619
 30
0.0
  0
VERTEX
  8
LY_1
  6
CONTINUOUS
 62
     3
  5
826
 10
-40.108002
 20
153.091979
 30
0.0
  0
VERTEX
  8
LY_1
  6
CONTINUOUS
 62
     3
  5
827
 10
-39.891001
 20
152.60797
 30
0.0
  0
VERTEX
  8
LY_1
  6
CONTINUOUS
 62
     3
  5
828
 10
-39.629165
 20
152.143275
 30
0.0
  0
VERTEX
  8
LY_1
  6
CONTINUOUS
 62
     3
  5
829
 10
-39.324488
 20
151.701433
 30
0.0
  0
VERTEX
  8
LY_1
  6
CONTINUOUS
 62
     3
  5
82A
 10
-38.979289
 20
151.285805
 30
0.0
  0
VERTEX
  8
LY_1
  6
CONTINUOUS
 62
     3
  5
82B
 10
-38.596194
 20
150.899554
 30
0.0
  0
VERTEX
  8
LY_1
  6
CONTINUOUS
 62
     3
  5
82C
 10
-38.178119
 20
150.545621
 30
0.0
  0
VERTEX
  8
LY_1
  6
CONTINUOUS
 62
     3
  5
82D
 10
-37.728247
 20
150.226698
 30
0.0
  0
VERTEX
  8
LY_1
  6
CONTINUOUS
 62
     3
  5
82E
 10
-37.25
 20
149.945213
 30
0.0
  0
VERTEX
  8
LY_1
  6
CONTINUOUS
 62
     3
  5
82F
 10
-36.747019
 20
149.703309
 30
0.0
  0
VERTEX
  8
LY_1
  6
CONTINUOUS
 62
     3
  5
830
 10
-36.223131
 20
149.502826
 30
0.0
  0
VERTEX
  8
LY_1
  6
CONTINUOUS
 62
     3
  5
831
 10
-35.682324
 20
149.34529
 30
0.0
  0
VERTEX
  8
LY_1
  6
CONTINUOUS
 62
     3
  5
832
 10
-35.128713
 20
149.2319
 30
0.0
  0
VERTEX
  8
LY_1
  6
CONTINUOUS
 62
     3
  5
833
 10
-34.566512
 20
149.163519
 30
0.0
  0
VERTEX
  8
LY_1
  6
CONTINUOUS
 62
     3
  5
834
 10
-34.0
 20
149.140667
 30
0.0
  0
VERTEX
  8
LY_1
  6
CONTINUOUS
 62
     3
  5
835
 10
-33.433488
 20
149.163519
 30
0.0
  0
VERTEX
  8
LY_1
  6
CONTINUOUS
 62
     3
  5
836
 10
-32.871287
 20
149.2319
 30
0.0
  0
VERTEX
  8
LY_1
  6
CONTINUOUS
 62
     3
  5
837
 10
-32.317676
 20
149.34529
 30
0.0
  0
VERTEX
  8
LY_1
  6
CONTINUOUS
 62
     3
  5
838
 10
-31.776869
 20
149.502826
 30
0.0
  0
VERTEX
  8
LY_1
  6
CONTINUOUS
 62
     3
  5
839
 10
-31.252981
 20
149.703309
 30
0.0
  0
VERTEX
  8
LY_1
  6
CONTINUOUS
 62
     3
  5
83A
 10
-30.75
 20
149.945213
 30
0.0
  0
VERTEX
  8
LY_1
  6
CONTINUOUS
 62
     3
  5
83B
 10
-30.271753
 20
150.226698
 30
0.0
  0
VERTEX
  8
LY_1
  6
CONTINUOUS
 62
     3
  5
83C
 10
-29.821881
 20
150.545621
 30
0.0
  0
VERTEX
  8
LY_1
  6
CONTINUOUS
 62
     3
  5
83D
 10
-29.403806
 20
150.899554
 30
0.0
  0
VERTEX
  8
LY_1
  6
CONTINUOUS
 62
     3
  5
83E
 10
-29.020711
 20
151.285805
 30
0.0
  0
VERTEX
  8
LY_1
  6
CONTINUOUS
 62
     3
  5
83F
 10
-28.675512
 20
151.701433
 30
0.0
  0
VERTEX
  8
LY_1
  6
CONTINUOUS
 62
     3
  5
840
 10
-28.370835
 20
152.143275
 30
0.0
  0
VERTEX
  8
LY_1
  6
CONTINUOUS
 62
     3
  5
841
 10
-28.108999
 20
152.60797
 30
0.0
  0
VERTEX
  8
LY_1
  6
CONTINUOUS
 62
     3
  5
842
 10
-27.891998
 20
153.091979
 30
0.0
  0
VERTEX
  8
LY_1
  6
CONTINUOUS
 62
     3
  5
843
 10
-27.721482
 20
153.591619
 30
0.0
  0
VERTEX
  8
LY_1
  6
CONTINUOUS
 62
     3
  5
844
 10
-27.59875
 20
154.103089
 30
0.0
  0
VERTEX
  8
LY_1
  6
CONTINUOUS
 62
     3
  5
845
 10
-27.524734
 20
154.622495
 30
0.0
  0
VERTEX
  8
LY_1
  6
CONTINUOUS
 62
     3
  5
846
 10
-27.5
 20
155.145884
 30
0.0
  0
SEQEND
  8
LY_1
  6
CONTINUOUS
 62
     3
  5
847
  0
POLYLINE
  8
LY_1
  6
CONTINUOUS
 62
     3
  5
132
 66
     1
 10
0.0
 20
0.0
 30
0.0
 70
     1
  0
VERTEX
  8
LY_1
  6
CONTINUOUS
 62
     3
  5
848
 10
-24.0
 20
155.528567
 30
0.0
  0
VERTEX
  8
LY_1
  6
CONTINUOUS
 62
     3
  5
849
 10
-24.038053
 20
156.333781
 30
0.0
  0
VERTEX
  8
LY_1
  6
CONTINUOUS
 62
     3
  5
84A
 10
-24.151922
 20
157.132867
 30
0.0
  0
VERTEX
  8
LY_1
  6
CONTINUOUS
 62
     3
  5
84B
 10
-24.340742
 20
157.919743
 30
0.0
  0
VERTEX
  8
LY_1
  6
CONTINUOUS
 62
     3
  5
84C
 10
-24.603074
 20
158.688421
 30
0.0
  0
VERTEX
  8
LY_1
  6
CONTINUOUS
 62
     3
  5
84D
 10
-24.936922
 20
159.433051
 30
0.0
  0
VERTEX
  8
LY_1
  6
CONTINUOUS
 62
     3
  5
84E
 10
-25.339746
 20
160.147965
 30
0.0
  0
VERTEX
  8
LY_1
  6
CONTINUOUS
 62
     3
  5
84F
 10
-25.80848
 20
160.827723
 30
0.0
  0
VERTEX
  8
LY_1
  6
CONTINUOUS
 62
     3
  5
850
 10
-26.339556
 20
161.46715
 30
0.0
  0
VERTEX
  8
LY_1
  6
CONTINUOUS
 62
     3
  5
851
 10
-26.928932
 20
162.061382
 30
0.0
  0
VERTEX
  8
LY_1
  6
CONTINUOUS
 62
     3
  5
852
 10
-27.572124
 20
162.605895
 30
0.0
  0
VERTEX
  8
LY_1
  6
CONTINUOUS
 62
     3
  5
853
 10
-28.264236
 20
163.096545
 30
0.0
  0
VERTEX
  8
LY_1
  6
CONTINUOUS
 62
     3
  5
854
 10
-29.0
 20
163.529599
 30
0.0
  0
VERTEX
  8
LY_1
  6
CONTINUOUS
 62
     3
  5
855
 10
-29.773817
 20
163.901759
 30
0.0
  0
VERTEX
  8
LY_1
  6
CONTINUOUS
 62
     3
  5
856
 10
-30.579799
 20
164.210195
 30
0.0
  0
VERTEX
  8
LY_1
  6
CONTINUOUS
 62
     3
  5
857
 10
-31.41181
 20
164.452558
 30
0.0
  0
VERTEX
  8
LY_1
  6
CONTINUOUS
 62
     3
  5
858
 10
-32.263518
 20
164.627005
 30
0.0
  0
VERTEX
  8
LY_1
  6
CONTINUOUS
 62
     3
  5
859
 10
-33.128443
 20
164.732206
 30
0.0
  0
VERTEX
  8
LY_1
  6
CONTINUOUS
 62
     3
  5
85A
 10
-34.0
 20
164.767363
 30
0.0
  0
VERTEX
  8
LY_1
  6
CONTINUOUS
 62
     3
  5
85B
 10
-34.871557
 20
164.732206
 30
0.0
  0
VERTEX
  8
LY_1
  6
CONTINUOUS
 62
     3
  5
85C
 10
-35.736482
 20
164.627005
 30
0.0
  0
VERTEX
  8
LY_1
  6
CONTINUOUS
 62
     3
  5
85D
 10
-36.58819
 20
164.452558
 30
0.0
  0
VERTEX
  8
LY_1
  6
CONTINUOUS
 62
     3
  5
85E
 10
-37.420201
 20
164.210195
 30
0.0
  0
VERTEX
  8
LY_1
  6
CONTINUOUS
 62
     3
  5
85F
 10
-38.226183
 20
163.901759
 30
0.0
  0
VERTEX
  8
LY_1
  6
CONTINUOUS
 62
     3
  5
860
 10
-39.0
 20
163.529599
 30
0.0
  0
VERTEX
  8
LY_1
  6
CONTINUOUS
 62
     3
  5
861
 10
-39.735764
 20
163.096545
 30
0.0
  0
VERTEX
  8
LY_1
  6
CONTINUOUS
 62
     3
  5
862
 10
-40.427876
 20
162.605895
 30
0.0
  0
VERTEX
  8
LY_1
  6
CONTINUOUS
 62
     3
  5
863
 10
-41.071068
 20
162.061382
 30
0.0
  0
VERTEX
  8
LY_1
  6
CONTINUOUS
 62
     3
  5
864
 10
-41.660444
 20
161.46715
 30
0.0
  0
VERTEX
  8
LY_1
  6
CONTINUOUS
 62
     3
  5
865
 10
-42.19152
 20
160.827723
 30
0.0
  0
VERTEX
  8
LY_1
  6
CONTINUOUS
 62
     3
  5
866
 10
-42.660254
 20
160.147965
 30
0.0
  0
VERTEX
  8
LY_1
  6
CONTINUOUS
 62
     3
  5
867
 10
-43.063078
 20
159.433051
 30
0.0
  0
VERTEX
  8
LY_1
  6
CONTINUOUS
 62
     3
  5
868
 10
-43.396926
 20
158.688421
 30
0.0
  0
VERTEX
  8
LY_1
  6
CONTINUOUS
 62
     3
  5
869
 10
-43.659258
 20
157.919743
 30
0.0
  0
VERTEX
  8
LY_1
  6
CONTINUOUS
 62
     3
  5
86A
 10
-43.848078
 20
157.132867
 30
0.0
  0
VERTEX
  8
LY_1
  6
CONTINUOUS
 62
     3
  5
86B
 10
-43.961947
 20
156.333781
 30
0.0
  0
VERTEX
  8
LY_1
  6
CONTINUOUS
 62
     3
  5
86C
 10
-44.0
 20
155.528567
 30
0.0
  0
VERTEX
  8
LY_1
  6
CONTINUOUS
 62
     3
  5
86D
 10
-43.961947
 20
154.723353
 30
0.0
  0
VERTEX
  8
LY_1
  6
CONTINUOUS
 62
     3
  5
86E
 10
-43.848078
 20
153.924267
 30
0.0
  0
VERTEX
  8
LY_1
  6
CONTINUOUS
 62
     3
  5
86F
 10
-43.659258
 20
153.137391
 30
0.0
  0
VERTEX
  8
LY_1
  6
CONTINUOUS
 62
     3
  5
870
 10
-43.396926
 20
152.368713
 30
0.0
  0
VERTEX
  8
LY_1
  6
CONTINUOUS
 62
     3
  5
871
 10
-43.063078
 20
151.624084
 30
0.0
  0
VERTEX
  8
LY_1
  6
CONTINUOUS
 62
     3
  5
872
 10
-42.660254
 20
150.90917
 30
0.0
  0
VERTEX
  8
LY_1
  6
CONTINUOUS
 62
     3
  5
873
 10
-42.19152
 20
150.229412
 30
0.0
  0
VERTEX
  8
LY_1
  6
CONTINUOUS
 62
     3
  5
874
 10
-41.660444
 20
149.589984
 30
0.0
  0
VERTEX
  8
LY_1
  6
CONTINUOUS
 62
     3
  5
875
 10
-41.071068
 20
148.995752
 30
0.0
  0
VERTEX
  8
LY_1
  6
CONTINUOUS
 62
     3
  5
876
 10
-40.427876
 20
148.451239
 30
0.0
  0
VERTEX
  8
LY_1
  6
CONTINUOUS
 62
     3
  5
877
 10
-39.735764
 20
147.960589
 30
0.0
  0
VERTEX
  8
LY_1
  6
CONTINUOUS
 62
     3
  5
878
 10
-39.0
 20
147.527536
 30
0.0
  0
VERTEX
  8
LY_1
  6
CONTINUOUS
 62
     3
  5
879
 10
-38.226183
 20
147.155375
 30
0.0
  0
VERTEX
  8
LY_1
  6
CONTINUOUS
 62
     3
  5
87A
 10
-37.420201
 20
146.846939
 30
0.0
  0
VERTEX
  8
LY_1
  6
CONTINUOUS
 62
     3
  5
87B
 10
-36.58819
 20
146.604576
 30
0.0
  0
VERTEX
  8
LY_1
  6
CONTINUOUS
 62
     3
  5
87C
 10
-35.736482
 20
146.43013
 30
0.0
  0
VERTEX
  8
LY_1
  6
CONTINUOUS
 62
     3
  5
87D
 10
-34.871557
 20
146.324928
 30
0.0
  0
VERTEX
  8
LY_1
  6
CONTINUOUS
 62
     3
  5
87E
 10
-34.0
 20
146.289772
 30
0.0
  0
VERTEX
  8
LY_1
  6
CONTINUOUS
 62
     3
  5
87F
 10
-33.128443
 20
146.324928
 30
0.0
  0
VERTEX
  8
LY_1
  6
CONTINUOUS
 62
     3
  5
880
 10
-32.263518
 20
146.43013
 30
0.0
  0
VERTEX
  8
LY_1
  6
CONTINUOUS
 62
     3
  5
881
 10
-31.41181
 20
146.604576
 30
0.0
  0
VERTEX
  8
LY_1
  6
CONTINUOUS
 62
     3
  5
882
 10
-30.579799
 20
146.846939
 30
0.0
  0
VERTEX
  8
LY_1
  6
CONTINUOUS
 62
     3
  5
883
 10
-29.773817
 20
147.155375
 30
0.0
  0
VERTEX
  8
LY_1
  6
CONTINUOUS
 62
     3
  5
884
 10
-29.0
 20
147.527536
 30
0.0
  0
VERTEX
  8
LY_1
  6
CONTINUOUS
 62
     3
  5
885
 10
-28.264236
 20
147.960589
 30
0.0
  0
VERTEX
  8
LY_1
  6
CONTINUOUS
 62
     3
  5
886
 10
-27.572124
 20
148.451239
 30
0.0
  0
VERTEX
  8
LY_1
  6
CONTINUOUS
 62
     3
  5
887
 10
-26.928932
 20
148.995752
 30
0.0
  0
VERTEX
  8
LY_1
  6
CONTINUOUS
 62
     3
  5
888
 10
-26.339556
 20
149.589984
 30
0.0
  0
VERTEX
  8
LY_1
  6
CONTINUOUS
 62
     3
  5
889
 10
-25.80848
 20
150.229412
 30
0.0
  0
VERTEX
  8
LY_1
  6
CONTINUOUS
 62
     3
  5
88A
 10
-25.339746
 20
150.90917
 30
0.0
  0
VERTEX
  8
LY_1
  6
CONTINUOUS
 62
     3
  5
88B
 10
-24.936922
 20
151.624084
 30
0.0
  0
VERTEX
  8
LY_1
  6
CONTINUOUS
 62
     3
  5
88C
 10
-24.603074
 20
152.368713
 30
0.0
  0
VERTEX
  8
LY_1
  6
CONTINUOUS
 62
     3
  5
88D
 10
-24.340742
 20
153.137391
 30
0.0
  0
VERTEX
  8
LY_1
  6
CONTINUOUS
 62
     3
  5
88E
 10
-24.151922
 20
153.924267
 30
0.0
  0
VERTEX
  8
LY_1
  6
CONTINUOUS
 62
     3
  5
88F
 10
-24.038053
 20
154.723353
 30
0.0
  0
VERTEX
  8
LY_1
  6
CONTINUOUS
 62
     3
  5
890
 10
-24.0
 20
155.528567
 30
0.0
  0
SEQEND
  8
LY_1
  6
CONTINUOUS
 62
     3
  5
891
  0
POLYLINE
  8
LY_1
  6
CONTINUOUS
 62
     3
  5
133
 66
     1
 10
0.0
 20
0.0
 30
0.0
 70
     1
  0
VERTEX
  8
LY_1
  6
CONTINUOUS
 62
     3
  5
892
 10
-20.0
 20
155.528567
 30
0.0
  0
VERTEX
  8
LY_1
  6
CONTINUOUS
 62
     3
  5
893
 10
-20.053274
 20
156.655867
 30
0.0
  0
VERTEX
  8
LY_1
  6
CONTINUOUS
 62
     3
  5
894
 10
-20.212691
 20
157.774587
 30
0.0
  0
VERTEX
  8
LY_1
  6
CONTINUOUS
 62
     3
  5
895
 10
-20.477038
 20
158.876214
 30
0.0
  0
VERTEX
  8
LY_1
  6
CONTINUOUS
 62
     3
  5
896
 10
-20.844303
 20
159.952363
 30
0.0
  0
VERTEX
  8
LY_1
  6
CONTINUOUS
 62
     3
  5
897
 10
-21.311691
 20
160.994844
 30
0.0
  0
VERTEX
  8
LY_1
  6
CONTINUOUS
 62
     3
  5
898
 10
-21.875644
 20
161.995724
 30
0.0
  0
VERTEX
  8
LY_1
  6
CONTINUOUS
 62
     3
  5
899
 10
-22.531871
 20
162.947385
 30
0.0
  0
VERTEX
  8
LY_1
  6
CONTINUOUS
 62
     3
  5
89A
 10
-23.275378
 20
163.842584
 30
0.0
  0
VERTEX
  8
LY_1
  6
CONTINUOUS
 62
     3
  5
89B
 10
-24.100505
 20
164.674508
 30
0.0
  0
VERTEX
  8
LY_1
  6
CONTINUOUS
 62
     3
  5
89C
 10
-25.000973
 20
165.436826
 30
0.0
  0
VERTEX
  8
LY_1
  6
CONTINUOUS
 62
     3
  5
89D
 10
-25.96993
 20
166.123737
 30
0.0
  0
VERTEX
  8
LY_1
  6
CONTINUOUS
 62
     3
  5
89E
 10
-27.0
 20
166.730011
 30
0.0
  0
VERTEX
  8
LY_1
  6
CONTINUOUS
 62
     3
  5
89F
 10
-28.083344
 20
167.251036
 30
0.0
  0
VERTEX
  8
LY_1
  6
CONTINUOUS
 62
     3
  5
8A0
 10
-29.211718
 20
167.682846
 30
0.0
  0
VERTEX
  8
LY_1
  6
CONTINUOUS
 62
     3
  5
8A1
 10
-30.376533
 20
168.022155
 30
0.0
  0
VERTEX
  8
LY_1
  6
CONTINUOUS
 62
     3
  5
8A2
 10
-31.568926
 20
168.266379
 30
0.0
  0
VERTEX
  8
LY_1
  6
CONTINUOUS
 62
     3
  5
8A3
 10
-32.77982
 20
168.413662
 30
0.0
  0
VERTEX
  8
LY_1
  6
CONTINUOUS
 62
     3
  5
8A4
 10
-34.0
 20
168.462881
 30
0.0
  0
VERTEX
  8
LY_1
  6
CONTINUOUS
 62
     3
  5
8A5
 10
-35.22018
 20
168.413662
 30
0.0
  0
VERTEX
  8
LY_1
  6
CONTINUOUS
 62
     3
  5
8A6
 10
-36.431074
 20
168.266379
 30
0.0
  0
VERTEX
  8
LY_1
  6
CONTINUOUS
 62
     3
  5
8A7
 10
-37.623467
 20
168.022155
 30
0.0
  0
VERTEX
  8
LY_1
  6
CONTINUOUS
 62
     3
  5
8A8
 10
-38.788282
 20
167.682846
 30
0.0
  0
VERTEX
  8
LY_1
  6
CONTINUOUS
 62
     3
  5
8A9
 10
-39.916656
 20
167.251036
 30
0.0
  0
VERTEX
  8
LY_1
  6
CONTINUOUS
 62
     3
  5
8AA
 10
-41.0
 20
166.730011
 30
0.0
  0
VERTEX
  8
LY_1
  6
CONTINUOUS
 62
     3
  5
8AB
 10
-42.03007
 20
166.123737
 30
0.0
  0
VERTEX
  8
LY_1
  6
CONTINUOUS
 62
     3
  5
8AC
 10
-42.999027
 20
165.436826
 30
0.0
  0
VERTEX
  8
LY_1
  6
CONTINUOUS
 62
     3
  5
8AD
 10
-43.899495
 20
164.674508
 30
0.0
  0
VERTEX
  8
LY_1
  6
CONTINUOUS
 62
     3
  5
8AE
 10
-44.724622
 20
163.842584
 30
0.0
  0
VERTEX
  8
LY_1
  6
CONTINUOUS
 62
     3
  5
8AF
 10
-45.468129
 20
162.947385
 30
0.0
  0
VERTEX
  8
LY_1
  6
CONTINUOUS
 62
     3
  5
8B0
 10
-46.124356
 20
161.995724
 30
0.0
  0
VERTEX
  8
LY_1
  6
CONTINUOUS
 62
     3
  5
8B1
 10
-46.688309
 20
160.994844
 30
0.0
  0
VERTEX
  8
LY_1
  6
CONTINUOUS
 62
     3
  5
8B2
 10
-47.155697
 20
159.952363
 30
0.0
  0
VERTEX
  8
LY_1
  6
CONTINUOUS
 62
     3
  5
8B3
 10
-47.522962
 20
158.876214
 30
0.0
  0
VERTEX
  8
LY_1
  6
CONTINUOUS
 62
     3
  5
8B4
 10
-47.787309
 20
157.774587
 30
0.0
  0
VERTEX
  8
LY_1
  6
CONTINUOUS
 62
     3
  5
8B5
 10
-47.946726
 20
156.655867
 30
0.0
  0
VERTEX
  8
LY_1
  6
CONTINUOUS
 62
     3
  5
8B6
 10
-48.0
 20
155.528567
 30
0.0
  0
VERTEX
  8
LY_1
  6
CONTINUOUS
 62
     3
  5
8B7
 10
-47.946726
 20
154.401268
 30
0.0
  0
VERTEX
  8
LY_1
  6
CONTINUOUS
 62
     3
  5
8B8
 10
-47.787309
 20
153.282547
 30
0.0
  0
VERTEX
  8
LY_1
  6
CONTINUOUS
 62
     3
  5
8B9
 10
-47.522962
 20
152.180921
 30
0.0
  0
VERTEX
  8
LY_1
  6
CONTINUOUS
 62
     3
  5
8BA
 10
-47.155697
 20
151.104772
 30
0.0
  0
VERTEX
  8
LY_1
  6
CONTINUOUS
 62
     3
  5
8BB
 10
-46.688309
 20
150.06229
 30
0.0
  0
VERTEX
  8
LY_1
  6
CONTINUOUS
 62
     3
  5
8BC
 10
-46.124356
 20
149.061411
 30
0.0
  0
VERTEX
  8
LY_1
  6
CONTINUOUS
 62
     3
  5
8BD
 10
-45.468129
 20
148.10975
 30
0.0
  0
VERTEX
  8
LY_1
  6
CONTINUOUS
 62
     3
  5
8BE
 10
-44.724622
 20
147.214551
 30
0.0
  0
VERTEX
  8
LY_1
  6
CONTINUOUS
 62
     3
  5
8BF
 10
-43.899495
 20
146.382627
 30
0.0
  0
VERTEX
  8
LY_1
  6
CONTINUOUS
 62
     3
  5
8C0
 10
-42.999027
 20
145.620308
 30
0.0
  0
VERTEX
  8
LY_1
  6
CONTINUOUS
 62
     3
  5
8C1
 10
-42.03007
 20
144.933398
 30
0.0
  0
VERTEX
  8
LY_1
  6
CONTINUOUS
 62
     3
  5
8C2
 10
-41.0
 20
144.327123
 30
0.0
  0
VERTEX
  8
LY_1
  6
CONTINUOUS
 62
     3
  5
8C3
 10
-39.916656
 20
143.806098
 30
0.0
  0
VERTEX
  8
LY_1
  6
CONTINUOUS
 62
     3
  5
8C4
 10
-38.788282
 20
143.374288
 30
0.0
  0
VERTEX
  8
LY_1
  6
CONTINUOUS
 62
     3
  5
8C5
 10
-37.623467
 20
143.03498
 30
0.0
  0
VERTEX
  8
LY_1
  6
CONTINUOUS
 62
     3
  5
8C6
 10
-36.431074
 20
142.790755
 30
0.0
  0
VERTEX
  8
LY_1
  6
CONTINUOUS
 62
     3
  5
8C7
 10
-35.22018
 20
142.643473
 30
0.0
  0
VERTEX
  8
LY_1
  6
CONTINUOUS
 62
     3
  5
8C8
 10
-34.0
 20
142.594254
 30
0.0
  0
VERTEX
  8
LY_1
  6
CONTINUOUS
 62
     3
  5
8C9
 10
-32.77982
 20
142.643473
 30
0.0
  0
VERTEX
  8
LY_1
  6
CONTINUOUS
 62
     3
  5
8CA
 10
-31.568926
 20
142.790755
 30
0.0
  0
VERTEX
  8
LY_1
  6
CONTINUOUS
 62
     3
  5
8CB
 10
-30.376533
 20
143.03498
 30
0.0
  0
VERTEX
  8
LY_1
  6
CONTINUOUS
 62
     3
  5
8CC
 10
-29.211718
 20
143.374288
 30
0.0
  0
VERTEX
  8
LY_1
  6
CONTINUOUS
 62
     3
  5
8CD
 10
-28.083344
 20
143.806098
 30
0.0
  0
VERTEX
  8
LY_1
  6
CONTINUOUS
 62
     3
  5
8CE
 10
-27.0
 20
144.327123
 30
0.0
  0
VERTEX
  8
LY_1
  6
CONTINUOUS
 62
     3
  5
8CF
 10
-25.96993
 20
144.933398
 30
0.0
  0
VERTEX
  8
LY_1
  6
CONTINUOUS
 62
     3
  5
8D0
 10
-25.000973
 20
145.620308
 30
0.0
  0
VERTEX
  8
LY_1
  6
CONTINUOUS
 62
     3
  5
8D1
 10
-24.100505
 20
146.382627
 30
0.0
  0
VERTEX
  8
LY_1
  6
CONTINUOUS
 62
     3
  5
8D2
 10
-23.275378
 20
147.214551
 30
0.0
  0
VERTEX
  8
LY_1
  6
CONTINUOUS
 62
     3
  5
8D3
 10
-22.531871
 20
148.10975
 30
0.0
  0
VERTEX
  8
LY_1
  6
CONTINUOUS
 62
     3
  5
8D4
 10
-21.875644
 20
149.061411
 30
0.0
  0
VERTEX
  8
LY_1
  6
CONTINUOUS
 62
     3
  5
8D5
 10
-21.311691
 20
150.06229
 30
0.0
  0
VERTEX
  8
LY_1
  6
CONTINUOUS
 62
     3
  5
8D6
 10
-20.844303
 20
151.104772
 30
0.0
  0
VERTEX
  8
LY_1
  6
CONTINUOUS
 62
     3
  5
8D7
 10
-20.477038
 20
152.180921
 30
0.0
  0
VERTEX
  8
LY_1
  6
CONTINUOUS
 62
     3
  5
8D8
 10
-20.212691
 20
153.282547
 30
0.0
  0
VERTEX
  8
LY_1
  6
CONTINUOUS
 62
     3
  5
8D9
 10
-20.053274
 20
154.401268
 30
0.0
  0
VERTEX
  8
LY_1
  6
CONTINUOUS
 62
     3
  5
8DA
 10
-20.0
 20
155.528567
 30
0.0
  0
SEQEND
  8
LY_1
  6
CONTINUOUS
 62
     3
  5
8DB
  0
LINE
  8
LY_1
  6
CONTINUOUS
 62
     3
  5
134
 10
46.0
 20
151.945471
 30
0.0
 11
49.0
 21
153.545678
 31
0.0
  0
LINE
  8
LY_1
  6
CONTINUOUS
 62
     3
  5
135
 10
43.0
 20
153.545678
 30
0.0
 11
46.0
 21
151.945471
 31
0.0
  0
LINE
  8
LY_1
  6
CONTINUOUS
 62
     3
  5
136
 10
46.0
 20
158.346296
 30
0.0
 11
49.0
 21
156.74609
 31
0.0
  0
LINE
  8
LY_1
  6
CONTINUOUS
 62
     3
  5
137
 10
46.0
 20
158.346296
 30
0.0
 11
43.0
 21
156.74609
 31
0.0
  0
LINE
  8
LY_1
  6
CONTINUOUS
 62
     3
  5
138
 10
43.0
 20
156.74609
 30
0.0
 11
43.0
 21
153.545678
 31
0.0
  0
LINE
  8
LY_1
  6
CONTINUOUS
 62
     3
  5
139
 10
49.0
 20
156.74609
 30
0.0
 11
49.0
 21
153.545678
 31
0.0
  0
POLYLINE
  8
LY_1
  6
CONTINUOUS
 62
     3
  5
13A
 66
     1
 10
0.0
 20
0.0
 30
0.0
 70
     1
  0
VERTEX
  8
LY_1
  6
CONTINUOUS
 62
     3
  5
8DC
 10
52.5
 20
155.145884
 30
0.0
  0
VERTEX
  8
LY_1
  6
CONTINUOUS
 62
     3
  5
8DD
 10
52.475266
 20
155.669273
 30
0.0
  0
VERTEX
  8
LY_1
  6
CONTINUOUS
 62
     3
  5
8DE
 10
52.40125
 20
156.188679
 30
0.0
  0
VERTEX
  8
LY_1
  6
CONTINUOUS
 62
     3
  5
8DF
 10
52.278518
 20
156.700148
 30
0.0
  0
VERTEX
  8
LY_1
  6
CONTINUOUS
 62
     3
  5
8E0
 10
52.108002
 20
157.199789
 30
0.0
  0
VERTEX
  8
LY_1
  6
CONTINUOUS
 62
     3
  5
8E1
 10
51.891001
 20
157.683798
 30
0.0
  0
VERTEX
  8
LY_1
  6
CONTINUOUS
 62
     3
  5
8E2
 10
51.629165
 20
158.148492
 30
0.0
  0
VERTEX
  8
LY_1
  6
CONTINUOUS
 62
     3
  5
8E3
 10
51.324488
 20
158.590335
 30
0.0
  0
VERTEX
  8
LY_1
  6
CONTINUOUS
 62
     3
  5
8E4
 10
50.979289
 20
159.005963
 30
0.0
  0
VERTEX
  8
LY_1
  6
CONTINUOUS
 62
     3
  5
8E5
 10
50.596194
 20
159.392213
 30
0.0
  0
VERTEX
  8
LY_1
  6
CONTINUOUS
 62
     3
  5
8E6
 10
50.178119
 20
159.746147
 30
0.0
  0
VERTEX
  8
LY_1
  6
CONTINUOUS
 62
     3
  5
8E7
 10
49.728247
 20
160.06507
 30
0.0
  0
VERTEX
  8
LY_1
  6
CONTINUOUS
 62
     3
  5
8E8
 10
49.25
 20
160.346554
 30
0.0
  0
VERTEX
  8
LY_1
  6
CONTINUOUS
 62
     3
  5
8E9
 10
48.747019
 20
160.588459
 30
0.0
  0
VERTEX
  8
LY_1
  6
CONTINUOUS
 62
     3
  5
8EA
 10
48.223131
 20
160.788942
 30
0.0
  0
VERTEX
  8
LY_1
  6
CONTINUOUS
 62
     3
  5
8EB
 10
47.682324
 20
160.946478
 30
0.0
  0
VERTEX
  8
LY_1
  6
CONTINUOUS
 62
     3
  5
8EC
 10
47.128713
 20
161.059868
 30
0.0
  0
VERTEX
  8
LY_1
  6
CONTINUOUS
 62
     3
  5
8ED
 10
46.566512
 20
161.128249
 30
0.0
  0
VERTEX
  8
LY_1
  6
CONTINUOUS
 62
     3
  5
8EE
 10
46.0
 20
161.151101
 30
0.0
  0
VERTEX
  8
LY_1
  6
CONTINUOUS
 62
     3
  5
8EF
 10
45.433488
 20
161.128249
 30
0.0
  0
VERTEX
  8
LY_1
  6
CONTINUOUS
 62
     3
  5
8F0
 10
44.871287
 20
161.059868
 30
0.0
  0
VERTEX
  8
LY_1
  6
CONTINUOUS
 62
     3
  5
8F1
 10
44.317676
 20
160.946478
 30
0.0
  0
VERTEX
  8
LY_1
  6
CONTINUOUS
 62
     3
  5
8F2
 10
43.776869
 20
160.788942
 30
0.0
  0
VERTEX
  8
LY_1
  6
CONTINUOUS
 62
     3
  5
8F3
 10
43.252981
 20
160.588459
 30
0.0
  0
VERTEX
  8
LY_1
  6
CONTINUOUS
 62
     3
  5
8F4
 10
42.75
 20
160.346554
 30
0.0
  0
VERTEX
  8
LY_1
  6
CONTINUOUS
 62
     3
  5
8F5
 10
42.271753
 20
160.06507
 30
0.0
  0
VERTEX
  8
LY_1
  6
CONTINUOUS
 62
     3
  5
8F6
 10
41.821881
 20
159.746147
 30
0.0
  0
VERTEX
  8
LY_1
  6
CONTINUOUS
 62
     3
  5
8F7
 10
41.403806
 20
159.392213
 30
0.0
  0
VERTEX
  8
LY_1
  6
CONTINUOUS
 62
     3
  5
8F8
 10
41.020711
 20
159.005963
 30
0.0
  0
VERTEX
  8
LY_1
  6
CONTINUOUS
 62
     3
  5
8F9
 10
40.675512
 20
158.590335
 30
0.0
  0
VERTEX
  8
LY_1
  6
CONTINUOUS
 62
     3
  5
8FA
 10
40.370835
 20
158.148492
 30
0.0
  0
VERTEX
  8
LY_1
  6
CONTINUOUS
 62
     3
  5
8FB
 10
40.108999
 20
157.683798
 30
0.0
  0
VERTEX
  8
LY_1
  6
CONTINUOUS
 62
     3
  5
8FC
 10
39.891998
 20
157.199789
 30
0.0
  0
VERTEX
  8
LY_1
  6
CONTINUOUS
 62
     3
  5
8FD
 10
39.721482
 20
156.700148
 30
0.0
  0
VERTEX
  8
LY_1
  6
CONTINUOUS
 62
     3
  5
8FE
 10
39.59875
 20
156.188679
 30
0.0
  0
VERTEX
  8
LY_1
  6
CONTINUOUS
 62
     3
  5
8FF
 10
39.524734
 20
155.669273
 30
0.0
  0
VERTEX
  8
LY_1
  6
CONTINUOUS
 62
     3
  5
900
 10
39.5
 20
155.145884
 30
0.0
  0
VERTEX
  8
LY_1
  6
CONTINUOUS
 62
     3
  5
901
 10
39.524734
 20
154.622495
 30
0.0
  0
VERTEX
  8
LY_1
  6
CONTINUOUS
 62
     3
  5
902
 10
39.59875
 20
154.103089
 30
0.0
  0
VERTEX
  8
LY_1
  6
CONTINUOUS
 62
     3
  5
903
 10
39.721482
 20
153.591619
 30
0.0
  0
VERTEX
  8
LY_1
  6
CONTINUOUS
 62
     3
  5
904
 10
39.891998
 20
153.091979
 30
0.0
  0
VERTEX
  8
LY_1
  6
CONTINUOUS
 62
     3
  5
905
 10
40.108999
 20
152.60797
 30
0.0
  0
VERTEX
  8
LY_1
  6
CONTINUOUS
 62
     3
  5
906
 10
40.370835
 20
152.143275
 30
0.0
  0
VERTEX
  8
LY_1
  6
CONTINUOUS
 62
     3
  5
907
 10
40.675512
 20
151.701433
 30
0.0
  0
VERTEX
  8
LY_1
  6
CONTINUOUS
 62
     3
  5
908
 10
41.020711
 20
151.285805
 30
0.0
  0
VERTEX
  8
LY_1
  6
CONTINUOUS
 62
     3
  5
909
 10
41.403806
 20
150.899554
 30
0.0
  0
VERTEX
  8
LY_1
  6
CONTINUOUS
 62
     3
  5
90A
 10
41.821881
 20
150.545621
 30
0.0
  0
VERTEX
  8
LY_1
  6
CONTINUOUS
 62
     3
  5
90B
 10
42.271753
 20
150.226698
 30
0.0
  0
VERTEX
  8
LY_1
  6
CONTINUOUS
 62
     3
  5
90C
 10
42.75
 20
149.945213
 30
0.0
  0
VERTEX
  8
LY_1
  6
CONTINUOUS
 62
     3
  5
90D
 10
43.252981
 20
149.703309
 30
0.0
  0
VERTEX
  8
LY_1
  6
CONTINUOUS
 62
     3
  5
90E
 10
43.776869
 20
149.502826
 30
0.0
  0
VERTEX
  8
LY_1
  6
CONTINUOUS
 62
     3
  5
90F
 10
44.317676
 20
149.34529
 30
0.0
  0
VERTEX
  8
LY_1
  6
CONTINUOUS
 62
     3
  5
910
 10
44.871287
 20
149.2319
 30
0.0
  0
VERTEX
  8
LY_1
  6
CONTINUOUS
 62
     3
  5
911
 10
45.433488
 20
149.163519
 30
0.0
  0
VERTEX
  8
LY_1
  6
CONTINUOUS
 62
     3
  5
912
 10
46.0
 20
149.140667
 30
0.0
  0
VERTEX
  8
LY_1
  6
CONTINUOUS
 62
     3
  5
913
 10
46.566512
 20
149.163519
 30
0.0
  0
VERTEX
  8
LY_1
  6
CONTINUOUS
 62
     3
  5
914
 10
47.128713
 20
149.2319
 30
0.0
  0
VERTEX
  8
LY_1
  6
CONTINUOUS
 62
     3
  5
915
 10
47.682324
 20
149.34529
 30
0.0
  0
VERTEX
  8
LY_1
  6
CONTINUOUS
 62
     3
  5
916
 10
48.223131
 20
149.502826
 30
0.0
  0
VERTEX
  8
LY_1
  6
CONTINUOUS
 62
     3
  5
917
 10
48.747019
 20
149.703309
 30
0.0
  0
VERTEX
  8
LY_1
  6
CONTINUOUS
 62
     3
  5
918
 10
49.25
 20
149.945213
 30
0.0
  0
VERTEX
  8
LY_1
  6
CONTINUOUS
 62
     3
  5
919
 10
49.728247
 20
150.226698
 30
0.0
  0
VERTEX
  8
LY_1
  6
CONTINUOUS
 62
     3
  5
91A
 10
50.178119
 20
150.545621
 30
0.0
  0
VERTEX
  8
LY_1
  6
CONTINUOUS
 62
     3
  5
91B
 10
50.596194
 20
150.899554
 30
0.0
  0
VERTEX
  8
LY_1
  6
CONTINUOUS
 62
     3
  5
91C
 10
50.979289
 20
151.285805
 30
0.0
  0
VERTEX
  8
LY_1
  6
CONTINUOUS
 62
     3
  5
91D
 10
51.324488
 20
151.701433
 30
0.0
  0
VERTEX
  8
LY_1
  6
CONTINUOUS
 62
     3
  5
91E
 10
51.629165
 20
152.143275
 30
0.0
  0
VERTEX
  8
LY_1
  6
CONTINUOUS
 62
     3
  5
91F
 10
51.891001
 20
152.60797
 30
0.0
  0
VERTEX
  8
LY_1
  6
CONTINUOUS
 62
     3
  5
920
 10
52.108002
 20
153.091979
 30
0.0
  0
VERTEX
  8
LY_1
  6
CONTINUOUS
 62
     3
  5
921
 10
52.278518
 20
153.591619
 30
0.0
  0
VERTEX
  8
LY_1
  6
CONTINUOUS
 62
     3
  5
922
 10
52.40125
 20
154.103089
 30
0.0
  0
VERTEX
  8
LY_1
  6
CONTINUOUS
 62
     3
  5
923
 10
52.475266
 20
154.622495
 30
0.0
  0
VERTEX
  8
LY_1
  6
CONTINUOUS
 62
     3
  5
924
 10
52.5
 20
155.145884
 30
0.0
  0
SEQEND
  8
LY_1
  6
CONTINUOUS
 62
     3
  5
925
  0
POLYLINE
  8
LY_1
  6
CONTINUOUS
 62
     3
  5
13B
 66
     1
 10
0.0
 20
0.0
 30
0.0
 70
     1
  0
VERTEX
  8
LY_1
  6
CONTINUOUS
 62
     3
  5
926
 10
56.0
 20
155.528567
 30
0.0
  0
VERTEX
  8
LY_1
  6
CONTINUOUS
 62
     3
  5
927
 10
55.961947
 20
156.333781
 30
0.0
  0
VERTEX
  8
LY_1
  6
CONTINUOUS
 62
     3
  5
928
 10
55.848078
 20
157.132867
 30
0.0
  0
VERTEX
  8
LY_1
  6
CONTINUOUS
 62
     3
  5
929
 10
55.659258
 20
157.919743
 30
0.0
  0
VERTEX
  8
LY_1
  6
CONTINUOUS
 62
     3
  5
92A
 10
55.396926
 20
158.688421
 30
0.0
  0
VERTEX
  8
LY_1
  6
CONTINUOUS
 62
     3
  5
92B
 10
55.063078
 20
159.433051
 30
0.0
  0
VERTEX
  8
LY_1
  6
CONTINUOUS
 62
     3
  5
92C
 10
54.660254
 20
160.147965
 30
0.0
  0
VERTEX
  8
LY_1
  6
CONTINUOUS
 62
     3
  5
92D
 10
54.19152
 20
160.827723
 30
0.0
  0
VERTEX
  8
LY_1
  6
CONTINUOUS
 62
     3
  5
92E
 10
53.660444
 20
161.46715
 30
0.0
  0
VERTEX
  8
LY_1
  6
CONTINUOUS
 62
     3
  5
92F
 10
53.071068
 20
162.061382
 30
0.0
  0
VERTEX
  8
LY_1
  6
CONTINUOUS
 62
     3
  5
930
 10
52.427876
 20
162.605895
 30
0.0
  0
VERTEX
  8
LY_1
  6
CONTINUOUS
 62
     3
  5
931
 10
51.735764
 20
163.096545
 30
0.0
  0
VERTEX
  8
LY_1
  6
CONTINUOUS
 62
     3
  5
932
 10
51.0
 20
163.529599
 30
0.0
  0
VERTEX
  8
LY_1
  6
CONTINUOUS
 62
     3
  5
933
 10
50.226183
 20
163.901759
 30
0.0
  0
VERTEX
  8
LY_1
  6
CONTINUOUS
 62
     3
  5
934
 10
49.420201
 20
164.210195
 30
0.0
  0
VERTEX
  8
LY_1
  6
CONTINUOUS
 62
     3
  5
935
 10
48.58819
 20
164.452558
 30
0.0
  0
VERTEX
  8
LY_1
  6
CONTINUOUS
 62
     3
  5
936
 10
47.736482
 20
164.627005
 30
0.0
  0
VERTEX
  8
LY_1
  6
CONTINUOUS
 62
     3
  5
937
 10
46.871557
 20
164.732206
 30
0.0
  0
VERTEX
  8
LY_1
  6
CONTINUOUS
 62
     3
  5
938
 10
46.0
 20
164.767363
 30
0.0
  0
VERTEX
  8
LY_1
  6
CONTINUOUS
 62
     3
  5
939
 10
45.128443
 20
164.732206
 30
0.0
  0
VERTEX
  8
LY_1
  6
CONTINUOUS
 62
     3
  5
93A
 10
44.263518
 20
164.627005
 30
0.0
  0
VERTEX
  8
LY_1
  6
CONTINUOUS
 62
     3
  5
93B
 10
43.41181
 20
164.452558
 30
0.0
  0
VERTEX
  8
LY_1
  6
CONTINUOUS
 62
     3
  5
93C
 10
42.579799
 20
164.210195
 30
0.0
  0
VERTEX
  8
LY_1
  6
CONTINUOUS
 62
     3
  5
93D
 10
41.773817
 20
163.901759
 30
0.0
  0
VERTEX
  8
LY_1
  6
CONTINUOUS
 62
     3
  5
93E
 10
41.0
 20
163.529599
 30
0.0
  0
VERTEX
  8
LY_1
  6
CONTINUOUS
 62
     3
  5
93F
 10
40.264236
 20
163.096545
 30
0.0
  0
VERTEX
  8
LY_1
  6
CONTINUOUS
 62
     3
  5
940
 10
39.572124
 20
162.605895
 30
0.0
  0
VERTEX
  8
LY_1
  6
CONTINUOUS
 62
     3
  5
941
 10
38.928932
 20
162.061382
 30
0.0
  0
VERTEX
  8
LY_1
  6
CONTINUOUS
 62
     3
  5
942
 10
38.339556
 20
161.46715
 30
0.0
  0
VERTEX
  8
LY_1
  6
CONTINUOUS
 62
     3
  5
943
 10
37.80848
 20
160.827723
 30
0.0
  0
VERTEX
  8
LY_1
  6
CONTINUOUS
 62
     3
  5
944
 10
37.339746
 20
160.147965
 30
0.0
  0
VERTEX
  8
LY_1
  6
CONTINUOUS
 62
     3
  5
945
 10
36.936922
 20
159.433051
 30
0.0
  0
VERTEX
  8
LY_1
  6
CONTINUOUS
 62
     3
  5
946
 10
36.603074
 20
158.688421
 30
0.0
  0
VERTEX
  8
LY_1
  6
CONTINUOUS
 62
     3
  5
947
 10
36.340742
 20
157.919743
 30
0.0
  0
VERTEX
  8
LY_1
  6
CONTINUOUS
 62
     3
  5
948
 10
36.151922
 20
157.132867
 30
0.0
  0
VERTEX
  8
LY_1
  6
CONTINUOUS
 62
     3
  5
949
 10
36.038053
 20
156.333781
 30
0.0
  0
VERTEX
  8
LY_1
  6
CONTINUOUS
 62
     3
  5
94A
 10
36.0
 20
155.528567
 30
0.0
  0
VERTEX
  8
LY_1
  6
CONTINUOUS
 62
     3
  5
94B
 10
36.038053
 20
154.723353
 30
0.0
  0
VERTEX
  8
LY_1
  6
CONTINUOUS
 62
     3
  5
94C
 10
36.151922
 20
153.924267
 30
0.0
  0
VERTEX
  8
LY_1
  6
CONTINUOUS
 62
     3
  5
94D
 10
36.340742
 20
153.137391
 30
0.0
  0
VERTEX
  8
LY_1
  6
CONTINUOUS
 62
     3
  5
94E
 10
36.603074
 20
152.368713
 30
0.0
  0
VERTEX
  8
LY_1
  6
CONTINUOUS
 62
     3
  5
94F
 10
36.936922
 20
151.624084
 30
0.0
  0
VERTEX
  8
LY_1
  6
CONTINUOUS
 62
     3
  5
950
 10
37.339746
 20
150.90917
 30
0.0
  0
VERTEX
  8
LY_1
  6
CONTINUOUS
 62
     3
  5
951
 10
37.80848
 20
150.229412
 30
0.0
  0
VERTEX
  8
LY_1
  6
CONTINUOUS
 62
     3
  5
952
 10
38.339556
 20
149.589984
 30
0.0
  0
VERTEX
  8
LY_1
  6
CONTINUOUS
 62
     3
  5
953
 10
38.928932
 20
148.995752
 30
0.0
  0
VERTEX
  8
LY_1
  6
CONTINUOUS
 62
     3
  5
954
 10
39.572124
 20
148.451239
 30
0.0
  0
VERTEX
  8
LY_1
  6
CONTINUOUS
 62
     3
  5
955
 10
40.264236
 20
147.960589
 30
0.0
  0
VERTEX
  8
LY_1
  6
CONTINUOUS
 62
     3
  5
956
 10
41.0
 20
147.527536
 30
0.0
  0
VERTEX
  8
LY_1
  6
CONTINUOUS
 62
     3
  5
957
 10
41.773817
 20
147.155375
 30
0.0
  0
VERTEX
  8
LY_1
  6
CONTINUOUS
 62
     3
  5
958
 10
42.579799
 20
146.846939
 30
0.0
  0
VERTEX
  8
LY_1
  6
CONTINUOUS
 62
     3
  5
959
 10
43.41181
 20
146.604576
 30
0.0
  0
VERTEX
  8
LY_1
  6
CONTINUOUS
 62
     3
  5
95A
 10
44.263518
 20
146.43013
 30
0.0
  0
VERTEX
  8
LY_1
  6
CONTINUOUS
 62
     3
  5
95B
 10
45.128443
 20
146.324928
 30
0.0
  0
VERTEX
  8
LY_1
  6
CONTINUOUS
 62
     3
  5
95C
 10
46.0
 20
146.289772
 30
0.0
  0
VERTEX
  8
LY_1
  6
CONTINUOUS
 62
     3
  5
95D
 10
46.871557
 20
146.324928
 30
0.0
  0
VERTEX
  8
LY_1
  6
CONTINUOUS
 62
     3
  5
95E
 10
47.736482
 20
146.43013
 30
0.0
  0
VERTEX
  8
LY_1
  6
CONTINUOUS
 62
     3
  5
95F
 10
48.58819
 20
146.604576
 30
0.0
  0
VERTEX
  8
LY_1
  6
CONTINUOUS
 62
     3
  5
960
 10
49.420201
 20
146.846939
 30
0.0
  0
VERTEX
  8
LY_1
  6
CONTINUOUS
 62
     3
  5
961
 10
50.226183
 20
147.155375
 30
0.0
  0
VERTEX
  8
LY_1
  6
CONTINUOUS
 62
     3
  5
962
 10
51.0
 20
147.527536
 30
0.0
  0
VERTEX
  8
LY_1
  6
CONTINUOUS
 62
     3
  5
963
 10
51.735764
 20
147.960589
 30
0.0
  0
VERTEX
  8
LY_1
  6
CONTINUOUS
 62
     3
  5
964
 10
52.427876
 20
148.451239
 30
0.0
  0
VERTEX
  8
LY_1
  6
CONTINUOUS
 62
     3
  5
965
 10
53.071068
 20
148.995752
 30
0.0
  0
VERTEX
  8
LY_1
  6
CONTINUOUS
 62
     3
  5
966
 10
53.660444
 20
149.589984
 30
0.0
  0
VERTEX
  8
LY_1
  6
CONTINUOUS
 62
     3
  5
967
 10
54.19152
 20
150.229412
 30
0.0
  0
VERTEX
  8
LY_1
  6
CONTINUOUS
 62
     3
  5
968
 10
54.660254
 20
150.90917
 30
0.0
  0
VERTEX
  8
LY_1
  6
CONTINUOUS
 62
     3
  5
969
 10
55.063078
 20
151.624084
 30
0.0
  0
VERTEX
  8
LY_1
  6
CONTINUOUS
 62
     3
  5
96A
 10
55.396926
 20
152.368713
 30
0.0
  0
VERTEX
  8
LY_1
  6
CONTINUOUS
 62
     3
  5
96B
 10
55.659258
 20
153.137391
 30
0.0
  0
VERTEX
  8
LY_1
  6
CONTINUOUS
 62
     3
  5
96C
 10
55.848078
 20
153.924267
 30
0.0
  0
VERTEX
  8
LY_1
  6
CONTINUOUS
 62
     3
  5
96D
 10
55.961947
 20
154.723353
 30
0.0
  0
VERTEX
  8
LY_1
  6
CONTINUOUS
 62
     3
  5
96E
 10
56.0
 20
155.528567
 30
0.0
  0
SEQEND
  8
LY_1
  6
CONTINUOUS
 62
     3
  5
96F
  0
POLYLINE
  8
LY_1
  6
CONTINUOUS
 62
     3
  5
13C
 66
     1
 10
0.0
 20
0.0
 30
0.0
 70
     1
  0
VERTEX
  8
LY_1
  6
CONTINUOUS
 62
     3
  5
970
 10
60.0
 20
155.528567
 30
0.0
  0
VERTEX
  8
LY_1
  6
CONTINUOUS
 62
     3
  5
971
 10
59.946726
 20
156.655867
 30
0.0
  0
VERTEX
  8
LY_1
  6
CONTINUOUS
 62
     3
  5
972
 10
59.787309
 20
157.774587
 30
0.0
  0
VERTEX
  8
LY_1
  6
CONTINUOUS
 62
     3
  5
973
 10
59.522962
 20
158.876214
 30
0.0
  0
VERTEX
  8
LY_1
  6
CONTINUOUS
 62
     3
  5
974
 10
59.155697
 20
159.952363
 30
0.0
  0
VERTEX
  8
LY_1
  6
CONTINUOUS
 62
     3
  5
975
 10
58.688309
 20
160.994844
 30
0.0
  0
VERTEX
  8
LY_1
  6
CONTINUOUS
 62
     3
  5
976
 10
58.124356
 20
161.995724
 30
0.0
  0
VERTEX
  8
LY_1
  6
CONTINUOUS
 62
     3
  5
977
 10
57.468129
 20
162.947385
 30
0.0
  0
VERTEX
  8
LY_1
  6
CONTINUOUS
 62
     3
  5
978
 10
56.724622
 20
163.842584
 30
0.0
  0
VERTEX
  8
LY_1
  6
CONTINUOUS
 62
     3
  5
979
 10
55.899495
 20
164.674508
 30
0.0
  0
VERTEX
  8
LY_1
  6
CONTINUOUS
 62
     3
  5
97A
 10
54.999027
 20
165.436826
 30
0.0
  0
VERTEX
  8
LY_1
  6
CONTINUOUS
 62
     3
  5
97B
 10
54.03007
 20
166.123737
 30
0.0
  0
VERTEX
  8
LY_1
  6
CONTINUOUS
 62
     3
  5
97C
 10
53.0
 20
166.730011
 30
0.0
  0
VERTEX
  8
LY_1
  6
CONTINUOUS
 62
     3
  5
97D
 10
51.916656
 20
167.251036
 30
0.0
  0
VERTEX
  8
LY_1
  6
CONTINUOUS
 62
     3
  5
97E
 10
50.788282
 20
167.682846
 30
0.0
  0
VERTEX
  8
LY_1
  6
CONTINUOUS
 62
     3
  5
97F
 10
49.623467
 20
168.022155
 30
0.0
  0
VERTEX
  8
LY_1
  6
CONTINUOUS
 62
     3
  5
980
 10
48.431074
 20
168.266379
 30
0.0
  0
VERTEX
  8
LY_1
  6
CONTINUOUS
 62
     3
  5
981
 10
47.22018
 20
168.413662
 30
0.0
  0
VERTEX
  8
LY_1
  6
CONTINUOUS
 62
     3
  5
982
 10
46.0
 20
168.462881
 30
0.0
  0
VERTEX
  8
LY_1
  6
CONTINUOUS
 62
     3
  5
983
 10
44.77982
 20
168.413662
 30
0.0
  0
VERTEX
  8
LY_1
  6
CONTINUOUS
 62
     3
  5
984
 10
43.568926
 20
168.266379
 30
0.0
  0
VERTEX
  8
LY_1
  6
CONTINUOUS
 62
     3
  5
985
 10
42.376533
 20
168.022155
 30
0.0
  0
VERTEX
  8
LY_1
  6
CONTINUOUS
 62
     3
  5
986
 10
41.211718
 20
167.682846
 30
0.0
  0
VERTEX
  8
LY_1
  6
CONTINUOUS
 62
     3
  5
987
 10
40.083344
 20
167.251036
 30
0.0
  0
VERTEX
  8
LY_1
  6
CONTINUOUS
 62
     3
  5
988
 10
39.0
 20
166.730011
 30
0.0
  0
VERTEX
  8
LY_1
  6
CONTINUOUS
 62
     3
  5
989
 10
37.96993
 20
166.123737
 30
0.0
  0
VERTEX
  8
LY_1
  6
CONTINUOUS
 62
     3
  5
98A
 10
37.000973
 20
165.436826
 30
0.0
  0
VERTEX
  8
LY_1
  6
CONTINUOUS
 62
     3
  5
98B
 10
36.100505
 20
164.674508
 30
0.0
  0
VERTEX
  8
LY_1
  6
CONTINUOUS
 62
     3
  5
98C
 10
35.275378
 20
163.842584
 30
0.0
  0
VERTEX
  8
LY_1
  6
CONTINUOUS
 62
     3
  5
98D
 10
34.531871
 20
162.947385
 30
0.0
  0
VERTEX
  8
LY_1
  6
CONTINUOUS
 62
     3
  5
98E
 10
33.875644
 20
161.995724
 30
0.0
  0
VERTEX
  8
LY_1
  6
CONTINUOUS
 62
     3
  5
98F
 10
33.311691
 20
160.994844
 30
0.0
  0
VERTEX
  8
LY_1
  6
CONTINUOUS
 62
     3
  5
990
 10
32.844303
 20
159.952363
 30
0.0
  0
VERTEX
  8
LY_1
  6
CONTINUOUS
 62
     3
  5
991
 10
32.477038
 20
158.876214
 30
0.0
  0
VERTEX
  8
LY_1
  6
CONTINUOUS
 62
     3
  5
992
 10
32.212691
 20
157.774587
 30
0.0
  0
VERTEX
  8
LY_1
  6
CONTINUOUS
 62
     3
  5
993
 10
32.053274
 20
156.655867
 30
0.0
  0
VERTEX
  8
LY_1
  6
CONTINUOUS
 62
     3
  5
994
 10
32.0
 20
155.528567
 30
0.0
  0
VERTEX
  8
LY_1
  6
CONTINUOUS
 62
     3
  5
995
 10
32.053274
 20
154.401268
 30
0.0
  0
VERTEX
  8
LY_1
  6
CONTINUOUS
 62
     3
  5
996
 10
32.212691
 20
153.282547
 30
0.0
  0
VERTEX
  8
LY_1
  6
CONTINUOUS
 62
     3
  5
997
 10
32.477038
 20
152.180921
 30
0.0
  0
VERTEX
  8
LY_1
  6
CONTINUOUS
 62
     3
  5
998
 10
32.844303
 20
151.104772
 30
0.0
  0
VERTEX
  8
LY_1
  6
CONTINUOUS
 62
     3
  5
999
 10
33.311691
 20
150.06229
 30
0.0
  0
VERTEX
  8
LY_1
  6
CONTINUOUS
 62
     3
  5
99A
 10
33.875644
 20
149.061411
 30
0.0
  0
VERTEX
  8
LY_1
  6
CONTINUOUS
 62
     3
  5
99B
 10
34.531871
 20
148.10975
 30
0.0
  0
VERTEX
  8
LY_1
  6
CONTINUOUS
 62
     3
  5
99C
 10
35.275378
 20
147.214551
 30
0.0
  0
VERTEX
  8
LY_1
  6
CONTINUOUS
 62
     3
  5
99D
 10
36.100505
 20
146.382627
 30
0.0
  0
VERTEX
  8
LY_1
  6
CONTINUOUS
 62
     3
  5
99E
 10
37.000973
 20
145.620308
 30
0.0
  0
VERTEX
  8
LY_1
  6
CONTINUOUS
 62
     3
  5
99F
 10
37.96993
 20
144.933398
 30
0.0
  0
VERTEX
  8
LY_1
  6
CONTINUOUS
 62
     3
  5
9A0
 10
39.0
 20
144.327123
 30
0.0
  0
VERTEX
  8
LY_1
  6
CONTINUOUS
 62
     3
  5
9A1
 10
40.083344
 20
143.806098
 30
0.0
  0
VERTEX
  8
LY_1
  6
CONTINUOUS
 62
     3
  5
9A2
 10
41.211718
 20
143.374288
 30
0.0
  0
VERTEX
  8
LY_1
  6
CONTINUOUS
 62
     3
  5
9A3
 10
42.376533
 20
143.03498
 30
0.0
  0
VERTEX
  8
LY_1
  6
CONTINUOUS
 62
     3
  5
9A4
 10
43.568926
 20
142.790755
 30
0.0
  0
VERTEX
  8
LY_1
  6
CONTINUOUS
 62
     3
  5
9A5
 10
44.77982
 20
142.643473
 30
0.0
  0
VERTEX
  8
LY_1
  6
CONTINUOUS
 62
     3
  5
9A6
 10
46.0
 20
142.594254
 30
0.0
  0
VERTEX
  8
LY_1
  6
CONTINUOUS
 62
     3
  5
9A7
 10
47.22018
 20
142.643473
 30
0.0
  0
VERTEX
  8
LY_1
  6
CONTINUOUS
 62
     3
  5
9A8
 10
48.431074
 20
142.790755
 30
0.0
  0
VERTEX
  8
LY_1
  6
CONTINUOUS
 62
     3
  5
9A9
 10
49.623467
 20
143.03498
 30
0.0
  0
VERTEX
  8
LY_1
  6
CONTINUOUS
 62
     3
  5
9AA
 10
50.788282
 20
143.374288
 30
0.0
  0
VERTEX
  8
LY_1
  6
CONTINUOUS
 62
     3
  5
9AB
 10
51.916656
 20
143.806098
 30
0.0
  0
VERTEX
  8
LY_1
  6
CONTINUOUS
 62
     3
  5
9AC
 10
53.0
 20
144.327123
 30
0.0
  0
VERTEX
  8
LY_1
  6
CONTINUOUS
 62
     3
  5
9AD
 10
54.03007
 20
144.933398
 30
0.0
  0
VERTEX
  8
LY_1
  6
CONTINUOUS
 62
     3
  5
9AE
 10
54.999027
 20
145.620308
 30
0.0
  0
VERTEX
  8
LY_1
  6
CONTINUOUS
 62
     3
  5
9AF
 10
55.899495
 20
146.382627
 30
0.0
  0
VERTEX
  8
LY_1
  6
CONTINUOUS
 62
     3
  5
9B0
 10
56.724622
 20
147.214551
 30
0.0
  0
VERTEX
  8
LY_1
  6
CONTINUOUS
 62
     3
  5
9B1
 10
57.468129
 20
148.10975
 30
0.0
  0
VERTEX
  8
LY_1
  6
CONTINUOUS
 62
     3
  5
9B2
 10
58.124356
 20
149.061411
 30
0.0
  0
VERTEX
  8
LY_1
  6
CONTINUOUS
 62
     3
  5
9B3
 10
58.688309
 20
150.06229
 30
0.0
  0
VERTEX
  8
LY_1
  6
CONTINUOUS
 62
     3
  5
9B4
 10
59.155697
 20
151.104772
 30
0.0
  0
VERTEX
  8
LY_1
  6
CONTINUOUS
 62
     3
  5
9B5
 10
59.522962
 20
152.180921
 30
0.0
  0
VERTEX
  8
LY_1
  6
CONTINUOUS
 62
     3
  5
9B6
 10
59.787309
 20
153.282547
 30
0.0
  0
VERTEX
  8
LY_1
  6
CONTINUOUS
 62
     3
  5
9B7
 10
59.946726
 20
154.401268
 30
0.0
  0
VERTEX
  8
LY_1
  6
CONTINUOUS
 62
     3
  5
9B8
 10
60.0
 20
155.528567
 30
0.0
  0
SEQEND
  8
LY_1
  6
CONTINUOUS
 62
     3
  5
9B9
  0
LINE
  8
LY_1
  6
CONTINUOUS
 62
     3
  5
13D
 10
-27.0
 20
70.0
 30
0.0
 11
-10.0
 21
70.0
 31
0.0
  0
LINE
  8
LY_1
  6
CONTINUOUS
 62
     3
  5
13E
 10
-27.0
 20
170.0
 30
0.0
 11
40.768874
 21
170.0
 31
0.0
  0
ARC
  8
LY_1
  6
CONTINUOUS
 62
     3
  5
13F
 10
-29.0
 20
66.2807
 30
0.0
 40
2.0
 50
270.0
 51
0.0
  0
LINE
  8
LY_1
  6
CONTINUOUS
 62
     3
  5
140
 10
-27.0
 20
173.7193
 30
0.0
 11
-27.0
 21
166.730011
 31
0.0
  0
ARC
  8
LY_1
  6
CONTINUOUS
 62
     3
  5
141
 10
-29.0
 20
173.7193
 30
0.0
 40
2.0
 50
0.0
 51
90.0
  0
ARC
  8
LY_1
  6
CONTINUOUS
 62
     3
  5
142
 10
-53.0
 20
66.2807
 30
0.0
 40
2.0
 50
180.0
 51
270.0
  0
LINE
  8
LY_1
  6
CONTINUOUS
 62
     3
  5
143
 10
-29.0
 20
64.2807
 30
0.0
 11
-53.0
 21
64.2807
 31
0.0
  0
ARC
  8
LY_1
  6
CONTINUOUS
 62
     3
  5
144
 10
-53.0
 20
173.7193
 30
0.0
 40
2.0
 50
90.0
 51
180.0
  0
LINE
  8
LY_1
  6
CONTINUOUS
 62
     3
  5
145
 10
-29.0
 20
175.7193
 30
0.0
 11
-53.0
 21
175.7193
 31
0.0
  0
ARC
  8
LY_1
  6
CONTINUOUS
 62
     3
  5
146
 10
-99.0
 20
166.0
 30
0.0
 40
2.0
 50
90.0
 51
180.0
  0
ARC
  8
LY_1
  6
CONTINUOUS
 62
     3
  5
147
 10
-99.0
 20
74.0
 30
0.0
 40
2.0
 50
180.0
 51
270.0
  0
LINE
  8
LY_1
  6
CONTINUOUS
 62
     3
  5
148
 10
-55.0
 20
173.7193
 30
0.0
 11
-55.0
 21
66.2807
 31
0.0
  0
LINE
  8
LY_1
  6
CONTINUOUS
 62
     3
  5
149
 10
-55.0
 20
72.0
 30
0.0
 11
-99.0
 21
72.0
 31
0.0
  0
LINE
  8
LY_1
  6
CONTINUOUS
 62
     3
  5
14A
 10
-55.0
 20
168.0
 30
0.0
 11
-99.0
 21
168.0
 31
0.0
  0
ARC
  8
LY_1
  6
CONTINUOUS
 62
     3
  5
14B
 10
-18.666667
 20
120.0
 30
0.0
 40
88.333333
 50
158.760689
 51
201.239311
  0
LINE
  8
LY_1
  6
CONTINUOUS
 62
     3
  5
14C
 10
-101.0
 20
166.0
 30
0.0
 11
-101.0
 21
74.0
 31
0.0
  0
ARC
  8
LY_1
  6
CONTINUOUS
 62
     3
  5
14D
 10
-258.654682
 20
132.649111
 30
0.0
 40
4.0
 50
64.623066
 51
244.623066
  0
ARC
  8
LY_1
  6
CONTINUOUS
 62
     3
  5
14E
 10
-264.654682
 20
120.0
 30
0.0
 40
10.0
 50
355.376934
 51
64.623066
  0
ARC
  8
LY_1
  6
CONTINUOUS
 62
     3
  5
14F
 10
-250.700231
 20
118.871597
 30
0.0
 40
4.0
 50
175.376934
 51
355.376934
  0
ARC
  8
LY_1
  6
CONTINUOUS
 62
     3
  5
150
 10
-264.654682
 20
120.0
 30
0.0
 40
18.0
 50
355.376934
 51
64.623066
  0
ARC
  8
LY_1
  6
CONTINUOUS
 62
     3
  5
151
 10
-256.700231
 20
108.479292
 30
0.0
 40
4.0
 50
304.623066
 51
124.623066
  0
ARC
  8
LY_1
  6
CONTINUOUS
 62
     3
  5
152
 10
-264.654682
 20
120.0
 30
0.0
 40
10.0
 50
235.376934
 51
304.623066
  0
ARC
  8
LY_1
  6
CONTINUOUS
 62
     3
  5
153
 10
-272.609133
 20
108.479292
 30
0.0
 40
4.0
 50
55.376934
 51
235.376934
  0
ARC
  8
LY_1
  6
CONTINUOUS
 62
     3
  5
154
 10
-264.654682
 20
120.0
 30
0.0
 40
18.0
 50
235.376934
 51
304.623066
  0
ARC
  8
LY_1
  6
CONTINUOUS
 62
     3
  5
155
 10
-278.609133
 20
118.871597
 30
0.0
 40
4.0
 50
184.623066
 51
4.623066
  0
ARC
  8
LY_1
  6
CONTINUOUS
 62
     3
  5
156
 10
-270.654682
 20
132.649111
 30
0.0
 40
4.0
 50
295.376934
 51
115.376934
  0
ARC
  8
LY_1
  6
CONTINUOUS
 62
     3
  5
157
 10
-245.59047
 20
141.520184
 30
0.0
 40
3.75
 50
48.463041
 51
228.463041
  0
ARC
  8
LY_1
  6
CONTINUOUS
 62
     3
  5
158
 10
-264.654682
 20
120.0
 30
0.0
 40
25.0
 50
11.536959
 51
48.463041
  0
ARC
  8
LY_1
  6
CONTINUOUS
 62
     3
  5
159
 10
-264.654682
 20
120.0
 30
0.0
 40
32.5
 50
11.536959
 51
48.463041
  0
ARC
  8
LY_1
  6
CONTINUOUS
 62
     3
  5
15A
 10
-236.48555
 20
125.75
 30
0.0
 40
3.75
 50
191.536959
 51
11.536959
  0
ARC
  8
LY_1
  6
CONTINUOUS
 62
     3
  5
15B
 10
-236.48555
 20
114.25
 30
0.0
 40
3.75
 50
348.463041
 51
168.463041
  0
ARC
  8
LY_1
  6
CONTINUOUS
 62
     3
  5
15C
 10
-264.654682
 20
120.0
 30
0.0
 40
25.0
 50
311.536959
 51
348.463041
  0
ARC
  8
LY_1
  6
CONTINUOUS
 62
     3
  5
15D
 10
-264.654682
 20
120.0
 30
0.0
 40
32.5
 50
311.536959
 51
348.463041
  0
ARC
  8
LY_1
  6
CONTINUOUS
 62
     3
  5
15E
 10
-245.59047
 20
98.479816
 30
0.0
 40
3.75
 50
131.536959
 51
311.536959
  0
ARC
  8
LY_1
  6
CONTINUOUS
 62
     3
  5
15F
 10
-255.549762
 20
92.729816
 30
0.0
 40
3.75
 50
288.463041
 51
108.463041
  0
ARC
  8
LY_1
  6
CONTINUOUS
 62
     3
  5
160
 10
-264.654682
 20
120.0
 30
0.0
 40
25.0
 50
251.536959
 51
288.463041
  0
ARC
  8
LY_1
  6
CONTINUOUS
 62
     3
  5
161
 10
-264.654682
 20
120.0
 30
0.0
 40
32.5
 50
251.536959
 51
288.463041
  0
ARC
  8
LY_1
  6
CONTINUOUS
 62
     3
  5
162
 10
-273.759602
 20
92.729816
 30
0.0
 40
3.75
 50
71.536959
 51
251.536959
  0
ARC
  8
LY_1
  6
CONTINUOUS
 62
     3
  5
163
 10
-283.718894
 20
98.479816
 30
0.0
 40
3.75
 50
228.463041
 51
48.463041
  0
ARC
  8
LY_1
  6
CONTINUOUS
 62
     3
  5
164
 10
-264.654682
 20
120.0
 30
0.0
 40
25.0
 50
191.536959
 51
228.463041
  0
ARC
  8
LY_1
  6
CONTINUOUS
 62
     3
  5
165
 10
-264.654682
 20
120.0
 30
0.0
 40
32.5
 50
191.536959
 51
228.463041
  0
ARC
  8
LY_1
  6
CONTINUOUS
 62
     3
  5
166
 10
-292.823814
 20
114.25
 30
0.0
 40
3.75
 50
11.536959
 51
191.536959
  0
ARC
  8
LY_1
  6
CONTINUOUS
 62
     3
  5
167
 10
-292.823814
 20
125.75
 30
0.0
 40
3.75
 50
168.463041
 51
348.463041
  0
ARC
  8
LY_1
  6
CONTINUOUS
 62
     3
  5
168
 10
-264.654682
 20
120.0
 30
0.0
 40
25.0
 50
131.536959
 51
168.463041
  0
ARC
  8
LY_1
  6
CONTINUOUS
 62
     3
  5
169
 10
-264.654682
 20
120.0
 30
0.0
 40
32.5
 50
131.536959
 51
168.463041
  0
ARC
  8
LY_1
  6
CONTINUOUS
 62
     3
  5
16A
 10
-283.718894
 20
141.520184
 30
0.0
 40
3.75
 50
311.536959
 51
131.536959
  0
ARC
  8
LY_1
  6
CONTINUOUS
 62
     3
  5
16B
 10
-264.654682
 20
120.0
 30
0.0
 40
32.5
 50
71.536959
 51
108.463041
  0
ARC
  8
LY_1
  6
CONTINUOUS
 62
     3
  5
16C
 10
-273.759602
 20
147.270184
 30
0.0
 40
3.75
 50
108.463041
 51
288.463041
  0
ARC
  8
LY_1
  6
CONTINUOUS
 62
     3
  5
16D
 10
-255.549762
 20
147.270184
 30
0.0
 40
3.75
 50
251.536959
 51
71.536959
  0
ARC
  8
LY_1
  6
CONTINUOUS
 62
     3
  5
16E
 10
-264.654682
 20
120.0
 30
0.0
 40
25.0
 50
71.536959
 51
108.463041
  0
CIRCLE
  8
LY_1
  6
CONTINUOUS
 62
     3
  5
16F
 10
-264.654682
 20
120.0
 30
0.0
 40
6.0
  0
ARC
  8
LY_1
  6
CONTINUOUS
 62
     3
  5
170
 10
-264.654682
 20
120.0
 30
0.0
 40
10.0
 50
115.376934
 51
184.623066
  0
ARC
  8
LY_1
  6
CONTINUOUS
 62
     3
  5
171
 10
-264.654682
 20
120.0
 30
0.0
 40
18.0
 50
115.376934
 51
184.623066
  0
LINE
  8
LY_1
  6
DASHED
 62
    80
  5
172
 10
-305.154682
 20
0.0
 30
0.0
 11
-305.154682
 21
10.0
 31
0.0
  0
LINE
  8
LY_1
  6
DASHED
 62
    80
  5
173
 10
-314.154682
 20
0.0
 30
0.0
 11
-314.154682
 21
10.0
 31
0.0
  0
LINE
  8
LY_1
  6
DASHED
 62
    80
  5
174
 10
-224.154682
 20
0.0
 30
0.0
 11
-224.154682
 21
10.0
 31
0.0
  0
LINE
  8
LY_1
  6
DASHED
 62
    80
  5
175
 10
-215.154682
 20
0.0
 30
0.0
 11
-215.154682
 21
10.0
 31
0.0
  0
ARC
  8
LY_1
  6
CONTINUOUS
 62
     3
  5
176
 10
-232.21527
 20
13.0
 30
0.0
 40
3.0
 50
191.768289
 51
270.0
  0
LINE
  8
LY_1
  6
CONTINUOUS
 62
     3
  5
177
 10
-244.654682
 20
58.0
 30
0.0
 11
-235.152211
 21
12.388137
 31
0.0
  0
ARC
  8
LY_1
  6
CONTINUOUS
 62
     3
  5
178
 10
-297.094095
 20
13.0
 30
0.0
 40
3.0
 50
270.0
 51
348.231711
  0
LINE
  8
LY_1
  6
CONTINUOUS
 62
     3
  5
179
 10
-284.654682
 20
58.0
 30
0.0
 11
-294.157154
 21
12.388137
 31
0.0
  0
LINE
  8
LY_1
  6
CONTINUOUS
 62
     3
  5
17A
 10
-284.654682
 20
58.0
 30
0.0
 11
-284.654682
 21
68.765246
 31
0.0
  0
LINE
  8
LY_1
  6
CONTINUOUS
 62
     3
  5
17B
 10
-244.654682
 20
58.0
 30
0.0
 11
-244.654682
 21
68.765246
 31
0.0
  0
LINE
  8
LY_1
  6
CONTINUOUS
 62
     3
  5
17C
 10
-244.654682
 20
58.0
 30
0.0
 11
-284.654682
 21
58.0
 31
0.0
  0
ARC
  8
LY_1
  6
CONTINUOUS
 62
     3
  5
17D
 10
-317.654682
 20
8.0
 30
0.0
 40
2.0
 50
90.0
 51
180.0
  0
ARC
  8
LY_1
  6
CONTINUOUS
 62
     3
  5
17E
 10
-211.654682
 20
8.0
 30
0.0
 40
2.0
 50
0.0
 51
90.0
  0
LINE
  8
LY_1
  6
CONTINUOUS
 62
     3
  5
17F
 10
-211.654682
 20
10.0
 30
0.0
 11
-317.654682
 21
10.0
 31
0.0
  0
LINE
  8
LY_1
  6
CONTINUOUS
 62
     3
  5
180
 10
-319.654682
 20
0.0
 30
0.0
 11
-319.654682
 21
8.0
 31
0.0
  0
LINE
  8
LY_1
  6
CONTINUOUS
 62
     3
  5
181
 10
-209.654682
 20
0.0
 30
0.0
 11
-209.654682
 21
8.0
 31
0.0
  0
LINE
  8
LY_1
  6
CONTINUOUS
 62
     3
  5
182
 10
-209.654682
 20
0.0
 30
0.0
 11
-319.654682
 21
0.0
 31
0.0
  0
ARC
  8
LY_1
  6
DASHED
 62
    80
  5
183
 10
-193.654682
 20
24.058611
 30
0.0
 40
10.0
 50
60.0
 51
120.0
  0
ARC
  8
LY_1
  6
DASHED
 62
    80
  5
184
 10
-193.654682
 20
41.379119
 30
0.0
 40
10.0
 50
240.0
 51
300.0
  0
ARC
  8
LY_1
  6
DASHED
 62
    80
  5
185
 10
-183.654682
 20
41.379119
 30
0.0
 40
10.0
 50
240.0
 51
300.0
  0
LINE
  8
LY_1
  6
DASHED
 62
    80
  5
186
 10
-198.654682
 20
64.0
 30
0.0
 11
-198.654682
 21
32.718865
 31
0.0
  0
LINE
  8
LY_1
  6
DASHED
 62
    80
  5
187
 10
-178.654682
 20
64.0
 30
0.0
 11
-178.654682
 21
32.718865
 31
0.0
  0
ARC
  8
LY_1
  6
CONTINUOUS
 62
     3
  5
188
 10
-205.654682
 20
79.0
 30
0.0
 40
2.0
 50
0.0
 51
90.0
  0
ARC
  8
LY_1
  6
CONTINUOUS
 62
     3
  5
189
 10
-171.654682
 20
79.0
 30
0.0
 40
2.0
 50
90.0
 51
180.0
  0
ARC
  8
LY_1
  6
CONTINUOUS
 62
     3
  5
18A
 10
-198.654682
 20
69.0
 30
0.0
 40
5.0
 50
180.0
 51
270.0
  0
ARC
  8
LY_1
  6
CONTINUOUS
 62
     3
  5
18B
 10
-178.654682
 20
69.0
 30
0.0
 40
5.0
 50
270.0
 51
0.0
  0
LINE
  8
LY_1
  6
CONTINUOUS
 62
     3
  5
18C
 10
-178.654682
 20
64.0
 30
0.0
 11
-198.654682
 21
64.0
 31
0.0
  0
LINE
  8
LY_1
  6
CONTINUOUS
 62
     3
  5
18D
 10
-173.654682
 20
69.0
 30
0.0
 11
-173.654682
 21
79.0
 31
0.0
  0
LINE
  8
LY_1
  6
CONTINUOUS
 62
     3
  5
18E
 10
-203.654682
 20
69.0
 30
0.0
 11
-203.654682
 21
79.0
 31
0.0
  0
ARC
  8
LY_1
  6
CONTINUOUS
 62
     3
  5
18F
 10
-162.086206
 20
77.97708
 30
0.0
 40
2.0
 50
202.5
 51
292.5
  0
ARC
  8
LY_1
  6
CONTINUOUS
 62
     3
  5
190
 10
-194.996981
 20
157.430719
 30
0.0
 40
2.0
 50
112.5
 51
202.5
  0
LINE
  8
LY_1
  6
CONTINUOUS
 62
     3
  5
191
 10
-165.503125
 20
81.0
 30
0.0
 11
-209.202014
 21
81.0
 31
0.0
  0
LINE
  8
LY_1
  6
CONTINUOUS
 62
     3
  5
192
 10
-196.434654
 20
159.0
 30
0.0
 11
-209.202014
 21
159.0
 31
0.0
  0
ARC
  8
LY_1
  6
CONTINUOUS
 62
     3
  5
193
 10
-151.579309
 20
99.647454
 30
0.0
 40
4.0
 50
202.5
 51
292.5
  0
ARC
  8
LY_1
  6
CONTINUOUS
 62
     3
  5
194
 10
-172.244215
 20
149.536949
 30
0.0
 40
4.0
 50
112.5
 51
202.5
  0
ARC
  8
LY_1
  6
CONTINUOUS
 62
     3
  5
195
 10
-152.027651
 20
105.956098
 30
0.0
 40
4.0
 50
22.5
 51
112.5
  0
ARC
  8
LY_1
  6
CONTINUOUS
 62
     3
  5
196
 10
-168.100355
 20
144.759038
 30
0.0
 40
4.0
 50
292.5
 51
22.5
  0
LINE
  8
LY_1
  6
CONTINUOUS
 62
     3
  5
197
 10
-164.404837
 20
146.289772
 30
0.0
 11
-172.058506
 21
164.767363
 31
0.0
  0
LINE
  8
LY_1
  6
CONTINUOUS
 62
     3
  5
198
 10
-163.933965
 20
77.211713
 30
0.0
 11
-196.84474
 21
156.665352
 31
0.0
  0
LINE
  8
LY_1
  6
CONTINUOUS
 62
     3
  5
199
 10
-155.274828
 20
98.11672
 30
0.0
 11
-175.939733
 21
148.006215
 31
0.0
  0
ARC
  8
LY_1
  6
CONTINUOUS
 62
     3
  5
19A
 10
-175.754024
 20
163.236629
 30
0.0
 40
4.0
 50
22.5
 51
112.5
  0
ARC
  8
LY_1
  6
CONTINUOUS
 62
     3
  5
19B
 10
-144.373982
 20
87.478507
 30
0.0
 40
4.0
 50
292.5
 51
22.5
  0
LINE
  8
LY_1
  6
CONTINUOUS
 62
     3
  5
19C
 10
-172.112899
 20
138.76742
 30
0.0
 11
-166.569621
 21
141.06352
 31
0.0
  0
LINE
  8
LY_1
  6
CONTINUOUS
 62
     3
  5
19D
 10
-159.101662
 20
107.355515
 30
0.0
 11
-153.558385
 21
109.651616
 31
0.0
  0
LINE
  8
LY_1
  6
CONTINUOUS
 62
     3
  5
19E
 10
-195.762348
 20
159.278478
 30
0.0
 11
-177.284757
 21
166.932147
 31
0.0
  0
LINE
  8
LY_1
  6
CONTINUOUS
 62
     3
  5
19F
 10
-161.320839
 20
76.12932
 30
0.0
 11
-142.843249
 21
83.782989
 31
0.0
  0
LINE
  8
LY_1
  6
CONTINUOUS
 62
     3
  5
1A0
 10
-140.678464
 20
89.009241
 30
0.0
 11
-148.332133
 21
107.486832
 31
0.0
  0
LINE
  8
LY_1
  6
CONTINUOUS
 62
     3
  5
1A1
 10
-155.777562
 20
78.425421
 30
0.0
 11
-190.219071
 21
161.574579
 31
0.0
  0
ARC
  8
LY_1
  6
CONTINUOUS
 62
     3
  5
1A2
 10
-264.654682
 20
120.0
 30
0.0
 40
55.0
 50
333.349739
 51
26.650261
  0
ARC
  8
LY_1
  6
CONTINUOUS
 62
     3
  5
1A3
 10
-264.654682
 20
120.0
 30
0.0
 40
55.0
 50
243.349739
 51
296.650261
  0
ARC
  8
LY_1
  6
CONTINUOUS
 62
     3
  5
1A4
 10
-264.654682
 20
120.0
 30
0.0
 40
55.0
 50
153.349739
 51
206.650261
  0
ARC
  8
LY_1
  6
CONTINUOUS
 62
     3
  5
1A5
 10
-211.029016
 20
93.087402
 30
0.0
 40
5.0
 50
153.349739
 51
231.196541
  0
ARC
  8
LY_1
  6
CONTINUOUS
 62
     3
  5
1A6
 10
-217.201567
 20
96.394876
 30
0.0
 40
5.0
 50
153.552365
 51
252.435471
  0
ARC
  8
LY_1
  6
CONTINUOUS
 62
     3
  5
1A7
 10
-237.742085
 20
66.374334
 30
0.0
 40
5.0
 50
38.803459
 51
116.650261
  0
ARC
  8
LY_1
  6
CONTINUOUS
 62
     3
  5
1A8
 10
-241.049558
 20
72.546885
 30
0.0
 40
5.0
 50
17.564529
 51
116.447635
  0
ARC
  8
LY_1
  6
CONTINUOUS
 62
     3
  5
1A9
 10
-222.935382
 20
78.2807
 30
0.0
 40
14.0
 50
197.564529
 51
72.435471
  0
CIRCLE
  8
LY_1
  6
CONTINUOUS
 62
     3
  5
1AA
 10
-222.935382
 20
78.2807
 30
0.0
 40
11.0
  0
ARC
  8
LY_1
  6
CONTINUOUS
 62
     3
  5
1AB
 10
-291.56728
 20
66.374334
 30
0.0
 40
5.0
 50
63.349739
 51
141.196541
  0
ARC
  8
LY_1
  6
CONTINUOUS
 62
     3
  5
1AC
 10
-288.259806
 20
72.546885
 30
0.0
 40
5.0
 50
63.552365
 51
162.435471
  0
ARC
  8
LY_1
  6
CONTINUOUS
 62
     3
  5
1AD
 10
-318.280349
 20
93.087402
 30
0.0
 40
5.0
 50
308.803459
 51
26.650261
  0
ARC
  8
LY_1
  6
CONTINUOUS
 62
     3
  5
1AE
 10
-312.107797
 20
96.394876
 30
0.0
 40
5.0
 50
287.564529
 51
26.447635
  0
ARC
  8
LY_1
  6
CONTINUOUS
 62
     3
  5
1AF
 10
-306.373982
 20
78.2807
 30
0.0
 40
14.0
 50
107.564529
 51
342.435471
  0
CIRCLE
  8
LY_1
  6
CONTINUOUS
 62
     3
  5
1B0
 10
-306.373982
 20
78.2807
 30
0.0
 40
11.0
  0
ARC
  8
LY_1
  6
CONTINUOUS
 62
     3
  5
1B1
 10
-318.280349
 20
146.912598
 30
0.0
 40
5.0
 50
333.349739
 51
51.196541
  0
ARC
  8
LY_1
  6
CONTINUOUS
 62
     3
  5
1B2
 10
-312.107797
 20
143.605124
 30
0.0
 40
5.0
 50
333.552365
 51
72.435471
  0
ARC
  8
LY_1
  6
CONTINUOUS
 62
     3
  5
1B3
 10
-291.56728
 20
173.625666
 30
0.0
 40
5.0
 50
218.803459
 51
296.650261
  0
ARC
  8
LY_1
  6
CONTINUOUS
 62
     3
  5
1B4
 10
-288.259806
 20
167.453115
 30
0.0
 40
5.0
 50
197.564529
 51
296.447635
  0
ARC
  8
LY_1
  6
CONTINUOUS
 62
     3
  5
1B5
 10
-306.373982
 20
161.7193
 30
0.0
 40
14.0
 50
17.564529
 51
252.435471
  0
CIRCLE
  8
LY_1
  6
CONTINUOUS
 62
     3
  5
1B6
 10
-306.373982
 20
161.7193
 30
0.0
 40
11.0
  0
ARC
  8
LY_1
  6
CONTINUOUS
 62
     3
  5
1B7
 10
-237.742085
 20
173.625666
 30
0.0
 40
5.0
 50
243.349739
 51
321.196541
  0
ARC
  8
LY_1
  6
CONTINUOUS
 62
     3
  5
1B8
 10
-211.029016
 20
146.912598
 30
0.0
 40
5.0
 50
128.803459
 51
206.650261
  0
ARC
  8
LY_1
  6
CONTINUOUS
 62
     3
  5
1B9
 10
-241.049558
 20
167.453115
 30
0.0
 40
5.0
 50
243.552365
 51
342.435471
  0
ARC
  8
LY_1
  6
CONTINUOUS
 62
     3
  5
1BA
 10
-217.201567
 20
143.605124
 30
0.0
 40
5.0
 50
107.564529
 51
206.447635
  0
ARC
  8
LY_1
  6
CONTINUOUS
 62
     3
  5
1BB
 10
-222.935382
 20
161.7193
 30
0.0
 40
14.0
 50
287.564529
 51
162.435471
  0
CIRCLE
  8
LY_1
  6
CONTINUOUS
 62
     3
  5
1BC
 10
-222.935382
 20
161.7193
 30
0.0
 40
11.0
  0
CIRCLE
  8
LY_1
  6
CONTINUOUS
 62
     3
  5
1BD
 10
-264.654682
 20
120.0
 30
0.0
 40
48.0
  0
ARC
  8
LY_1
  6
CONTINUOUS
 62
     3
  5
1BE
 10
-264.654682
 20
120.0
 30
0.0
 40
55.0
 50
63.349739
 51
116.650261
  0
ENDSEC
  0
EOF
