  0
SECTION
  2
HEADER
  9
$ACADVER
  1
AC1009
  9
$DWGCODEPAGE
  3
dos932
  9
$INSBASE
 10
0.0
 20
0.0
 30
0.0
  9
$EXTMIN
 10
-239.634518
 20
0.0
 30
0.0
  9
$EXTMAX
 10
93.591404
 20
316.086551
 30
0.0
  9
$LIMMIN
 10
-239.634518
 20
0.0
  9
$LIMMAX
 10
93.591404
 20
316.086551
  9
$ORTHOMODE
 70
     0
  9
$REGENMODE
 70
     1
  9
$FILLMODE
 70
     1
  9
$QTEXTMODE
 70
     0
  9
$MIRRTEXT
 70
     1
  9
$DRAGMODE
 70
     2
  9
$LTSCALE
 40
1.0
  9
$OSMODE
 70
     0
  9
$ATTMODE
 70
     1
  9
$TEXTSIZE
 40
4.1656
  9
$TRACEWID
 40
0.05
  9
$TEXTSTYLE
  7
MX_NOTE_STANDARD
  9
$CLAYER
  8
LY_1
  9
$CELTYPE
  6
CONTINUOUS
  9
$CECOLOR
 62
   256
  9
$DIMSCALE
 40
1.0
  9
$DIMASZ
 40
2.5
  9
$DIMEXO
 40
0.5
  9
$DIMDLI
 40
3.75
  9
$DIMRND
 40
0.0
  9
$DIMDLE
 40
0.0
  9
$DIMEXE
 40
1.0
  9
$DIMTP
 40
0.0
  9
$DIMTM
 40
0.0
  9
$DIMTXT
 40
2.5
  9
$DIMCEN
 40
2.5
  9
$DIMTSZ
 40
0.0
  9
$DIMTOL
 70
     0
  9
$DIMLIM
 70
     0
  9
$DIMTIH
 70
     0
  9
$DIMTOH
 70
     0
  9
$DIMSE1
 70
     0
  9
$DIMSE2
 70
     0
  9
$DIMTAD
 70
     1
  9
$DIMZIN
 70
     8
  9
$DIMBLK
  1

  9
$DIMASO
 70
     1
  9
$DIMSHO
 70
     1
  9
$DIMPOST
  1

  9
$DIMAPOST
  1

  9
$DIMALT
 70
     0
  9
$DIMALTD
 70
     4
  9
$DIMALTF
 40
0.03937
  9
$DIMLFAC
 40
1.0
  9
$DIMTOFL
 70
     1
  9
$DIMTVP
 40
0.0
  9
$DIMTIX
 70
     0
  9
$DIMSOXD
 70
     0
  9
$DIMSAH
 70
     0
  9
$DIMBLK1
  1

  9
$DIMBLK2
  1

  9
$DIMSTYLE
  2
MXDIMSTYLE
  9
$DIMCLRD
 70
     0
  9
$DIMCLRE
 70
     0
  9
$DIMCLRT
 70
     0
  9
$DIMTFAC
 40
1.0
  9
$DIMGAP
 40
1.0
  9
$LUNITS
 70
     2
  9
$LUPREC
 70
     4
  9
$AXISMODE
 70
     0
  9
$AXISUNIT
 10
0.0
 20
0.0
  9
$SKETCHINC
 40
0.1
  9
$FILLETRAD
 40
0.0
  9
$AUNITS
 70
     0
  9
$AUPREC
 70
     0
  9
$MENU
  1
acad
  9
$ELEVATION
 40
0.0
  9
$PELEVATION
 40
0.0
  9
$THICKNESS
 40
0.0
  9
$LIMCHECK
 70
     0
  9
$BLIPMODE
 70
     1
  9
$CHAMFERA
 40
0.0
  9
$CHAMFERB
 40
0.0
  9
$SKPOLY
 70
     0
  9
$TDCREATE
 40
2453885.424502315
  9
$TDUPDATE
 40
2453885.424502315
  9
$TDINDWG
 40
0.0000000000
  9
$TDUSRTIMER
 40
0.0000000000
  9
$USRTIMER
 70
     1
  9
$ANGBASE
 50
0.0
  9
$ANGDIR
 70
     0
  9
$PDMODE
 70
     0
  9
$PDSIZE
 40
0.0
  9
$PLINEWID
 40
0.0
  9
$COORDS
 70
     1
  9
$SPLFRAME
 70
     0
  9
$SPLINETYPE
 70
     6
  9
$SPLINESEGS
 70
     8
  9
$ATTDIA
 70
     0
  9
$ATTREQ
 70
     1
  9
$HANDLING
 70
     1
  9
$HANDSEED
  5
2F5
  9
$SURFTAB1
 70
     6
  9
$SURFTAB2
 70
     6
  9
$SURFTYPE
 70
     6
  9
$SURFU
 70
     6
  9
$SURFV
 70
     6
  9
$UCSNAME
  2

  9
$UCSORG
 10
0.0
 20
0.0
 30
0.0
  9
$UCSXDIR
 10
1.0
 20
0.0
 30
0.0
  9
$UCSYDIR
 10
0.0
 20
1.0
 30
0.0
  9
$PUCSNAME
  2

  9
$PUCSORG
 10
0.0
 20
0.0
 30
0.0
  9
$PUCSXDIR
 10
1.0
 20
0.0
 30
0.0
  9
$PUCSYDIR
 10
0.0
 20
1.0
 30
0.0
  9
$USERI1
 70
     0
  9
$USERI2
 70
     0
  9
$USERI3
 70
     0
  9
$USERI4
 70
     0
  9
$USERI5
 70
     0
  9
$USERR1
 40
0.0
  9
$USERR2
 40
0.0
  9
$USERR3
 40
0.0
  9
$USERR4
 40
0.0
  9
$USERR5
 40
0.0
  9
$WORLDVIEW
 70
     1
  9
$SHADEDGE
 70
     3
  9
$SHADEDIF
 70
    70
  9
$TILEMODE
 70
     1
  9
$MAXACTVP
 70
    16
  9
$PINSBASE
 10
0.0
 20
0.0
 30
0.0
  9
$PLIMCHECK
 70
     0
  9
$PEXTMIN
 10
1.000000E+20
 20
1.000000E+20
 30
1.000000E+20
  9
$PEXTMAX
 10
-1.000000E+20
 20
-1.000000E+20
 30
-1.000000E+20
  9
$PLIMMIN
 10
0.0
 20
0.0
  9
$PLIMMAX
 10
12.0
 20
9.0
  9
$UNITMODE
 70
     0
  9
$VISRETAIN
 70
     0
  9
$PLINEGEN
 70
     1
  9
$PSLTSCALE
 70
     0
  9
$TREEDEPTH
 70
  3020
  9
$DWGCODEPAGE
  3
dos932
  0
ENDSEC
  0
SECTION
  2
TABLES
  0
TABLE
  2
VPORT
 70
     1
  0
VPORT
  2
*ACTIVE
 70
     0
 10
0.0
 20
0.0
 11
1.0
 21
1.0
 12
-73.021557
 22
158.043276
 13
0.0
 23
0.0
 14
1.0
 24
1.0
 15
0.0
 25
0.0
 16
0.0
 26
0.0
 36
1.0
 17
0.0
 27
0.0
 37
0.0
 40
319.247417
 41
1.732051
 42
50.0
 43
0.0
 44
0.0
 50
0.0
 51
0.0
 71
     0
 72
   100
 73
     1
 74
     1
 75
     0
 76
     0
 77
     0
 78
     0
  0
ENDTAB
  0
TABLE
  2
LTYPE
 70
     2
  0
LTYPE
  2
CONTINUOUS
 70
    64
  3
Solid line
 72
    65
 73
     0
 40
0.0
  0
LTYPE
  2
DASHED
 70
    64
  3
Dashed __ __ __ __ __ __ __ __ __ __ __ __ __ _
 72
    65
 73
     2
 40
19.05
 49
12.7
 49
-6.35
  0
ENDTAB
  0
TABLE
  2
LAYER
 70
     3
  0
LAYER
  2
0
 70
     0
 62
     7
  6
CONTINUOUS
  0
LAYER
  2
LY_1
 70
     0
 62
     7
  6
CONTINUOUS
  0
LAYER
  2
DEFPOINTS
 70
     0
 62
     7
  6
CONTINUOUS
  0
ENDTAB
  0
TABLE
  2
STYLE
 70
     1
  0
STYLE
  2
MX_NOTE_STANDARD
 70
     0
 40
0.0
 41
1.0
 50
0.0
 71
     0
 42
4.1656
  3
txt.shx
  4
extfont.shx
  0
ENDTAB
  0
TABLE
  2
VIEW
 70
     0
  0
ENDTAB
  0
TABLE
  2
UCS
 70
     0
  0
ENDTAB
  0
TABLE
  2
APPID
 70
     1
  0
APPID
  2
ACAD
 70
     0
  0
ENDTAB
  0
TABLE
  2
DIMSTYLE
 70
     1
  0
DIMSTYLE
  2
MXDIMSTYLE
 70
     0
  3

  4

  5

  6

  7

 40
1.0
 41
2.5
 42
0.5
 43
3.75
 44
1.0
 45
0.0
 46
0.0
 47
0.0
 48
0.0
 71
     0
 72
     0
 73
     0
 74
     0
 75
     0
 76
     0
 77
     1
 78
     8
140
2.5
141
2.5
142
0.0
143
0.03937
144
1.0
145
0.0
146
1.0
147
1.0
170
     0
171
     4
172
     1
173
     0
174
     0
175
     0
176
     0
177
     0
178
     0
  0
ENDTAB
  0
ENDSEC
  0
SECTION
  2
BLOCKS
  0
BLOCK
  8
0
  6
BYBLOCK
 62
     0
  5
E7
  2
*X0
 70
     1
 10
0.0
 20
0.0
 30
0.0
  3
*X0
  0
LINE
  8
0
  6
CONTINUOUS
 62
     0
  5
E8
 10
-196.229141
 20
68.0
 30
0.0
 11
-189.551683
 21
68.0
 31
0.0
  0
LINE
  8
0
  6
CONTINUOUS
 62
     0
  5
E9
 10
-199.161166
 20
68.5
 30
0.0
 11
-189.551683
 21
68.5
 31
0.0
  0
LINE
  8
0
  6
CONTINUOUS
 62
     0
  5
EA
 10
-201.366753
 20
69.0
 30
0.0
 11
-189.551683
 21
69.0
 31
0.0
  0
LINE
  8
0
  6
CONTINUOUS
 62
     0
  5
EB
 10
-203.202676
 20
69.5
 30
0.0
 11
-189.551683
 21
69.5
 31
0.0
  0
LINE
  8
0
  6
CONTINUOUS
 62
     0
  5
EC
 10
-204.803021
 20
70.0
 30
0.0
 11
-196.327229
 21
70.0
 31
0.0
  0
LINE
  8
0
  6
CONTINUOUS
 62
     0
  5
ED
 10
-206.235718
 20
70.5
 30
0.0
 11
-199.125697
 21
70.5
 31
0.0
  0
LINE
  8
0
  6
CONTINUOUS
 62
     0
  5
EE
 10
-207.540867
 20
71.0
 30
0.0
 11
-201.252771
 21
71.0
 31
0.0
  0
LINE
  8
0
  6
CONTINUOUS
 62
     0
  5
EF
 10
-208.744507
 20
71.5
 30
0.0
 11
-203.030154
 21
71.5
 31
0.0
  0
LINE
  8
0
  6
CONTINUOUS
 62
     0
  5
F0
 10
-209.864689
 20
72.0
 30
0.0
 11
-204.582415
 21
72.0
 31
0.0
  0
LINE
  8
0
  6
CONTINUOUS
 62
     0
  5
F1
 10
-210.914546
 20
72.5
 30
0.0
 11
-205.973517
 21
72.5
 31
0.0
  0
LINE
  8
0
  6
CONTINUOUS
 62
     0
  5
F2
 10
-211.90399
 20
73.0
 30
0.0
 11
-207.24152
 21
73.0
 31
0.0
  0
LINE
  8
0
  6
CONTINUOUS
 62
     0
  5
F3
 10
-212.840722
 20
73.5
 30
0.0
 11
-208.411271
 21
73.5
 31
0.0
  0
LINE
  8
0
  6
CONTINUOUS
 62
     0
  5
F4
 10
-213.73087
 20
74.0
 30
0.0
 11
-209.500061
 21
74.0
 31
0.0
  0
LINE
  8
0
  6
CONTINUOUS
 62
     0
  5
F5
 10
-214.579403
 20
74.5
 30
0.0
 11
-210.520505
 21
74.5
 31
0.0
  0
LINE
  8
0
  6
CONTINUOUS
 62
     0
  5
F6
 10
-215.390423
 20
75.0
 30
0.0
 11
-211.482146
 21
75.0
 31
0.0
  0
LINE
  8
0
  6
CONTINUOUS
 62
     0
  5
F7
 10
-216.123112
 20
75.5
 30
0.0
 11
-212.392413
 21
75.5
 31
0.0
  0
LINE
  8
0
  6
CONTINUOUS
 62
     0
  5
F8
 10
-216.123112
 20
76.0
 30
0.0
 11
-213.257223
 21
76.0
 31
0.0
  0
LINE
  8
0
  6
CONTINUOUS
 62
     0
  5
F9
 10
-216.123112
 20
76.5
 30
0.0
 11
-214.081387
 21
76.5
 31
0.0
  0
LINE
  8
0
  6
CONTINUOUS
 62
     0
  5
FA
 10
-216.123112
 20
77.0
 30
0.0
 11
-214.868872
 21
77.0
 31
0.0
  0
LINE
  8
0
  6
CONTINUOUS
 62
     0
  5
FB
 10
-216.123112
 20
77.5
 30
0.0
 11
-215.623004
 21
77.5
 31
0.0
  0
LINE
  8
0
  6
CONTINUOUS
 62
     0
  5
FC
 10
-216.0
 20
75.390519
 30
0.0
 11
-216.0
 21
77.757978
 31
0.0
  0
LINE
  8
0
  6
CONTINUOUS
 62
     0
  5
FD
 10
-215.5
 20
75.069255
 30
0.0
 11
-215.5
 21
77.416998
 31
0.0
  0
LINE
  8
0
  6
CONTINUOUS
 62
     0
  5
FE
 10
-215.0
 20
74.756554
 30
0.0
 11
-215.0
 21
77.085428
 31
0.0
  0
LINE
  8
0
  6
CONTINUOUS
 62
     0
  5
FF
 10
-214.5
 20
74.452221
 30
0.0
 11
-214.5
 21
76.76303
 31
0.0
  0
LINE
  8
0
  6
CONTINUOUS
 62
     0
  5
100
 10
-214.0
 20
74.156075
 30
0.0
 11
-214.0
 21
76.449579
 31
0.0
  0
LINE
  8
0
  6
CONTINUOUS
 62
     0
  5
101
 10
-213.5
 20
73.867943
 30
0.0
 11
-213.5
 21
76.144864
 31
0.0
  0
LINE
  8
0
  6
CONTINUOUS
 62
     0
  5
102
 10
-213.0
 20
73.587662
 30
0.0
 11
-213.0
 21
75.848687
 31
0.0
  0
LINE
  8
0
  6
CONTINUOUS
 62
     0
  5
103
 10
-212.5
 20
73.315076
 30
0.0
 11
-212.5
 21
75.560859
 31
0.0
  0
LINE
  8
0
  6
CONTINUOUS
 62
     0
  5
104
 10
-212.0
 20
73.05004
 30
0.0
 11
-212.0
 21
75.281204
 31
0.0
  0
LINE
  8
0
  6
CONTINUOUS
 62
     0
  5
105
 10
-211.5
 20
72.792414
 30
0.0
 11
-211.5
 21
75.009554
 31
0.0
  0
LINE
  8
0
  6
CONTINUOUS
 62
     0
  5
106
 10
-211.0
 20
72.542067
 30
0.0
 11
-211.0
 21
74.745752
 31
0.0
  0
LINE
  8
0
  6
CONTINUOUS
 62
     0
  5
107
 10
-210.5
 20
72.298874
 30
0.0
 11
-210.5
 21
74.489647
 31
0.0
  0
LINE
  8
0
  6
CONTINUOUS
 62
     0
  5
108
 10
-210.0
 20
72.062715
 30
0.0
 11
-210.0
 21
74.241098
 31
0.0
  0
LINE
  8
0
  6
CONTINUOUS
 62
     0
  5
109
 10
-209.5
 20
71.833479
 30
0.0
 11
-209.5
 21
73.999971
 31
0.0
  0
LINE
  8
0
  6
CONTINUOUS
 62
     0
  5
10A
 10
-209.0
 20
71.611057
 30
0.0
 11
-209.0
 21
73.766139
 31
0.0
  0
LINE
  8
0
  6
CONTINUOUS
 62
     0
  5
10B
 10
-208.5
 20
71.395348
 30
0.0
 11
-208.5
 21
73.539481
 31
0.0
  0
LINE
  8
0
  6
CONTINUOUS
 62
     0
  5
10C
 10
-208.0
 20
71.186255
 30
0.0
 11
-208.0
 21
73.319884
 31
0.0
  0
LINE
  8
0
  6
CONTINUOUS
 62
     0
  5
10D
 10
-207.5
 20
70.983686
 30
0.0
 11
-207.5
 21
73.107238
 31
0.0
  0
LINE
  8
0
  6
CONTINUOUS
 62
     0
  5
10E
 10
-207.0
 20
70.787552
 30
0.0
 11
-207.0
 21
72.90144
 31
0.0
  0
LINE
  8
0
  6
CONTINUOUS
 62
     0
  5
10F
 10
-206.5
 20
70.597772
 30
0.0
 11
-206.5
 21
72.702394
 31
0.0
  0
LINE
  8
0
  6
CONTINUOUS
 62
     0
  5
110
 10
-206.0
 20
70.414265
 30
0.0
 11
-206.0
 21
72.510006
 31
0.0
  0
LINE
  8
0
  6
CONTINUOUS
 62
     0
  5
111
 10
-205.5
 20
70.236955
 30
0.0
 11
-205.5
 21
72.324189
 31
0.0
  0
LINE
  8
0
  6
CONTINUOUS
 62
     0
  5
112
 10
-205.0
 20
70.065772
 30
0.0
 11
-205.0
 21
72.144858
 31
0.0
  0
LINE
  8
0
  6
CONTINUOUS
 62
     0
  5
113
 10
-204.5
 20
69.900646
 30
0.0
 11
-204.5
 21
71.971935
 31
0.0
  0
LINE
  8
0
  6
CONTINUOUS
 62
     0
  5
114
 10
-204.0
 20
69.741514
 30
0.0
 11
-204.0
 21
71.805344
 31
0.0
  0
LINE
  8
0
  6
CONTINUOUS
 62
     0
  5
115
 10
-203.5
 20
69.588313
 30
0.0
 11
-203.5
 21
71.645015
 31
0.0
  0
LINE
  8
0
  6
CONTINUOUS
 62
     0
  5
116
 10
-203.0
 20
69.440984
 30
0.0
 11
-203.0
 21
71.490879
 31
0.0
  0
LINE
  8
0
  6
CONTINUOUS
 62
     0
  5
117
 10
-202.5
 20
69.299473
 30
0.0
 11
-202.5
 21
71.342872
 31
0.0
  0
LINE
  8
0
  6
CONTINUOUS
 62
     0
  5
118
 10
-202.0
 20
69.163727
 30
0.0
 11
-202.0
 21
71.200933
 31
0.0
  0
LINE
  8
0
  6
CONTINUOUS
 62
     0
  5
119
 10
-201.5
 20
69.033694
 30
0.0
 11
-201.5
 21
71.065006
 31
0.0
  0
LINE
  8
0
  6
CONTINUOUS
 62
     0
  5
11A
 10
-201.0
 20
68.90933
 30
0.0
 11
-201.0
 21
70.935036
 31
0.0
  0
LINE
  8
0
  6
CONTINUOUS
 62
     0
  5
11B
 10
-200.5
 20
68.790587
 30
0.0
 11
-200.5
 21
70.81097
 31
0.0
  0
LINE
  8
0
  6
CONTINUOUS
 62
     0
  5
11C
 10
-200.0
 20
68.677424
 30
0.0
 11
-200.0
 21
70.692762
 31
0.0
  0
LINE
  8
0
  6
CONTINUOUS
 62
     0
  5
11D
 10
-199.5
 20
68.569802
 30
0.0
 11
-199.5
 21
70.580364
 31
0.0
  0
LINE
  8
0
  6
CONTINUOUS
 62
     0
  5
11E
 10
-199.0
 20
68.467682
 30
0.0
 11
-199.0
 21
70.473734
 31
0.0
  0
LINE
  8
0
  6
CONTINUOUS
 62
     0
  5
11F
 10
-198.5
 20
68.37103
 30
0.0
 11
-198.5
 21
70.372832
 31
0.0
  0
LINE
  8
0
  6
CONTINUOUS
 62
     0
  5
120
 10
-198.0
 20
68.279811
 30
0.0
 11
-198.0
 21
70.27762
 31
0.0
  0
LINE
  8
0
  6
CONTINUOUS
 62
     0
  5
121
 10
-197.5
 20
68.193995
 30
0.0
 11
-197.5
 21
70.188062
 31
0.0
  0
LINE
  8
0
  6
CONTINUOUS
 62
     0
  5
122
 10
-197.0
 20
68.113552
 30
0.0
 11
-197.0
 21
70.104125
 31
0.0
  0
LINE
  8
0
  6
CONTINUOUS
 62
     0
  5
123
 10
-196.5
 20
68.038457
 30
0.0
 11
-196.5
 21
70.025778
 31
0.0
  0
LINE
  8
0
  6
CONTINUOUS
 62
     0
  5
124
 10
-196.0
 20
67.968683
 30
0.0
 11
-196.0
 21
69.952993
 31
0.0
  0
LINE
  8
0
  6
CONTINUOUS
 62
     0
  5
125
 10
-195.5
 20
67.904207
 30
0.0
 11
-195.5
 21
69.885743
 31
0.0
  0
LINE
  8
0
  6
CONTINUOUS
 62
     0
  5
126
 10
-195.0
 20
67.845009
 30
0.0
 11
-195.0
 21
69.824005
 31
0.0
  0
LINE
  8
0
  6
CONTINUOUS
 62
     0
  5
127
 10
-194.5
 20
67.791069
 30
0.0
 11
-194.5
 21
69.767755
 31
0.0
  0
LINE
  8
0
  6
CONTINUOUS
 62
     0
  5
128
 10
-194.0
 20
67.742368
 30
0.0
 11
-194.0
 21
69.716975
 31
0.0
  0
LINE
  8
0
  6
CONTINUOUS
 62
     0
  5
129
 10
-193.5
 20
67.698892
 30
0.0
 11
-193.5
 21
69.671646
 31
0.0
  0
LINE
  8
0
  6
CONTINUOUS
 62
     0
  5
12A
 10
-193.0
 20
67.660627
 30
0.0
 11
-193.0
 21
69.631752
 31
0.0
  0
LINE
  8
0
  6
CONTINUOUS
 62
     0
  5
12B
 10
-192.5
 20
67.627558
 30
0.0
 11
-192.5
 21
69.59728
 31
0.0
  0
LINE
  8
0
  6
CONTINUOUS
 62
     0
  5
12C
 10
-192.0
 20
67.599678
 30
0.0
 11
-192.0
 21
69.568216
 31
0.0
  0
LINE
  8
0
  6
CONTINUOUS
 62
     0
  5
12D
 10
-191.5
 20
67.576975
 30
0.0
 11
-191.5
 21
69.544551
 31
0.0
  0
LINE
  8
0
  6
CONTINUOUS
 62
     0
  5
12E
 10
-191.0
 20
67.559443
 30
0.0
 11
-191.0
 21
69.526278
 31
0.0
  0
LINE
  8
0
  6
CONTINUOUS
 62
     0
  5
12F
 10
-190.5
 20
67.547077
 30
0.0
 11
-190.5
 21
69.513388
 31
0.0
  0
LINE
  8
0
  6
CONTINUOUS
 62
     0
  5
130
 10
-190.0
 20
67.539872
 30
0.0
 11
-190.0
 21
69.505878
 31
0.0
  0
ENDBLK
  8
0
  6
BYBLOCK
 62
     0
  5
131
  0
BLOCK
  8
0
  6
BYBLOCK
 62
     0
  5
134
  2
*X1
 70
     1
 10
0.0
 20
0.0
 30
0.0
  3
*X1
  0
LINE
  8
0
  6
CONTINUOUS
 62
     0
  5
135
 10
-196.229141
 20
68.0
 30
0.0
 11
-182.874226
 21
68.0
 31
0.0
  0
LINE
  8
0
  6
CONTINUOUS
 62
     0
  5
136
 10
-199.161166
 20
68.5
 30
0.0
 11
-179.942201
 21
68.5
 31
0.0
  0
LINE
  8
0
  6
CONTINUOUS
 62
     0
  5
137
 10
-201.366753
 20
69.0
 30
0.0
 11
-177.736614
 21
69.0
 31
0.0
  0
LINE
  8
0
  6
CONTINUOUS
 62
     0
  5
138
 10
-203.202676
 20
69.5
 30
0.0
 11
-175.900691
 21
69.5
 31
0.0
  0
LINE
  8
0
  6
CONTINUOUS
 62
     0
  5
139
 10
-204.803021
 20
70.0
 30
0.0
 11
-196.327229
 21
70.0
 31
0.0
  0
LINE
  8
0
  6
CONTINUOUS
 62
     0
  5
13A
 10
-182.776138
 20
70.0
 30
0.0
 11
-174.300346
 21
70.0
 31
0.0
  0
LINE
  8
0
  6
CONTINUOUS
 62
     0
  5
13B
 10
-206.235718
 20
70.5
 30
0.0
 11
-199.125697
 21
70.5
 31
0.0
  0
LINE
  8
0
  6
CONTINUOUS
 62
     0
  5
13C
 10
-179.97767
 20
70.5
 30
0.0
 11
-172.867648
 21
70.5
 31
0.0
  0
LINE
  8
0
  6
CONTINUOUS
 62
     0
  5
13D
 10
-207.540867
 20
71.0
 30
0.0
 11
-201.252771
 21
71.0
 31
0.0
  0
LINE
  8
0
  6
CONTINUOUS
 62
     0
  5
13E
 10
-177.850596
 20
71.0
 30
0.0
 11
-171.562499
 21
71.0
 31
0.0
  0
LINE
  8
0
  6
CONTINUOUS
 62
     0
  5
13F
 10
-208.744507
 20
71.5
 30
0.0
 11
-203.030154
 21
71.5
 31
0.0
  0
LINE
  8
0
  6
CONTINUOUS
 62
     0
  5
140
 10
-176.073213
 20
71.5
 30
0.0
 11
-170.35886
 21
71.5
 31
0.0
  0
LINE
  8
0
  6
CONTINUOUS
 62
     0
  5
141
 10
-209.864689
 20
72.0
 30
0.0
 11
-204.582415
 21
72.0
 31
0.0
  0
LINE
  8
0
  6
CONTINUOUS
 62
     0
  5
142
 10
-174.520952
 20
72.0
 30
0.0
 11
-169.238678
 21
72.0
 31
0.0
  0
LINE
  8
0
  6
CONTINUOUS
 62
     0
  5
143
 10
-210.914546
 20
72.5
 30
0.0
 11
-205.973517
 21
72.5
 31
0.0
  0
LINE
  8
0
  6
CONTINUOUS
 62
     0
  5
144
 10
-173.12985
 20
72.5
 30
0.0
 11
-168.188821
 21
72.5
 31
0.0
  0
LINE
  8
0
  6
CONTINUOUS
 62
     0
  5
145
 10
-211.90399
 20
73.0
 30
0.0
 11
-207.24152
 21
73.0
 31
0.0
  0
LINE
  8
0
  6
CONTINUOUS
 62
     0
  5
146
 10
-171.861847
 20
73.0
 30
0.0
 11
-167.199377
 21
73.0
 31
0.0
  0
LINE
  8
0
  6
CONTINUOUS
 62
     0
  5
147
 10
-212.840722
 20
73.5
 30
0.0
 11
-208.411271
 21
73.5
 31
0.0
  0
LINE
  8
0
  6
CONTINUOUS
 62
     0
  5
148
 10
-170.692096
 20
73.5
 30
0.0
 11
-166.262645
 21
73.5
 31
0.0
  0
LINE
  8
0
  6
CONTINUOUS
 62
     0
  5
149
 10
-213.73087
 20
74.0
 30
0.0
 11
-209.500061
 21
74.0
 31
0.0
  0
LINE
  8
0
  6
CONTINUOUS
 62
     0
  5
14A
 10
-169.603306
 20
74.0
 30
0.0
 11
-165.372497
 21
74.0
 31
0.0
  0
LINE
  8
0
  6
CONTINUOUS
 62
     0
  5
14B
 10
-214.579403
 20
74.5
 30
0.0
 11
-210.520505
 21
74.5
 31
0.0
  0
LINE
  8
0
  6
CONTINUOUS
 62
     0
  5
14C
 10
-168.582862
 20
74.5
 30
0.0
 11
-164.523964
 21
74.5
 31
0.0
  0
LINE
  8
0
  6
CONTINUOUS
 62
     0
  5
14D
 10
-215.390423
 20
75.0
 30
0.0
 11
-211.482146
 21
75.0
 31
0.0
  0
LINE
  8
0
  6
CONTINUOUS
 62
     0
  5
14E
 10
-167.621221
 20
75.0
 30
0.0
 11
-163.712944
 21
75.0
 31
0.0
  0
LINE
  8
0
  6
CONTINUOUS
 62
     0
  5
14F
 10
-216.167359
 20
75.5
 30
0.0
 11
-212.392413
 21
75.5
 31
0.0
  0
LINE
  8
0
  6
CONTINUOUS
 62
     0
  5
150
 10
-166.710954
 20
75.5
 30
0.0
 11
-162.936008
 21
75.5
 31
0.0
  0
LINE
  8
0
  6
CONTINUOUS
 62
     0
  5
151
 10
-216.913115
 20
76.0
 30
0.0
 11
-213.257223
 21
76.0
 31
0.0
  0
LINE
  8
0
  6
CONTINUOUS
 62
     0
  5
152
 10
-165.846144
 20
76.0
 30
0.0
 11
-162.190252
 21
76.0
 31
0.0
  0
LINE
  8
0
  6
CONTINUOUS
 62
     0
  5
153
 10
-217.551683
 20
76.5
 30
0.0
 11
-214.081387
 21
76.5
 31
0.0
  0
LINE
  8
0
  6
CONTINUOUS
 62
     0
  5
154
 10
-165.02198
 20
76.5
 30
0.0
 11
-161.551683
 21
76.5
 31
0.0
  0
LINE
  8
0
  6
CONTINUOUS
 62
     0
  5
155
 10
-217.551683
 20
77.0
 30
0.0
 11
-214.868872
 21
77.0
 31
0.0
  0
LINE
  8
0
  6
CONTINUOUS
 62
     0
  5
156
 10
-164.234494
 20
77.0
 30
0.0
 11
-161.551683
 21
77.0
 31
0.0
  0
LINE
  8
0
  6
CONTINUOUS
 62
     0
  5
157
 10
-217.551683
 20
77.5
 30
0.0
 11
-215.623004
 21
77.5
 31
0.0
  0
LINE
  8
0
  6
CONTINUOUS
 62
     0
  5
158
 10
-163.480363
 20
77.5
 30
0.0
 11
-161.551683
 21
77.5
 31
0.0
  0
LINE
  8
0
  6
CONTINUOUS
 62
     0
  5
159
 10
-217.551683
 20
78.0
 30
0.0
 11
-216.346599
 21
78.0
 31
0.0
  0
LINE
  8
0
  6
CONTINUOUS
 62
     0
  5
15A
 10
-162.756768
 20
78.0
 30
0.0
 11
-161.551683
 21
78.0
 31
0.0
  0
LINE
  8
0
  6
CONTINUOUS
 62
     0
  5
15B
 10
-217.551683
 20
78.5
 30
0.0
 11
-217.042067
 21
78.5
 31
0.0
  0
LINE
  8
0
  6
CONTINUOUS
 62
     0
  5
15C
 10
-162.0613
 20
78.5
 30
0.0
 11
-161.551683
 21
78.5
 31
0.0
  0
LINE
  8
0
  6
CONTINUOUS
 62
     0
  5
15D
 10
-217.5
 20
76.407797
 30
0.0
 11
-217.5
 21
78.840004
 31
0.0
  0
LINE
  8
0
  6
CONTINUOUS
 62
     0
  5
15E
 10
-217.0
 20
76.059566
 30
0.0
 11
-217.0
 21
78.469201
 31
0.0
  0
LINE
  8
0
  6
CONTINUOUS
 62
     0
  5
15F
 10
-216.5
 20
75.72055
 30
0.0
 11
-216.5
 21
78.108622
 31
0.0
  0
LINE
  8
0
  6
CONTINUOUS
 62
     0
  5
160
 10
-216.0
 20
75.390519
 30
0.0
 11
-216.0
 21
77.757978
 31
0.0
  0
LINE
  8
0
  6
CONTINUOUS
 62
     0
  5
161
 10
-215.5
 20
75.069255
 30
0.0
 11
-215.5
 21
77.416998
 31
0.0
  0
LINE
  8
0
  6
CONTINUOUS
 62
     0
  5
162
 10
-215.0
 20
74.756554
 30
0.0
 11
-215.0
 21
77.085428
 31
0.0
  0
LINE
  8
0
  6
CONTINUOUS
 62
     0
  5
163
 10
-214.5
 20
74.452221
 30
0.0
 11
-214.5
 21
76.76303
 31
0.0
  0
LINE
  8
0
  6
CONTINUOUS
 62
     0
  5
164
 10
-214.0
 20
74.156075
 30
0.0
 11
-214.0
 21
76.449579
 31
0.0
  0
LINE
  8
0
  6
CONTINUOUS
 62
     0
  5
165
 10
-213.5
 20
73.867943
 30
0.0
 11
-213.5
 21
76.144864
 31
0.0
  0
LINE
  8
0
  6
CONTINUOUS
 62
     0
  5
166
 10
-213.0
 20
73.587662
 30
0.0
 11
-213.0
 21
75.848687
 31
0.0
  0
LINE
  8
0
  6
CONTINUOUS
 62
     0
  5
167
 10
-212.5
 20
73.315076
 30
0.0
 11
-212.5
 21
75.560859
 31
0.0
  0
LINE
  8
0
  6
CONTINUOUS
 62
     0
  5
168
 10
-212.0
 20
73.05004
 30
0.0
 11
-212.0
 21
75.281204
 31
0.0
  0
LINE
  8
0
  6
CONTINUOUS
 62
     0
  5
169
 10
-211.5
 20
72.792414
 30
0.0
 11
-211.5
 21
75.009554
 31
0.0
  0
LINE
  8
0
  6
CONTINUOUS
 62
     0
  5
16A
 10
-211.0
 20
72.542067
 30
0.0
 11
-211.0
 21
74.745752
 31
0.0
  0
LINE
  8
0
  6
CONTINUOUS
 62
     0
  5
16B
 10
-210.5
 20
72.298874
 30
0.0
 11
-210.5
 21
74.489647
 31
0.0
  0
LINE
  8
0
  6
CONTINUOUS
 62
     0
  5
16C
 10
-210.0
 20
72.062715
 30
0.0
 11
-210.0
 21
74.241098
 31
0.0
  0
LINE
  8
0
  6
CONTINUOUS
 62
     0
  5
16D
 10
-209.5
 20
71.833479
 30
0.0
 11
-209.5
 21
73.999971
 31
0.0
  0
LINE
  8
0
  6
CONTINUOUS
 62
     0
  5
16E
 10
-209.0
 20
71.611057
 30
0.0
 11
-209.0
 21
73.766139
 31
0.0
  0
LINE
  8
0
  6
CONTINUOUS
 62
     0
  5
16F
 10
-208.5
 20
71.395348
 30
0.0
 11
-208.5
 21
73.539481
 31
0.0
  0
LINE
  8
0
  6
CONTINUOUS
 62
     0
  5
170
 10
-208.0
 20
71.186255
 30
0.0
 11
-208.0
 21
73.319884
 31
0.0
  0
LINE
  8
0
  6
CONTINUOUS
 62
     0
  5
171
 10
-207.5
 20
70.983686
 30
0.0
 11
-207.5
 21
73.107238
 31
0.0
  0
LINE
  8
0
  6
CONTINUOUS
 62
     0
  5
172
 10
-207.0
 20
70.787552
 30
0.0
 11
-207.0
 21
72.90144
 31
0.0
  0
LINE
  8
0
  6
CONTINUOUS
 62
     0
  5
173
 10
-206.5
 20
70.597772
 30
0.0
 11
-206.5
 21
72.702394
 31
0.0
  0
LINE
  8
0
  6
CONTINUOUS
 62
     0
  5
174
 10
-206.0
 20
70.414265
 30
0.0
 11
-206.0
 21
72.510006
 31
0.0
  0
LINE
  8
0
  6
CONTINUOUS
 62
     0
  5
175
 10
-205.5
 20
70.236955
 30
0.0
 11
-205.5
 21
72.324189
 31
0.0
  0
LINE
  8
0
  6
CONTINUOUS
 62
     0
  5
176
 10
-205.0
 20
70.065772
 30
0.0
 11
-205.0
 21
72.144858
 31
0.0
  0
LINE
  8
0
  6
CONTINUOUS
 62
     0
  5
177
 10
-204.5
 20
69.900646
 30
0.0
 11
-204.5
 21
71.971935
 31
0.0
  0
LINE
  8
0
  6
CONTINUOUS
 62
     0
  5
178
 10
-204.0
 20
69.741514
 30
0.0
 11
-204.0
 21
71.805344
 31
0.0
  0
LINE
  8
0
  6
CONTINUOUS
 62
     0
  5
179
 10
-203.5
 20
69.588313
 30
0.0
 11
-203.5
 21
71.645015
 31
0.0
  0
LINE
  8
0
  6
CONTINUOUS
 62
     0
  5
17A
 10
-203.0
 20
69.440984
 30
0.0
 11
-203.0
 21
71.490879
 31
0.0
  0
LINE
  8
0
  6
CONTINUOUS
 62
     0
  5
17B
 10
-202.5
 20
69.299473
 30
0.0
 11
-202.5
 21
71.342872
 31
0.0
  0
LINE
  8
0
  6
CONTINUOUS
 62
     0
  5
17C
 10
-202.0
 20
69.163727
 30
0.0
 11
-202.0
 21
71.200933
 31
0.0
  0
LINE
  8
0
  6
CONTINUOUS
 62
     0
  5
17D
 10
-201.5
 20
69.033694
 30
0.0
 11
-201.5
 21
71.065006
 31
0.0
  0
LINE
  8
0
  6
CONTINUOUS
 62
     0
  5
17E
 10
-201.0
 20
68.90933
 30
0.0
 11
-201.0
 21
70.935036
 31
0.0
  0
LINE
  8
0
  6
CONTINUOUS
 62
     0
  5
17F
 10
-200.5
 20
68.790587
 30
0.0
 11
-200.5
 21
70.81097
 31
0.0
  0
LINE
  8
0
  6
CONTINUOUS
 62
     0
  5
180
 10
-200.0
 20
68.677424
 30
0.0
 11
-200.0
 21
70.692762
 31
0.0
  0
LINE
  8
0
  6
CONTINUOUS
 62
     0
  5
181
 10
-199.5
 20
68.569802
 30
0.0
 11
-199.5
 21
70.580364
 31
0.0
  0
LINE
  8
0
  6
CONTINUOUS
 62
     0
  5
182
 10
-199.0
 20
68.467682
 30
0.0
 11
-199.0
 21
70.473734
 31
0.0
  0
LINE
  8
0
  6
CONTINUOUS
 62
     0
  5
183
 10
-198.5
 20
68.37103
 30
0.0
 11
-198.5
 21
70.372832
 31
0.0
  0
LINE
  8
0
  6
CONTINUOUS
 62
     0
  5
184
 10
-198.0
 20
68.279811
 30
0.0
 11
-198.0
 21
70.27762
 31
0.0
  0
LINE
  8
0
  6
CONTINUOUS
 62
     0
  5
185
 10
-197.5
 20
68.193995
 30
0.0
 11
-197.5
 21
70.188062
 31
0.0
  0
LINE
  8
0
  6
CONTINUOUS
 62
     0
  5
186
 10
-197.0
 20
68.113552
 30
0.0
 11
-197.0
 21
70.104125
 31
0.0
  0
LINE
  8
0
  6
CONTINUOUS
 62
     0
  5
187
 10
-196.5
 20
68.038457
 30
0.0
 11
-196.5
 21
70.025778
 31
0.0
  0
LINE
  8
0
  6
CONTINUOUS
 62
     0
  5
188
 10
-196.0
 20
67.968683
 30
0.0
 11
-196.0
 21
69.952993
 31
0.0
  0
LINE
  8
0
  6
CONTINUOUS
 62
     0
  5
189
 10
-195.5
 20
67.904207
 30
0.0
 11
-195.5
 21
69.885743
 31
0.0
  0
LINE
  8
0
  6
CONTINUOUS
 62
     0
  5
18A
 10
-195.0
 20
67.845009
 30
0.0
 11
-195.0
 21
69.824005
 31
0.0
  0
LINE
  8
0
  6
CONTINUOUS
 62
     0
  5
18B
 10
-194.5
 20
67.791069
 30
0.0
 11
-194.5
 21
69.767755
 31
0.0
  0
LINE
  8
0
  6
CONTINUOUS
 62
     0
  5
18C
 10
-194.0
 20
67.742368
 30
0.0
 11
-194.0
 21
69.716975
 31
0.0
  0
LINE
  8
0
  6
CONTINUOUS
 62
     0
  5
18D
 10
-193.5
 20
67.698892
 30
0.0
 11
-193.5
 21
69.671646
 31
0.0
  0
LINE
  8
0
  6
CONTINUOUS
 62
     0
  5
18E
 10
-193.0
 20
67.660627
 30
0.0
 11
-193.0
 21
69.631752
 31
0.0
  0
LINE
  8
0
  6
CONTINUOUS
 62
     0
  5
18F
 10
-192.5
 20
67.627558
 30
0.0
 11
-192.5
 21
69.59728
 31
0.0
  0
LINE
  8
0
  6
CONTINUOUS
 62
     0
  5
190
 10
-192.0
 20
67.599678
 30
0.0
 11
-192.0
 21
69.568216
 31
0.0
  0
LINE
  8
0
  6
CONTINUOUS
 62
     0
  5
191
 10
-191.5
 20
67.576975
 30
0.0
 11
-191.5
 21
69.544551
 31
0.0
  0
LINE
  8
0
  6
CONTINUOUS
 62
     0
  5
192
 10
-191.0
 20
67.559443
 30
0.0
 11
-191.0
 21
69.526278
 31
0.0
  0
LINE
  8
0
  6
CONTINUOUS
 62
     0
  5
193
 10
-190.5
 20
67.547077
 30
0.0
 11
-190.5
 21
69.513388
 31
0.0
  0
LINE
  8
0
  6
CONTINUOUS
 62
     0
  5
194
 10
-190.0
 20
67.539872
 30
0.0
 11
-190.0
 21
69.505878
 31
0.0
  0
LINE
  8
0
  6
CONTINUOUS
 62
     0
  5
195
 10
-189.5
 20
67.537826
 30
0.0
 11
-189.5
 21
69.503746
 31
0.0
  0
LINE
  8
0
  6
CONTINUOUS
 62
     0
  5
196
 10
-189.0
 20
67.540938
 30
0.0
 11
-189.0
 21
69.50699
 31
0.0
  0
LINE
  8
0
  6
CONTINUOUS
 62
     0
  5
197
 10
-188.5
 20
67.54921
 30
0.0
 11
-188.5
 21
69.515611
 31
0.0
  0
LINE
  8
0
  6
CONTINUOUS
 62
     0
  5
198
 10
-188.0
 20
67.562644
 30
0.0
 11
-188.0
 21
69.529614
 31
0.0
  0
LINE
  8
0
  6
CONTINUOUS
 62
     0
  5
199
 10
-187.5
 20
67.581244
 30
0.0
 11
-187.5
 21
69.549001
 31
0.0
  0
LINE
  8
0
  6
CONTINUOUS
 62
     0
  5
19A
 10
-187.0
 20
67.605017
 30
0.0
 11
-187.0
 21
69.573782
 31
0.0
  0
LINE
  8
0
  6
CONTINUOUS
 62
     0
  5
19B
 10
-186.5
 20
67.633969
 30
0.0
 11
-186.5
 21
69.603962
 31
0.0
  0
LINE
  8
0
  6
CONTINUOUS
 62
     0
  5
19C
 10
-186.0
 20
67.668111
 30
0.0
 11
-186.0
 21
69.639555
 31
0.0
  0
LINE
  8
0
  6
CONTINUOUS
 62
     0
  5
19D
 10
-185.5
 20
67.707453
 30
0.0
 11
-185.5
 21
69.680571
 31
0.0
  0
LINE
  8
0
  6
CONTINUOUS
 62
     0
  5
19E
 10
-185.0
 20
67.752008
 30
0.0
 11
-185.0
 21
69.727026
 31
0.0
  0
LINE
  8
0
  6
CONTINUOUS
 62
     0
  5
19F
 10
-184.5
 20
67.80179
 30
0.0
 11
-184.5
 21
69.778935
 31
0.0
  0
LINE
  8
0
  6
CONTINUOUS
 62
     0
  5
1A0
 10
-184.0
 20
67.856816
 30
0.0
 11
-184.0
 21
69.836317
 31
0.0
  0
LINE
  8
0
  6
CONTINUOUS
 62
     0
  5
1A1
 10
-183.5
 20
67.917103
 30
0.0
 11
-183.5
 21
69.899193
 31
0.0
  0
LINE
  8
0
  6
CONTINUOUS
 62
     0
  5
1A2
 10
-183.0
 20
67.982672
 30
0.0
 11
-183.0
 21
69.967585
 31
0.0
  0
LINE
  8
0
  6
CONTINUOUS
 62
     0
  5
1A3
 10
-182.5
 20
68.053544
 30
0.0
 11
-182.5
 21
70.041518
 31
0.0
  0
LINE
  8
0
  6
CONTINUOUS
 62
     0
  5
1A4
 10
-182.0
 20
68.129743
 30
0.0
 11
-182.0
 21
70.121018
 31
0.0
  0
LINE
  8
0
  6
CONTINUOUS
 62
     0
  5
1A5
 10
-181.5
 20
68.211294
 30
0.0
 11
-181.5
 21
70.206115
 31
0.0
  0
LINE
  8
0
  6
CONTINUOUS
 62
     0
  5
1A6
 10
-181.0
 20
68.298225
 30
0.0
 11
-181.0
 21
70.296839
 31
0.0
  0
LINE
  8
0
  6
CONTINUOUS
 62
     0
  5
1A7
 10
-180.5
 20
68.390564
 30
0.0
 11
-180.5
 21
70.393225
 31
0.0
  0
LINE
  8
0
  6
CONTINUOUS
 62
     0
  5
1A8
 10
-180.0
 20
68.488344
 30
0.0
 11
-180.0
 21
70.495307
 31
0.0
  0
LINE
  8
0
  6
CONTINUOUS
 62
     0
  5
1A9
 10
-179.5
 20
68.591599
 30
0.0
 11
-179.5
 21
70.603126
 31
0.0
  0
LINE
  8
0
  6
CONTINUOUS
 62
     0
  5
1AA
 10
-179.0
 20
68.700363
 30
0.0
 11
-179.0
 21
70.716721
 31
0.0
  0
LINE
  8
0
  6
CONTINUOUS
 62
     0
  5
1AB
 10
-178.5
 20
68.814676
 30
0.0
 11
-178.5
 21
70.836137
 31
0.0
  0
LINE
  8
0
  6
CONTINUOUS
 62
     0
  5
1AC
 10
-178.0
 20
68.934578
 30
0.0
 11
-178.0
 21
70.961419
 31
0.0
  0
LINE
  8
0
  6
CONTINUOUS
 62
     0
  5
1AD
 10
-177.5
 20
69.06011
 30
0.0
 11
-177.5
 21
71.092617
 31
0.0
  0
LINE
  8
0
  6
CONTINUOUS
 62
     0
  5
1AE
 10
-177.0
 20
69.19132
 30
0.0
 11
-177.0
 21
71.229782
 31
0.0
  0
LINE
  8
0
  6
CONTINUOUS
 62
     0
  5
1AF
 10
-176.5
 20
69.328254
 30
0.0
 11
-176.5
 21
71.37297
 31
0.0
  0
LINE
  8
0
  6
CONTINUOUS
 62
     0
  5
1B0
 10
-176.0
 20
69.470963
 30
0.0
 11
-176.0
 21
71.522239
 31
0.0
  0
LINE
  8
0
  6
CONTINUOUS
 62
     0
  5
1B1
 10
-175.5
 20
69.619501
 30
0.0
 11
-175.5
 21
71.67765
 31
0.0
  0
LINE
  8
0
  6
CONTINUOUS
 62
     0
  5
1B2
 10
-175.0
 20
69.773924
 30
0.0
 11
-175.0
 21
71.839269
 31
0.0
  0
LINE
  8
0
  6
CONTINUOUS
 62
     0
  5
1B3
 10
-174.5
 20
69.93429
 30
0.0
 11
-174.5
 21
72.007162
 31
0.0
  0
LINE
  8
0
  6
CONTINUOUS
 62
     0
  5
1B4
 10
-174.0
 20
70.100662
 30
0.0
 11
-174.0
 21
72.181404
 31
0.0
  0
LINE
  8
0
  6
CONTINUOUS
 62
     0
  5
1B5
 10
-173.5
 20
70.273106
 30
0.0
 11
-173.5
 21
72.362069
 31
0.0
  0
LINE
  8
0
  6
CONTINUOUS
 62
     0
  5
1B6
 10
-173.0
 20
70.451691
 30
0.0
 11
-173.0
 21
72.549238
 31
0.0
  0
LINE
  8
0
  6
CONTINUOUS
 62
     0
  5
1B7
 10
-172.5
 20
70.636489
 30
0.0
 11
-172.5
 21
72.742995
 31
0.0
  0
LINE
  8
0
  6
CONTINUOUS
 62
     0
  5
1B8
 10
-172.0
 20
70.827576
 30
0.0
 11
-172.0
 21
72.943429
 31
0.0
  0
LINE
  8
0
  6
CONTINUOUS
 62
     0
  5
1B9
 10
-171.5
 20
71.025033
 30
0.0
 11
-171.5
 21
73.150634
 31
0.0
  0
LINE
  8
0
  6
CONTINUOUS
 62
     0
  5
1BA
 10
-171.0
 20
71.228944
 30
0.0
 11
-171.0
 21
73.364709
 31
0.0
  0
LINE
  8
0
  6
CONTINUOUS
 62
     0
  5
1BB
 10
-170.5
 20
71.439397
 30
0.0
 11
-170.5
 21
73.585757
 31
0.0
  0
LINE
  8
0
  6
CONTINUOUS
 62
     0
  5
1BC
 10
-170.0
 20
71.656485
 30
0.0
 11
-170.0
 21
73.813888
 31
0.0
  0
LINE
  8
0
  6
CONTINUOUS
 62
     0
  5
1BD
 10
-169.5
 20
71.880307
 30
0.0
 11
-169.5
 21
74.049218
 31
0.0
  0
LINE
  8
0
  6
CONTINUOUS
 62
     0
  5
1BE
 10
-169.0
 20
72.110966
 30
0.0
 11
-169.0
 21
74.291869
 31
0.0
  0
LINE
  8
0
  6
CONTINUOUS
 62
     0
  5
1BF
 10
-168.5
 20
72.348569
 30
0.0
 11
-168.5
 21
74.541968
 31
0.0
  0
LINE
  8
0
  6
CONTINUOUS
 62
     0
  5
1C0
 10
-168.0
 20
72.593232
 30
0.0
 11
-168.0
 21
74.799652
 31
0.0
  0
LINE
  8
0
  6
CONTINUOUS
 62
     0
  5
1C1
 10
-167.5
 20
72.845073
 30
0.0
 11
-167.5
 21
75.065065
 31
0.0
  0
LINE
  8
0
  6
CONTINUOUS
 62
     0
  5
1C2
 10
-167.0
 20
73.10422
 30
0.0
 11
-167.0
 21
75.338356
 31
0.0
  0
LINE
  8
0
  6
CONTINUOUS
 62
     0
  5
1C3
 10
-166.5
 20
73.370805
 30
0.0
 11
-166.5
 21
75.619687
 31
0.0
  0
LINE
  8
0
  6
CONTINUOUS
 62
     0
  5
1C4
 10
-166.0
 20
73.644969
 30
0.0
 11
-166.0
 21
75.909226
 31
0.0
  0
LINE
  8
0
  6
CONTINUOUS
 62
     0
  5
1C5
 10
-165.5
 20
73.926861
 30
0.0
 11
-165.5
 21
76.207153
 31
0.0
  0
LINE
  8
0
  6
CONTINUOUS
 62
     0
  5
1C6
 10
-165.0
 20
74.216636
 30
0.0
 11
-165.0
 21
76.513657
 31
0.0
  0
LINE
  8
0
  6
CONTINUOUS
 62
     0
  5
1C7
 10
-164.5
 20
74.51446
 30
0.0
 11
-164.5
 21
76.82894
 31
0.0
  0
LINE
  8
0
  6
CONTINUOUS
 62
     0
  5
1C8
 10
-164.0
 20
74.820507
 30
0.0
 11
-164.0
 21
77.153215
 31
0.0
  0
LINE
  8
0
  6
CONTINUOUS
 62
     0
  5
1C9
 10
-163.5
 20
75.134963
 30
0.0
 11
-163.5
 21
77.486711
 31
0.0
  0
LINE
  8
0
  6
CONTINUOUS
 62
     0
  5
1CA
 10
-163.0
 20
75.458022
 30
0.0
 11
-163.0
 21
77.829667
 31
0.0
  0
LINE
  8
0
  6
CONTINUOUS
 62
     0
  5
1CB
 10
-162.5
 20
75.789892
 30
0.0
 11
-162.5
 21
78.182342
 31
0.0
  0
LINE
  8
0
  6
CONTINUOUS
 62
     0
  5
1CC
 10
-162.0
 20
76.130794
 30
0.0
 11
-162.0
 21
78.54501
 31
0.0
  0
ENDBLK
  8
0
  6
BYBLOCK
 62
     0
  5
1CD
  0
ENDSEC
  0
SECTION
  2
ENTITIES
  0
CIRCLE
  8
LY_1
  6
DASHED
 62
    80
  5
20
 10
0.0
 20
226.003717
 30
0.0
 40
4.0
  0
CIRCLE
  8
LY_1
  6
DASHED
 62
    80
  5
21
 10
0.0
 20
226.003717
 30
0.0
 40
4.0
  0
CIRCLE
  8
LY_1
  6
DASHED
 62
    80
  5
22
 10
0.0
 20
306.003717
 30
0.0
 40
4.0
  0
CIRCLE
  8
LY_1
  6
DASHED
 62
    80
  5
23
 10
0.0
 20
306.003717
 30
0.0
 40
4.0
  0
LINE
  8
LY_1
  6
DASHED
 62
    80
  5
24
 10
-25.525891
 20
217.003717
 30
0.0
 11
-30.0
 21
217.003717
 31
0.0
  0
LINE
  8
LY_1
  6
DASHED
 62
    80
  5
25
 10
-25.525891
 20
315.003717
 30
0.0
 11
-30.0
 21
315.003717
 31
0.0
  0
LINE
  8
LY_1
  6
DASHED
 62
    80
  5
26
 10
-30.0
 20
217.003717
 30
0.0
 11
-30.0
 21
315.003717
 31
0.0
  0
LINE
  8
LY_1
  6
DASHED
 62
    80
  5
27
 10
29.999998
 20
312.539461
 30
0.0
 11
29.999998
 21
219.525792
 31
0.0
  0
LINE
  8
LY_1
  6
CONTINUOUS
 62
     3
  5
28
 10
-25.290323
 20
314.268706
 30
0.0
 11
-25.290323
 21
312.539461
 31
0.0
  0
LINE
  8
LY_1
  6
CONTINUOUS
 62
     3
  5
29
 10
-25.290323
 20
313.346728
 30
0.0
 11
-32.666667
 21
313.346728
 31
0.0
  0
LINE
  8
LY_1
  6
CONTINUOUS
 62
     3
  5
2A
 10
-32.666667
 20
314.268706
 30
0.0
 11
-32.666667
 21
312.539461
 31
0.0
  0
ARC
  8
LY_1
  6
CONTINUOUS
 62
     3
  5
2B
 10
-28.978495
 20
309.237089
 30
0.0
 40
6.849462
 50
64.280723
 51
115.719274
  0
ARC
  8
LY_1
  6
CONTINUOUS
 62
     3
  5
2C
 10
-26.554852
 20
314.268706
 30
0.0
 40
1.264516
 50
0.000003
 51
64.280723
  0
ARC
  8
LY_1
  6
CONTINUOUS
 62
     3
  5
2D
 10
-31.402138
 20
314.268706
 30
0.0
 40
1.264516
 50
115.719277
 51
179.999997
  0
LINE
  8
LY_1
  6
CONTINUOUS
 62
     3
  5
2E
 10
29.999998
 20
219.525792
 30
0.0
 11
29.999998
 21
217.003717
 31
0.0
  0
LINE
  8
LY_1
  6
CONTINUOUS
 62
     3
  5
2F
 10
-25.525891
 20
315.003717
 30
0.0
 11
29.999998
 21
315.003717
 31
0.0
  0
LINE
  8
LY_1
  6
CONTINUOUS
 62
     3
  5
30
 10
-25.525891
 20
217.003717
 30
0.0
 11
29.999998
 21
217.003717
 31
0.0
  0
LINE
  8
LY_1
  6
CONTINUOUS
 62
     3
  5
31
 10
29.999998
 20
315.003717
 30
0.0
 11
29.999998
 21
312.539461
 31
0.0
  0
ARC
  8
LY_1
  6
CONTINUOUS
 62
     3
  5
32
 10
-30.553866
 20
264.428346
 30
0.0
 40
0.969462
 50
359.999995
 51
89.999997
  0
ARC
  8
LY_1
  6
CONTINUOUS
 62
     3
  5
33
 10
-27.403123
 20
264.428346
 30
0.0
 40
0.969462
 50
89.999997
 51
180.0
  0
ARC
  8
LY_1
  6
CONTINUOUS
 62
     3
  5
34
 10
-30.553866
 20
267.579088
 30
0.0
 40
0.969462
 50
270.000003
 51
0.000005
  0
CIRCLE
  8
LY_1
  6
CONTINUOUS
 62
     3
  5
35
 10
-28.978495
 20
266.003717
 30
0.0
 40
3.688172
  0
ARC
  8
LY_1
  6
CONTINUOUS
 62
     3
  5
36
 10
-27.403123
 20
267.579088
 30
0.0
 40
0.969462
 50
180.0
 51
270.000003
  0
LINE
  8
LY_1
  6
CONTINUOUS
 62
     3
  5
37
 10
-30.553866
 20
265.39779
 30
0.0
 11
-31.402138
 21
265.39779
 31
0.0
  0
LINE
  8
LY_1
  6
CONTINUOUS
 62
     3
  5
38
 10
-29.584421
 20
264.428346
 30
0.0
 11
-29.584421
 21
263.580074
 31
0.0
  0
LINE
  8
LY_1
  6
CONTINUOUS
 62
     3
  5
39
 10
-28.372568
 20
264.428346
 30
0.0
 11
-28.372568
 21
263.580074
 31
0.0
  0
LINE
  8
LY_1
  6
CONTINUOUS
 62
     3
  5
3A
 10
-26.554852
 20
265.39779
 30
0.0
 11
-27.403123
 21
265.39779
 31
0.0
  0
LINE
  8
LY_1
  6
CONTINUOUS
 62
     3
  5
3B
 10
-28.372568
 20
263.580074
 30
0.0
 11
-29.584421
 21
263.580074
 31
0.0
  0
LINE
  8
LY_1
  6
CONTINUOUS
 62
     3
  5
3C
 10
-26.554852
 20
266.609644
 30
0.0
 11
-26.554852
 21
265.39779
 31
0.0
  0
LINE
  8
LY_1
  6
CONTINUOUS
 62
     3
  5
3D
 10
-28.372568
 20
268.42736
 30
0.0
 11
-28.372568
 21
267.579088
 31
0.0
  0
LINE
  8
LY_1
  6
CONTINUOUS
 62
     3
  5
3E
 10
-30.553866
 20
266.609644
 30
0.0
 11
-31.402138
 21
266.609644
 31
0.0
  0
LINE
  8
LY_1
  6
CONTINUOUS
 62
     3
  5
3F
 10
-29.584421
 20
268.42736
 30
0.0
 11
-29.584421
 21
267.579088
 31
0.0
  0
LINE
  8
LY_1
  6
CONTINUOUS
 62
     3
  5
40
 10
-28.372568
 20
268.42736
 30
0.0
 11
-29.584421
 21
268.42736
 31
0.0
  0
LINE
  8
LY_1
  6
CONTINUOUS
 62
     3
  5
41
 10
-31.402138
 20
266.609644
 30
0.0
 11
-31.402138
 21
265.39779
 31
0.0
  0
LINE
  8
LY_1
  6
CONTINUOUS
 62
     3
  5
42
 10
-26.554852
 20
266.609644
 30
0.0
 11
-27.403123
 21
266.609644
 31
0.0
  0
ARC
  8
LY_1
  6
CONTINUOUS
 62
     3
  5
43
 10
-37.940758
 20
264.428346
 30
0.0
 40
0.969462
 50
90.000003
 51
180.000005
  0
ARC
  8
LY_1
  6
CONTINUOUS
 62
     3
  5
44
 10
-41.0915
 20
264.428346
 30
0.0
 40
0.969462
 50
0.0
 51
90.000003
  0
ARC
  8
LY_1
  6
CONTINUOUS
 62
     3
  5
45
 10
-37.940758
 20
267.579088
 30
0.0
 40
0.969462
 50
179.999995
 51
269.999997
  0
CIRCLE
  8
LY_1
  6
CONTINUOUS
 62
     3
  5
46
 10
-39.516129
 20
266.003717
 30
0.0
 40
3.688172
  0
ARC
  8
LY_1
  6
CONTINUOUS
 62
     3
  5
47
 10
-41.0915
 20
267.579088
 30
0.0
 40
0.969462
 50
269.999997
 51
0.0
  0
LINE
  8
LY_1
  6
CONTINUOUS
 62
     3
  5
48
 10
-37.940758
 20
265.39779
 30
0.0
 11
-37.092486
 21
265.39779
 31
0.0
  0
LINE
  8
LY_1
  6
CONTINUOUS
 62
     3
  5
49
 10
-38.910202
 20
264.428346
 30
0.0
 11
-38.910202
 21
263.580074
 31
0.0
  0
LINE
  8
LY_1
  6
CONTINUOUS
 62
     3
  5
4A
 10
-40.122056
 20
264.428346
 30
0.0
 11
-40.122056
 21
263.580074
 31
0.0
  0
LINE
  8
LY_1
  6
CONTINUOUS
 62
     3
  5
4B
 10
-41.939772
 20
265.39779
 30
0.0
 11
-41.0915
 21
265.39779
 31
0.0
  0
LINE
  8
LY_1
  6
CONTINUOUS
 62
     3
  5
4C
 10
-40.122056
 20
263.580074
 30
0.0
 11
-38.910202
 21
263.580074
 31
0.0
  0
LINE
  8
LY_1
  6
CONTINUOUS
 62
     3
  5
4D
 10
-41.939772
 20
266.609644
 30
0.0
 11
-41.939772
 21
265.39779
 31
0.0
  0
LINE
  8
LY_1
  6
CONTINUOUS
 62
     3
  5
4E
 10
-40.122056
 20
268.42736
 30
0.0
 11
-40.122056
 21
267.579088
 31
0.0
  0
LINE
  8
LY_1
  6
CONTINUOUS
 62
     3
  5
4F
 10
-37.940758
 20
266.609644
 30
0.0
 11
-37.092486
 21
266.609644
 31
0.0
  0
LINE
  8
LY_1
  6
CONTINUOUS
 62
     3
  5
50
 10
-38.910202
 20
268.42736
 30
0.0
 11
-38.910202
 21
267.579088
 31
0.0
  0
LINE
  8
LY_1
  6
CONTINUOUS
 62
     3
  5
51
 10
-40.122056
 20
268.42736
 30
0.0
 11
-38.910202
 21
268.42736
 31
0.0
  0
LINE
  8
LY_1
  6
CONTINUOUS
 62
     3
  5
52
 10
-37.092486
 20
266.609644
 30
0.0
 11
-37.092486
 21
265.39779
 31
0.0
  0
LINE
  8
LY_1
  6
CONTINUOUS
 62
     3
  5
53
 10
-41.939772
 20
266.609644
 30
0.0
 11
-41.0915
 21
266.609644
 31
0.0
  0
ARC
  8
LY_1
  6
CONTINUOUS
 62
     3
  5
54
 10
-31.402138
 20
217.738728
 30
0.0
 40
1.264516
 50
180.000003
 51
244.280723
  0
ARC
  8
LY_1
  6
CONTINUOUS
 62
     3
  5
55
 10
-26.554852
 20
217.738728
 30
0.0
 40
1.264516
 50
295.719277
 51
359.999997
  0
ARC
  8
LY_1
  6
CONTINUOUS
 62
     3
  5
56
 10
-28.978495
 20
222.770345
 30
0.0
 40
6.849462
 50
244.280726
 51
295.719277
  0
LINE
  8
LY_1
  6
CONTINUOUS
 62
     3
  5
57
 10
-32.666667
 20
217.738728
 30
0.0
 11
-32.666667
 21
219.467973
 31
0.0
  0
LINE
  8
LY_1
  6
CONTINUOUS
 62
     3
  5
58
 10
-25.290323
 20
218.660706
 30
0.0
 11
-32.666667
 21
218.660706
 31
0.0
  0
LINE
  8
LY_1
  6
CONTINUOUS
 62
     3
  5
59
 10
-25.290323
 20
217.738728
 30
0.0
 11
-25.290323
 21
219.467973
 31
0.0
  0
LINE
  8
LY_1
  6
CONTINUOUS
 62
     3
  5
5A
 10
-73.236559
 20
312.539461
 30
0.0
 11
30.684007
 21
312.539461
 31
0.0
  0
LINE
  8
LY_1
  6
CONTINUOUS
 62
     3
  5
5B
 10
-73.236559
 20
219.532065
 30
0.0
 11
28.978495
 21
219.532065
 31
0.0
  0
POLYLINE
  8
LY_1
  6
CONTINUOUS
 62
     3
  5
5C
 66
     1
 10
0.0
 20
0.0
 30
0.0
  0
VERTEX
  8
LY_1
  6
CONTINUOUS
 62
     3
  5
2C0
 10
28.978495
 20
219.520074
 30
0.0
  0
VERTEX
  8
LY_1
  6
CONTINUOUS
 62
     3
  5
2C1
 10
37.48263
 20
219.923815
 30
0.0
  0
VERTEX
  8
LY_1
  6
CONTINUOUS
 62
     3
  5
2C2
 10
45.838805
 20
221.129567
 30
0.0
  0
VERTEX
  8
LY_1
  6
CONTINUOUS
 62
     3
  5
2C3
 10
53.901634
 20
223.116351
 30
0.0
  0
VERTEX
  8
LY_1
  6
CONTINUOUS
 62
     3
  5
2C4
 10
61.530834
 20
225.849602
 30
0.0
  0
VERTEX
  8
LY_1
  6
CONTINUOUS
 62
     3
  5
2C5
 10
68.593669
 20
229.281764
 30
0.0
  0
VERTEX
  8
LY_1
  6
CONTINUOUS
 62
     3
  5
2C6
 10
74.967254
 20
233.353121
 30
0.0
  0
VERTEX
  8
LY_1
  6
CONTINUOUS
 62
     3
  5
2C7
 10
80.540698
 20
237.992839
 30
0.0
  0
VERTEX
  8
LY_1
  6
CONTINUOUS
 62
     3
  5
2C8
 10
85.217031
 20
243.120191
 30
0.0
  0
VERTEX
  8
LY_1
  6
CONTINUOUS
 62
     3
  5
2C9
 10
88.914891
 20
248.645971
 30
0.0
  0
VERTEX
  8
LY_1
  6
CONTINUOUS
 62
     3
  5
2CA
 10
91.56994
 20
254.474035
 30
0.0
  0
VERTEX
  8
LY_1
  6
CONTINUOUS
 62
     3
  5
2CB
 10
93.135984
 20
260.502985
 30
0.0
  0
VERTEX
  8
LY_1
  6
CONTINUOUS
 62
     3
  5
2CC
 10
93.585776
 20
266.627925
 30
0.0
  0
VERTEX
  8
LY_1
  6
CONTINUOUS
 62
     3
  5
2CD
 10
92.91149
 20
272.742289
 30
0.0
  0
VERTEX
  8
LY_1
  6
CONTINUOUS
 62
     3
  5
2CE
 10
91.124859
 20
278.739695
 30
0.0
  0
VERTEX
  8
LY_1
  6
CONTINUOUS
 62
     3
  5
2CF
 10
88.256966
 20
284.515798
 30
0.0
  0
VERTEX
  8
LY_1
  6
CONTINUOUS
 62
     3
  5
2D0
 10
84.357709
 20
289.970101
 30
0.0
  0
VERTEX
  8
LY_1
  6
CONTINUOUS
 62
     3
  5
2D1
 10
79.494931
 20
295.007706
 30
0.0
  0
VERTEX
  8
LY_1
  6
CONTINUOUS
 62
     3
  5
2D2
 10
73.753236
 20
299.540966
 30
0.0
  0
VERTEX
  8
LY_1
  6
CONTINUOUS
 62
     3
  5
2D3
 10
67.232522
 20
303.491009
 30
0.0
  0
VERTEX
  8
LY_1
  6
CONTINUOUS
 62
     3
  5
2D4
 10
60.046241
 20
306.789109
 30
0.0
  0
VERTEX
  8
LY_1
  6
CONTINUOUS
 62
     3
  5
2D5
 10
52.319424
 20
309.377885
 30
0.0
  0
VERTEX
  8
LY_1
  6
CONTINUOUS
 62
     3
  5
2D6
 10
44.186507
 20
311.212294
 30
0.0
  0
VERTEX
  8
LY_1
  6
CONTINUOUS
 62
     3
  5
2D7
 10
37.48263
 20
312.11478
 30
0.0
  0
VERTEX
  8
LY_1
  6
CONTINUOUS
 62
     3
  5
2D8
 10
30.684007
 20
312.503717
 30
0.0
  0
SEQEND
  8
LY_1
  6
CONTINUOUS
 62
     3
  5
2D9
  0
LINE
  8
LY_1
  6
CONTINUOUS
 62
     3
  5
5D
 10
-73.236559
 20
225.605728
 30
0.0
 11
-67.967742
 21
225.605728
 31
0.0
  0
LINE
  8
LY_1
  6
CONTINUOUS
 62
     3
  5
5E
 10
-73.236559
 20
228.314315
 30
0.0
 11
-67.967742
 21
228.314315
 31
0.0
  0
LINE
  8
LY_1
  6
CONTINUOUS
 62
     3
  5
5F
 10
-73.236559
 20
238.272823
 30
0.0
 11
-67.967742
 21
238.272823
 31
0.0
  0
LINE
  8
LY_1
  6
CONTINUOUS
 62
     3
  5
60
 10
-73.236559
 20
238.272823
 30
0.0
 11
-73.236559
 21
225.605728
 31
0.0
  0
LINE
  8
LY_1
  6
CONTINUOUS
 62
     3
  5
61
 10
-67.967742
 20
238.272823
 30
0.0
 11
-67.967742
 21
225.605728
 31
0.0
  0
LINE
  8
LY_1
  6
CONTINUOUS
 62
     3
  5
62
 10
-57.430108
 20
238.272823
 30
0.0
 11
-57.430108
 21
225.605728
 31
0.0
  0
LINE
  8
LY_1
  6
CONTINUOUS
 62
     3
  5
63
 10
-62.698925
 20
238.272823
 30
0.0
 11
-62.698925
 21
225.605728
 31
0.0
  0
LINE
  8
LY_1
  6
CONTINUOUS
 62
     3
  5
64
 10
-62.698925
 20
238.272823
 30
0.0
 11
-57.430108
 21
238.272823
 31
0.0
  0
LINE
  8
LY_1
  6
CONTINUOUS
 62
     3
  5
65
 10
-62.698925
 20
228.314315
 30
0.0
 11
-57.430108
 21
228.314315
 31
0.0
  0
LINE
  8
LY_1
  6
CONTINUOUS
 62
     3
  5
66
 10
-62.698925
 20
225.605728
 30
0.0
 11
-57.430108
 21
225.605728
 31
0.0
  0
LINE
  8
LY_1
  6
CONTINUOUS
 62
     3
  5
67
 10
-46.892473
 20
238.272823
 30
0.0
 11
-46.892473
 21
225.605728
 31
0.0
  0
LINE
  8
LY_1
  6
CONTINUOUS
 62
     3
  5
68
 10
-52.16129
 20
238.272823
 30
0.0
 11
-52.16129
 21
225.605728
 31
0.0
  0
LINE
  8
LY_1
  6
CONTINUOUS
 62
     3
  5
69
 10
-52.16129
 20
238.272823
 30
0.0
 11
-46.892473
 21
238.272823
 31
0.0
  0
LINE
  8
LY_1
  6
CONTINUOUS
 62
     3
  5
6A
 10
-52.16129
 20
228.314315
 30
0.0
 11
-46.892473
 21
228.314315
 31
0.0
  0
LINE
  8
LY_1
  6
CONTINUOUS
 62
     3
  5
6B
 10
-52.16129
 20
225.605728
 30
0.0
 11
-46.892473
 21
225.605728
 31
0.0
  0
LINE
  8
LY_1
  6
CONTINUOUS
 62
     3
  5
6C
 10
-73.236559
 20
220.257775
 30
0.0
 11
-67.967742
 21
220.257775
 31
0.0
  0
LINE
  8
LY_1
  6
CONTINUOUS
 62
     3
  5
6D
 10
-62.698925
 20
220.257775
 30
0.0
 11
-57.430108
 21
220.257775
 31
0.0
  0
LINE
  8
LY_1
  6
CONTINUOUS
 62
     3
  5
6E
 10
-52.16129
 20
220.257775
 30
0.0
 11
-46.892473
 21
220.257775
 31
0.0
  0
LINE
  8
LY_1
  6
CONTINUOUS
 62
     3
  5
6F
 10
-46.892473
 20
220.257775
 30
0.0
 11
-46.892473
 21
219.532065
 31
0.0
  0
LINE
  8
LY_1
  6
CONTINUOUS
 62
     3
  5
70
 10
-52.16129
 20
220.257775
 30
0.0
 11
-52.16129
 21
219.532065
 31
0.0
  0
LINE
  8
LY_1
  6
CONTINUOUS
 62
     3
  5
71
 10
-57.430108
 20
220.257775
 30
0.0
 11
-57.430108
 21
219.532065
 31
0.0
  0
LINE
  8
LY_1
  6
CONTINUOUS
 62
     3
  5
72
 10
-62.698925
 20
220.257775
 30
0.0
 11
-62.698925
 21
219.532065
 31
0.0
  0
LINE
  8
LY_1
  6
CONTINUOUS
 62
     3
  5
73
 10
-67.967742
 20
220.257775
 30
0.0
 11
-67.967742
 21
219.532065
 31
0.0
  0
LINE
  8
LY_1
  6
CONTINUOUS
 62
     3
  5
74
 10
-73.236559
 20
220.257775
 30
0.0
 11
-73.236559
 21
219.532065
 31
0.0
  0
LINE
  8
LY_1
  6
CONTINUOUS
 62
     3
  5
75
 10
-52.16129
 20
311.749659
 30
0.0
 11
-46.892473
 21
311.749659
 31
0.0
  0
LINE
  8
LY_1
  6
CONTINUOUS
 62
     3
  5
76
 10
-46.892473
 20
311.749659
 30
0.0
 11
-46.892473
 21
312.534464
 31
0.0
  0
LINE
  8
LY_1
  6
CONTINUOUS
 62
     3
  5
77
 10
-52.16129
 20
311.749659
 30
0.0
 11
-52.16129
 21
312.535464
 31
0.0
  0
LINE
  8
LY_1
  6
CONTINUOUS
 62
     3
  5
78
 10
-62.698925
 20
311.749659
 30
0.0
 11
-57.430108
 21
311.749659
 31
0.0
  0
LINE
  8
LY_1
  6
CONTINUOUS
 62
     3
  5
79
 10
-57.430108
 20
311.749659
 30
0.0
 11
-57.430108
 21
312.536463
 31
0.0
  0
LINE
  8
LY_1
  6
CONTINUOUS
 62
     3
  5
7A
 10
-62.698925
 20
311.749659
 30
0.0
 11
-62.698925
 21
312.537462
 31
0.0
  0
LINE
  8
LY_1
  6
CONTINUOUS
 62
     3
  5
7B
 10
-67.967742
 20
311.749659
 30
0.0
 11
-67.967742
 21
312.538461
 31
0.0
  0
LINE
  8
LY_1
  6
CONTINUOUS
 62
     3
  5
7C
 10
-73.236559
 20
311.749659
 30
0.0
 11
-73.236559
 21
312.539461
 31
0.0
  0
LINE
  8
LY_1
  6
CONTINUOUS
 62
     3
  5
7D
 10
-73.236559
 20
311.749659
 30
0.0
 11
-67.967742
 21
311.749659
 31
0.0
  0
LINE
  8
LY_1
  6
CONTINUOUS
 62
     3
  5
7E
 10
-52.16129
 20
306.401706
 30
0.0
 11
-46.892473
 21
306.401706
 31
0.0
  0
LINE
  8
LY_1
  6
CONTINUOUS
 62
     3
  5
7F
 10
-52.16129
 20
303.693119
 30
0.0
 11
-46.892473
 21
303.693119
 31
0.0
  0
LINE
  8
LY_1
  6
CONTINUOUS
 62
     3
  5
80
 10
-52.16129
 20
293.734611
 30
0.0
 11
-46.892473
 21
293.734611
 31
0.0
  0
LINE
  8
LY_1
  6
CONTINUOUS
 62
     3
  5
81
 10
-52.16129
 20
293.734611
 30
0.0
 11
-52.16129
 21
306.401706
 31
0.0
  0
LINE
  8
LY_1
  6
CONTINUOUS
 62
     3
  5
82
 10
-46.892473
 20
293.734611
 30
0.0
 11
-46.892473
 21
306.401706
 31
0.0
  0
LINE
  8
LY_1
  6
CONTINUOUS
 62
     3
  5
83
 10
-62.698925
 20
306.401706
 30
0.0
 11
-57.430108
 21
306.401706
 31
0.0
  0
LINE
  8
LY_1
  6
CONTINUOUS
 62
     3
  5
84
 10
-62.698925
 20
303.693119
 30
0.0
 11
-57.430108
 21
303.693119
 31
0.0
  0
LINE
  8
LY_1
  6
CONTINUOUS
 62
     3
  5
85
 10
-62.698925
 20
293.734611
 30
0.0
 11
-57.430108
 21
293.734611
 31
0.0
  0
LINE
  8
LY_1
  6
CONTINUOUS
 62
     3
  5
86
 10
-62.698925
 20
293.734611
 30
0.0
 11
-62.698925
 21
306.401706
 31
0.0
  0
LINE
  8
LY_1
  6
CONTINUOUS
 62
     3
  5
87
 10
-57.430108
 20
293.734611
 30
0.0
 11
-57.430108
 21
306.401706
 31
0.0
  0
LINE
  8
LY_1
  6
CONTINUOUS
 62
     3
  5
88
 10
-67.967742
 20
293.734611
 30
0.0
 11
-67.967742
 21
306.401706
 31
0.0
  0
LINE
  8
LY_1
  6
CONTINUOUS
 62
     3
  5
89
 10
-73.236559
 20
293.734611
 30
0.0
 11
-73.236559
 21
306.401706
 31
0.0
  0
LINE
  8
LY_1
  6
CONTINUOUS
 62
     3
  5
8A
 10
-73.236559
 20
293.734611
 30
0.0
 11
-67.967742
 21
293.734611
 31
0.0
  0
LINE
  8
LY_1
  6
CONTINUOUS
 62
     3
  5
8B
 10
-73.236559
 20
303.693119
 30
0.0
 11
-67.967742
 21
303.693119
 31
0.0
  0
LINE
  8
LY_1
  6
CONTINUOUS
 62
     3
  5
8C
 10
-73.236559
 20
306.401706
 30
0.0
 11
-67.967742
 21
306.401706
 31
0.0
  0
LINE
  8
LY_1
  6
CONTINUOUS
 62
     3
  5
8D
 10
-52.16129
 20
258.448796
 30
0.0
 11
-46.892473
 21
258.448796
 31
0.0
  0
LINE
  8
LY_1
  6
CONTINUOUS
 62
     3
  5
8E
 10
-52.16129
 20
273.558638
 30
0.0
 11
-46.892473
 21
273.558638
 31
0.0
  0
LINE
  8
LY_1
  6
CONTINUOUS
 62
     3
  5
8F
 10
-62.698925
 20
258.448796
 30
0.0
 11
-57.430108
 21
258.448796
 31
0.0
  0
LINE
  8
LY_1
  6
CONTINUOUS
 62
     3
  5
90
 10
-62.698925
 20
273.558638
 30
0.0
 11
-57.430108
 21
273.558638
 31
0.0
  0
LINE
  8
LY_1
  6
CONTINUOUS
 62
     3
  5
91
 10
-73.236559
 20
258.448796
 30
0.0
 11
-67.967742
 21
258.448796
 31
0.0
  0
LINE
  8
LY_1
  6
CONTINUOUS
 62
     3
  5
92
 10
-73.236559
 20
273.558638
 30
0.0
 11
-67.967742
 21
273.558638
 31
0.0
  0
LINE
  8
LY_1
  6
CONTINUOUS
 62
     3
  5
93
 10
-52.16129
 20
257.046728
 30
0.0
 11
-46.892473
 21
257.046728
 31
0.0
  0
LINE
  8
LY_1
  6
CONTINUOUS
 62
     3
  5
94
 10
-62.698925
 20
257.046728
 30
0.0
 11
-57.430108
 21
257.046728
 31
0.0
  0
LINE
  8
LY_1
  6
CONTINUOUS
 62
     3
  5
95
 10
-52.16129
 20
274.960706
 30
0.0
 11
-46.892473
 21
274.960706
 31
0.0
  0
LINE
  8
LY_1
  6
CONTINUOUS
 62
     3
  5
96
 10
-62.698925
 20
274.960706
 30
0.0
 11
-57.430108
 21
274.960706
 31
0.0
  0
LINE
  8
LY_1
  6
CONTINUOUS
 62
     3
  5
97
 10
-73.236559
 20
257.046728
 30
0.0
 11
-67.967742
 21
257.046728
 31
0.0
  0
LINE
  8
LY_1
  6
CONTINUOUS
 62
     3
  5
98
 10
-73.236559
 20
274.960706
 30
0.0
 11
-67.967742
 21
274.960706
 31
0.0
  0
LINE
  8
LY_1
  6
CONTINUOUS
 62
     3
  5
99
 10
-46.892473
 20
257.046728
 30
0.0
 11
-46.892473
 21
274.960706
 31
0.0
  0
LINE
  8
LY_1
  6
CONTINUOUS
 62
     3
  5
9A
 10
-52.16129
 20
257.046728
 30
0.0
 11
-52.16129
 21
274.960706
 31
0.0
  0
LINE
  8
LY_1
  6
CONTINUOUS
 62
     3
  5
9B
 10
-57.430108
 20
257.046728
 30
0.0
 11
-57.430108
 21
274.960706
 31
0.0
  0
LINE
  8
LY_1
  6
CONTINUOUS
 62
     3
  5
9C
 10
-62.698925
 20
257.046728
 30
0.0
 11
-62.698925
 21
274.960706
 31
0.0
  0
LINE
  8
LY_1
  6
CONTINUOUS
 62
     3
  5
9D
 10
-67.967742
 20
257.046728
 30
0.0
 11
-67.967742
 21
274.960706
 31
0.0
  0
LINE
  8
LY_1
  6
CONTINUOUS
 62
     3
  5
9E
 10
-73.236559
 20
257.046728
 30
0.0
 11
-73.236559
 21
274.960706
 31
0.0
  0
LINE
  8
LY_1
  6
CONTINUOUS
 62
     3
  5
9F
 10
-34.247312
 20
219.532065
 30
0.0
 11
-34.247312
 21
312.503717
 31
0.0
  0
ARC
  8
LY_1
  6
CONTINUOUS
 62
     3
  5
A0
 10
-73.236559
 20
224.800882
 30
0.0
 40
5.268817
 50
180.0
 51
270.0
  0
ARC
  8
LY_1
  6
CONTINUOUS
 62
     3
  5
A1
 10
-73.236559
 20
307.270643
 30
0.0
 40
5.268817
 50
90.0
 51
180.0
  0
ARC
  8
LY_1
  6
CONTINUOUS
 62
     3
  5
A2
 10
3.600358
 20
266.003717
 30
0.0
 40
90.008961
 50
155.810486
 51
204.189514
  0
LINE
  8
LY_1
  6
CONTINUOUS
 62
     3
  5
A3
 10
-78.505376
 20
224.800882
 30
0.0
 11
-78.505376
 21
307.2349
 31
0.0
  0
ARC
  8
LY_1
  6
CONTINUOUS
 62
     3
  5
A4
 10
-191.975327
 20
164.268706
 30
0.0
 40
1.264516
 50
115.719277
 51
179.999997
  0
ARC
  8
LY_1
  6
CONTINUOUS
 62
     3
  5
A5
 10
-187.12804
 20
164.268706
 30
0.0
 40
1.264516
 50
0.000003
 51
64.280723
  0
ARC
  8
LY_1
  6
CONTINUOUS
 62
     3
  5
A6
 10
-189.551683
 20
159.237089
 30
0.0
 40
6.849462
 50
64.280723
 51
115.719274
  0
LINE
  8
LY_1
  6
CONTINUOUS
 62
     3
  5
A7
 10
-193.239856
 20
164.268706
 30
0.0
 11
-193.239856
 21
162.503717
 31
0.0
  0
LINE
  8
LY_1
  6
CONTINUOUS
 62
     3
  5
A8
 10
-185.863511
 20
163.346728
 30
0.0
 11
-193.239856
 21
163.346728
 31
0.0
  0
LINE
  8
LY_1
  6
CONTINUOUS
 62
     3
  5
A9
 10
-185.863511
 20
164.268706
 30
0.0
 11
-185.863511
 21
162.503717
 31
0.0
  0
LINE
  8
LY_1
  6
CONTINUOUS
 62
     3
  5
AA
 10
-185.863511
 20
162.503717
 30
0.0
 11
-193.239856
 21
162.503717
 31
0.0
  0
ARC
  8
LY_1
  6
CONTINUOUS
 62
     3
  5
AB
 10
-237.816673
 20
113.580074
 30
0.0
 40
1.264516
 50
205.719277
 51
269.999997
  0
ARC
  8
LY_1
  6
CONTINUOUS
 62
     3
  5
AC
 10
-237.816673
 20
118.42736
 30
0.0
 40
1.264516
 50
90.000003
 51
154.280723
  0
ARC
  8
LY_1
  6
CONTINUOUS
 62
     3
  5
AD
 10
-232.785055
 20
116.003717
 30
0.0
 40
6.849462
 50
154.280723
 51
205.719274
  0
LINE
  8
LY_1
  6
CONTINUOUS
 62
     3
  5
AE
 10
-237.816673
 20
112.315545
 30
0.0
 11
-236.051683
 21
112.315545
 31
0.0
  0
LINE
  8
LY_1
  6
CONTINUOUS
 62
     3
  5
AF
 10
-236.894694
 20
119.691889
 30
0.0
 11
-236.894694
 21
112.315545
 31
0.0
  0
LINE
  8
LY_1
  6
CONTINUOUS
 62
     3
  5
B0
 10
-237.816673
 20
119.691889
 30
0.0
 11
-236.051683
 21
119.691889
 31
0.0
  0
LINE
  8
LY_1
  6
CONTINUOUS
 62
     3
  5
B1
 10
-236.051683
 20
119.691889
 30
0.0
 11
-236.051683
 21
112.315545
 31
0.0
  0
ARC
  8
LY_1
  6
CONTINUOUS
 62
     3
  5
B2
 10
-141.286694
 20
118.42736
 30
0.0
 40
1.264516
 50
25.719277
 51
89.999997
  0
ARC
  8
LY_1
  6
CONTINUOUS
 62
     3
  5
B3
 10
-141.286694
 20
113.580074
 30
0.0
 40
1.264516
 50
270.000003
 51
334.280723
  0
ARC
  8
LY_1
  6
CONTINUOUS
 62
     3
  5
B4
 10
-146.318312
 20
116.003717
 30
0.0
 40
6.849462
 50
334.280723
 51
25.719274
  0
LINE
  8
LY_1
  6
CONTINUOUS
 62
     3
  5
B5
 10
-141.286694
 20
119.691889
 30
0.0
 11
-143.051683
 21
119.691889
 31
0.0
  0
LINE
  8
LY_1
  6
CONTINUOUS
 62
     3
  5
B6
 10
-142.208673
 20
112.315545
 30
0.0
 11
-142.208673
 21
119.691889
 31
0.0
  0
LINE
  8
LY_1
  6
CONTINUOUS
 62
     3
  5
B7
 10
-141.286694
 20
112.315545
 30
0.0
 11
-143.051683
 21
112.315545
 31
0.0
  0
LINE
  8
LY_1
  6
CONTINUOUS
 62
     3
  5
B8
 10
-143.051683
 20
112.315545
 30
0.0
 11
-143.051683
 21
119.691889
 31
0.0
  0
ARC
  8
LY_1
  6
CONTINUOUS
 62
     3
  5
B9
 10
-30.553866
 20
114.428346
 30
0.0
 40
0.969462
 50
359.999995
 51
89.999997
  0
ARC
  8
LY_1
  6
CONTINUOUS
 62
     3
  5
BA
 10
-27.403123
 20
114.428346
 30
0.0
 40
0.969462
 50
89.999997
 51
180.0
  0
ARC
  8
LY_1
  6
CONTINUOUS
 62
     3
  5
BB
 10
-30.553866
 20
117.579088
 30
0.0
 40
0.969462
 50
270.000003
 51
0.000005
  0
CIRCLE
  8
LY_1
  6
CONTINUOUS
 62
     3
  5
BC
 10
-28.978495
 20
116.003717
 30
0.0
 40
3.688172
  0
ARC
  8
LY_1
  6
CONTINUOUS
 62
     3
  5
BD
 10
-27.403123
 20
117.579088
 30
0.0
 40
0.969462
 50
180.0
 51
270.000003
  0
LINE
  8
LY_1
  6
CONTINUOUS
 62
     3
  5
BE
 10
-30.553866
 20
115.39779
 30
0.0
 11
-31.402138
 21
115.39779
 31
0.0
  0
LINE
  8
LY_1
  6
CONTINUOUS
 62
     3
  5
BF
 10
-29.584421
 20
114.428346
 30
0.0
 11
-29.584421
 21
113.580074
 31
0.0
  0
LINE
  8
LY_1
  6
CONTINUOUS
 62
     3
  5
C0
 10
-28.372568
 20
114.428346
 30
0.0
 11
-28.372568
 21
113.580074
 31
0.0
  0
LINE
  8
LY_1
  6
CONTINUOUS
 62
     3
  5
C1
 10
-26.554852
 20
115.39779
 30
0.0
 11
-27.403123
 21
115.39779
 31
0.0
  0
LINE
  8
LY_1
  6
CONTINUOUS
 62
     3
  5
C2
 10
-28.372568
 20
113.580074
 30
0.0
 11
-29.584421
 21
113.580074
 31
0.0
  0
LINE
  8
LY_1
  6
CONTINUOUS
 62
     3
  5
C3
 10
-26.554852
 20
116.609644
 30
0.0
 11
-26.554852
 21
115.39779
 31
0.0
  0
LINE
  8
LY_1
  6
CONTINUOUS
 62
     3
  5
C4
 10
-28.372568
 20
118.42736
 30
0.0
 11
-28.372568
 21
117.579088
 31
0.0
  0
LINE
  8
LY_1
  6
CONTINUOUS
 62
     3
  5
C5
 10
-30.553866
 20
116.609644
 30
0.0
 11
-31.402138
 21
116.609644
 31
0.0
  0
LINE
  8
LY_1
  6
CONTINUOUS
 62
     3
  5
C6
 10
-29.584421
 20
118.42736
 30
0.0
 11
-29.584421
 21
117.579088
 31
0.0
  0
LINE
  8
LY_1
  6
CONTINUOUS
 62
     3
  5
C7
 10
-28.372568
 20
118.42736
 30
0.0
 11
-29.584421
 21
118.42736
 31
0.0
  0
LINE
  8
LY_1
  6
CONTINUOUS
 62
     3
  5
C8
 10
-31.402138
 20
116.609644
 30
0.0
 11
-31.402138
 21
115.39779
 31
0.0
  0
LINE
  8
LY_1
  6
CONTINUOUS
 62
     3
  5
C9
 10
-26.554852
 20
116.609644
 30
0.0
 11
-27.403123
 21
116.609644
 31
0.0
  0
ARC
  8
LY_1
  6
CONTINUOUS
 62
     3
  5
CA
 10
-37.940758
 20
114.428346
 30
0.0
 40
0.969462
 50
90.000003
 51
180.000005
  0
ARC
  8
LY_1
  6
CONTINUOUS
 62
     3
  5
CB
 10
-41.0915
 20
114.428346
 30
0.0
 40
0.969462
 50
0.0
 51
90.000003
  0
ARC
  8
LY_1
  6
CONTINUOUS
 62
     3
  5
CC
 10
-37.940758
 20
117.579088
 30
0.0
 40
0.969462
 50
179.999995
 51
269.999997
  0
CIRCLE
  8
LY_1
  6
CONTINUOUS
 62
     3
  5
CD
 10
-39.516129
 20
116.003717
 30
0.0
 40
3.688172
  0
ARC
  8
LY_1
  6
CONTINUOUS
 62
     3
  5
CE
 10
-41.0915
 20
117.579088
 30
0.0
 40
0.969462
 50
269.999997
 51
0.0
  0
LINE
  8
LY_1
  6
CONTINUOUS
 62
     3
  5
CF
 10
-37.940758
 20
115.39779
 30
0.0
 11
-37.092486
 21
115.39779
 31
0.0
  0
LINE
  8
LY_1
  6
CONTINUOUS
 62
     3
  5
D0
 10
-38.910202
 20
114.428346
 30
0.0
 11
-38.910202
 21
113.580074
 31
0.0
  0
LINE
  8
LY_1
  6
CONTINUOUS
 62
     3
  5
D1
 10
-40.122056
 20
114.428346
 30
0.0
 11
-40.122056
 21
113.580074
 31
0.0
  0
LINE
  8
LY_1
  6
CONTINUOUS
 62
     3
  5
D2
 10
-41.939772
 20
115.39779
 30
0.0
 11
-41.0915
 21
115.39779
 31
0.0
  0
LINE
  8
LY_1
  6
CONTINUOUS
 62
     3
  5
D3
 10
-40.122056
 20
113.580074
 30
0.0
 11
-38.910202
 21
113.580074
 31
0.0
  0
LINE
  8
LY_1
  6
CONTINUOUS
 62
     3
  5
D4
 10
-41.939772
 20
116.609644
 30
0.0
 11
-41.939772
 21
115.39779
 31
0.0
  0
LINE
  8
LY_1
  6
CONTINUOUS
 62
     3
  5
D5
 10
-40.122056
 20
118.42736
 30
0.0
 11
-40.122056
 21
117.579088
 31
0.0
  0
LINE
  8
LY_1
  6
CONTINUOUS
 62
     3
  5
D6
 10
-37.940758
 20
116.609644
 30
0.0
 11
-37.092486
 21
116.609644
 31
0.0
  0
LINE
  8
LY_1
  6
CONTINUOUS
 62
     3
  5
D7
 10
-38.910202
 20
118.42736
 30
0.0
 11
-38.910202
 21
117.579088
 31
0.0
  0
LINE
  8
LY_1
  6
CONTINUOUS
 62
     3
  5
D8
 10
-40.122056
 20
118.42736
 30
0.0
 11
-38.910202
 21
118.42736
 31
0.0
  0
LINE
  8
LY_1
  6
CONTINUOUS
 62
     3
  5
D9
 10
-37.092486
 20
116.609644
 30
0.0
 11
-37.092486
 21
115.39779
 31
0.0
  0
LINE
  8
LY_1
  6
CONTINUOUS
 62
     3
  5
DA
 10
-41.939772
 20
116.609644
 30
0.0
 11
-41.0915
 21
116.609644
 31
0.0
  0
ARC
  8
LY_1
  6
CONTINUOUS
 62
     3
  5
DB
 10
-31.402138
 20
164.268706
 30
0.0
 40
1.264516
 50
115.719277
 51
179.999997
  0
ARC
  8
LY_1
  6
CONTINUOUS
 62
     3
  5
DC
 10
-26.554852
 20
164.268706
 30
0.0
 40
1.264516
 50
0.000003
 51
64.280723
  0
ARC
  8
LY_1
  6
CONTINUOUS
 62
     3
  5
DD
 10
-28.978495
 20
159.237089
 30
0.0
 40
6.849462
 50
64.280723
 51
115.719274
  0
LINE
  8
LY_1
  6
CONTINUOUS
 62
     3
  5
DE
 10
-32.666667
 20
164.268706
 30
0.0
 11
-32.666667
 21
162.503717
 31
0.0
  0
LINE
  8
LY_1
  6
CONTINUOUS
 62
     3
  5
DF
 10
-25.290323
 20
163.346728
 30
0.0
 11
-32.666667
 21
163.346728
 31
0.0
  0
LINE
  8
LY_1
  6
CONTINUOUS
 62
     3
  5
E0
 10
-25.290323
 20
164.268706
 30
0.0
 11
-25.290323
 21
162.503717
 31
0.0
  0
LINE
  8
LY_1
  6
CONTINUOUS
 62
     3
  5
E1
 10
-25.290323
 20
162.503717
 30
0.0
 11
-32.666667
 21
162.503717
 31
0.0
  0
LINE
  8
LY_1
  6
CONTINUOUS
 62
     3
  5
E2
 10
-73.236559
 20
162.539461
 30
0.0
 11
30.684007
 21
162.539461
 31
0.0
  0
LINE
  8
LY_1
  6
CONTINUOUS
 62
     3
  5
E3
 10
21.0
 20
69.532065
 30
0.0
 11
28.978495
 21
69.532065
 31
0.0
  0
POLYLINE
  8
LY_1
  6
CONTINUOUS
 62
     3
  5
E4
 66
     1
 10
0.0
 20
0.0
 30
0.0
  0
VERTEX
  8
LY_1
  6
CONTINUOUS
 62
     3
  5
2DA
 10
28.978495
 20
69.520074
 30
0.0
  0
VERTEX
  8
LY_1
  6
CONTINUOUS
 62
     3
  5
2DB
 10
37.48263
 20
69.923815
 30
0.0
  0
VERTEX
  8
LY_1
  6
CONTINUOUS
 62
     3
  5
2DC
 10
45.838805
 20
71.129567
 30
0.0
  0
VERTEX
  8
LY_1
  6
CONTINUOUS
 62
     3
  5
2DD
 10
53.901634
 20
73.116351
 30
0.0
  0
VERTEX
  8
LY_1
  6
CONTINUOUS
 62
     3
  5
2DE
 10
61.530834
 20
75.849602
 30
0.0
  0
VERTEX
  8
LY_1
  6
CONTINUOUS
 62
     3
  5
2DF
 10
68.593669
 20
79.281764
 30
0.0
  0
VERTEX
  8
LY_1
  6
CONTINUOUS
 62
     3
  5
2E0
 10
74.967254
 20
83.353121
 30
0.0
  0
VERTEX
  8
LY_1
  6
CONTINUOUS
 62
     3
  5
2E1
 10
80.540698
 20
87.992839
 30
0.0
  0
VERTEX
  8
LY_1
  6
CONTINUOUS
 62
     3
  5
2E2
 10
85.217031
 20
93.120191
 30
0.0
  0
VERTEX
  8
LY_1
  6
CONTINUOUS
 62
     3
  5
2E3
 10
88.914891
 20
98.645971
 30
0.0
  0
VERTEX
  8
LY_1
  6
CONTINUOUS
 62
     3
  5
2E4
 10
91.56994
 20
104.474035
 30
0.0
  0
VERTEX
  8
LY_1
  6
CONTINUOUS
 62
     3
  5
2E5
 10
93.135984
 20
110.502985
 30
0.0
  0
VERTEX
  8
LY_1
  6
CONTINUOUS
 62
     3
  5
2E6
 10
93.585776
 20
116.627925
 30
0.0
  0
VERTEX
  8
LY_1
  6
CONTINUOUS
 62
     3
  5
2E7
 10
92.91149
 20
122.742289
 30
0.0
  0
VERTEX
  8
LY_1
  6
CONTINUOUS
 62
     3
  5
2E8
 10
91.124859
 20
128.739695
 30
0.0
  0
VERTEX
  8
LY_1
  6
CONTINUOUS
 62
     3
  5
2E9
 10
88.256966
 20
134.515798
 30
0.0
  0
VERTEX
  8
LY_1
  6
CONTINUOUS
 62
     3
  5
2EA
 10
84.357709
 20
139.970101
 30
0.0
  0
VERTEX
  8
LY_1
  6
CONTINUOUS
 62
     3
  5
2EB
 10
79.494931
 20
145.007706
 30
0.0
  0
VERTEX
  8
LY_1
  6
CONTINUOUS
 62
     3
  5
2EC
 10
73.753236
 20
149.540966
 30
0.0
  0
VERTEX
  8
LY_1
  6
CONTINUOUS
 62
     3
  5
2ED
 10
67.232522
 20
153.491009
 30
0.0
  0
VERTEX
  8
LY_1
  6
CONTINUOUS
 62
     3
  5
2EE
 10
60.046241
 20
156.789109
 30
0.0
  0
VERTEX
  8
LY_1
  6
CONTINUOUS
 62
     3
  5
2EF
 10
52.319424
 20
159.377885
 30
0.0
  0
VERTEX
  8
LY_1
  6
CONTINUOUS
 62
     3
  5
2F0
 10
44.186507
 20
161.212294
 30
0.0
  0
VERTEX
  8
LY_1
  6
CONTINUOUS
 62
     3
  5
2F1
 10
37.48263
 20
162.11478
 30
0.0
  0
VERTEX
  8
LY_1
  6
CONTINUOUS
 62
     3
  5
2F2
 10
30.684007
 20
162.503717
 30
0.0
  0
SEQEND
  8
LY_1
  6
CONTINUOUS
 62
     3
  5
2F3
  0
SOLID
  8
LY_1
  6
CONTINUOUS
 62
    80
  5
E5
 10
-30.0
 20
73.291779
 30
0.0
 11
-30.0
 21
75.791779
 31
0.0
 12
21.0
 22
73.291779
 32
0.0
 13
21.0
 23
75.791779
 33
0.0
  0
INSERT
  8
LY_1
  6
BYBLOCK
 62
    80
  5
132
  2
*X0
 10
0.0
 20
0.0
 30
0.0
  0
INSERT
  8
LY_1
  6
BYBLOCK
 62
    80
  5
1CE
  2
*X1
 10
0.0
 20
0.0
 30
0.0
  0
ARC
  8
LY_1
  6
CONTINUOUS
 62
     3
  5
1CF
 10
-189.551683
 20
116.003717
 30
0.0
 40
48.465919
 50
234.709271
 51
305.290729
  0
LINE
  8
LY_1
  6
CONTINUOUS
 62
     3
  5
1D0
 10
-30.0
 20
73.291779
 30
0.0
 11
21.0
 21
73.291779
 31
0.0
  0
LINE
  8
LY_1
  6
CONTINUOUS
 62
     3
  5
1D1
 10
-30.0
 20
75.791779
 30
0.0
 11
21.0
 21
75.791779
 31
0.0
  0
LINE
  8
LY_1
  6
DASHED
 62
    80
  5
1D2
 10
-153.551683
 20
0.0
 30
0.0
 11
-153.551683
 21
9.0
 31
0.0
  0
LINE
  8
LY_1
  6
DASHED
 62
    80
  5
1D3
 10
-145.551683
 20
0.0
 30
0.0
 11
-145.551683
 21
9.0
 31
0.0
  0
LINE
  8
LY_1
  6
CONTINUOUS
 62
     3
  5
1D4
 10
-140.551683
 20
0.0
 30
0.0
 11
-140.551683
 21
7.0
 31
0.0
  0
ARC
  8
LY_1
  6
CONTINUOUS
 62
     3
  5
1D5
 10
-142.551683
 20
7.0
 30
0.0
 40
2.0
 50
0.0
 51
90.0
  0
LINE
  8
LY_1
  6
CONTINUOUS
 62
     3
  5
1D6
 10
-142.551683
 20
9.0
 30
0.0
 11
-155.551683
 21
9.0
 31
0.0
  0
LINE
  8
LY_1
  6
CONTINUOUS
 62
     3
  5
1D7
 10
-140.551683
 20
0.0
 30
0.0
 11
-169.551683
 21
0.0
 31
0.0
  0
LINE
  8
LY_1
  6
CONTINUOUS
 62
     3
  5
1D8
 10
-169.551683
 20
0.0
 30
0.0
 11
-171.861085
 21
4.0
 31
0.0
  0
ARC
  8
LY_1
  6
CONTINUOUS
 62
     3
  5
1D9
 10
-155.551683
 20
15.0
 30
0.0
 40
6.0
 50
180.0
 51
270.0
  0
LINE
  8
LY_1
  6
CONTINUOUS
 62
     3
  5
1DA
 10
-161.551683
 20
15.0
 30
0.0
 11
-161.551683
 21
78.878927
 31
0.0
  0
LINE
  8
LY_1
  6
CONTINUOUS
 62
     3
  5
1DB
 10
-213.551683
 20
63.756819
 30
0.0
 11
-217.551683
 21
63.756819
 31
0.0
  0
LINE
  8
LY_1
  6
CONTINUOUS
 62
     3
  5
1DC
 10
-217.551683
 20
63.756819
 30
0.0
 11
-217.551683
 21
78.878927
 31
0.0
  0
LINE
  8
LY_1
  6
CONTINUOUS
 62
     3
  5
1DD
 10
-215.051683
 20
61.756819
 30
0.0
 11
-216.551683
 21
61.756819
 31
0.0
  0
LINE
  8
LY_1
  6
CONTINUOUS
 62
     3
  5
1DE
 10
-213.551683
 20
60.756819
 30
0.0
 11
-215.051683
 21
60.756819
 31
0.0
  0
LINE
  8
LY_1
  6
CONTINUOUS
 62
     3
  5
1DF
 10
-217.551683
 20
53.006819
 30
0.0
 11
-217.551683
 21
58.506819
 31
0.0
  0
LINE
  8
LY_1
  6
CONTINUOUS
 62
     3
  5
1E0
 10
-218.551683
 20
53.756819
 30
0.0
 11
-218.551683
 21
57.756819
 31
0.0
  0
LINE
  8
LY_1
  6
CONTINUOUS
 62
     3
  5
1E1
 10
-217.551683
 20
58.506819
 30
0.0
 11
-216.551683
 21
58.506819
 31
0.0
  0
LINE
  8
LY_1
  6
CONTINUOUS
 62
     3
  5
1E2
 10
-218.551683
 20
57.756819
 30
0.0
 11
-217.551683
 21
57.756819
 31
0.0
  0
LINE
  8
LY_1
  6
CONTINUOUS
 62
     3
  5
1E3
 10
-217.551683
 20
53.006819
 30
0.0
 11
-216.551683
 21
53.006819
 31
0.0
  0
LINE
  8
LY_1
  6
CONTINUOUS
 62
     3
  5
1E4
 10
-218.551683
 20
53.756819
 30
0.0
 11
-217.551683
 21
53.756819
 31
0.0
  0
LINE
  8
LY_1
  6
CONTINUOUS
 62
     3
  5
1E5
 10
-209.551683
 20
0.0
 30
0.0
 11
-207.242282
 21
4.0
 31
0.0
  0
LINE
  8
LY_1
  6
CONTINUOUS
 62
     3
  5
1E6
 10
-215.051683
 20
10.0
 30
0.0
 11
-216.551683
 21
10.0
 31
0.0
  0
LINE
  8
LY_1
  6
CONTINUOUS
 62
     3
  5
1E7
 10
-215.051683
 20
11.0
 30
0.0
 11
-213.551683
 21
11.0
 31
0.0
  0
LINE
  8
LY_1
  6
CONTINUOUS
 62
     3
  5
1E8
 10
-217.551683
 20
13.25
 30
0.0
 11
-216.551683
 21
13.25
 31
0.0
  0
LINE
  8
LY_1
  6
CONTINUOUS
 62
     3
  5
1E9
 10
-217.551683
 20
18.75
 30
0.0
 11
-216.551683
 21
18.75
 31
0.0
  0
LINE
  8
LY_1
  6
CONTINUOUS
 62
     3
  5
1EA
 10
-218.551683
 20
18.0
 30
0.0
 11
-217.551683
 21
18.0
 31
0.0
  0
LINE
  8
LY_1
  6
CONTINUOUS
 62
     3
  5
1EB
 10
-218.551683
 20
14.0
 30
0.0
 11
-217.551683
 21
14.0
 31
0.0
  0
LINE
  8
LY_1
  6
CONTINUOUS
 62
     3
  5
1EC
 10
-218.551683
 20
18.0
 30
0.0
 11
-218.551683
 21
14.0
 31
0.0
  0
LINE
  8
LY_1
  6
CONTINUOUS
 62
     3
  5
1ED
 10
-217.551683
 20
18.75
 30
0.0
 11
-217.551683
 21
13.25
 31
0.0
  0
LINE
  8
LY_1
  6
DASHED
 62
    80
  5
1EE
 10
-225.551683
 20
0.0
 30
0.0
 11
-225.551683
 21
9.0
 31
0.0
  0
LINE
  8
LY_1
  6
DASHED
 62
    80
  5
1EF
 10
-233.551683
 20
0.0
 30
0.0
 11
-233.551683
 21
9.0
 31
0.0
  0
LINE
  8
LY_1
  6
CONTINUOUS
 62
     3
  5
1F0
 10
-238.551683
 20
0.0
 30
0.0
 11
-238.551683
 21
7.0
 31
0.0
  0
ARC
  8
LY_1
  6
CONTINUOUS
 62
     3
  5
1F1
 10
-236.551683
 20
7.0
 30
0.0
 40
2.0
 50
90.0
 51
180.0
  0
LINE
  8
LY_1
  6
CONTINUOUS
 62
     3
  5
1F2
 10
-213.551683
 20
9.0
 30
0.0
 11
-236.551683
 21
9.0
 31
0.0
  0
LINE
  8
LY_1
  6
CONTINUOUS
 62
     3
  5
1F3
 10
-209.551683
 20
0.0
 30
0.0
 11
-238.551683
 21
0.0
 31
0.0
  0
LINE
  8
LY_1
  6
CONTINUOUS
 62
     3
  5
1F4
 10
-215.051683
 20
10.0
 30
0.0
 11
-215.051683
 21
61.756819
 31
0.0
  0
LINE
  8
LY_1
  6
CONTINUOUS
 62
     3
  5
1F5
 10
-216.551683
 20
10.0
 30
0.0
 11
-216.551683
 21
61.756819
 31
0.0
  0
LINE
  8
LY_1
  6
CONTINUOUS
 62
     3
  5
1F6
 10
-213.551683
 20
9.0
 30
0.0
 11
-213.551683
 21
63.756819
 31
0.0
  0
LINE
  8
LY_1
  6
CONTINUOUS
 62
     3
  5
1F7
 10
-171.861085
 20
4.0
 30
0.0
 11
-207.242282
 21
4.0
 31
0.0
  0
LINE
  8
LY_1
  6
CONTINUOUS
 62
     3
  5
1F8
 10
21.0
 20
63.678642
 30
0.0
 11
21.0
 21
70.791779
 31
0.0
  0
LINE
  8
LY_1
  6
CONTINUOUS
 62
     3
  5
1F9
 10
21.0
 20
70.096703
 30
0.0
 11
21.0
 21
70.291779
 31
0.0
  0
ARC
  8
LY_1
  6
CONTINUOUS
 62
     3
  5
1FA
 10
23.5
 20
63.678642
 30
0.0
 40
2.5
 50
180.0
 51
270.0
  0
LINE
  8
LY_1
  6
CONTINUOUS
 62
     3
  5
1FB
 10
30.0
 20
61.178642
 30
0.0
 11
23.5
 21
61.178642
 31
0.0
  0
LINE
  8
LY_1
  6
CONTINUOUS
 62
     3
  5
1FC
 10
21.0
 20
75.791779
 30
0.0
 11
21.0
 21
73.291779
 31
0.0
  0
ARC
  8
LY_1
  6
CONTINUOUS
 62
     3
  5
1FD
 10
18.5
 20
70.791779
 30
0.0
 40
2.5
 50
0.0
 51
90.0
  0
LINE
  8
LY_1
  6
CONTINUOUS
 62
     3
  5
1FE
 10
-30.0
 20
73.291779
 30
0.0
 11
-30.0
 21
75.791779
 31
0.0
  0
ARC
  8
LY_1
  6
CONTINUOUS
 62
     3
  5
1FF
 10
-27.5
 20
70.791779
 30
0.0
 40
2.5
 50
90.0
 51
180.0
  0
LINE
  8
LY_1
  6
CONTINUOUS
 62
     3
  5
200
 10
30.0
 20
0.0
 30
0.0
 11
-30.0
 21
0.0
 31
0.0
  0
LINE
  8
LY_1
  6
CONTINUOUS
 62
     3
  5
201
 10
30.0
 20
9.0
 30
0.0
 11
-30.0
 21
9.0
 31
0.0
  0
LINE
  8
LY_1
  6
DASHED
 62
    80
  5
202
 10
4.0
 20
0.0
 30
0.0
 11
4.0
 21
9.0
 31
0.0
  0
LINE
  8
LY_1
  6
DASHED
 62
    80
  5
203
 10
-4.0
 20
0.0
 30
0.0
 11
-4.0
 21
9.0
 31
0.0
  0
LINE
  8
LY_1
  6
CONTINUOUS
 62
     3
  5
204
 10
34.0
 20
48.5
 30
0.0
 11
62.0
 21
48.5
 31
0.0
  0
LINE
  8
LY_1
  6
CONTINUOUS
 62
     3
  5
205
 10
34.0
 20
14.0
 30
0.0
 11
34.0
 21
50.0
 31
0.0
  0
LINE
  8
LY_1
  6
CONTINUOUS
 62
     3
  5
206
 10
37.0
 20
15.5
 30
0.0
 11
37.0
 21
48.5
 31
0.0
  0
LINE
  8
LY_1
  6
CONTINUOUS
 62
     3
  5
207
 10
63.0
 20
16.5
 30
0.0
 11
63.0
 21
47.5
 31
0.0
  0
LINE
  8
LY_1
  6
CONTINUOUS
 62
     3
  5
208
 10
71.0
 20
15.5
 30
0.0
 11
71.0
 21
48.5
 31
0.0
  0
LINE
  8
LY_1
  6
CONTINUOUS
 62
     3
  5
209
 10
76.0
 20
15.5
 30
0.0
 11
76.0
 21
48.5
 31
0.0
  0
ARC
  8
LY_1
  6
CONTINUOUS
 62
     3
  5
20A
 10
40.169867
 20
5.863812
 30
0.0
 40
10.211015
 50
127.173919
 51
174.8546
  0
LINE
  8
LY_1
  6
CONTINUOUS
 62
     3
  5
20B
 10
62.0
 20
48.5
 30
0.0
 11
63.0
 21
47.5
 31
0.0
  0
LINE
  8
LY_1
  6
CONTINUOUS
 62
     3
  5
20C
 10
62.0
 20
15.5
 30
0.0
 11
62.0
 21
48.5
 31
0.0
  0
LINE
  8
LY_1
  6
CONTINUOUS
 62
     3
  5
20D
 10
67.5
 20
44.25
 30
0.0
 11
71.0
 21
44.25
 31
0.0
  0
LINE
  8
LY_1
  6
CONTINUOUS
 62
     3
  5
20E
 10
67.5
 20
44.25
 30
0.0
 11
66.489637
 21
46.0
 31
0.0
  0
LINE
  8
LY_1
  6
CONTINUOUS
 62
     3
  5
20F
 10
66.489637
 20
46.0
 30
0.0
 11
65.479274
 21
44.25
 31
0.0
  0
LINE
  8
LY_1
  6
CONTINUOUS
 62
     3
  5
210
 10
65.479274
 20
44.25
 30
0.0
 11
64.468911
 21
46.0
 31
0.0
  0
LINE
  8
LY_1
  6
CONTINUOUS
 62
     3
  5
211
 10
64.468911
 20
46.0
 30
0.0
 11
63.458548
 21
44.25
 31
0.0
  0
LINE
  8
LY_1
  6
CONTINUOUS
 62
     3
  5
212
 10
63.458548
 20
44.25
 30
0.0
 11
63.0
 21
45.044229
 31
0.0
  0
LINE
  8
LY_1
  6
CONTINUOUS
 62
     3
  5
213
 10
71.0
 20
48.5
 30
0.0
 11
76.0
 21
48.5
 31
0.0
  0
LINE
  8
LY_1
  6
CONTINUOUS
 62
     3
  5
214
 10
34.0
 20
15.5
 30
0.0
 11
62.0
 21
15.5
 31
0.0
  0
LINE
  8
LY_1
  6
CONTINUOUS
 62
     3
  5
215
 10
62.0
 20
15.5
 30
0.0
 11
63.0
 21
16.5
 31
0.0
  0
LINE
  8
LY_1
  6
CONTINUOUS
 62
     3
  5
216
 10
68.510363
 20
19.75
 30
0.0
 11
67.5
 21
18.0
 31
0.0
  0
LINE
  8
LY_1
  6
CONTINUOUS
 62
     3
  5
217
 10
67.5
 20
18.0
 30
0.0
 11
66.489637
 21
19.75
 31
0.0
  0
LINE
  8
LY_1
  6
CONTINUOUS
 62
     3
  5
218
 10
66.489637
 20
19.75
 30
0.0
 11
65.479274
 21
18.0
 31
0.0
  0
LINE
  8
LY_1
  6
CONTINUOUS
 62
     3
  5
219
 10
65.479274
 20
18.0
 30
0.0
 11
64.468911
 21
19.75
 31
0.0
  0
LINE
  8
LY_1
  6
CONTINUOUS
 62
     3
  5
21A
 10
68.510363
 20
19.75
 30
0.0
 11
71.0
 21
19.75
 31
0.0
  0
LINE
  8
LY_1
  6
CONTINUOUS
 62
     3
  5
21B
 10
71.0
 20
15.5
 30
0.0
 11
76.0
 21
15.5
 31
0.0
  0
LINE
  8
LY_1
  6
CONTINUOUS
 62
     3
  5
21C
 10
64.468911
 20
19.75
 30
0.0
 11
63.458548
 21
18.0
 31
0.0
  0
LINE
  8
LY_1
  6
CONTINUOUS
 62
     3
  5
21D
 10
63.458548
 20
18.0
 30
0.0
 11
63.0
 21
18.794229
 31
0.0
  0
LINE
  8
LY_1
  6
CONTINUOUS
 62
     3
  5
21E
 10
67.5
 20
44.25
 30
0.0
 11
68.510363
 21
19.75
 31
0.0
  0
LINE
  8
LY_1
  6
CONTINUOUS
 62
     3
  5
21F
 10
66.489637
 20
46.0
 30
0.0
 11
67.5
 21
18.0
 31
0.0
  0
LINE
  8
LY_1
  6
CONTINUOUS
 62
     3
  5
220
 10
65.479274
 20
44.25
 30
0.0
 11
66.489637
 21
19.75
 31
0.0
  0
LINE
  8
LY_1
  6
CONTINUOUS
 62
     3
  5
221
 10
65.479274
 20
18.0
 30
0.0
 11
64.468911
 21
46.0
 31
0.0
  0
LINE
  8
LY_1
  6
CONTINUOUS
 62
     3
  5
222
 10
63.458548
 20
44.25
 30
0.0
 11
64.468911
 21
19.75
 31
0.0
  0
LINE
  8
LY_1
  6
CONTINUOUS
 62
     3
  5
223
 10
63.0
 20
29.119201
 30
0.0
 11
63.458548
 21
18.0
 31
0.0
  0
LINE
  8
LY_1
  6
CONTINUOUS
 62
     3
  5
224
 10
71.0
 20
35.0
 30
0.0
 11
76.0
 21
35.0
 31
0.0
  0
LINE
  8
LY_1
  6
CONTINUOUS
 62
     3
  5
225
 10
71.0
 20
29.0
 30
0.0
 11
76.0
 21
29.0
 31
0.0
  0
LINE
  8
LY_1
  6
CONTINUOUS
 62
     3
  5
226
 10
71.0
 20
45.5
 30
0.0
 11
76.0
 21
45.5
 31
0.0
  0
LINE
  8
LY_1
  6
CONTINUOUS
 62
     3
  5
227
 10
71.0
 20
18.5
 30
0.0
 11
76.0
 21
18.5
 31
0.0
  0
SOLID
  8
LY_1
  6
CONTINUOUS
 62
    80
  5
228
 10
34.0
 20
48.5
 30
0.0
 11
37.0
 21
48.5
 31
0.0
 12
34.0
 22
15.5
 32
0.0
 13
37.0
 23
15.5
 33
0.0
  0
ARC
  8
LY_1
  6
CONTINUOUS
 62
     3
  5
229
 10
40.169867
 20
58.136188
 30
0.0
 40
10.211015
 50
185.1454
 51
232.826081
  0
LINE
  8
LY_1
  6
CONTINUOUS
 62
     3
  5
22A
 10
30.0
 20
0.0
 30
0.0
 11
30.0
 21
61.178642
 31
0.0
  0
LINE
  8
LY_1
  6
CONTINUOUS
 62
     3
  5
22B
 10
-30.0
 20
0.0
 30
0.0
 11
-30.0
 21
70.791779
 31
0.0
  0
LINE
  8
LY_1
  6
CONTINUOUS
 62
     3
  5
22C
 10
-201.729429
 20
101.704651
 30
0.0
 11
-196.922708
 21
106.511372
 31
0.0
  0
LINE
  8
LY_1
  6
CONTINUOUS
 62
     3
  5
22D
 10
-188.051683
 20
97.06302
 30
0.0
 11
-188.051683
 21
104.097836
 31
0.0
  0
LINE
  8
LY_1
  6
CONTINUOUS
 62
     3
  5
22E
 10
-191.051683
 20
97.06302
 30
0.0
 11
-191.051683
 21
104.097836
 31
0.0
  0
LINE
  8
LY_1
  6
CONTINUOUS
 62
     3
  5
22F
 10
-177.373938
 20
101.704651
 30
0.0
 11
-182.180659
 21
106.511372
 31
0.0
  0
LINE
  8
LY_1
  6
CONTINUOUS
 62
     3
  5
230
 10
-173.295158
 20
134.381563
 30
0.0
 11
-167.655863
 21
140.020858
 31
0.0
  0
LINE
  8
LY_1
  6
CONTINUOUS
 62
     3
  5
231
 10
-171.199407
 20
132.234673
 30
0.0
 11
-165.534543
 21
137.899537
 31
0.0
  0
LINE
  8
LY_1
  6
CONTINUOUS
 62
     3
  5
232
 10
-205.808209
 20
134.381563
 30
0.0
 11
-211.447504
 21
140.020858
 31
0.0
  0
LINE
  8
LY_1
  6
CONTINUOUS
 62
     3
  5
233
 10
-207.90396
 20
132.234673
 30
0.0
 11
-213.568824
 21
137.899537
 31
0.0
  0
LINE
  8
LY_1
  6
CONTINUOUS
 62
     3
  5
234
 10
-196.909752
 20
125.483106
 30
0.0
 11
-201.884119
 21
130.457472
 31
0.0
  0
LINE
  8
LY_1
  6
CONTINUOUS
 62
     3
  5
235
 10
-199.031073
 20
123.361786
 30
0.0
 11
-204.005439
 21
128.336152
 31
0.0
  0
LINE
  8
LY_1
  6
CONTINUOUS
 62
     3
  5
236
 10
-188.051683
 20
140.457756
 30
0.0
 11
-188.051683
 21
148.469083
 31
0.0
  0
LINE
  8
LY_1
  6
CONTINUOUS
 62
     3
  5
237
 10
-191.051683
 20
140.457756
 30
0.0
 11
-191.051683
 21
148.469083
 31
0.0
  0
LINE
  8
LY_1
  6
CONTINUOUS
 62
     3
  5
238
 10
-180.072294
 20
123.361786
 30
0.0
 11
-175.097928
 21
128.336152
 31
0.0
  0
LINE
  8
LY_1
  6
CONTINUOUS
 62
     3
  5
239
 10
-182.193615
 20
125.483106
 30
0.0
 11
-177.219248
 21
130.457472
 31
0.0
  0
LINE
  8
LY_1
  6
CONTINUOUS
 62
     3
  5
23A
 10
-177.640002
 20
114.503717
 30
0.0
 11
-170.610987
 21
114.503717
 31
0.0
  0
LINE
  8
LY_1
  6
CONTINUOUS
 62
     3
  5
23B
 10
-177.645803
 20
117.503717
 30
0.0
 11
-170.610987
 21
117.503717
 31
0.0
  0
LINE
  8
LY_1
  6
CONTINUOUS
 62
     3
  5
23C
 10
-165.534543
 20
94.107897
 30
0.0
 11
-171.199407
 21
99.772761
 31
0.0
  0
LINE
  8
LY_1
  6
CONTINUOUS
 62
     3
  5
23D
 10
-167.655863
 20
91.986576
 30
0.0
 11
-173.295158
 21
97.625872
 31
0.0
  0
LINE
  8
LY_1
  6
CONTINUOUS
 62
     3
  5
23E
 10
-188.051683
 20
83.538351
 30
0.0
 11
-188.051683
 21
91.549679
 31
0.0
  0
LINE
  8
LY_1
  6
CONTINUOUS
 62
     3
  5
23F
 10
-191.051683
 20
83.538351
 30
0.0
 11
-191.051683
 21
91.549679
 31
0.0
  0
LINE
  8
LY_1
  6
CONTINUOUS
 62
     3
  5
240
 10
-211.445221
 20
91.988859
 30
0.0
 11
-205.808209
 21
97.625872
 31
0.0
  0
LINE
  8
LY_1
  6
CONTINUOUS
 62
     3
  5
241
 10
-213.568824
 20
94.107897
 30
0.0
 11
-207.90396
 21
99.772761
 31
0.0
  0
LINE
  8
LY_1
  6
CONTINUOUS
 62
     3
  5
242
 10
-208.49238
 20
114.503717
 30
0.0
 11
-201.463365
 21
114.503717
 31
0.0
  0
LINE
  8
LY_1
  6
CONTINUOUS
 62
     3
  5
243
 10
-208.49238
 20
117.503717
 30
0.0
 11
-201.457564
 21
117.503717
 31
0.0
  0
ARC
  8
LY_1
  6
CONTINUOUS
 62
     3
  5
244
 10
-189.551683
 20
116.003717
 30
0.0
 40
24.5
 50
312.656716
 51
347.343284
  0
ARC
  8
LY_1
  6
CONTINUOUS
 62
     3
  5
245
 10
-170.239961
 20
95.044056
 30
0.0
 40
4.0
 50
132.656716
 51
312.656716
  0
ARC
  8
LY_1
  6
CONTINUOUS
 62
     3
  5
246
 10
-170.239961
 20
95.044056
 30
0.0
 40
4.0
 50
132.656716
 51
312.656716
  0
ARC
  8
LY_1
  6
CONTINUOUS
 62
     3
  5
247
 10
-161.744224
 20
109.759105
 30
0.0
 40
4.0
 50
347.343284
 51
167.343284
  0
ARC
  8
LY_1
  6
CONTINUOUS
 62
     3
  5
248
 10
-161.744224
 20
109.759105
 30
0.0
 40
4.0
 50
347.343284
 51
167.343284
  0
ARC
  8
LY_1
  6
CONTINUOUS
 62
     3
  5
249
 10
-189.551683
 20
116.003717
 30
0.0
 40
32.5
 50
312.656716
 51
347.343284
  0
ARC
  8
LY_1
  6
CONTINUOUS
 62
     3
  5
24A
 10
-189.551683
 20
116.003717
 30
0.0
 40
24.5
 50
252.656716
 51
287.343284
  0
ARC
  8
LY_1
  6
CONTINUOUS
 62
     3
  5
24B
 10
-198.047421
 20
88.799445
 30
0.0
 40
4.0
 50
72.656716
 51
252.656716
  0
ARC
  8
LY_1
  6
CONTINUOUS
 62
     3
  5
24C
 10
-198.047421
 20
88.799445
 30
0.0
 40
4.0
 50
72.656716
 51
252.656716
  0
ARC
  8
LY_1
  6
CONTINUOUS
 62
     3
  5
24D
 10
-181.055946
 20
88.799445
 30
0.0
 40
4.0
 50
287.343284
 51
107.343284
  0
ARC
  8
LY_1
  6
CONTINUOUS
 62
     3
  5
24E
 10
-181.055946
 20
88.799445
 30
0.0
 40
4.0
 50
287.343284
 51
107.343284
  0
ARC
  8
LY_1
  6
CONTINUOUS
 62
     3
  5
24F
 10
-189.551683
 20
116.003717
 30
0.0
 40
32.5
 50
252.656716
 51
287.343284
  0
ARC
  8
LY_1
  6
CONTINUOUS
 62
     3
  5
250
 10
-189.551683
 20
116.003717
 30
0.0
 40
24.5
 50
192.656716
 51
227.343284
  0
ARC
  8
LY_1
  6
CONTINUOUS
 62
     3
  5
251
 10
-217.359143
 20
109.759105
 30
0.0
 40
4.0
 50
12.656716
 51
192.656716
  0
ARC
  8
LY_1
  6
CONTINUOUS
 62
     3
  5
252
 10
-217.359143
 20
109.759105
 30
0.0
 40
4.0
 50
12.656716
 51
192.656716
  0
ARC
  8
LY_1
  6
CONTINUOUS
 62
     3
  5
253
 10
-208.863406
 20
95.044056
 30
0.0
 40
4.0
 50
227.343284
 51
47.343284
  0
ARC
  8
LY_1
  6
CONTINUOUS
 62
     3
  5
254
 10
-208.863406
 20
95.044056
 30
0.0
 40
4.0
 50
227.343284
 51
47.343284
  0
ARC
  8
LY_1
  6
CONTINUOUS
 62
     3
  5
255
 10
-189.551683
 20
116.003717
 30
0.0
 40
32.5
 50
192.656716
 51
227.343284
  0
ARC
  8
LY_1
  6
CONTINUOUS
 62
     3
  5
256
 10
-189.551683
 20
116.003717
 30
0.0
 40
24.5
 50
132.656716
 51
167.343284
  0
ARC
  8
LY_1
  6
CONTINUOUS
 62
     3
  5
257
 10
-208.863406
 20
136.963378
 30
0.0
 40
4.0
 50
312.656716
 51
132.656716
  0
ARC
  8
LY_1
  6
CONTINUOUS
 62
     3
  5
258
 10
-208.863406
 20
136.963378
 30
0.0
 40
4.0
 50
312.656716
 51
132.656716
  0
ARC
  8
LY_1
  6
CONTINUOUS
 62
     3
  5
259
 10
-217.359143
 20
122.248329
 30
0.0
 40
4.0
 50
167.343284
 51
347.343284
  0
ARC
  8
LY_1
  6
CONTINUOUS
 62
     3
  5
25A
 10
-217.359143
 20
122.248329
 30
0.0
 40
4.0
 50
167.343284
 51
347.343284
  0
ARC
  8
LY_1
  6
CONTINUOUS
 62
     3
  5
25B
 10
-189.551683
 20
116.003717
 30
0.0
 40
32.5
 50
132.656716
 51
167.343284
  0
ARC
  8
LY_1
  6
CONTINUOUS
 62
     3
  5
25C
 10
-189.551683
 20
116.003717
 30
0.0
 40
24.5
 50
72.656716
 51
107.343284
  0
ARC
  8
LY_1
  6
CONTINUOUS
 62
     3
  5
25D
 10
-181.055946
 20
143.20799
 30
0.0
 40
4.0
 50
252.656716
 51
72.656716
  0
ARC
  8
LY_1
  6
CONTINUOUS
 62
     3
  5
25E
 10
-181.055946
 20
143.20799
 30
0.0
 40
4.0
 50
252.656716
 51
72.656716
  0
ARC
  8
LY_1
  6
CONTINUOUS
 62
     3
  5
25F
 10
-198.047421
 20
143.20799
 30
0.0
 40
4.0
 50
107.343284
 51
287.343284
  0
ARC
  8
LY_1
  6
CONTINUOUS
 62
     3
  5
260
 10
-198.047421
 20
143.20799
 30
0.0
 40
4.0
 50
107.343284
 51
287.343284
  0
ARC
  8
LY_1
  6
CONTINUOUS
 62
     3
  5
261
 10
-189.551683
 20
116.003717
 30
0.0
 40
32.5
 50
72.656716
 51
107.343284
  0
ARC
  8
LY_1
  6
CONTINUOUS
 62
     3
  5
262
 10
-170.239961
 20
136.963378
 30
0.0
 40
4.0
 50
47.343284
 51
227.343284
  0
ARC
  8
LY_1
  6
CONTINUOUS
 62
     3
  5
263
 10
-170.239961
 20
136.963378
 30
0.0
 40
4.0
 50
47.343284
 51
227.343284
  0
ARC
  8
LY_1
  6
CONTINUOUS
 62
     3
  5
264
 10
-161.744224
 20
122.248329
 30
0.0
 40
4.0
 50
192.656716
 51
12.656716
  0
ARC
  8
LY_1
  6
CONTINUOUS
 62
     3
  5
265
 10
-161.744224
 20
122.248329
 30
0.0
 40
4.0
 50
192.656716
 51
12.656716
  0
ARC
  8
LY_1
  6
CONTINUOUS
 62
     3
  5
266
 10
-189.551683
 20
116.003717
 30
0.0
 40
32.5
 50
12.656716
 51
47.343284
  0
ARC
  8
LY_1
  6
CONTINUOUS
 62
     3
  5
267
 10
-189.551683
 20
116.003717
 30
0.0
 40
24.5
 50
12.656716
 51
47.343284
  0
ARC
  8
LY_1
  6
CONTINUOUS
 62
     3
  5
268
 10
-180.36794
 20
103.51737
 30
0.0
 40
3.5
 50
306.334587
 51
126.334587
  0
ARC
  8
LY_1
  6
CONTINUOUS
 62
     3
  5
269
 10
-189.551683
 20
116.003717
 30
0.0
 40
12.0
 50
233.665413
 51
306.334587
  0
ARC
  8
LY_1
  6
CONTINUOUS
 62
     3
  5
26A
 10
-198.735427
 20
103.51737
 30
0.0
 40
3.5
 50
53.665413
 51
233.665413
  0
ARC
  8
LY_1
  6
CONTINUOUS
 62
     3
  5
26B
 10
-189.551683
 20
116.003717
 30
0.0
 40
19.0
 50
233.665413
 51
306.334587
  0
ARC
  8
LY_1
  6
CONTINUOUS
 62
     3
  5
26C
 10
-204.957049
 20
114.293535
 30
0.0
 40
3.5
 50
186.334587
 51
6.334587
  0
ARC
  8
LY_1
  6
CONTINUOUS
 62
     3
  5
26D
 10
-189.551683
 20
116.003717
 30
0.0
 40
12.0
 50
113.665413
 51
186.334587
  0
ARC
  8
LY_1
  6
CONTINUOUS
 62
     3
  5
26E
 10
-195.773305
 20
130.200246
 30
0.0
 40
3.5
 50
293.665413
 51
113.665413
  0
ARC
  8
LY_1
  6
CONTINUOUS
 62
     3
  5
26F
 10
-189.551683
 20
116.003717
 30
0.0
 40
19.0
 50
113.665413
 51
186.334587
  0
ARC
  8
LY_1
  6
CONTINUOUS
 62
     3
  5
270
 10
-174.146318
 20
114.293535
 30
0.0
 40
3.5
 50
173.665413
 51
353.665413
  0
ARC
  8
LY_1
  6
CONTINUOUS
 62
     3
  5
271
 10
-183.330062
 20
130.200246
 30
0.0
 40
3.5
 50
66.334587
 51
246.334587
  0
ARC
  8
LY_1
  6
CONTINUOUS
 62
     3
  5
272
 10
-189.551683
 20
116.003717
 30
0.0
 40
19.0
 50
353.665413
 51
66.334587
  0
ARC
  8
LY_1
  6
CONTINUOUS
 62
     3
  5
273
 10
-189.551683
 20
116.003717
 30
0.0
 40
12.0
 50
353.665413
 51
66.334587
  0
CIRCLE
  8
LY_1
  6
CONTINUOUS
 62
     3
  5
274
 10
-189.551683
 20
116.003717
 30
0.0
 40
6.0
  0
LINE
  8
LY_1
  6
CONTINUOUS
 62
     3
  5
275
 10
-73.236559
 20
75.605728
 30
0.0
 11
-67.967742
 21
75.605728
 31
0.0
  0
LINE
  8
LY_1
  6
CONTINUOUS
 62
     3
  5
276
 10
-73.236559
 20
78.314315
 30
0.0
 11
-67.967742
 21
78.314315
 31
0.0
  0
LINE
  8
LY_1
  6
CONTINUOUS
 62
     3
  5
277
 10
-73.236559
 20
88.272823
 30
0.0
 11
-67.967742
 21
88.272823
 31
0.0
  0
LINE
  8
LY_1
  6
CONTINUOUS
 62
     3
  5
278
 10
-73.236559
 20
88.272823
 30
0.0
 11
-73.236559
 21
75.605728
 31
0.0
  0
LINE
  8
LY_1
  6
CONTINUOUS
 62
     3
  5
279
 10
-67.967742
 20
88.272823
 30
0.0
 11
-67.967742
 21
75.605728
 31
0.0
  0
LINE
  8
LY_1
  6
CONTINUOUS
 62
     3
  5
27A
 10
-57.430108
 20
88.272823
 30
0.0
 11
-57.430108
 21
75.605728
 31
0.0
  0
LINE
  8
LY_1
  6
CONTINUOUS
 62
     3
  5
27B
 10
-62.698925
 20
88.272823
 30
0.0
 11
-62.698925
 21
75.605728
 31
0.0
  0
LINE
  8
LY_1
  6
CONTINUOUS
 62
     3
  5
27C
 10
-62.698925
 20
88.272823
 30
0.0
 11
-57.430108
 21
88.272823
 31
0.0
  0
LINE
  8
LY_1
  6
CONTINUOUS
 62
     3
  5
27D
 10
-62.698925
 20
78.314315
 30
0.0
 11
-57.430108
 21
78.314315
 31
0.0
  0
LINE
  8
LY_1
  6
CONTINUOUS
 62
     3
  5
27E
 10
-62.698925
 20
75.605728
 30
0.0
 11
-57.430108
 21
75.605728
 31
0.0
  0
LINE
  8
LY_1
  6
CONTINUOUS
 62
     3
  5
27F
 10
-46.892473
 20
88.272823
 30
0.0
 11
-46.892473
 21
75.605728
 31
0.0
  0
LINE
  8
LY_1
  6
CONTINUOUS
 62
     3
  5
280
 10
-52.16129
 20
88.272823
 30
0.0
 11
-52.16129
 21
75.605728
 31
0.0
  0
LINE
  8
LY_1
  6
CONTINUOUS
 62
     3
  5
281
 10
-52.16129
 20
88.272823
 30
0.0
 11
-46.892473
 21
88.272823
 31
0.0
  0
LINE
  8
LY_1
  6
CONTINUOUS
 62
     3
  5
282
 10
-52.16129
 20
78.314315
 30
0.0
 11
-46.892473
 21
78.314315
 31
0.0
  0
LINE
  8
LY_1
  6
CONTINUOUS
 62
     3
  5
283
 10
-52.16129
 20
75.605728
 30
0.0
 11
-46.892473
 21
75.605728
 31
0.0
  0
LINE
  8
LY_1
  6
CONTINUOUS
 62
     3
  5
284
 10
-73.236559
 20
70.257775
 30
0.0
 11
-67.967742
 21
70.257775
 31
0.0
  0
LINE
  8
LY_1
  6
CONTINUOUS
 62
     3
  5
285
 10
-62.698925
 20
70.257775
 30
0.0
 11
-57.430108
 21
70.257775
 31
0.0
  0
LINE
  8
LY_1
  6
CONTINUOUS
 62
     3
  5
286
 10
-52.16129
 20
70.257775
 30
0.0
 11
-46.892473
 21
70.257775
 31
0.0
  0
LINE
  8
LY_1
  6
CONTINUOUS
 62
     3
  5
287
 10
-46.892473
 20
70.257775
 30
0.0
 11
-46.892473
 21
69.532065
 31
0.0
  0
LINE
  8
LY_1
  6
CONTINUOUS
 62
     3
  5
288
 10
-52.16129
 20
70.257775
 30
0.0
 11
-52.16129
 21
69.532065
 31
0.0
  0
LINE
  8
LY_1
  6
CONTINUOUS
 62
     3
  5
289
 10
-57.430108
 20
70.257775
 30
0.0
 11
-57.430108
 21
69.532065
 31
0.0
  0
LINE
  8
LY_1
  6
CONTINUOUS
 62
     3
  5
28A
 10
-62.698925
 20
70.257775
 30
0.0
 11
-62.698925
 21
69.532065
 31
0.0
  0
LINE
  8
LY_1
  6
CONTINUOUS
 62
     3
  5
28B
 10
-67.967742
 20
70.257775
 30
0.0
 11
-67.967742
 21
69.532065
 31
0.0
  0
LINE
  8
LY_1
  6
CONTINUOUS
 62
     3
  5
28C
 10
-73.236559
 20
70.257775
 30
0.0
 11
-73.236559
 21
69.532065
 31
0.0
  0
LINE
  8
LY_1
  6
CONTINUOUS
 62
     3
  5
28D
 10
-52.16129
 20
161.749659
 30
0.0
 11
-46.892473
 21
161.749659
 31
0.0
  0
LINE
  8
LY_1
  6
CONTINUOUS
 62
     3
  5
28E
 10
-46.892473
 20
161.749659
 30
0.0
 11
-46.892473
 21
162.534464
 31
0.0
  0
LINE
  8
LY_1
  6
CONTINUOUS
 62
     3
  5
28F
 10
-52.16129
 20
161.749659
 30
0.0
 11
-52.16129
 21
162.535464
 31
0.0
  0
LINE
  8
LY_1
  6
CONTINUOUS
 62
     3
  5
290
 10
-62.698925
 20
161.749659
 30
0.0
 11
-57.430108
 21
161.749659
 31
0.0
  0
LINE
  8
LY_1
  6
CONTINUOUS
 62
     3
  5
291
 10
-57.430108
 20
161.749659
 30
0.0
 11
-57.430108
 21
162.536463
 31
0.0
  0
LINE
  8
LY_1
  6
CONTINUOUS
 62
     3
  5
292
 10
-62.698925
 20
161.749659
 30
0.0
 11
-62.698925
 21
162.537462
 31
0.0
  0
LINE
  8
LY_1
  6
CONTINUOUS
 62
     3
  5
293
 10
-67.967742
 20
161.749659
 30
0.0
 11
-67.967742
 21
162.538461
 31
0.0
  0
LINE
  8
LY_1
  6
CONTINUOUS
 62
     3
  5
294
 10
-73.236559
 20
161.749659
 30
0.0
 11
-73.236559
 21
162.539461
 31
0.0
  0
LINE
  8
LY_1
  6
CONTINUOUS
 62
     3
  5
295
 10
-73.236559
 20
161.749659
 30
0.0
 11
-67.967742
 21
161.749659
 31
0.0
  0
LINE
  8
LY_1
  6
CONTINUOUS
 62
     3
  5
296
 10
-52.16129
 20
156.401706
 30
0.0
 11
-46.892473
 21
156.401706
 31
0.0
  0
LINE
  8
LY_1
  6
CONTINUOUS
 62
     3
  5
297
 10
-52.16129
 20
153.693119
 30
0.0
 11
-46.892473
 21
153.693119
 31
0.0
  0
LINE
  8
LY_1
  6
CONTINUOUS
 62
     3
  5
298
 10
-52.16129
 20
143.734611
 30
0.0
 11
-46.892473
 21
143.734611
 31
0.0
  0
LINE
  8
LY_1
  6
CONTINUOUS
 62
     3
  5
299
 10
-52.16129
 20
143.734611
 30
0.0
 11
-52.16129
 21
156.401706
 31
0.0
  0
LINE
  8
LY_1
  6
CONTINUOUS
 62
     3
  5
29A
 10
-46.892473
 20
143.734611
 30
0.0
 11
-46.892473
 21
156.401706
 31
0.0
  0
LINE
  8
LY_1
  6
CONTINUOUS
 62
     3
  5
29B
 10
-62.698925
 20
156.401706
 30
0.0
 11
-57.430108
 21
156.401706
 31
0.0
  0
LINE
  8
LY_1
  6
CONTINUOUS
 62
     3
  5
29C
 10
-62.698925
 20
153.693119
 30
0.0
 11
-57.430108
 21
153.693119
 31
0.0
  0
LINE
  8
LY_1
  6
CONTINUOUS
 62
     3
  5
29D
 10
-62.698925
 20
143.734611
 30
0.0
 11
-57.430108
 21
143.734611
 31
0.0
  0
LINE
  8
LY_1
  6
CONTINUOUS
 62
     3
  5
29E
 10
-62.698925
 20
143.734611
 30
0.0
 11
-62.698925
 21
156.401706
 31
0.0
  0
LINE
  8
LY_1
  6
CONTINUOUS
 62
     3
  5
29F
 10
-57.430108
 20
143.734611
 30
0.0
 11
-57.430108
 21
156.401706
 31
0.0
  0
LINE
  8
LY_1
  6
CONTINUOUS
 62
     3
  5
2A0
 10
-67.967742
 20
143.734611
 30
0.0
 11
-67.967742
 21
156.401706
 31
0.0
  0
LINE
  8
LY_1
  6
CONTINUOUS
 62
     3
  5
2A1
 10
-73.236559
 20
143.734611
 30
0.0
 11
-73.236559
 21
156.401706
 31
0.0
  0
LINE
  8
LY_1
  6
CONTINUOUS
 62
     3
  5
2A2
 10
-73.236559
 20
143.734611
 30
0.0
 11
-67.967742
 21
143.734611
 31
0.0
  0
LINE
  8
LY_1
  6
CONTINUOUS
 62
     3
  5
2A3
 10
-73.236559
 20
153.693119
 30
0.0
 11
-67.967742
 21
153.693119
 31
0.0
  0
LINE
  8
LY_1
  6
CONTINUOUS
 62
     3
  5
2A4
 10
-73.236559
 20
156.401706
 30
0.0
 11
-67.967742
 21
156.401706
 31
0.0
  0
LINE
  8
LY_1
  6
CONTINUOUS
 62
     3
  5
2A5
 10
-52.16129
 20
108.448796
 30
0.0
 11
-46.892473
 21
108.448796
 31
0.0
  0
LINE
  8
LY_1
  6
CONTINUOUS
 62
     3
  5
2A6
 10
-52.16129
 20
123.558638
 30
0.0
 11
-46.892473
 21
123.558638
 31
0.0
  0
LINE
  8
LY_1
  6
CONTINUOUS
 62
     3
  5
2A7
 10
-62.698925
 20
108.448796
 30
0.0
 11
-57.430108
 21
108.448796
 31
0.0
  0
LINE
  8
LY_1
  6
CONTINUOUS
 62
     3
  5
2A8
 10
-62.698925
 20
123.558638
 30
0.0
 11
-57.430108
 21
123.558638
 31
0.0
  0
LINE
  8
LY_1
  6
CONTINUOUS
 62
     3
  5
2A9
 10
-73.236559
 20
108.448796
 30
0.0
 11
-67.967742
 21
108.448796
 31
0.0
  0
LINE
  8
LY_1
  6
CONTINUOUS
 62
     3
  5
2AA
 10
-73.236559
 20
123.558638
 30
0.0
 11
-67.967742
 21
123.558638
 31
0.0
  0
LINE
  8
LY_1
  6
CONTINUOUS
 62
     3
  5
2AB
 10
-52.16129
 20
107.046728
 30
0.0
 11
-46.892473
 21
107.046728
 31
0.0
  0
LINE
  8
LY_1
  6
CONTINUOUS
 62
     3
  5
2AC
 10
-62.698925
 20
107.046728
 30
0.0
 11
-57.430108
 21
107.046728
 31
0.0
  0
LINE
  8
LY_1
  6
CONTINUOUS
 62
     3
  5
2AD
 10
-52.16129
 20
124.960706
 30
0.0
 11
-46.892473
 21
124.960706
 31
0.0
  0
LINE
  8
LY_1
  6
CONTINUOUS
 62
     3
  5
2AE
 10
-62.698925
 20
124.960706
 30
0.0
 11
-57.430108
 21
124.960706
 31
0.0
  0
LINE
  8
LY_1
  6
CONTINUOUS
 62
     3
  5
2AF
 10
-73.236559
 20
107.046728
 30
0.0
 11
-67.967742
 21
107.046728
 31
0.0
  0
LINE
  8
LY_1
  6
CONTINUOUS
 62
     3
  5
2B0
 10
-73.236559
 20
124.960706
 30
0.0
 11
-67.967742
 21
124.960706
 31
0.0
  0
LINE
  8
LY_1
  6
CONTINUOUS
 62
     3
  5
2B1
 10
-46.892473
 20
107.046728
 30
0.0
 11
-46.892473
 21
124.960706
 31
0.0
  0
LINE
  8
LY_1
  6
CONTINUOUS
 62
     3
  5
2B2
 10
-52.16129
 20
107.046728
 30
0.0
 11
-52.16129
 21
124.960706
 31
0.0
  0
LINE
  8
LY_1
  6
CONTINUOUS
 62
     3
  5
2B3
 10
-57.430108
 20
107.046728
 30
0.0
 11
-57.430108
 21
124.960706
 31
0.0
  0
LINE
  8
LY_1
  6
CONTINUOUS
 62
     3
  5
2B4
 10
-62.698925
 20
107.046728
 30
0.0
 11
-62.698925
 21
124.960706
 31
0.0
  0
LINE
  8
LY_1
  6
CONTINUOUS
 62
     3
  5
2B5
 10
-67.967742
 20
107.046728
 30
0.0
 11
-67.967742
 21
124.960706
 31
0.0
  0
LINE
  8
LY_1
  6
CONTINUOUS
 62
     3
  5
2B6
 10
-73.236559
 20
107.046728
 30
0.0
 11
-73.236559
 21
124.960706
 31
0.0
  0
LINE
  8
LY_1
  6
CONTINUOUS
 62
     3
  5
2B7
 10
-34.247312
 20
69.532065
 30
0.0
 11
-34.247312
 21
162.503717
 31
0.0
  0
ARC
  8
LY_1
  6
CONTINUOUS
 62
     3
  5
2B8
 10
-73.236559
 20
74.800882
 30
0.0
 40
5.268817
 50
180.0
 51
270.0
  0
ARC
  8
LY_1
  6
CONTINUOUS
 62
     3
  5
2B9
 10
-73.236559
 20
157.270643
 30
0.0
 40
5.268817
 50
90.0
 51
180.0
  0
ARC
  8
LY_1
  6
CONTINUOUS
 62
     3
  5
2BA
 10
3.600358
 20
116.003717
 30
0.0
 40
90.008961
 50
155.810486
 51
204.189514
  0
LINE
  8
LY_1
  6
CONTINUOUS
 62
     3
  5
2BB
 10
-73.236559
 20
69.532065
 30
0.0
 11
-30.0
 21
69.532065
 31
0.0
  0
LINE
  8
LY_1
  6
CONTINUOUS
 62
     3
  5
2BC
 10
-78.505376
 20
74.800882
 30
0.0
 11
-78.505376
 21
157.2349
 31
0.0
  0
CIRCLE
  8
LY_1
  6
CONTINUOUS
 62
     3
  5
2BD
 10
-189.551683
 20
116.003717
 30
0.0
 40
44.0
  0
CIRCLE
  8
LY_1
  6
CONTINUOUS
 62
     3
  5
2BE
 10
-189.551683
 20
116.003717
 30
0.0
 40
46.5
  0
ENDSEC
  0
EOF
