  0
SECTION
  2
HEADER
  9
$ACADVER
  1
AC1009
  9
$DWGCODEPAGE
  3
dos932
  9
$INSBASE
 10
0.0
 20
0.0
 30
0.0
  9
$EXTMIN
 10
679.65007300000002
 20
-33.333332061767578
 30
0.0
  9
$EXTMAX
 10
1226.150073
 20
530.5
 30
0.0
  9
$LIMMIN
 10
679.65007300000002
 20
-33.333332061767578
  9
$LIMMAX
 10
1226.150073
 20
530.5
  9
$ORTHOMODE
 70
               0
  9
$REGENMODE
 70
               1
  9
$FILLMODE
 70
               1
  9
$QTEXTMODE
 70
               0
  9
$MIRRTEXT
 70
               1
  9
$DRAGMODE
 70
               2
  9
$LTSCALE
 40
1.0
  9
$OSMODE
 70
               0
  9
$ATTMODE
 70
               1
  9
$TEXTSIZE
 40
4.1655998229980469
  9
$TRACEWID
 40
0.05
  9
$TEXTSTYLE
  7
MX_NOTE_STANDARD
  9
$CLAYER
  8
0
  9
$CELTYPE
  6
CONTINUOUS
  9
$CECOLOR
 62
             256
  9
$DIMSCALE
 40
1.0
  9
$DIMASZ
 40
2.5
  9
$DIMEXO
 40
0.5
  9
$DIMDLI
 40
3.75
  9
$DIMRND
 40
0.0
  9
$DIMDLE
 40
0.0
  9
$DIMEXE
 40
1.0
  9
$DIMTP
 40
0.0
  9
$DIMTM
 40
0.0
  9
$DIMTXT
 40
2.5
  9
$DIMCEN
 40
2.5
  9
$DIMTSZ
 40
0.0
  9
$DIMTOL
 70
               0
  9
$DIMLIM
 70
               0
  9
$DIMTIH
 70
               0
  9
$DIMTOH
 70
               0
  9
$DIMSE1
 70
               0
  9
$DIMSE2
 70
               0
  9
$DIMTAD
 70
               1
  9
$DIMZIN
 70
               8
  9
$DIMBLK
  1

  9
$DIMASO
 70
               1
  9
$DIMSHO
 70
               1
  9
$DIMPOST
  1

  9
$DIMAPOST
  1

  9
$DIMALT
 70
               0
  9
$DIMALTD
 70
               4
  9
$DIMALTF
 40
0.03937007874016
  9
$DIMLFAC
 40
1.0
  9
$DIMTOFL
 70
               1
  9
$DIMTVP
 40
0.0
  9
$DIMTIX
 70
               0
  9
$DIMSOXD
 70
               0
  9
$DIMSAH
 70
               0
  9
$DIMBLK1
  1

  9
$DIMBLK2
  1

  9
$DIMSTYLE
  2
MXDIMSTYLE
  9
$DIMCLRD
 70
               0
  9
$DIMCLRE
 70
               0
  9
$DIMCLRT
 70
               0
  9
$DIMTFAC
 40
1.0
  9
$DIMGAP
 40
1.0
  9
$LUNITS
 70
               2
  9
$LUPREC
 70
               4
  9
$AXISMODE
 70
               0
  9
$AXISUNIT
 10
0.0
 20
0.0
  9
$SKETCHINC
 40
0.1
  9
$FILLETRAD
 40
0.0
  9
$AUNITS
 70
               0
  9
$AUPREC
 70
               0
  9
$MENU
  1
acad
  9
$ELEVATION
 40
0.0
  9
$PELEVATION
 40
0.0
  9
$THICKNESS
 40
0.0
  9
$LIMCHECK
 70
               0
  9
$BLIPMODE
 70
               1
  9
$CHAMFERA
 40
0.0
  9
$CHAMFERB
 40
0.0
  9
$SKPOLY
 70
               0
  9
$TDCREATE
 40
2454331.661979167
  9
$TDUPDATE
 40
2454331.661979167
  9
$TDINDWG
 40
0.0000000000
  9
$TDUSRTIMER
 40
0.0000000000
  9
$USRTIMER
 70
               1
  9
$ANGBASE
 50
0.0
  9
$ANGDIR
 70
               0
  9
$PDMODE
 70
               0
  9
$PDSIZE
 40
0.0
  9
$PLINEWID
 40
0.0
  9
$COORDS
 70
               1
  9
$SPLFRAME
 70
               0
  9
$SPLINETYPE
 70
               6
  9
$SPLINESEGS
 70
               8
  9
$ATTDIA
 70
               0
  9
$ATTREQ
 70
               1
  9
$HANDLING
 70
               1
  9
$HANDSEED
  5
1BA
  9
$SURFTAB1
 70
               6
  9
$SURFTAB2
 70
               6
  9
$SURFTYPE
 70
               6
  9
$SURFU
 70
               6
  9
$SURFV
 70
               6
  9
$UCSNAME
  2

  9
$UCSORG
 10
0.0
 20
0.0
 30
0.0
  9
$UCSXDIR
 10
1.0
 20
0.0
 30
0.0
  9
$UCSYDIR
 10
0.0
 20
1.0
 30
0.0
  9
$PUCSNAME
  2

  9
$PUCSORG
 10
0.0
 20
0.0
 30
0.0
  9
$PUCSXDIR
 10
1.0
 20
0.0
 30
0.0
  9
$PUCSYDIR
 10
0.0
 20
1.0
 30
0.0
  9
$USERI1
 70
               0
  9
$USERI2
 70
               0
  9
$USERI3
 70
               0
  9
$USERI4
 70
               0
  9
$USERI5
 70
               0
  9
$USERR1
 40
0.0
  9
$USERR2
 40
0.0
  9
$USERR3
 40
0.0
  9
$USERR4
 40
0.0
  9
$USERR5
 40
0.0
  9
$WORLDVIEW
 70
               1
  9
$SHADEDGE
 70
               3
  9
$SHADEDIF
 70
              70
  9
$TILEMODE
 70
               1
  9
$MAXACTVP
 70
              16
  9
$PINSBASE
 10
0.0
 20
0.0
 30
0.0
  9
$PLIMCHECK
 70
               0
  9
$PEXTMIN
 10
1.0000000000000000E+20
 20
1.0000000000000000E+20
 30
1.0000000000000000E+20
  9
$PEXTMAX
 10
-1.0000000000000000E+20
 20
-1.0000000000000000E+20
 30
-1.0000000000000000E+20
  9
$PLIMMIN
 10
0.0
 20
0.0
  9
$PLIMMAX
 10
12.0
 20
9.0
  9
$UNITMODE
 70
               0
  9
$VISRETAIN
 70
               0
  9
$PLINEGEN
 70
               1
  9
$PSLTSCALE
 70
               0
  9
$TREEDEPTH
 70
            3020
  9
$DWGCODEPAGE
  3
dos932
  0
ENDSEC
  0
SECTION
  2
TABLES
  0
TABLE
  2
VPORT
 70
               1
  0
VPORT
  2
*ACTIVE
 70
               0
 10
0.0
 20
0.0
 11
1.0
 21
1.0
 12
952.90007300000002
 22
248.58333396911621
 13
0.0
 23
0.0
 14
1.0
 24
1.0
 15
0.0
 25
0.0
 16
0.0
 26
0.0
 36
1.0
 17
0.0
 27
0.0
 37
0.0
 40
569.47166538238525
 41
1.7320508075688772
 42
50.0
 43
0.0
 44
0.0
 50
0.0
 51
0.0
 71
               0
 72
             100
 73
               1
 74
               1
 75
               0
 76
               0
 77
               0
 78
               0
  0
ENDTAB
  0
TABLE
  2
LTYPE
 70
               2
  0
LTYPE
  2
CONTINUOUS
 70
              64
  3
Solid line
 72
              65
 73
               0
 40
0.0
  0
LTYPE
  2
DASHED
 70
              64
  3
Dashed __ __ __ __ __ __ __ __ __ __ __ __ __ _
 72
              65
 73
               2
 40
19.049999999999997
 49
12.699999999999999
 49
-6.3499999999999996
  0
ENDTAB
  0
TABLE
  2
LAYER
 70
               3
  0
LAYER
  2
0
 70
               0
 62
               7
  6
CONTINUOUS
  0
LAYER
  2
DEFPOINTS
 70
               0
 62
               7
  6
CONTINUOUS
  0
LAYER
  2
LY_3
 70
               0
 62
               7
  6
CONTINUOUS
  0
ENDTAB
  0
TABLE
  2
STYLE
 70
               1
  0
STYLE
  2
MX_NOTE_STANDARD
 70
               0
 40
0.0
 41
1.0
 50
0.0
 71
               0
 42
4.1655998229980469
  3
txt.shx
  4
extfont.shx
  0
ENDTAB
  0
TABLE
  2
VIEW
 70
               0
  0
ENDTAB
  0
TABLE
  2
UCS
 70
               0
  0
ENDTAB
  0
TABLE
  2
APPID
 70
               1
  0
APPID
  2
ACAD
 70
               0
  0
ENDTAB
  0
TABLE
  2
DIMSTYLE
 70
               1
  0
DIMSTYLE
  2
MXDIMSTYLE
 70
               0
  3

  4

  5

  6

  7

 40
1.0
 41
2.5
 42
0.5
 43
3.75
 44
1.0
 45
0.0
 46
0.0
 47
0.0
 48
0.0
 71
               0
 72
               0
 73
               0
 74
               0
 75
               0
 76
               0
 77
               1
 78
               8
140
2.5
141
2.5
142
0.0
143
0.03937007874016
144
1.0
145
0.0
146
1.0
147
1.0
170
               0
171
               4
172
               1
173
               0
174
               0
175
               0
176
               0
177
               0
178
               0
  0
ENDTAB
  0
ENDSEC
  0
SECTION
  2
BLOCKS
  0
ENDSEC
  0
SECTION
  2
ENTITIES
  0
LINE
  8
LY_3
  6
CONTINUOUS
 62
               3
  5
1F
 10
1143.150073
 20
82.0
 30
0.0
 11
1135.150073
 21
138.35586000000001
 31
0.0
  0
LINE
  8
LY_3
  6
CONTINUOUS
 62
               3
  5
20
 10
1051.150073
 20
138.35586000000001
 30
0.0
 11
1119.6391100000001
 21
138.35586000000001
 31
0.0
  0
LINE
  8
LY_3
  6
CONTINUOUS
 62
               3
  5
21
 10
978.15007300000002
 20
126.46155
 30
0.0
 11
1008.150073
 21
126.46155
 31
0.0
  0
LINE
  8
LY_3
  6
CONTINUOUS
 62
               3
  5
22
 10
978.15007300000002
 20
143.46154999999999
 30
0.0
 11
1008.150073
 21
143.46154999999999
 31
0.0
  0
LINE
  8
LY_3
  6
CONTINUOUS
 62
               3
  5
23
 10
978.15007300000002
 20
128.23863700000001
 30
0.0
 11
1008.150073
 21
128.23863700000001
 31
0.0
  0
LINE
  8
LY_3
  6
CONTINUOUS
 62
               3
  5
24
 10
978.15007300000002
 20
271.76136300000002
 30
0.0
 11
1008.150073
 21
271.76136300000002
 31
0.0
  0
LINE
  8
LY_3
  6
CONTINUOUS
 62
               3
  5
25
 10
978.15007300000002
 20
256.53845000000001
 30
0.0
 11
1008.150073
 21
256.53845000000001
 31
0.0
  0
LINE
  8
LY_3
  6
CONTINUOUS
 62
               3
  5
26
 10
978.15007300000002
 20
273.53845000000001
 30
0.0
 11
1008.150073
 21
273.53845000000001
 31
0.0
  0
LINE
  8
LY_3
  6
CONTINUOUS
 62
               3
  5
27
 10
978.15007300000002
 20
183.0
 30
0.0
 11
1008.150073
 21
183.0
 31
0.0
  0
LINE
  8
LY_3
  6
CONTINUOUS
 62
               3
  5
28
 10
978.15007300000002
 20
217.0
 30
0.0
 11
1008.150073
 21
217.0
 31
0.0
  0
LINE
  8
LY_3
  6
CONTINUOUS
 62
               3
  5
29
 10
965.15007300000002
 20
123.0
 30
0.0
 11
1023.150073
 21
123.0
 31
0.0
  0
LINE
  8
LY_3
  6
CONTINUOUS
 62
               3
  5
2A
 10
965.15007300000002
 20
277.0
 30
0.0
 11
1023.150073
 21
277.0
 31
0.0
  0
LINE
  8
LY_3
  6
CONTINUOUS
 62
               3
  5
2B
 10
960.15007300000002
 20
128.0
 30
0.0
 11
960.15007300000002
 21
272.0
 31
0.0
  0
CIRCLE
  8
LY_3
  6
CONTINUOUS
 62
               3
  5
2C
 10
760.15007300000002
 20
200.0
 30
0.0
 40
77.0
  0
ARC
  8
LY_3
  6
CONTINUOUS
 62
               3
  5
2D
 10
965.15007300000002
 20
272.0
 30
0.0
 40
5.0
 50
90.0
 51
180.0
  0
ARC
  8
LY_3
  6
CONTINUOUS
 62
               3
  5
2E
 10
965.15007300000002
 20
128.0
 30
0.0
 40
5.0
 50
180.0
 51
270.0
  0
LINE
  8
LY_3
  6
CONTINUOUS
 62
               3
  5
2F
 10
978.15007300000002
 20
183.0
 30
0.0
 11
978.15007300000002
 21
217.0
 31
0.0
  0
LINE
  8
LY_3
  6
CONTINUOUS
 62
               3
  5
30
 10
978.15007300000002
 20
256.53845000000001
 30
0.0
 11
978.15007300000002
 21
273.53845000000001
 31
0.0
  0
LINE
  8
LY_3
  6
CONTINUOUS
 62
               3
  5
31
 10
978.15007300000002
 20
143.46154999999999
 30
0.0
 11
978.15007300000002
 21
126.46155
 31
0.0
  0
LINE
  8
LY_3
  6
CONTINUOUS
 62
               3
  5
32
 10
679.65007300000002
 20
66.0
 30
0.0
 11
713.65007300000002
 21
66.0
 31
0.0
  0
LINE
  8
LY_3
  6
CONTINUOUS
 62
               3
  5
33
 10
794.65007300000002
 20
70.0
 30
0.0
 11
794.65007300000002
 21
74.0
 31
0.0
  0
LINE
  8
LY_3
  6
CONTINUOUS
 62
               3
  5
34
 10
684.45007299999997
 20
82.0
 30
0.0
 11
710.15007300000002
 21
82.0
 31
0.0
  0
LINE
  8
LY_3
  6
CONTINUOUS
 62
               3
  5
35
 10
835.85007299999995
 20
82.0
 30
0.0
 11
840.65007300000002
 21
66.0
 31
0.0
  0
LINE
  8
LY_3
  6
CONTINUOUS
 62
               3
  5
36
 10
684.45007299999997
 20
82.0
 30
0.0
 11
679.65007300000002
 21
66.0
 31
0.0
  0
LINE
  8
LY_3
  6
CONTINUOUS
 62
               3
  5
37
 10
806.65007300000002
 20
66.0
 30
0.0
 11
840.65007300000002
 21
66.0
 31
0.0
  0
LINE
  8
LY_3
  6
CONTINUOUS
 62
               3
  5
38
 10
810.15007300000002
 20
82.0
 30
0.0
 11
835.85007299999995
 21
82.0
 31
0.0
  0
LINE
  8
LY_3
  6
CONTINUOUS
 62
               3
  5
39
 10
794.65007300000002
 20
70.0
 30
0.0
 11
806.65007300000002
 21
66.0
 31
0.0
  0
LINE
  8
LY_3
  6
CONTINUOUS
 62
               3
  5
3A
 10
730.65007300000002
 20
79.0
 30
0.0
 11
789.65007300000002
 21
79.0
 31
0.0
  0
ARC
  8
LY_3
  6
CONTINUOUS
 62
               3
  5
3B
 10
789.65007300000002
 20
74.0
 30
0.0
 40
5.0
 50
0.0
 51
90.0
  0
LINE
  8
LY_3
  6
CONTINUOUS
 62
               3
  5
3C
 10
725.65007300000002
 20
70.0
 30
0.0
 11
713.65007300000002
 21
66.0
 31
0.0
  0
ARC
  8
LY_3
  6
CONTINUOUS
 62
               3
  5
3D
 10
730.65007300000002
 20
74.0
 30
0.0
 40
5.0
 50
90.0
 51
180.0
  0
LINE
  8
LY_3
  6
CONTINUOUS
 62
               3
  5
3E
 10
725.65007300000002
 20
70.0
 30
0.0
 11
725.65007300000002
 21
74.0
 31
0.0
  0
LINE
  8
LY_3
  6
CONTINUOUS
 62
               3
  5
3F
 10
806.65007300000002
 20
66.0
 30
0.0
 11
810.15007300000002
 21
82.0
 31
0.0
  0
LINE
  8
LY_3
  6
CONTINUOUS
 62
               3
  5
40
 10
713.65007300000002
 20
66.0
 30
0.0
 11
710.15007300000002
 21
82.0
 31
0.0
  0
LINE
  8
LY_3
  6
DASHED
 62
              80
  5
42
 10
819.15007300000002
 20
66.0
 30
0.0
 11
819.15007300000002
 21
82.0
 31
0.0
  0
LINE
  8
LY_3
  6
DASHED
 62
              80
  5
43
 10
829.15007300000002
 20
66.0
 30
0.0
 11
829.15007300000002
 21
82.0
 31
0.0
  0
LINE
  8
LY_3
  6
DASHED
 62
              80
  5
44
 10
691.15007300000002
 20
66.0
 30
0.0
 11
691.15007300000002
 21
82.0
 31
0.0
  0
LINE
  8
LY_3
  6
DASHED
 62
              80
  5
45
 10
701.15007300000002
 20
66.0
 30
0.0
 11
701.15007300000002
 21
82.0
 31
0.0
  0
ARC
  8
LY_3
  6
CONTINUOUS
 62
               3
  5
46
 10
763.40007300000002
 20
278.210083
 30
0.0
 40
2.0
 50
0.000003
 51
66.030522000000005
  0
ARC
  8
LY_3
  6
CONTINUOUS
 62
               3
  5
47
 10
756.90007300000002
 20
278.210083
 30
0.0
 40
2.0
 50
113.969478
 51
179.99999700000001
  0
ARC
  8
LY_3
  6
CONTINUOUS
 62
               3
  5
48
 10
760.15007300000002
 20
270.89996300000001
 30
0.0
 40
10.0
 50
66.030522000000005
 51
113.969488
  0
LINE
  8
LY_3
  6
CONTINUOUS
 62
               3
  5
49
 10
765.40007300000002
 20
278.210083
 30
0.0
 11
765.40007300000002
 21
277.0
 31
0.0
  0
LINE
  8
LY_3
  6
CONTINUOUS
 62
               3
  5
4A
 10
754.90007300000002
 20
278.210083
 30
0.0
 11
754.90007300000002
 21
277.0
 31
0.0
  0
LINE
  8
LY_3
  6
CONTINUOUS
 62
               3
  5
4B
 10
765.40007300000002
 20
277.0
 30
0.0
 11
754.90007300000002
 21
277.0
 31
0.0
  0
LINE
  8
LY_3
  6
CONTINUOUS
 62
               3
  5
4C
 10
690.84111700000005
 20
166.04663300000001
 30
0.0
 11
696.09111700000005
 21
156.95336699999999
 31
0.0
  0
LINE
  8
LY_3
  6
CONTINUOUS
 62
               3
  5
4D
 10
695.04315399999996
 20
156.34832499999999
 30
0.0
 11
696.09111700000005
 21
156.95336699999999
 31
0.0
  0
LINE
  8
LY_3
  6
CONTINUOUS
 62
               3
  5
4E
 10
689.79315399999996
 20
165.44159200000001
 30
0.0
 11
690.84111700000005
 21
166.04663300000001
 31
0.0
  0
ARC
  8
LY_3
  6
CONTINUOUS
 62
               3
  5
4F
 10
698.74890400000004
 20
164.55001799999999
 30
0.0
 40
10.0
 50
186.03052199999999
 51
233.96948800000001
  0
ARC
  8
LY_3
  6
CONTINUOUS
 62
               3
  5
50
 10
694.04315399999996
 20
158.080376
 30
0.0
 40
2.0
 50
233.96947800000001
 51
299.99999700000001
  0
ARC
  8
LY_3
  6
CONTINUOUS
 62
               3
  5
51
 10
690.79315399999996
 20
163.709541
 30
0.0
 40
2.0
 50
120.00000300000001
 51
186.03052199999999
  0
LINE
  8
LY_3
  6
CONTINUOUS
 62
               3
  5
52
 10
824.20902899999999
 20
156.95336699999999
 30
0.0
 11
829.45902899999999
 21
166.04663300000001
 31
0.0
  0
LINE
  8
LY_3
  6
CONTINUOUS
 62
               3
  5
53
 10
830.50699199999997
 20
165.44159200000001
 30
0.0
 11
829.45902899999999
 21
166.04663300000001
 31
0.0
  0
LINE
  8
LY_3
  6
CONTINUOUS
 62
               3
  5
54
 10
825.25699199999997
 20
156.34832499999999
 30
0.0
 11
824.20902899999999
 21
156.95336699999999
 31
0.0
  0
ARC
  8
LY_3
  6
CONTINUOUS
 62
               3
  5
55
 10
821.551243
 20
164.55001799999999
 30
0.0
 40
10.0
 50
306.03052200000002
 51
353.96948800000001
  0
ARC
  8
LY_3
  6
CONTINUOUS
 62
               3
  5
56
 10
829.50699199999997
 20
163.709541
 30
0.0
 40
2.0
 50
353.96947799999998
 51
59.999996999999993
  0
ARC
  8
LY_3
  6
CONTINUOUS
 62
               3
  5
57
 10
826.25699199999997
 20
158.080376
 30
0.0
 40
2.0
 50
240.00000300000002
 51
306.03052200000002
  0
ARC
  8
LY_3
  6
CONTINUOUS
 62
               3
  5
58
 10
916.52112999999997
 20
148.35586000000001
 30
0.0
 40
125.37105699999999
 50
188.364689
 51
211.95653300000001
  0
ARC
  8
LY_3
  6
CONTINUOUS
 62
               3
  5
59
 10
603.77901699999995
 20
148.35586000000001
 30
0.0
 40
125.37105699999999
 50
328.04346700000002
 51
351.635311
  0
CIRCLE
  8
LY_3
  6
CONTINUOUS
 62
               3
  5
5A
 10
760.15007300000002
 20
200.0
 30
0.0
 40
44.0
  0
ARC
  8
LY_3
  6
CONTINUOUS
 62
               3
  5
5B
 10
683.32075299999997
 20
276.82932
 30
0.0
 40
84.75
 50
315.0
 51
337.19526200000001
  0
ARC
  8
LY_3
  6
CONTINUOUS
 62
               3
  5
5C
 10
683.32075299999997
 20
276.82932
 30
0.0
 40
87.75
 50
315.0
 51
337.87045999999998
  0
ARC
  8
LY_3
  6
CONTINUOUS
 62
               3
  5
5D
 10
744.30871300000001
 20
215.84136000000001
 30
0.0
 40
1.5
 50
135.0
 51
315.0
  0
CIRCLE
  8
LY_3
  6
CONTINUOUS
 62
               3
  5
5E
 10
760.15007300000002
 20
200.0
 30
0.0
 40
14.0
  0
CIRCLE
  8
LY_3
  6
CONTINUOUS
 62
               3
  5
5F
 10
760.15007300000002
 20
200.0
 30
0.0
 40
11.0
  0
CIRCLE
  8
LY_3
  6
CONTINUOUS
 62
               3
  5
60
 10
760.15007300000002
 20
200.0
 30
0.0
 40
5.0
  0
ARC
  8
LY_3
  6
CONTINUOUS
 62
               3
  5
61
 10
655.19926999999996
 20
171.87851699999999
 30
0.0
 40
84.75
 50
14.999999999999998
 51
37.195262
  0
ARC
  8
LY_3
  6
CONTINUOUS
 62
               3
  5
62
 10
655.19926999999996
 20
171.87851699999999
 30
0.0
 40
87.75
 50
14.999999999999998
 51
37.870460000000001
  0
ARC
  8
LY_3
  6
CONTINUOUS
 62
               3
  5
63
 10
738.51037299999996
 20
194.20165900000001
 30
0.0
 40
1.5
 50
195.0
 51
14.999999999999982
  0
ARC
  8
LY_3
  6
CONTINUOUS
 62
               3
  5
64
 10
732.02859000000001
 20
95.049197000000007
 30
0.0
 40
84.75
 50
75.0
 51
97.195262
  0
ARC
  8
LY_3
  6
CONTINUOUS
 62
               3
  5
65
 10
732.02859000000001
 20
95.049197000000007
 30
0.0
 40
87.75
 50
75.0
 51
97.870459999999994
  0
ARC
  8
LY_3
  6
CONTINUOUS
 62
               3
  5
66
 10
754.35173299999997
 20
178.3603
 30
0.0
 40
1.5
 50
255.00000000000003
 51
75.000000000000014
  0
ARC
  8
LY_3
  6
CONTINUOUS
 62
               3
  5
67
 10
836.97939299999996
 20
123.17068
 30
0.0
 40
84.75
 50
135.0
 51
157.19526200000001
  0
ARC
  8
LY_3
  6
CONTINUOUS
 62
               3
  5
68
 10
836.97939299999996
 20
123.17068
 30
0.0
 40
87.75
 50
135.0
 51
157.87046000000001
  0
ARC
  8
LY_3
  6
CONTINUOUS
 62
               3
  5
69
 10
775.99143400000003
 20
184.15863999999999
 30
0.0
 40
1.5
 50
315.0
 51
134.99999999999994
  0
ARC
  8
LY_3
  6
CONTINUOUS
 62
               3
  5
6A
 10
865.10087599999997
 20
228.12148300000001
 30
0.0
 40
84.75
 50
195.0
 51
217.19526200000001
  0
ARC
  8
LY_3
  6
CONTINUOUS
 62
               3
  5
6B
 10
865.10087599999997
 20
228.12148300000001
 30
0.0
 40
87.75
 50
195.0
 51
217.87046000000001
  0
ARC
  8
LY_3
  6
CONTINUOUS
 62
               3
  5
6C
 10
781.78977299999997
 20
205.79834099999999
 30
0.0
 40
1.5
 50
14.999999999999998
 51
195.0
  0
ARC
  8
LY_3
  6
CONTINUOUS
 62
               3
  5
6D
 10
788.27155600000003
 20
304.95080300000001
 30
0.0
 40
84.75
 50
255.00000000000003
 51
277.19526200000001
  0
ARC
  8
LY_3
  6
CONTINUOUS
 62
               3
  5
6E
 10
788.27155600000003
 20
304.95080300000001
 30
0.0
 40
87.75
 50
255.00000000000003
 51
277.87045999999998
  0
ARC
  8
LY_3
  6
CONTINUOUS
 62
               3
  5
6F
 10
765.94841299999996
 20
221.6397
 30
0.0
 40
1.5
 50
75.0
 51
255.00000000000003
  0
LINE
  8
LY_3
  6
CONTINUOUS
 62
               3
  5
70
 10
1133.150073
 20
66.0
 30
0.0
 11
1167.150073
 21
66.0
 31
0.0
  0
ARC
  8
LY_3
  6
CONTINUOUS
 62
               3
  5
71
 10
1127.150073
 20
66.0
 30
0.0
 40
6.0
 50
0.0
 51
90.0
  0
ARC
  8
LY_3
  6
CONTINUOUS
 62
               3
  5
72
 10
1059.150073
 20
66.0
 30
0.0
 40
6.0
 50
90.0
 51
180.0
  0
LINE
  8
LY_3
  6
CONTINUOUS
 62
               3
  5
73
 10
1059.150073
 20
72.0
 30
0.0
 11
1127.150073
 21
72.0
 31
0.0
  0
LINE
  8
LY_3
  6
CONTINUOUS
 62
               3
  5
74
 10
1015.150073
 20
123.0
 30
0.0
 11
1015.150073
 21
158.09963200000001
 31
0.0
  0
LINE
  8
LY_3
  6
CONTINUOUS
 62
               3
  5
75
 10
1023.150073
 20
123.0
 30
0.0
 11
1023.150073
 21
158.09963200000001
 31
0.0
  0
LINE
  8
LY_3
  6
CONTINUOUS
 62
               3
  5
76
 10
1044.150073
 20
131.0
 30
0.0
 11
1044.150073
 21
269.0
 31
0.0
  0
LINE
  8
LY_3
  6
CONTINUOUS
 62
               3
  5
77
 10
1031.150073
 20
269.0
 30
0.0
 11
1155.150073
 21
269.0
 31
0.0
  0
LINE
  8
LY_3
  6
CONTINUOUS
 62
               3
  5
78
 10
1031.150073
 20
131.0
 30
0.0
 11
1050.2632349999999
 21
131.0
 31
0.0
  0
ARC
  8
LY_3
  6
CONTINUOUS
 62
               3
  5
79
 10
1023.150073
 20
127.0
 30
0.0
 40
4.0
 50
270.0
 51
0.0
  0
ARC
  8
LY_3
  6
CONTINUOUS
 62
               3
  5
7A
 10
1023.150073
 20
273.0
 30
0.0
 40
4.0
 50
0.0
 51
90.0
  0
ARC
  8
LY_3
  6
CONTINUOUS
 62
               3
  5
7B
 10
1031.150073
 20
273.0
 30
0.0
 40
4.0
 50
180.0
 51
270.0
  0
ARC
  8
LY_3
  6
CONTINUOUS
 62
               3
  5
7C
 10
1031.150073
 20
127.0
 30
0.0
 40
4.0
 50
90.0
 51
180.0
  0
LINE
  8
LY_3
  6
CONTINUOUS
 62
               3
  5
7D
 10
1226.150073
 20
128.0
 30
0.0
 11
1226.150073
 21
272.0
 31
0.0
  0
ARC
  8
LY_3
  6
CONTINUOUS
 62
               3
  5
7E
 10
1155.150073
 20
127.0
 30
0.0
 40
4.0
 50
0.0
 51
90.0
  0
ARC
  8
LY_3
  6
CONTINUOUS
 62
               3
  5
7F
 10
1155.150073
 20
273.0
 30
0.0
 40
4.0
 50
270.0
 51
0.0
  0
ARC
  8
LY_3
  6
CONTINUOUS
 62
               3
  5
80
 10
1163.150073
 20
273.0
 30
0.0
 40
4.0
 50
90.0
 51
180.0
  0
ARC
  8
LY_3
  6
CONTINUOUS
 62
               3
  5
81
 10
1163.150073
 20
127.0
 30
0.0
 40
4.0
 50
180.0
 51
270.0
  0
LINE
  8
LY_3
  6
CONTINUOUS
 62
               3
  5
82
 10
1142.150073
 20
131.0
 30
0.0
 11
1142.150073
 21
269.0
 31
0.0
  0
LINE
  8
LY_3
  6
CONTINUOUS
 62
               3
  5
83
 10
1163.150073
 20
123.0
 30
0.0
 11
1163.150073
 21
158.09963200000001
 31
0.0
  0
ARC
  8
LY_3
  6
CONTINUOUS
 62
               3
  5
84
 10
1221.150073
 20
128.0
 30
0.0
 40
5.0
 50
270.0
 51
0.0
  0
ARC
  8
LY_3
  6
CONTINUOUS
 62
               3
  5
85
 10
1221.150073
 20
272.0
 30
0.0
 40
5.0
 50
0.0
 51
90.0
  0
LINE
  8
LY_3
  6
CONTINUOUS
 62
               3
  5
86
 10
1171.150073
 20
123.0
 30
0.0
 11
1171.150073
 21
158.09963200000001
 31
0.0
  0
LINE
  8
LY_3
  6
CONTINUOUS
 62
               3
  5
87
 10
1221.150073
 20
123.0
 30
0.0
 11
1163.150073
 21
123.0
 31
0.0
  0
LINE
  8
LY_3
  6
CONTINUOUS
 62
               3
  5
88
 10
1221.150073
 20
277.0
 30
0.0
 11
1163.150073
 21
277.0
 31
0.0
  0
LINE
  8
LY_3
  6
CONTINUOUS
 62
               3
  5
89
 10
1008.150073
 20
183.0
 30
0.0
 11
1008.150073
 21
217.0
 31
0.0
  0
LINE
  8
LY_3
  6
CONTINUOUS
 62
               3
  5
8A
 10
1008.150073
 20
256.53845000000001
 30
0.0
 11
1008.150073
 21
273.53845000000001
 31
0.0
  0
LINE
  8
LY_3
  6
CONTINUOUS
 62
               3
  5
8B
 10
1008.150073
 20
143.46154999999999
 30
0.0
 11
1008.150073
 21
126.46155
 31
0.0
  0
LINE
  8
LY_3
  6
CONTINUOUS
 62
               3
  5
8C
 10
1208.150073
 20
126.46155
 30
0.0
 11
1178.150073
 21
126.46155
 31
0.0
  0
LINE
  8
LY_3
  6
CONTINUOUS
 62
               3
  5
8D
 10
1208.150073
 20
143.46154999999999
 30
0.0
 11
1178.150073
 21
143.46154999999999
 31
0.0
  0
LINE
  8
LY_3
  6
CONTINUOUS
 62
               3
  5
8E
 10
1178.150073
 20
143.46154999999999
 30
0.0
 11
1178.150073
 21
126.46155
 31
0.0
  0
LINE
  8
LY_3
  6
CONTINUOUS
 62
               3
  5
8F
 10
1208.150073
 20
143.46154999999999
 30
0.0
 11
1208.150073
 21
126.46155
 31
0.0
  0
LINE
  8
LY_3
  6
CONTINUOUS
 62
               3
  5
90
 10
1208.150073
 20
128.23863700000001
 30
0.0
 11
1178.150073
 21
128.23863700000001
 31
0.0
  0
LINE
  8
LY_3
  6
CONTINUOUS
 62
               3
  5
91
 10
1208.150073
 20
271.76136300000002
 30
0.0
 11
1178.150073
 21
271.76136300000002
 31
0.0
  0
LINE
  8
LY_3
  6
CONTINUOUS
 62
               3
  5
92
 10
1208.150073
 20
256.53845000000001
 30
0.0
 11
1208.150073
 21
273.53845000000001
 31
0.0
  0
LINE
  8
LY_3
  6
CONTINUOUS
 62
               3
  5
93
 10
1178.150073
 20
256.53845000000001
 30
0.0
 11
1178.150073
 21
273.53845000000001
 31
0.0
  0
LINE
  8
LY_3
  6
CONTINUOUS
 62
               3
  5
94
 10
1208.150073
 20
256.53845000000001
 30
0.0
 11
1178.150073
 21
256.53845000000001
 31
0.0
  0
LINE
  8
LY_3
  6
CONTINUOUS
 62
               3
  5
95
 10
1208.150073
 20
273.53845000000001
 30
0.0
 11
1178.150073
 21
273.53845000000001
 31
0.0
  0
LINE
  8
LY_3
  6
CONTINUOUS
 62
               3
  5
96
 10
1208.150073
 20
183.0
 30
0.0
 11
1178.150073
 21
183.0
 31
0.0
  0
LINE
  8
LY_3
  6
CONTINUOUS
 62
               3
  5
97
 10
1208.150073
 20
217.0
 30
0.0
 11
1178.150073
 21
217.0
 31
0.0
  0
LINE
  8
LY_3
  6
CONTINUOUS
 62
               3
  5
98
 10
1178.150073
 20
183.0
 30
0.0
 11
1178.150073
 21
217.0
 31
0.0
  0
LINE
  8
LY_3
  6
CONTINUOUS
 62
               3
  5
99
 10
1208.150073
 20
183.0
 30
0.0
 11
1208.150073
 21
217.0
 31
0.0
  0
LINE
  8
LY_3
  6
CONTINUOUS
 62
               3
  5
9A
 10
1024.400073
 20
277.0
 30
0.0
 11
1013.900073
 21
277.0
 31
0.0
  0
LINE
  8
LY_3
  6
CONTINUOUS
 62
               3
  5
9B
 10
1013.900073
 20
278.210083
 30
0.0
 11
1013.900073
 21
277.0
 31
0.0
  0
LINE
  8
LY_3
  6
CONTINUOUS
 62
               3
  5
9C
 10
1024.400073
 20
278.210083
 30
0.0
 11
1024.400073
 21
277.0
 31
0.0
  0
ARC
  8
LY_3
  6
CONTINUOUS
 62
               3
  5
9D
 10
1019.150073
 20
270.89996300000001
 30
0.0
 40
10.0
 50
66.030522000000005
 51
113.969488
  0
ARC
  8
LY_3
  6
CONTINUOUS
 62
               3
  5
9E
 10
1015.900073
 20
278.210083
 30
0.0
 40
2.0
 50
113.969478
 51
179.99999700000001
  0
ARC
  8
LY_3
  6
CONTINUOUS
 62
               3
  5
9F
 10
1022.400073
 20
278.210083
 30
0.0
 40
2.0
 50
0.000003
 51
66.030522000000005
  0
CIRCLE
  8
LY_3
  6
CONTINUOUS
 62
               3
  5
A0
 10
1019.150073
 20
161.5
 30
0.0
 40
5.25
  0
LINE
  8
LY_3
  6
CONTINUOUS
 62
               3
  5
A1
 10
1015.650073
 20
162.375
 30
0.0
 11
1015.650073
 21
160.625
 31
0.0
  0
LINE
  8
LY_3
  6
CONTINUOUS
 62
               3
  5
A2
 10
1018.275073
 20
165.0
 30
0.0
 11
1020.025073
 21
165.0
 31
0.0
  0
LINE
  8
LY_3
  6
CONTINUOUS
 62
               3
  5
A3
 10
1018.275073
 20
165.0
 30
0.0
 11
1018.275073
 21
163.77496300000001
 31
0.0
  0
LINE
  8
LY_3
  6
CONTINUOUS
 62
               3
  5
A4
 10
1015.650073
 20
162.375
 30
0.0
 11
1016.8751099999999
 21
162.375
 31
0.0
  0
LINE
  8
LY_3
  6
CONTINUOUS
 62
               3
  5
A5
 10
1022.650073
 20
162.375
 30
0.0
 11
1022.650073
 21
160.625
 31
0.0
  0
LINE
  8
LY_3
  6
CONTINUOUS
 62
               3
  5
A6
 10
1020.025073
 20
165.0
 30
0.0
 11
1020.025073
 21
163.77496300000001
 31
0.0
  0
LINE
  8
LY_3
  6
CONTINUOUS
 62
               3
  5
A7
 10
1021.425037
 20
162.375
 30
0.0
 11
1022.650073
 21
162.375
 31
0.0
  0
LINE
  8
LY_3
  6
CONTINUOUS
 62
               3
  5
A8
 10
1018.275073
 20
158.0
 30
0.0
 11
1020.025073
 21
158.0
 31
0.0
  0
LINE
  8
LY_3
  6
CONTINUOUS
 62
               3
  5
A9
 10
1020.025073
 20
159.22503699999999
 30
0.0
 11
1020.025073
 21
158.0
 31
0.0
  0
LINE
  8
LY_3
  6
CONTINUOUS
 62
               3
  5
AA
 10
1021.425037
 20
160.625
 30
0.0
 11
1022.650073
 21
160.625
 31
0.0
  0
LINE
  8
LY_3
  6
CONTINUOUS
 62
               3
  5
AB
 10
1015.650073
 20
160.625
 30
0.0
 11
1016.8751099999999
 21
160.625
 31
0.0
  0
LINE
  8
LY_3
  6
CONTINUOUS
 62
               3
  5
AC
 10
1018.275073
 20
159.22503699999999
 30
0.0
 11
1018.275073
 21
158.0
 31
0.0
  0
ARC
  8
LY_3
  6
CONTINUOUS
 62
               3
  5
AD
 10
1016.8751099999999
 20
163.77496300000001
 30
0.0
 40
1.3999999999999999
 50
269.99999700000001
 51
0.0
  0
ARC
  8
LY_3
  6
CONTINUOUS
 62
               3
  5
AE
 10
1021.425037
 20
163.77496300000001
 30
0.0
 40
1.3999999999999999
 50
179.99999099999999
 51
270.000001
  0
ARC
  8
LY_3
  6
CONTINUOUS
 62
               3
  5
AF
 10
1021.425037
 20
159.22503699999999
 30
0.0
 40
1.3999999999999999
 50
90.000003000000007
 51
180.00000499999999
  0
ARC
  8
LY_3
  6
CONTINUOUS
 62
               3
  5
B0
 10
1016.8751099999999
 20
159.22503699999999
 30
0.0
 40
1.3999999999999999
 50
0.0
 51
90.000003000000007
  0
LINE
  8
LY_3
  6
CONTINUOUS
 62
               3
  5
B1
 10
1015.150073
 20
164.90036799999999
 30
0.0
 11
1015.150073
 21
277.0
 31
0.0
  0
LINE
  8
LY_3
  6
CONTINUOUS
 62
               3
  5
B2
 10
1161.900073
 20
277.0
 30
0.0
 11
1172.400073
 21
277.0
 31
0.0
  0
LINE
  8
LY_3
  6
CONTINUOUS
 62
               3
  5
B3
 10
1172.400073
 20
278.210083
 30
0.0
 11
1172.400073
 21
277.0
 31
0.0
  0
LINE
  8
LY_3
  6
CONTINUOUS
 62
               3
  5
B4
 10
1161.900073
 20
278.210083
 30
0.0
 11
1161.900073
 21
277.0
 31
0.0
  0
ARC
  8
LY_3
  6
CONTINUOUS
 62
               3
  5
B5
 10
1167.150073
 20
270.89996300000001
 30
0.0
 40
10.0
 50
66.030512000000002
 51
113.969478
  0
ARC
  8
LY_3
  6
CONTINUOUS
 62
               3
  5
B6
 10
1170.400073
 20
278.210083
 30
0.0
 40
2.0
 50
0.000003
 51
66.030522000000005
  0
ARC
  8
LY_3
  6
CONTINUOUS
 62
               3
  5
B7
 10
1163.900073
 20
278.210083
 30
0.0
 40
2.0
 50
113.969478
 51
179.99999700000001
  0
CIRCLE
  8
LY_3
  6
CONTINUOUS
 62
               3
  5
B8
 10
1167.150073
 20
161.5
 30
0.0
 40
5.25
  0
LINE
  8
LY_3
  6
CONTINUOUS
 62
               3
  5
B9
 10
1170.650073
 20
162.375
 30
0.0
 11
1170.650073
 21
160.625
 31
0.0
  0
LINE
  8
LY_3
  6
CONTINUOUS
 62
               3
  5
BA
 10
1168.025073
 20
165.0
 30
0.0
 11
1166.275073
 21
165.0
 31
0.0
  0
LINE
  8
LY_3
  6
CONTINUOUS
 62
               3
  5
BB
 10
1168.025073
 20
165.0
 30
0.0
 11
1168.025073
 21
163.77496300000001
 31
0.0
  0
LINE
  8
LY_3
  6
CONTINUOUS
 62
               3
  5
BC
 10
1170.650073
 20
162.375
 30
0.0
 11
1169.425037
 21
162.375
 31
0.0
  0
LINE
  8
LY_3
  6
CONTINUOUS
 62
               3
  5
BD
 10
1163.650073
 20
162.375
 30
0.0
 11
1163.650073
 21
160.625
 31
0.0
  0
LINE
  8
LY_3
  6
CONTINUOUS
 62
               3
  5
BE
 10
1166.275073
 20
165.0
 30
0.0
 11
1166.275073
 21
163.77496300000001
 31
0.0
  0
LINE
  8
LY_3
  6
CONTINUOUS
 62
               3
  5
BF
 10
1164.8751099999999
 20
162.375
 30
0.0
 11
1163.650073
 21
162.375
 31
0.0
  0
LINE
  8
LY_3
  6
CONTINUOUS
 62
               3
  5
C0
 10
1168.025073
 20
158.0
 30
0.0
 11
1166.275073
 21
158.0
 31
0.0
  0
LINE
  8
LY_3
  6
CONTINUOUS
 62
               3
  5
C1
 10
1166.275073
 20
159.22503699999999
 30
0.0
 11
1166.275073
 21
158.0
 31
0.0
  0
LINE
  8
LY_3
  6
CONTINUOUS
 62
               3
  5
C2
 10
1164.8751099999999
 20
160.625
 30
0.0
 11
1163.650073
 21
160.625
 31
0.0
  0
LINE
  8
LY_3
  6
CONTINUOUS
 62
               3
  5
C3
 10
1170.650073
 20
160.625
 30
0.0
 11
1169.425037
 21
160.625
 31
0.0
  0
LINE
  8
LY_3
  6
CONTINUOUS
 62
               3
  5
C4
 10
1168.025073
 20
159.22503699999999
 30
0.0
 11
1168.025073
 21
158.0
 31
0.0
  0
ARC
  8
LY_3
  6
CONTINUOUS
 62
               3
  5
C5
 10
1169.425037
 20
163.77496300000001
 30
0.0
 40
1.3999999999999999
 50
180.0
 51
270.00000299999999
  0
ARC
  8
LY_3
  6
CONTINUOUS
 62
               3
  5
C6
 10
1164.8751099999999
 20
163.77496300000001
 30
0.0
 40
1.3999999999999999
 50
269.999999
 51
0.0000090000000101
  0
ARC
  8
LY_3
  6
CONTINUOUS
 62
               3
  5
C7
 10
1164.8751099999999
 20
159.22503699999999
 30
0.0
 40
1.3999999999999999
 50
359.99999500000001
 51
89.999997000000008
  0
ARC
  8
LY_3
  6
CONTINUOUS
 62
               3
  5
C8
 10
1169.425037
 20
159.22503699999999
 30
0.0
 40
1.3999999999999999
 50
89.999997000000008
 51
180.0
  0
LINE
  8
LY_3
  6
CONTINUOUS
 62
               3
  5
C9
 10
1163.150073
 20
164.90036799999999
 30
0.0
 11
1163.150073
 21
277.0
 31
0.0
  0
LINE
  8
LY_3
  6
CONTINUOUS
 62
               3
  5
CA
 10
1171.150073
 20
164.90036799999999
 30
0.0
 11
1171.150073
 21
277.0
 31
0.0
  0
LINE
  8
LY_3
  6
CONTINUOUS
 62
               3
  5
CB
 10
1019.150073
 20
66.0
 30
0.0
 11
1053.150073
 21
66.0
 31
0.0
  0
LINE
  8
LY_3
  6
CONTINUOUS
 62
               3
  5
CC
 10
1023.950073
 20
82.0
 30
0.0
 11
1162.3500730000001
 21
82.0
 31
0.0
  0
LINE
  8
LY_3
  6
CONTINUOUS
 62
               3
  5
CD
 10
1162.3500730000001
 20
82.0
 30
0.0
 11
1167.150073
 21
66.0
 31
0.0
  0
LINE
  8
LY_3
  6
CONTINUOUS
 62
               3
  5
CE
 10
1023.950073
 20
82.0
 30
0.0
 11
1019.150073
 21
66.0
 31
0.0
  0
LINE
  8
LY_3
  6
DASHED
 62
              80
  5
CF
 10
1146.150073
 20
66.0
 30
0.0
 11
1146.150073
 21
82.0
 31
0.0
  0
LINE
  8
LY_3
  6
DASHED
 62
              80
  5
D0
 10
1156.150073
 20
66.0
 30
0.0
 11
1156.150073
 21
82.0
 31
0.0
  0
LINE
  8
LY_3
  6
DASHED
 62
              80
  5
D1
 10
1030.150073
 20
66.0
 30
0.0
 11
1030.150073
 21
82.0
 31
0.0
  0
LINE
  8
LY_3
  6
DASHED
 62
              80
  5
D2
 10
1040.150073
 20
66.0
 30
0.0
 11
1040.150073
 21
82.0
 31
0.0
  0
LINE
  8
LY_3
  6
CONTINUOUS
 62
               3
  5
D3
 10
1051.150073
 20
138.35586000000001
 30
0.0
 11
1043.150073
 21
82.0
 31
0.0
  0
LINE
  8
LY_3
  6
CONTINUOUS
 62
               3
  5
D4
 10
1155.150073
 20
131.0
 30
0.0
 11
1136.1942750000001
 21
131.0
 31
0.0
  0
LINE
  8
LY_3
  6
CONTINUOUS
 62
               3
  5
D5
 10
1023.150073
 20
164.90036799999999
 30
0.0
 11
1023.150073
 21
277.0
 31
0.0
  0
LINE
  8
LY_3
  6
CONTINUOUS
 62
               3
  5
D6
 10
1090.600085
 20
88.637512000000001
 30
0.0
 11
1090.600085
 21
87.362487999999999
 31
0.0
  0
LINE
  8
LY_3
  6
CONTINUOUS
 62
               3
  5
D7
 10
1092.512561
 20
90.549987999999999
 30
0.0
 11
1093.787585
 21
90.549987999999999
 31
0.0
  0
LINE
  8
LY_3
  6
CONTINUOUS
 62
               3
  5
D8
 10
1092.512561
 20
90.549987999999999
 30
0.0
 11
1092.512561
 21
89.657471000000001
 31
0.0
  0
LINE
  8
LY_3
  6
CONTINUOUS
 62
               3
  5
D9
 10
1090.600085
 20
88.637512000000001
 30
0.0
 11
1091.492602
 21
88.637512000000001
 31
0.0
  0
LINE
  8
LY_3
  6
CONTINUOUS
 62
               3
  5
DA
 10
1095.700061
 20
88.637512000000001
 30
0.0
 11
1095.700061
 21
87.362487999999999
 31
0.0
  0
LINE
  8
LY_3
  6
CONTINUOUS
 62
               3
  5
DB
 10
1093.787585
 20
90.549987999999999
 30
0.0
 11
1093.787585
 21
89.657471000000001
 31
0.0
  0
LINE
  8
LY_3
  6
CONTINUOUS
 62
               3
  5
DC
 10
1094.807544
 20
88.637512000000001
 30
0.0
 11
1095.700061
 21
88.637512000000001
 31
0.0
  0
LINE
  8
LY_3
  6
CONTINUOUS
 62
               3
  5
DD
 10
1092.512561
 20
85.450012000000001
 30
0.0
 11
1093.787585
 21
85.450012000000001
 31
0.0
  0
LINE
  8
LY_3
  6
CONTINUOUS
 62
               3
  5
DE
 10
1093.787585
 20
86.342528999999999
 30
0.0
 11
1093.787585
 21
85.450012000000001
 31
0.0
  0
LINE
  8
LY_3
  6
CONTINUOUS
 62
               3
  5
DF
 10
1094.807544
 20
87.362487999999999
 30
0.0
 11
1095.700061
 21
87.362487999999999
 31
0.0
  0
LINE
  8
LY_3
  6
CONTINUOUS
 62
               3
  5
E0
 10
1090.600085
 20
87.362487999999999
 30
0.0
 11
1091.492602
 21
87.362487999999999
 31
0.0
  0
LINE
  8
LY_3
  6
CONTINUOUS
 62
               3
  5
E1
 10
1092.512561
 20
86.342528999999999
 30
0.0
 11
1092.512561
 21
85.450012000000001
 31
0.0
  0
ARC
  8
LY_3
  6
CONTINUOUS
 62
               3
  5
E2
 10
1091.492602
 20
89.657471000000001
 30
0.0
 40
1.02
 50
269.99999700000001
 51
0.0
  0
CIRCLE
  8
LY_3
  6
CONTINUOUS
 62
               3
  5
E3
 10
1093.150073
 20
88.0
 30
0.0
 40
4.5
  0
ARC
  8
LY_3
  6
CONTINUOUS
 62
               3
  5
E4
 10
1094.807544
 20
89.657471000000001
 30
0.0
 40
1.02
 50
179.99999099999999
 51
270.000001
  0
ARC
  8
LY_3
  6
CONTINUOUS
 62
               3
  5
E5
 10
1094.807544
 20
86.342528999999999
 30
0.0
 40
1.02
 50
90.000003000000007
 51
180.00000499999999
  0
ARC
  8
LY_3
  6
CONTINUOUS
 62
               3
  5
E6
 10
1091.492602
 20
86.342528999999999
 30
0.0
 40
1.02
 50
0.0
 51
90.000003000000007
  0
POLYLINE
  8
LY_3
  6
CONTINUOUS
 62
               3
  5
E7
 66
               1
 10
0.0
 20
0.0
 30
0.0
  0
VERTEX
  8
LY_3
  6
CONTINUOUS
 62
               3
  5
157
 10
1128.2739779999999
 20
146.64916400000001
 30
0.0
  0
VERTEX
  8
LY_3
  6
CONTINUOUS
 62
               3
  5
158
 10
1128.236549
 20
147.07581300000001
 30
0.0
  0
VERTEX
  8
LY_3
  6
CONTINUOUS
 62
               3
  5
159
 10
1128.1249029999999
 20
147.49516299999999
 30
0.0
  0
VERTEX
  8
LY_3
  6
CONTINUOUS
 62
               3
  5
15A
 10
1127.940951
 20
147.900037
 30
0.0
  0
VERTEX
  8
LY_3
  6
CONTINUOUS
 62
               3
  5
15B
 10
1127.6878389999999
 20
148.28350800000001
 30
0.0
  0
VERTEX
  8
LY_3
  6
CONTINUOUS
 62
               3
  5
15C
 10
1127.369899
 20
148.639015
 30
0.0
  0
VERTEX
  8
LY_3
  6
CONTINUOUS
 62
               3
  5
15D
 10
1126.9925699999999
 20
148.960475
 30
0.0
  0
VERTEX
  8
LY_3
  6
CONTINUOUS
 62
               3
  5
15E
 10
1126.5623089999999
 20
149.24238800000001
 30
0.0
  0
VERTEX
  8
LY_3
  6
CONTINUOUS
 62
               3
  5
15F
 10
1126.0864779999999
 20
149.47993
 30
0.0
  0
VERTEX
  8
LY_3
  6
CONTINUOUS
 62
               3
  5
160
 10
1125.573218
 20
149.669037
 30
0.0
  0
VERTEX
  8
LY_3
  6
CONTINUOUS
 62
               3
  5
161
 10
1125.031311
 20
149.80647400000001
 30
0.0
  0
VERTEX
  8
LY_3
  6
CONTINUOUS
 62
               3
  5
162
 10
1124.47003
 20
149.88988699999999
 30
0.0
  0
VERTEX
  8
LY_3
  6
CONTINUOUS
 62
               3
  5
163
 10
1123.8989779999999
 20
149.91785100000001
 30
0.0
  0
VERTEX
  8
LY_3
  6
CONTINUOUS
 62
               3
  5
164
 10
1123.3279259999999
 20
149.88988699999999
 30
0.0
  0
VERTEX
  8
LY_3
  6
CONTINUOUS
 62
               3
  5
165
 10
1122.7666449999999
 20
149.80647400000001
 30
0.0
  0
VERTEX
  8
LY_3
  6
CONTINUOUS
 62
               3
  5
166
 10
1122.2247379999999
 20
149.669037
 30
0.0
  0
VERTEX
  8
LY_3
  6
CONTINUOUS
 62
               3
  5
167
 10
1121.7114779999999
 20
149.47993
 30
0.0
  0
VERTEX
  8
LY_3
  6
CONTINUOUS
 62
               3
  5
168
 10
1121.235647
 20
149.24238800000001
 30
0.0
  0
VERTEX
  8
LY_3
  6
CONTINUOUS
 62
               3
  5
169
 10
1120.805386
 20
148.960475
 30
0.0
  0
VERTEX
  8
LY_3
  6
CONTINUOUS
 62
               3
  5
16A
 10
1120.4280570000001
 20
148.639015
 30
0.0
  0
VERTEX
  8
LY_3
  6
CONTINUOUS
 62
               3
  5
16B
 10
1120.1101169999999
 20
148.28350800000001
 30
0.0
  0
VERTEX
  8
LY_3
  6
CONTINUOUS
 62
               3
  5
16C
 10
1119.8570050000001
 20
147.900037
 30
0.0
  0
VERTEX
  8
LY_3
  6
CONTINUOUS
 62
               3
  5
16D
 10
1119.6730520000001
 20
147.49516299999999
 30
0.0
  0
VERTEX
  8
LY_3
  6
CONTINUOUS
 62
               3
  5
16E
 10
1119.5614069999999
 20
147.07581300000001
 30
0.0
  0
VERTEX
  8
LY_3
  6
CONTINUOUS
 62
               3
  5
16F
 10
1119.5239779999999
 20
146.64916400000001
 30
0.0
  0
SEQEND
  8
LY_3
  6
CONTINUOUS
 62
               3
  5
170
  0
POLYLINE
  8
LY_3
  6
CONTINUOUS
 62
               3
  5
E8
 66
               1
 10
0.0
 20
0.0
 30
0.0
  0
VERTEX
  8
LY_3
  6
CONTINUOUS
 62
               3
  5
171
 10
1128.3054549999999
 20
139.96925400000001
 30
0.0
  0
VERTEX
  8
LY_3
  6
CONTINUOUS
 62
               3
  5
172
 10
1130.353286
 20
140.61552800000001
 30
0.0
  0
VERTEX
  8
LY_3
  6
CONTINUOUS
 62
               3
  5
173
 10
1132.2383809999999
 20
141.49583100000001
 30
0.0
  0
VERTEX
  8
LY_3
  6
CONTINUOUS
 62
               3
  5
174
 10
1133.9132099999999
 20
142.58796899999999
 30
0.0
  0
VERTEX
  8
LY_3
  6
CONTINUOUS
 62
               3
  5
175
 10
1135.3355449999999
 20
143.86440400000001
 30
0.0
  0
VERTEX
  8
LY_3
  6
CONTINUOUS
 62
               3
  5
176
 10
1136.469523
 20
145.29295400000001
 30
0.0
  0
VERTEX
  8
LY_3
  6
CONTINUOUS
 62
               3
  5
177
 10
1137.286554
 20
146.83759800000001
 30
0.0
  0
VERTEX
  8
LY_3
  6
CONTINUOUS
 62
               3
  5
178
 10
1137.766036
 20
148.45939200000001
 30
0.0
  0
VERTEX
  8
LY_3
  6
CONTINUOUS
 62
               3
  5
179
 10
1137.8958809999999
 20
150.117445
 30
0.0
  0
VERTEX
  8
LY_3
  6
CONTINUOUS
 62
               3
  5
17A
 10
1137.672814
 20
151.76994999999999
 30
0.0
  0
VERTEX
  8
LY_3
  6
CONTINUOUS
 62
               3
  5
17B
 10
1137.1024600000001
 20
153.37524199999999
 30
0.0
  0
VERTEX
  8
LY_3
  6
CONTINUOUS
 62
               3
  5
17C
 10
1136.1991989999999
 20
154.89284699999999
 30
0.0
  0
VERTEX
  8
LY_3
  6
CONTINUOUS
 62
               3
  5
17D
 10
1134.985807
 20
156.28449900000001
 30
0.0
  0
VERTEX
  8
LY_3
  6
CONTINUOUS
 62
               3
  5
17E
 10
1133.492876
 20
157.51511099999999
 30
0.0
  0
VERTEX
  8
LY_3
  6
CONTINUOUS
 62
               3
  5
17F
 10
1131.758049
 20
158.55365499999999
 30
0.0
  0
VERTEX
  8
LY_3
  6
CONTINUOUS
 62
               3
  5
180
 10
1129.825067
 20
159.37394399999999
 30
0.0
  0
VERTEX
  8
LY_3
  6
CONTINUOUS
 62
               3
  5
181
 10
1127.742667
 20
159.955297
 30
0.0
  0
VERTEX
  8
LY_3
  6
CONTINUOUS
 62
               3
  5
182
 10
1125.563355
 20
160.28305599999999
 30
0.0
  0
VERTEX
  8
LY_3
  6
CONTINUOUS
 62
               3
  5
183
 10
1123.342077
 20
160.34895700000001
 30
0.0
  0
VERTEX
  8
LY_3
  6
CONTINUOUS
 62
               3
  5
184
 10
1121.1348410000001
 20
160.15133800000001
 30
0.0
  0
VERTEX
  8
LY_3
  6
CONTINUOUS
 62
               3
  5
185
 10
1118.9972990000001
 20
159.69518099999999
 30
0.0
  0
VERTEX
  8
LY_3
  6
CONTINUOUS
 62
               3
  5
186
 10
1116.9833450000001
 20
158.99198899999999
 30
0.0
  0
VERTEX
  8
LY_3
  6
CONTINUOUS
 62
               3
  5
187
 10
1115.143759
 20
158.05949100000001
 30
0.0
  0
VERTEX
  8
LY_3
  6
CONTINUOUS
 62
               3
  5
188
 10
1113.5249229999999
 20
156.921198
 30
0.0
  0
VERTEX
  8
LY_3
  6
CONTINUOUS
 62
               3
  5
189
 10
1112.167653
 20
155.60581199999999
 30
0.0
  0
VERTEX
  8
LY_3
  6
CONTINUOUS
 62
               3
  5
18A
 10
1111.106172
 20
154.14649700000001
 30
0.0
  0
VERTEX
  8
LY_3
  6
CONTINUOUS
 62
               3
  5
18B
 10
1110.3672429999999
 20
152.580049
 30
0.0
  0
VERTEX
  8
LY_3
  6
CONTINUOUS
 62
               3
  5
18C
 10
1109.969497
 20
150.94596200000001
 30
0.0
  0
VERTEX
  8
LY_3
  6
CONTINUOUS
 62
               3
  5
18D
 10
1109.9229620000001
 20
149.285438
 30
0.0
  0
VERTEX
  8
LY_3
  6
CONTINUOUS
 62
               3
  5
18E
 10
1110.2288120000001
 20
147.640345
 30
0.0
  0
VERTEX
  8
LY_3
  6
CONTINUOUS
 62
               3
  5
18F
 10
1110.8793350000001
 20
146.05216100000001
 30
0.0
  0
VERTEX
  8
LY_3
  6
CONTINUOUS
 62
               3
  5
190
 10
1111.8581300000001
 20
144.56093000000001
 30
0.0
  0
VERTEX
  8
LY_3
  6
CONTINUOUS
 62
               3
  5
191
 10
1113.140517
 20
143.204251
 30
0.0
  0
VERTEX
  8
LY_3
  6
CONTINUOUS
 62
               3
  5
192
 10
1114.6941629999999
 20
142.01633100000001
 30
0.0
  0
VERTEX
  8
LY_3
  6
CONTINUOUS
 62
               3
  5
193
 10
1116.4798949999999
 20
141.02712199999999
 30
0.0
  0
VERTEX
  8
LY_3
  6
CONTINUOUS
 62
               3
  5
194
 10
1117.9728889999999
 20
140.420928
 30
0.0
  0
VERTEX
  8
LY_3
  6
CONTINUOUS
 62
               3
  5
195
 10
1119.5531820000001
 20
139.95433499999999
 30
0.0
  0
SEQEND
  8
LY_3
  6
CONTINUOUS
 62
               3
  5
196
  0
POLYLINE
  8
LY_3
  6
CONTINUOUS
 62
               3
  5
E9
 66
               1
 10
0.0
 20
0.0
 30
0.0
  0
VERTEX
  8
LY_3
  6
CONTINUOUS
 62
               3
  5
197
 10
1128.2904209999999
 20
140.289039
 30
0.0
  0
VERTEX
  8
LY_3
  6
CONTINUOUS
 62
               3
  5
198
 10
1129.552312
 20
140.923148
 30
0.0
  0
VERTEX
  8
LY_3
  6
CONTINUOUS
 62
               3
  5
199
 10
1130.653904
 20
141.70645999999999
 30
0.0
  0
VERTEX
  8
LY_3
  6
CONTINUOUS
 62
               3
  5
19A
 10
1131.5639610000001
 20
142.61676399999999
 30
0.0
  0
VERTEX
  8
LY_3
  6
CONTINUOUS
 62
               3
  5
19B
 10
1132.256678
 20
143.62824800000001
 30
0.0
  0
VERTEX
  8
LY_3
  6
CONTINUOUS
 62
               3
  5
19C
 10
1132.7124140000001
 20
144.712233
 30
0.0
  0
VERTEX
  8
LY_3
  6
CONTINUOUS
 62
               3
  5
19D
 10
1132.9182470000001
 20
145.83797999999999
 30
0.0
  0
VERTEX
  8
LY_3
  6
CONTINUOUS
 62
               3
  5
19E
 10
1132.8683390000001
 20
146.97357099999999
 30
0.0
  0
VERTEX
  8
LY_3
  6
CONTINUOUS
 62
               3
  5
19F
 10
1132.564106
 20
148.086806
 30
0.0
  0
VERTEX
  8
LY_3
  6
CONTINUOUS
 62
               3
  5
1A0
 10
1132.014175
 20
149.146119
 30
0.0
  0
VERTEX
  8
LY_3
  6
CONTINUOUS
 62
               3
  5
1A1
 10
1131.2341389999999
 20
150.12147300000001
 30
0.0
  0
VERTEX
  8
LY_3
  6
CONTINUOUS
 62
               3
  5
1A2
 10
1130.2461149999999
 20
150.98521299999999
 30
0.0
  0
VERTEX
  8
LY_3
  6
CONTINUOUS
 62
               3
  5
1A3
 10
1129.078119
 20
151.71284700000001
 30
0.0
  0
VERTEX
  8
LY_3
  6
CONTINUOUS
 62
               3
  5
1A4
 10
1127.763269
 20
152.28374299999999
 30
0.0
  0
VERTEX
  8
LY_3
  6
CONTINUOUS
 62
               3
  5
1A5
 10
1126.3388480000001
 20
152.681714
 30
0.0
  0
VERTEX
  8
LY_3
  6
CONTINUOUS
 62
               3
  5
1A6
 10
1124.8452440000001
 20
152.89547400000001
 30
0.0
  0
VERTEX
  8
LY_3
  6
CONTINUOUS
 62
               3
  5
1A7
 10
1123.3248100000001
 20
152.91896399999999
 30
0.0
  0
VERTEX
  8
LY_3
  6
CONTINUOUS
 62
               3
  5
1A8
 10
1121.8206560000001
 20
152.75151700000001
 30
0.0
  0
VERTEX
  8
LY_3
  6
CONTINUOUS
 62
               3
  5
1A9
 10
1120.375432
 20
152.39788100000001
 30
0.0
  0
VERTEX
  8
LY_3
  6
CONTINUOUS
 62
               3
  5
1AA
 10
1119.0301179999999
 20
151.86808300000001
 30
0.0
  0
VERTEX
  8
LY_3
  6
CONTINUOUS
 62
               3
  5
1AB
 10
1117.82286
 20
151.17714599999999
 30
0.0
  0
VERTEX
  8
LY_3
  6
CONTINUOUS
 62
               3
  5
1AC
 10
1116.787889
 20
150.34466
 30
0.0
  0
VERTEX
  8
LY_3
  6
CONTINUOUS
 62
               3
  5
1AD
 10
1115.9545519999999
 20
149.39423199999999
 30
0.0
  0
VERTEX
  8
LY_3
  6
CONTINUOUS
 62
               3
  5
1AE
 10
1115.3464779999999
 20
148.35280900000001
 30
0.0
  0
VERTEX
  8
LY_3
  6
CONTINUOUS
 62
               3
  5
1AF
 10
1114.9809090000001
 20
147.249923
 30
0.0
  0
VERTEX
  8
LY_3
  6
CONTINUOUS
 62
               3
  5
1B0
 10
1114.868211
 20
146.11684399999999
 30
0.0
  0
VERTEX
  8
LY_3
  6
CONTINUOUS
 62
               3
  5
1B1
 10
1115.011579
 20
144.98570100000001
 30
0.0
  0
VERTEX
  8
LY_3
  6
CONTINUOUS
 62
               3
  5
1B2
 10
1115.4069480000001
 20
143.88856799999999
 30
0.0
  0
VERTEX
  8
LY_3
  6
CONTINUOUS
 62
               3
  5
1B3
 10
1116.0431060000001
 20
142.85655299999999
 30
0.0
  0
VERTEX
  8
LY_3
  6
CONTINUOUS
 62
               3
  5
1B4
 10
1116.902018
 20
141.91892000000001
 30
0.0
  0
VERTEX
  8
LY_3
  6
CONTINUOUS
 62
               3
  5
1B5
 10
1117.9593259999999
 20
141.10225399999999
 30
0.0
  0
VERTEX
  8
LY_3
  6
CONTINUOUS
 62
               3
  5
1B6
 10
1118.7198370000001
 20
140.65740400000001
 30
0.0
  0
VERTEX
  8
LY_3
  6
CONTINUOUS
 62
               3
  5
1B7
 10
1119.539585
 20
140.275778
 30
0.0
  0
SEQEND
  8
LY_3
  6
CONTINUOUS
 62
               3
  5
1B8
  0
TEXT
  8
LY_3
  6
CONTINUOUS
 62
               3
  5
EA
 10
748.40013987689906
 20
-20.0
 30
0.0
 40
40.0
  1
A
 41
1.0500099815348627
  7
MX_NOTE_STANDARD
 11
748.40013987689906
 21
0.0
 31
0.0
 73
               2
  0
ARC
  8
LY_3
  6
CONTINUOUS
 62
               3
  5
EB
 10
1203.4525209999999
 20
143.663422
 30
0.0
 40
75.237809999999996
 50
177.725673
 51
202.95916700000001
  0
ARC
  8
LY_3
  6
CONTINUOUS
 62
               3
  5
EC
 10
1203.4525209999999
 20
143.663422
 30
0.0
 40
83.981296
 50
177.96256399999999
 51
202.398145
  0
LINE
  8
LY_3
  6
CONTINUOUS
 62
               3
  5
ED
 10
1128.402153
 20
138.35586000000001
 30
0.0
 11
1135.150073
 21
138.35586000000001
 31
0.0
  0
LINE
  8
LY_3
  6
CONTINUOUS
 62
               3
  5
EE
 10
1023.150073
 20
453.40036800000001
 30
0.0
 11
1023.150073
 21
527.0
 31
0.0
  0
LINE
  8
LY_3
  6
CONTINUOUS
 62
               3
  5
EF
 10
1031.150073
 20
381.0
 30
0.0
 11
1155.150073
 21
381.0
 31
0.0
  0
LINE
  8
LY_3
  6
CONTINUOUS
 62
               3
  5
F0
 10
1171.150073
 20
453.40036800000001
 30
0.0
 11
1171.150073
 21
527.0
 31
0.0
  0
LINE
  8
LY_3
  6
CONTINUOUS
 62
               3
  5
F1
 10
1163.150073
 20
453.40036800000001
 30
0.0
 11
1163.150073
 21
527.0
 31
0.0
  0
ARC
  8
LY_3
  6
CONTINUOUS
 62
               3
  5
F2
 10
1169.425037
 20
447.72503699999999
 30
0.0
 40
1.3999999999999999
 50
89.999997000000008
 51
180.0
  0
ARC
  8
LY_3
  6
CONTINUOUS
 62
               3
  5
F3
 10
1164.8751099999999
 20
447.72503699999999
 30
0.0
 40
1.3999999999999999
 50
359.99999500000001
 51
89.999997000000008
  0
ARC
  8
LY_3
  6
CONTINUOUS
 62
               3
  5
F4
 10
1164.8751099999999
 20
452.27496300000001
 30
0.0
 40
1.3999999999999999
 50
269.999999
 51
0.0000090000000101
  0
ARC
  8
LY_3
  6
CONTINUOUS
 62
               3
  5
F5
 10
1169.425037
 20
452.27496300000001
 30
0.0
 40
1.3999999999999999
 50
180.0
 51
270.00000299999999
  0
LINE
  8
LY_3
  6
CONTINUOUS
 62
               3
  5
F6
 10
1168.025073
 20
447.72503699999999
 30
0.0
 11
1168.025073
 21
446.5
 31
0.0
  0
LINE
  8
LY_3
  6
CONTINUOUS
 62
               3
  5
F7
 10
1170.650073
 20
449.125
 30
0.0
 11
1169.425037
 21
449.125
 31
0.0
  0
LINE
  8
LY_3
  6
CONTINUOUS
 62
               3
  5
F8
 10
1164.8751099999999
 20
449.125
 30
0.0
 11
1163.650073
 21
449.125
 31
0.0
  0
LINE
  8
LY_3
  6
CONTINUOUS
 62
               3
  5
F9
 10
1166.275073
 20
447.72503699999999
 30
0.0
 11
1166.275073
 21
446.5
 31
0.0
  0
LINE
  8
LY_3
  6
CONTINUOUS
 62
               3
  5
FA
 10
1168.025073
 20
446.5
 30
0.0
 11
1166.275073
 21
446.5
 31
0.0
  0
LINE
  8
LY_3
  6
CONTINUOUS
 62
               3
  5
FB
 10
1164.8751099999999
 20
450.875
 30
0.0
 11
1163.650073
 21
450.875
 31
0.0
  0
LINE
  8
LY_3
  6
CONTINUOUS
 62
               3
  5
FC
 10
1166.275073
 20
453.5
 30
0.0
 11
1166.275073
 21
452.27496300000001
 31
0.0
  0
LINE
  8
LY_3
  6
CONTINUOUS
 62
               3
  5
FD
 10
1163.650073
 20
450.875
 30
0.0
 11
1163.650073
 21
449.125
 31
0.0
  0
LINE
  8
LY_3
  6
CONTINUOUS
 62
               3
  5
FE
 10
1170.650073
 20
450.875
 30
0.0
 11
1169.425037
 21
450.875
 31
0.0
  0
LINE
  8
LY_3
  6
CONTINUOUS
 62
               3
  5
FF
 10
1168.025073
 20
453.5
 30
0.0
 11
1168.025073
 21
452.27496300000001
 31
0.0
  0
LINE
  8
LY_3
  6
CONTINUOUS
 62
               3
  5
100
 10
1168.025073
 20
453.5
 30
0.0
 11
1166.275073
 21
453.5
 31
0.0
  0
LINE
  8
LY_3
  6
CONTINUOUS
 62
               3
  5
101
 10
1170.650073
 20
450.875
 30
0.0
 11
1170.650073
 21
449.125
 31
0.0
  0
CIRCLE
  8
LY_3
  6
CONTINUOUS
 62
               3
  5
102
 10
1167.150073
 20
450.0
 30
0.0
 40
5.25
  0
LINE
  8
LY_3
  6
CONTINUOUS
 62
               3
  5
103
 10
1015.150073
 20
453.40036800000001
 30
0.0
 11
1015.150073
 21
527.0
 31
0.0
  0
ARC
  8
LY_3
  6
CONTINUOUS
 62
               3
  5
104
 10
1016.8751099999999
 20
447.72503699999999
 30
0.0
 40
1.3999999999999999
 50
0.0
 51
90.000003000000007
  0
ARC
  8
LY_3
  6
CONTINUOUS
 62
               3
  5
105
 10
1021.425037
 20
447.72503699999999
 30
0.0
 40
1.3999999999999999
 50
90.000003000000007
 51
180.00000499999999
  0
ARC
  8
LY_3
  6
CONTINUOUS
 62
               3
  5
106
 10
1021.425037
 20
452.27496300000001
 30
0.0
 40
1.3999999999999999
 50
179.99999099999999
 51
270.000001
  0
ARC
  8
LY_3
  6
CONTINUOUS
 62
               3
  5
107
 10
1016.8751099999999
 20
452.27496300000001
 30
0.0
 40
1.3999999999999999
 50
269.99999700000001
 51
0.0
  0
LINE
  8
LY_3
  6
CONTINUOUS
 62
               3
  5
108
 10
1018.275073
 20
447.72503699999999
 30
0.0
 11
1018.275073
 21
446.5
 31
0.0
  0
LINE
  8
LY_3
  6
CONTINUOUS
 62
               3
  5
109
 10
1015.650073
 20
449.125
 30
0.0
 11
1016.8751099999999
 21
449.125
 31
0.0
  0
LINE
  8
LY_3
  6
CONTINUOUS
 62
               3
  5
10A
 10
1021.425037
 20
449.125
 30
0.0
 11
1022.650073
 21
449.125
 31
0.0
  0
LINE
  8
LY_3
  6
CONTINUOUS
 62
               3
  5
10B
 10
1020.025073
 20
447.72503699999999
 30
0.0
 11
1020.025073
 21
446.5
 31
0.0
  0
LINE
  8
LY_3
  6
CONTINUOUS
 62
               3
  5
10C
 10
1018.275073
 20
446.5
 30
0.0
 11
1020.025073
 21
446.5
 31
0.0
  0
LINE
  8
LY_3
  6
CONTINUOUS
 62
               3
  5
10D
 10
1021.425037
 20
450.875
 30
0.0
 11
1022.650073
 21
450.875
 31
0.0
  0
LINE
  8
LY_3
  6
CONTINUOUS
 62
               3
  5
10E
 10
1020.025073
 20
453.5
 30
0.0
 11
1020.025073
 21
452.27496300000001
 31
0.0
  0
LINE
  8
LY_3
  6
CONTINUOUS
 62
               3
  5
10F
 10
1022.650073
 20
450.875
 30
0.0
 11
1022.650073
 21
449.125
 31
0.0
  0
LINE
  8
LY_3
  6
CONTINUOUS
 62
               3
  5
110
 10
1015.650073
 20
450.875
 30
0.0
 11
1016.8751099999999
 21
450.875
 31
0.0
  0
LINE
  8
LY_3
  6
CONTINUOUS
 62
               3
  5
111
 10
1018.275073
 20
453.5
 30
0.0
 11
1018.275073
 21
452.27496300000001
 31
0.0
  0
LINE
  8
LY_3
  6
CONTINUOUS
 62
               3
  5
112
 10
1018.275073
 20
453.5
 30
0.0
 11
1020.025073
 21
453.5
 31
0.0
  0
LINE
  8
LY_3
  6
CONTINUOUS
 62
               3
  5
113
 10
1015.650073
 20
450.875
 30
0.0
 11
1015.650073
 21
449.125
 31
0.0
  0
CIRCLE
  8
LY_3
  6
CONTINUOUS
 62
               3
  5
114
 10
1019.150073
 20
450.0
 30
0.0
 40
5.25
  0
LINE
  8
LY_3
  6
CONTINUOUS
 62
               3
  5
115
 10
1208.150073
 20
433.0
 30
0.0
 11
1208.150073
 21
467.0
 31
0.0
  0
LINE
  8
LY_3
  6
CONTINUOUS
 62
               3
  5
116
 10
1178.150073
 20
433.0
 30
0.0
 11
1178.150073
 21
467.0
 31
0.0
  0
LINE
  8
LY_3
  6
CONTINUOUS
 62
               3
  5
117
 10
1208.150073
 20
467.0
 30
0.0
 11
1178.150073
 21
467.0
 31
0.0
  0
LINE
  8
LY_3
  6
CONTINUOUS
 62
               3
  5
118
 10
1208.150073
 20
433.0
 30
0.0
 11
1178.150073
 21
433.0
 31
0.0
  0
LINE
  8
LY_3
  6
CONTINUOUS
 62
               3
  5
119
 10
1208.150073
 20
523.53845000000001
 30
0.0
 11
1178.150073
 21
523.53845000000001
 31
0.0
  0
LINE
  8
LY_3
  6
CONTINUOUS
 62
               3
  5
11A
 10
1208.150073
 20
506.53845000000001
 30
0.0
 11
1178.150073
 21
506.53845000000001
 31
0.0
  0
LINE
  8
LY_3
  6
CONTINUOUS
 62
               3
  5
11B
 10
1178.150073
 20
506.53845000000001
 30
0.0
 11
1178.150073
 21
523.53845000000001
 31
0.0
  0
LINE
  8
LY_3
  6
CONTINUOUS
 62
               3
  5
11C
 10
1208.150073
 20
506.53845000000001
 30
0.0
 11
1208.150073
 21
523.53845000000001
 31
0.0
  0
LINE
  8
LY_3
  6
CONTINUOUS
 62
               3
  5
11D
 10
1208.150073
 20
521.76136299999996
 30
0.0
 11
1178.150073
 21
521.76136299999996
 31
0.0
  0
LINE
  8
LY_3
  6
CONTINUOUS
 62
               3
  5
11E
 10
1208.150073
 20
378.23863699999998
 30
0.0
 11
1178.150073
 21
378.23863699999998
 31
0.0
  0
LINE
  8
LY_3
  6
CONTINUOUS
 62
               3
  5
11F
 10
1208.150073
 20
393.46154999999999
 30
0.0
 11
1208.150073
 21
376.46154999999999
 31
0.0
  0
LINE
  8
LY_3
  6
CONTINUOUS
 62
               3
  5
120
 10
1178.150073
 20
393.46154999999999
 30
0.0
 11
1178.150073
 21
376.46154999999999
 31
0.0
  0
LINE
  8
LY_3
  6
CONTINUOUS
 62
               3
  5
121
 10
1208.150073
 20
393.46154999999999
 30
0.0
 11
1178.150073
 21
393.46154999999999
 31
0.0
  0
LINE
  8
LY_3
  6
CONTINUOUS
 62
               3
  5
122
 10
1208.150073
 20
376.46154999999999
 30
0.0
 11
1178.150073
 21
376.46154999999999
 31
0.0
  0
LINE
  8
LY_3
  6
CONTINUOUS
 62
               3
  5
123
 10
1008.150073
 20
393.46154999999999
 30
0.0
 11
1008.150073
 21
376.46154999999999
 31
0.0
  0
LINE
  8
LY_3
  6
CONTINUOUS
 62
               3
  5
124
 10
1008.150073
 20
506.53845000000001
 30
0.0
 11
1008.150073
 21
523.53845000000001
 31
0.0
  0
LINE
  8
LY_3
  6
CONTINUOUS
 62
               3
  5
125
 10
1008.150073
 20
433.0
 30
0.0
 11
1008.150073
 21
467.0
 31
0.0
  0
LINE
  8
LY_3
  6
CONTINUOUS
 62
               3
  5
126
 10
1221.150073
 20
527.0
 30
0.0
 11
1163.150073
 21
527.0
 31
0.0
  0
LINE
  8
LY_3
  6
CONTINUOUS
 62
               3
  5
127
 10
1221.150073
 20
373.0
 30
0.0
 11
1163.150073
 21
373.0
 31
0.0
  0
LINE
  8
LY_3
  6
CONTINUOUS
 62
               3
  5
128
 10
1171.150073
 20
373.0
 30
0.0
 11
1171.150073
 21
446.59963199999999
 31
0.0
  0
ARC
  8
LY_3
  6
CONTINUOUS
 62
               3
  5
129
 10
1221.150073
 20
522.0
 30
0.0
 40
5.0
 50
0.0
 51
90.0
  0
ARC
  8
LY_3
  6
CONTINUOUS
 62
               3
  5
12A
 10
1221.150073
 20
378.0
 30
0.0
 40
5.0
 50
270.0
 51
0.0
  0
LINE
  8
LY_3
  6
CONTINUOUS
 62
               3
  5
12B
 10
1163.150073
 20
373.0
 30
0.0
 11
1163.150073
 21
446.59963199999999
 31
0.0
  0
LINE
  8
LY_3
  6
CONTINUOUS
 62
               3
  5
12C
 10
1142.150073
 20
381.0
 30
0.0
 11
1142.150073
 21
519.0
 31
0.0
  0
ARC
  8
LY_3
  6
CONTINUOUS
 62
               3
  5
12D
 10
1163.150073
 20
377.0
 30
0.0
 40
4.0
 50
180.0
 51
270.0
  0
ARC
  8
LY_3
  6
CONTINUOUS
 62
               3
  5
12E
 10
1163.150073
 20
523.0
 30
0.0
 40
4.0
 50
90.0
 51
180.0
  0
ARC
  8
LY_3
  6
CONTINUOUS
 62
               3
  5
12F
 10
1155.150073
 20
523.0
 30
0.0
 40
4.0
 50
270.0
 51
0.0
  0
ARC
  8
LY_3
  6
CONTINUOUS
 62
               3
  5
130
 10
1155.150073
 20
377.0
 30
0.0
 40
4.0
 50
0.0
 51
90.0
  0
LINE
  8
LY_3
  6
CONTINUOUS
 62
               3
  5
131
 10
1226.150073
 20
378.0
 30
0.0
 11
1226.150073
 21
522.0
 31
0.0
  0
ARC
  8
LY_3
  6
CONTINUOUS
 62
               3
  5
132
 10
1031.150073
 20
377.0
 30
0.0
 40
4.0
 50
90.0
 51
180.0
  0
ARC
  8
LY_3
  6
CONTINUOUS
 62
               3
  5
133
 10
1031.150073
 20
523.0
 30
0.0
 40
4.0
 50
180.0
 51
270.0
  0
ARC
  8
LY_3
  6
CONTINUOUS
 62
               3
  5
134
 10
1023.150073
 20
523.0
 30
0.0
 40
4.0
 50
0.0
 51
90.0
  0
ARC
  8
LY_3
  6
CONTINUOUS
 62
               3
  5
135
 10
1023.150073
 20
377.0
 30
0.0
 40
4.0
 50
270.0
 51
0.0
  0
LINE
  8
LY_3
  6
CONTINUOUS
 62
               3
  5
136
 10
1031.150073
 20
519.0
 30
0.0
 11
1155.150073
 21
519.0
 31
0.0
  0
LINE
  8
LY_3
  6
CONTINUOUS
 62
               3
  5
137
 10
1044.150073
 20
381.0
 30
0.0
 11
1044.150073
 21
519.0
 31
0.0
  0
LINE
  8
LY_3
  6
CONTINUOUS
 62
               3
  5
138
 10
1023.150073
 20
373.0
 30
0.0
 11
1023.150073
 21
446.59963199999999
 31
0.0
  0
LINE
  8
LY_3
  6
CONTINUOUS
 62
               3
  5
139
 10
1015.150073
 20
373.0
 30
0.0
 11
1015.150073
 21
446.59963199999999
 31
0.0
  0
LINE
  8
LY_3
  6
CONTINUOUS
 62
               3
  5
13A
 10
978.15007300000002
 20
393.46154999999999
 30
0.0
 11
978.15007300000002
 21
376.46154999999999
 31
0.0
  0
LINE
  8
LY_3
  6
CONTINUOUS
 62
               3
  5
13B
 10
978.15007300000002
 20
506.53845000000001
 30
0.0
 11
978.15007300000002
 21
523.53845000000001
 31
0.0
  0
LINE
  8
LY_3
  6
CONTINUOUS
 62
               3
  5
13C
 10
978.15007300000002
 20
433.0
 30
0.0
 11
978.15007300000002
 21
467.0
 31
0.0
  0
ARC
  8
LY_3
  6
CONTINUOUS
 62
               3
  5
13D
 10
965.15007300000002
 20
378.0
 30
0.0
 40
5.0
 50
180.0
 51
270.0
  0
ARC
  8
LY_3
  6
CONTINUOUS
 62
               3
  5
13E
 10
965.15007300000002
 20
522.0
 30
0.0
 40
5.0
 50
90.0
 51
180.0
  0
LINE
  8
LY_3
  6
CONTINUOUS
 62
               3
  5
13F
 10
960.15007300000002
 20
378.0
 30
0.0
 11
960.15007300000002
 21
522.0
 31
0.0
  0
LINE
  8
LY_3
  6
CONTINUOUS
 62
               3
  5
140
 10
965.15007300000002
 20
527.0
 30
0.0
 11
1023.150073
 21
527.0
 31
0.0
  0
LINE
  8
LY_3
  6
CONTINUOUS
 62
               3
  5
141
 10
965.15007300000002
 20
373.0
 30
0.0
 11
1023.150073
 21
373.0
 31
0.0
  0
LINE
  8
LY_3
  6
CONTINUOUS
 62
               3
  5
142
 10
978.15007300000002
 20
467.0
 30
0.0
 11
1008.150073
 21
467.0
 31
0.0
  0
LINE
  8
LY_3
  6
CONTINUOUS
 62
               3
  5
143
 10
978.15007300000002
 20
433.0
 30
0.0
 11
1008.150073
 21
433.0
 31
0.0
  0
LINE
  8
LY_3
  6
CONTINUOUS
 62
               3
  5
144
 10
978.15007300000002
 20
523.53845000000001
 30
0.0
 11
1008.150073
 21
523.53845000000001
 31
0.0
  0
LINE
  8
LY_3
  6
CONTINUOUS
 62
               3
  5
145
 10
978.15007300000002
 20
506.53845000000001
 30
0.0
 11
1008.150073
 21
506.53845000000001
 31
0.0
  0
LINE
  8
LY_3
  6
CONTINUOUS
 62
               3
  5
146
 10
978.15007300000002
 20
521.76136299999996
 30
0.0
 11
1008.150073
 21
521.76136299999996
 31
0.0
  0
LINE
  8
LY_3
  6
CONTINUOUS
 62
               3
  5
147
 10
978.15007300000002
 20
378.23863699999998
 30
0.0
 11
1008.150073
 21
378.23863699999998
 31
0.0
  0
LINE
  8
LY_3
  6
CONTINUOUS
 62
               3
  5
148
 10
978.15007300000002
 20
393.46154999999999
 30
0.0
 11
1008.150073
 21
393.46154999999999
 31
0.0
  0
LINE
  8
LY_3
  6
CONTINUOUS
 62
               3
  5
149
 10
978.15007300000002
 20
376.46154999999999
 30
0.0
 11
1008.150073
 21
376.46154999999999
 31
0.0
  0
LINE
  8
LY_3
  6
CONTINUOUS
 62
              20
  5
14A
 10
1019.150073
 20
530.5
 30
0.0
 11
1167.150073
 21
530.5
 31
0.0
  0
LINE
  8
LY_3
  6
CONTINUOUS
 62
              20
  5
14B
 10
1019.150073
 20
369.5
 30
0.0
 11
1167.150073
 21
369.5
 31
0.0
  0
LINE
  8
LY_3
  6
CONTINUOUS
 62
              20
  5
14C
 10
1019.150073
 20
369.5
 30
0.0
 11
1019.150073
 21
373.0
 31
0.0
  0
LINE
  8
LY_3
  6
CONTINUOUS
 62
              20
  5
14D
 10
1167.150073
 20
369.5
 30
0.0
 11
1167.150073
 21
373.0
 31
0.0
  0
CIRCLE
  8
LY_3
  6
DASHED
 62
              20
  5
14E
 10
1035.150073
 20
514.0
 30
0.0
 40
5.0
  0
CIRCLE
  8
LY_3
  6
DASHED
 62
              20
  5
14F
 10
1035.150073
 20
386.0
 30
0.0
 40
5.0
  0
CIRCLE
  8
LY_3
  6
DASHED
 62
              20
  5
150
 10
1151.150073
 20
386.0
 30
0.0
 40
5.0
  0
CIRCLE
  8
LY_3
  6
DASHED
 62
              20
  5
151
 10
1151.150073
 20
514.0
 30
0.0
 40
5.0
  0
LINE
  8
LY_3
  6
CONTINUOUS
 62
              20
  5
152
 10
1167.150073
 20
527.0
 30
0.0
 11
1167.150073
 21
530.5
 31
0.0
  0
LINE
  8
LY_3
  6
CONTINUOUS
 62
              20
  5
153
 10
1019.150073
 20
527.0
 30
0.0
 11
1019.150073
 21
530.5
 31
0.0
  0
LINE
  8
LY_3
  6
DASHED
 62
              20
  5
154
 10
1019.150073
 20
373.0
 30
0.0
 11
1019.150073
 21
527.0
 31
0.0
  0
LINE
  8
LY_3
  6
DASHED
 62
              20
  5
155
 10
1167.150073
 20
373.0
 30
0.0
 11
1167.150073
 21
527.0
 31
0.0
  0
ENDSEC
  0
EOF
