  0
SECTION
  2
HEADER
  9
$ACADVER
  1
AC1009
  9
$DWGCODEPAGE
  3
dos932
  9
$INSBASE
 10
0.0
 20
0.0
 30
0.0
  9
$EXTMIN
 10
-129.834264
 20
46.900419
 30
0.0
  9
$EXTMAX
 10
481.942165
 20
705.131376
 30
0.0
  9
$LIMMIN
 10
-129.834264
 20
46.900419
  9
$LIMMAX
 10
481.942165
 20
705.131376
  9
$ORTHOMODE
 70
     0
  9
$REGENMODE
 70
     1
  9
$FILLMODE
 70
     1
  9
$QTEXTMODE
 70
     0
  9
$MIRRTEXT
 70
     1
  9
$DRAGMODE
 70
     2
  9
$LTSCALE
 40
1.0
  9
$OSMODE
 70
     0
  9
$ATTMODE
 70
     1
  9
$TEXTSIZE
 40
4.1656
  9
$TRACEWID
 40
0.05
  9
$TEXTSTYLE
  7
MX_NOTE_STANDARD
  9
$CLAYER
  8
LY_1
  9
$CELTYPE
  6
CONTINUOUS
  9
$CECOLOR
 62
   256
  9
$DIMSCALE
 40
1.0
  9
$DIMASZ
 40
2.5
  9
$DIMEXO
 40
0.5
  9
$DIMDLI
 40
3.75
  9
$DIMRND
 40
0.0
  9
$DIMDLE
 40
0.0
  9
$DIMEXE
 40
1.0
  9
$DIMTP
 40
0.0
  9
$DIMTM
 40
0.0
  9
$DIMTXT
 40
2.5
  9
$DIMCEN
 40
2.5
  9
$DIMTSZ
 40
0.0
  9
$DIMTOL
 70
     0
  9
$DIMLIM
 70
     0
  9
$DIMTIH
 70
     0
  9
$DIMTOH
 70
     0
  9
$DIMSE1
 70
     0
  9
$DIMSE2
 70
     0
  9
$DIMTAD
 70
     1
  9
$DIMZIN
 70
     8
  9
$DIMBLK
  1

  9
$DIMASO
 70
     1
  9
$DIMSHO
 70
     1
  9
$DIMPOST
  1

  9
$DIMAPOST
  1

  9
$DIMALT
 70
     0
  9
$DIMALTD
 70
     4
  9
$DIMALTF
 40
0.03937
  9
$DIMLFAC
 40
1.0
  9
$DIMTOFL
 70
     1
  9
$DIMTVP
 40
0.0
  9
$DIMTIX
 70
     0
  9
$DIMSOXD
 70
     0
  9
$DIMSAH
 70
     0
  9
$DIMBLK1
  1

  9
$DIMBLK2
  1

  9
$DIMSTYLE
  2
MXDIMSTYLE
  9
$DIMCLRD
 70
     0
  9
$DIMCLRE
 70
     0
  9
$DIMCLRT
 70
     0
  9
$DIMTFAC
 40
1.0
  9
$DIMGAP
 40
1.0
  9
$LUNITS
 70
     2
  9
$LUPREC
 70
     4
  9
$AXISMODE
 70
     0
  9
$AXISUNIT
 10
0.0
 20
0.0
  9
$SKETCHINC
 40
0.1
  9
$FILLETRAD
 40
0.0
  9
$AUNITS
 70
     0
  9
$AUPREC
 70
     0
  9
$MENU
  1
acad
  9
$ELEVATION
 40
0.0
  9
$PELEVATION
 40
0.0
  9
$THICKNESS
 40
0.0
  9
$LIMCHECK
 70
     0
  9
$BLIPMODE
 70
     1
  9
$CHAMFERA
 40
0.0
  9
$CHAMFERB
 40
0.0
  9
$SKPOLY
 70
     0
  9
$TDCREATE
 40
2453858.567557870
  9
$TDUPDATE
 40
2453858.567557870
  9
$TDINDWG
 40
0.0000000000
  9
$TDUSRTIMER
 40
0.0000000000
  9
$USRTIMER
 70
     1
  9
$ANGBASE
 50
0.0
  9
$ANGDIR
 70
     0
  9
$PDMODE
 70
     0
  9
$PDSIZE
 40
0.0
  9
$PLINEWID
 40
0.0
  9
$COORDS
 70
     1
  9
$SPLFRAME
 70
     0
  9
$SPLINETYPE
 70
     6
  9
$SPLINESEGS
 70
     8
  9
$ATTDIA
 70
     0
  9
$ATTREQ
 70
     1
  9
$HANDLING
 70
     1
  9
$HANDSEED
  5
A9D
  9
$SURFTAB1
 70
     6
  9
$SURFTAB2
 70
     6
  9
$SURFTYPE
 70
     6
  9
$SURFU
 70
     6
  9
$SURFV
 70
     6
  9
$UCSNAME
  2

  9
$UCSORG
 10
0.0
 20
0.0
 30
0.0
  9
$UCSXDIR
 10
1.0
 20
0.0
 30
0.0
  9
$UCSYDIR
 10
0.0
 20
1.0
 30
0.0
  9
$PUCSNAME
  2

  9
$PUCSORG
 10
0.0
 20
0.0
 30
0.0
  9
$PUCSXDIR
 10
1.0
 20
0.0
 30
0.0
  9
$PUCSYDIR
 10
0.0
 20
1.0
 30
0.0
  9
$USERI1
 70
     0
  9
$USERI2
 70
     0
  9
$USERI3
 70
     0
  9
$USERI4
 70
     0
  9
$USERI5
 70
     0
  9
$USERR1
 40
0.0
  9
$USERR2
 40
0.0
  9
$USERR3
 40
0.0
  9
$USERR4
 40
0.0
  9
$USERR5
 40
0.0
  9
$WORLDVIEW
 70
     1
  9
$SHADEDGE
 70
     3
  9
$SHADEDIF
 70
    70
  9
$TILEMODE
 70
     1
  9
$MAXACTVP
 70
    16
  9
$PINSBASE
 10
0.0
 20
0.0
 30
0.0
  9
$PLIMCHECK
 70
     0
  9
$PEXTMIN
 10
1.000000E+20
 20
1.000000E+20
 30
1.000000E+20
  9
$PEXTMAX
 10
-1.000000E+20
 20
-1.000000E+20
 30
-1.000000E+20
  9
$PLIMMIN
 10
0.0
 20
0.0
  9
$PLIMMAX
 10
12.0
 20
9.0
  9
$UNITMODE
 70
     0
  9
$VISRETAIN
 70
     0
  9
$PLINEGEN
 70
     1
  9
$PSLTSCALE
 70
     0
  9
$TREEDEPTH
 70
  3020
  9
$DWGCODEPAGE
  3
dos932
  0
ENDSEC
  0
SECTION
  2
TABLES
  0
TABLE
  2
VPORT
 70
     1
  0
VPORT
  2
*ACTIVE
 70
     0
 10
0.0
 20
0.0
 11
1.0
 21
1.0
 12
176.053951
 22
376.015898
 13
0.0
 23
0.0
 14
1.0
 24
1.0
 15
0.0
 25
0.0
 16
0.0
 26
0.0
 36
1.0
 17
0.0
 27
0.0
 37
0.0
 40
664.813266
 41
1.732051
 42
50.0
 43
0.0
 44
0.0
 50
0.0
 51
0.0
 71
     0
 72
   100
 73
     1
 74
     1
 75
     0
 76
     0
 77
     0
 78
     0
  0
ENDTAB
  0
TABLE
  2
LTYPE
 70
     2
  0
LTYPE
  2
CONTINUOUS
 70
    64
  3
Solid line
 72
    65
 73
     0
 40
0.0
  0
LTYPE
  2
PHANTOM
 70
    64
  3
Phantom ______  __  __  ______  __  __  ______
 72
    65
 73
     6
 40
63.5
 49
31.75
 49
-6.35
 49
6.35
 49
-6.35
 49
6.35
 49
-6.35
  0
ENDTAB
  0
TABLE
  2
LAYER
 70
     3
  0
LAYER
  2
0
 70
     0
 62
     7
  6
CONTINUOUS
  0
LAYER
  2
LY_1
 70
     0
 62
     7
  6
CONTINUOUS
  0
LAYER
  2
DEFPOINTS
 70
     0
 62
     7
  6
CONTINUOUS
  0
ENDTAB
  0
TABLE
  2
STYLE
 70
     1
  0
STYLE
  2
MX_NOTE_STANDARD
 70
     0
 40
0.0
 41
1.0
 50
0.0
 71
     0
 42
4.1656
  3
txt.shx
  4
extfont.shx
  0
ENDTAB
  0
TABLE
  2
VIEW
 70
     0
  0
ENDTAB
  0
TABLE
  2
UCS
 70
     0
  0
ENDTAB
  0
TABLE
  2
APPID
 70
     1
  0
APPID
  2
ACAD
 70
     0
  0
ENDTAB
  0
TABLE
  2
DIMSTYLE
 70
     1
  0
DIMSTYLE
  2
MXDIMSTYLE
 70
     0
  3

  4

  5

  6

  7

 40
1.0
 41
2.5
 42
0.5
 43
3.75
 44
1.0
 45
0.0
 46
0.0
 47
0.0
 48
0.0
 71
     0
 72
     0
 73
     0
 74
     0
 75
     0
 76
     0
 77
     1
 78
     8
140
2.5
141
2.5
142
0.0
143
0.03937
144
1.0
145
0.0
146
1.0
147
1.0
170
     0
171
     4
172
     1
173
     0
174
     0
175
     0
176
     0
177
     0
178
     0
  0
ENDTAB
  0
ENDSEC
  0
SECTION
  2
BLOCKS
  0
BLOCK
  8
0
  5
20
  2
MS_1
 70
     0
 10
0.0
 20
0.0
 30
0.0
  3
MS_1
  0
LINE
  8
0
  6
CONTINUOUS
 62
    80
  5
21
 10
284.75
 20
236.521023
 30
0.0
 11
288.25
 21
236.521023
 31
0.0
  0
LINE
  8
0
  6
CONTINUOUS
 62
    80
  5
22
 10
286.499963
 20
239.55211
 30
0.0
 11
288.249963
 21
236.521021
 31
0.0
  0
LINE
  8
0
  6
CONTINUOUS
 62
    80
  5
23
 10
286.499972
 20
239.552127
 30
0.0
 11
284.749972
 21
236.521038
 31
0.0
  0
LINE
  8
0
  6
CONTINUOUS
 62
    80
  5
24
 10
269.0
 20
235.536564
 30
0.0
 11
397.0
 21
235.536564
 31
0.0
  0
POINT
  8
0
  6
CONTINUOUS
 62
    80
  5
25
 10
392.0
 20
238.036564
 30
0.0
  0
POINT
  8
0
  6
CONTINUOUS
 62
    80
  5
26
 10
291.5
 20
238.036564
 30
0.0
  0
POINT
  8
0
  6
CONTINUOUS
 62
    80
  5
27
 10
306.5
 20
238.036564
 30
0.0
  0
POINT
  8
0
  6
CONTINUOUS
 62
    80
  5
28
 10
276.5
 20
238.036564
 30
0.0
  0
CIRCLE
  8
0
  6
CONTINUOUS
 62
     3
  5
29
 10
274.0
 20
238.036564
 30
0.0
 40
0.2
  0
CIRCLE
  8
0
  6
CONTINUOUS
 62
     3
  5
2A
 10
279.0
 20
238.036564
 30
0.0
 40
0.2
  0
POINT
  8
0
  6
CONTINUOUS
 62
    80
  5
2B
 10
291.5
 20
243.036564
 30
0.0
  0
LINE
  8
0
  6
CONTINUOUS
 62
    80
  5
2C
 10
284.75
 20
241.521023
 30
0.0
 11
288.25
 21
241.521023
 31
0.0
  0
LINE
  8
0
  6
CONTINUOUS
 62
    80
  5
2D
 10
286.499963
 20
244.55211
 30
0.0
 11
288.249963
 21
241.521021
 31
0.0
  0
LINE
  8
0
  6
CONTINUOUS
 62
    80
  5
2E
 10
286.499972
 20
244.552127
 30
0.0
 11
284.749972
 21
241.521038
 31
0.0
  0
CIRCLE
  8
0
  6
CONTINUOUS
 62
     3
  5
2F
 10
279.0
 20
243.036564
 30
0.0
 40
0.2
  0
LINE
  8
0
  6
CONTINUOUS
 62
    80
  5
30
 10
269.0
 20
240.536564
 30
0.0
 11
397.0
 21
240.536564
 31
0.0
  0
CIRCLE
  8
0
  6
CONTINUOUS
 62
     3
  5
31
 10
274.0
 20
243.036564
 30
0.0
 40
0.2
  0
POINT
  8
0
  6
CONTINUOUS
 62
    80
  5
32
 10
392.0
 20
248.036564
 30
0.0
  0
POINT
  8
0
  6
CONTINUOUS
 62
    80
  5
33
 10
306.5
 20
248.036564
 30
0.0
  0
LINE
  8
0
  6
CONTINUOUS
 62
    80
  5
34
 10
284.75
 20
246.521023
 30
0.0
 11
288.25
 21
246.521023
 31
0.0
  0
POINT
  8
0
  6
CONTINUOUS
 62
    80
  5
35
 10
291.5
 20
248.036564
 30
0.0
  0
LINE
  8
0
  6
CONTINUOUS
 62
    80
  5
36
 10
286.499963
 20
249.55211
 30
0.0
 11
288.249963
 21
246.521021
 31
0.0
  0
LINE
  8
0
  6
CONTINUOUS
 62
    80
  5
37
 10
286.499972
 20
249.552127
 30
0.0
 11
284.749972
 21
246.521038
 31
0.0
  0
CIRCLE
  8
0
  6
CONTINUOUS
 62
     3
  5
38
 10
279.0
 20
248.036564
 30
0.0
 40
0.2
  0
CIRCLE
  8
0
  6
CONTINUOUS
 62
     3
  5
39
 10
274.0
 20
248.036564
 30
0.0
 40
0.2
  0
POINT
  8
0
  6
CONTINUOUS
 62
    80
  5
3A
 10
276.5
 20
248.036564
 30
0.0
  0
LINE
  8
0
  6
CONTINUOUS
 62
    80
  5
3B
 10
269.0
 20
245.536564
 30
0.0
 11
397.0
 21
245.536564
 31
0.0
  0
LINE
  8
0
  6
CONTINUOUS
 62
    80
  5
3C
 10
286.499982
 20
254.552075
 30
0.0
 11
288.249982
 21
251.520986
 31
0.0
  0
LINE
  8
0
  6
CONTINUOUS
 62
    80
  5
3D
 10
286.499969
 20
254.552118
 30
0.0
 11
284.749969
 21
251.521029
 31
0.0
  0
LINE
  8
0
  6
CONTINUOUS
 62
    80
  5
3E
 10
284.75
 20
251.521019
 30
0.0
 11
288.25
 21
251.521019
 31
0.0
  0
CIRCLE
  8
0
  6
CONTINUOUS
 62
     3
  5
3F
 10
279.0
 20
253.036564
 30
0.0
 40
0.2
  0
CIRCLE
  8
0
  6
CONTINUOUS
 62
     3
  5
40
 10
274.0
 20
253.036564
 30
0.0
 40
0.2
  0
LINE
  8
0
  6
CONTINUOUS
 62
    80
  5
41
 10
269.0
 20
250.536564
 30
0.0
 11
397.0
 21
250.536564
 31
0.0
  0
POINT
  8
0
  6
CONTINUOUS
 62
    80
  5
42
 10
306.5
 20
272.999985
 30
0.0
  0
POINT
  8
0
  6
CONTINUOUS
 62
    80
  5
43
 10
392.0
 20
272.999985
 30
0.0
  0
POINT
  8
0
  6
CONTINUOUS
 62
    80
  5
44
 10
291.5
 20
272.999985
 30
0.0
  0
POINT
  8
0
  6
CONTINUOUS
 62
    80
  5
45
 10
276.5
 20
272.999985
 30
0.0
  0
LINE
  8
0
  6
CONTINUOUS
 62
     3
  5
46
 10
269.0
 20
60.0
 30
0.0
 11
397.0
 21
60.0
 31
0.0
  0
LINE
  8
0
  6
CONTINUOUS
 62
    80
  5
47
 10
278.0
 20
90.0
 30
0.0
 11
278.0
 21
53.0
 31
0.0
  0
LINE
  8
0
  6
CONTINUOUS
 62
    80
  5
48
 10
314.0
 20
90.0
 30
0.0
 11
314.0
 21
53.0
 31
0.0
  0
LINE
  8
0
  6
CONTINUOUS
 62
    80
  5
49
 10
326.0
 20
90.0
 30
0.0
 11
326.0
 21
53.0
 31
0.0
  0
LINE
  8
0
  6
CONTINUOUS
 62
    80
  5
4A
 10
352.0
 20
90.0
 30
0.0
 11
352.0
 21
53.0
 31
0.0
  0
LINE
  8
0
  6
CONTINUOUS
 62
    80
  5
4B
 10
269.0
 20
66.0
 30
0.0
 11
397.0
 21
66.0
 31
0.0
  0
LINE
  8
0
  6
CONTINUOUS
 62
    80
  5
4C
 10
269.0
 20
72.0
 30
0.0
 11
397.0
 21
72.0
 31
0.0
  0
LINE
  8
0
  6
CONTINUOUS
 62
    80
  5
4D
 10
269.0
 20
78.0
 30
0.0
 11
397.0
 21
78.0
 31
0.0
  0
LINE
  8
0
  6
CONTINUOUS
 62
    80
  5
4E
 10
269.0
 20
84.0
 30
0.0
 11
397.0
 21
84.0
 31
0.0
  0
LINE
  8
0
  6
CONTINUOUS
 62
    80
  5
4F
 10
269.0
 20
90.0
 30
0.0
 11
397.0
 21
90.0
 31
0.0
  0
LINE
  8
0
  6
CONTINUOUS
 62
     3
  5
50
 10
269.0
 20
90.0
 30
0.0
 11
269.0
 21
53.0
 31
0.0
  0
LINE
  8
0
  6
CONTINUOUS
 62
     3
  5
51
 10
23.0
 20
280.499985
 30
0.0
 11
23.0
 21
16.5
 31
0.0
  0
LINE
  8
0
  6
CONTINUOUS
 62
     3
  5
52
 10
23.0
 20
16.5
 30
0.0
 11
397.0
 21
16.5
 31
0.0
  0
LINE
  8
0
  6
CONTINUOUS
 62
     3
  5
53
 10
233.0
 20
37.5
 30
0.0
 11
397.0
 21
37.5
 31
0.0
  0
LINE
  8
0
  6
CONTINUOUS
 62
     3
  5
54
 10
271.0
 20
37.5
 30
0.0
 11
271.0
 21
16.5
 31
0.0
  0
LINE
  8
0
  6
CONTINUOUS
 62
     3
  5
55
 10
290.0
 20
37.5
 30
0.0
 11
290.0
 21
16.5
 31
0.0
  0
LINE
  8
0
  6
CONTINUOUS
 62
     3
  5
56
 10
309.0
 20
37.5
 30
0.0
 11
309.0
 21
16.5
 31
0.0
  0
LINE
  8
0
  6
CONTINUOUS
 62
     3
  5
57
 10
23.0
 20
280.499985
 30
0.0
 11
397.0
 21
280.499985
 31
0.0
  0
LINE
  8
0
  6
CONTINUOUS
 62
    80
  5
58
 10
269.0
 20
255.499989
 30
0.0
 11
397.0
 21
255.499989
 31
0.0
  0
LINE
  8
0
  6
CONTINUOUS
 62
    80
  5
59
 10
387.0
 20
280.499985
 30
0.0
 11
387.0
 21
235.536564
 31
0.0
  0
LINE
  8
0
  6
CONTINUOUS
 62
    80
  5
5A
 10
294.0
 20
280.499985
 30
0.0
 11
294.0
 21
235.536564
 31
0.0
  0
LINE
  8
0
  6
CONTINUOUS
 62
    80
  5
5B
 10
284.0
 20
280.499985
 30
0.0
 11
284.0
 21
235.536564
 31
0.0
  0
LINE
  8
0
  6
CONTINUOUS
 62
     3
  5
5C
 10
269.0
 20
280.499985
 30
0.0
 11
269.0
 21
235.536564
 31
0.0
  0
LINE
  8
0
  6
CONTINUOUS
 62
     3
  5
5D
 10
397.0
 20
280.499985
 30
0.0
 11
397.0
 21
16.5
 31
0.0
  0
LINE
  8
0
  6
CONTINUOUS
 62
     3
  5
5E
 10
397.0
 20
236.499989
 30
0.0
 11
401.0
 21
236.499989
 31
0.0
  0
LINE
  8
0
  6
CONTINUOUS
 62
     3
  5
5F
 10
397.0
 20
192.499994
 30
0.0
 11
401.0
 21
192.499994
 31
0.0
  0
LINE
  8
0
  6
CONTINUOUS
 62
     3
  5
60
 10
397.0
 20
148.499996
 30
0.0
 11
401.0
 21
148.499996
 31
0.0
  0
LINE
  8
0
  6
CONTINUOUS
 62
     3
  5
61
 10
397.0
 20
104.499992
 30
0.0
 11
401.0
 21
104.499992
 31
0.0
  0
LINE
  8
0
  6
CONTINUOUS
 62
     3
  5
62
 10
397.0
 20
60.5
 30
0.0
 11
401.0
 21
60.5
 31
0.0
  0
LINE
  8
0
  6
CONTINUOUS
 62
     3
  5
63
 10
23.0
 20
236.499989
 30
0.0
 11
19.0
 21
236.499989
 31
0.0
  0
LINE
  8
0
  6
CONTINUOUS
 62
     3
  5
64
 10
23.0
 20
192.499994
 30
0.0
 11
19.0
 21
192.499994
 31
0.0
  0
LINE
  8
0
  6
CONTINUOUS
 62
     3
  5
65
 10
23.0
 20
148.499996
 30
0.0
 11
19.0
 21
148.499996
 31
0.0
  0
LINE
  8
0
  6
CONTINUOUS
 62
     3
  5
66
 10
23.0
 20
104.499992
 30
0.0
 11
19.0
 21
104.499992
 31
0.0
  0
LINE
  8
0
  6
CONTINUOUS
 62
     3
  5
67
 10
0.0
 20
296.999992
 30
0.0
 11
0.0
 21
0.0
 31
0.0
  0
LINE
  8
0
  6
CONTINUOUS
 62
     3
  5
68
 10
420.0
 20
296.999992
 30
0.0
 11
420.0
 21
0.0
 31
0.0
  0
LINE
  8
0
  6
CONTINUOUS
 62
     3
  5
69
 10
0.0
 20
0.0
 30
0.0
 11
420.0
 21
0.0
 31
0.0
  0
LINE
  8
0
  6
CONTINUOUS
 62
     3
  5
6A
 10
269.0
 20
275.499985
 30
0.0
 11
397.0
 21
275.499985
 31
0.0
  0
LINE
  8
0
  6
CONTINUOUS
 62
    80
  5
6B
 10
269.0
 20
270.499985
 30
0.0
 11
397.0
 21
270.499985
 31
0.0
  0
LINE
  8
0
  6
CONTINUOUS
 62
    80
  5
6C
 10
269.0
 20
265.499985
 30
0.0
 11
397.0
 21
265.499985
 31
0.0
  0
LINE
  8
0
  6
CONTINUOUS
 62
    80
  5
6D
 10
269.0
 20
260.499989
 30
0.0
 11
397.0
 21
260.499989
 31
0.0
  0
LINE
  8
0
  6
CONTINUOUS
 62
    80
  5
6E
 10
284.75
 20
256.484444
 30
0.0
 11
288.25
 21
256.484444
 31
0.0
  0
LINE
  8
0
  6
CONTINUOUS
 62
    80
  5
6F
 10
286.499969
 20
259.515543
 30
0.0
 11
284.749969
 21
256.484454
 31
0.0
  0
LINE
  8
0
  6
CONTINUOUS
 62
    80
  5
70
 10
286.499982
 20
259.5155
 30
0.0
 11
288.249982
 21
256.484411
 31
0.0
  0
LINE
  8
0
  6
CONTINUOUS
 62
    80
  5
71
 10
286.499963
 20
274.515531
 30
0.0
 11
288.249963
 21
271.484442
 31
0.0
  0
LINE
  8
0
  6
CONTINUOUS
 62
    80
  5
72
 10
284.75
 20
271.484444
 30
0.0
 11
288.25
 21
271.484444
 31
0.0
  0
LINE
  8
0
  6
CONTINUOUS
 62
    80
  5
73
 10
286.499972
 20
274.515548
 30
0.0
 11
284.749972
 21
271.484459
 31
0.0
  0
LINE
  8
0
  6
CONTINUOUS
 62
    80
  5
74
 10
286.499969
 20
269.515521
 30
0.0
 11
288.249969
 21
266.484432
 31
0.0
  0
LINE
  8
0
  6
CONTINUOUS
 62
    80
  5
75
 10
284.75
 20
266.484444
 30
0.0
 11
288.25
 21
266.484444
 31
0.0
  0
LINE
  8
0
  6
CONTINUOUS
 62
    80
  5
76
 10
286.499981
 20
269.515564
 30
0.0
 11
284.749981
 21
266.484475
 31
0.0
  0
LINE
  8
0
  6
CONTINUOUS
 62
    80
  5
77
 10
286.499976
 20
264.51551
 30
0.0
 11
288.249976
 21
261.484421
 31
0.0
  0
LINE
  8
0
  6
CONTINUOUS
 62
    80
  5
78
 10
284.75
 20
261.484444
 30
0.0
 11
288.25
 21
261.484444
 31
0.0
  0
LINE
  8
0
  6
CONTINUOUS
 62
    80
  5
79
 10
286.499975
 20
264.515553
 30
0.0
 11
284.749975
 21
261.484464
 31
0.0
  0
LINE
  8
0
  6
CONTINUOUS
 62
     3
  5
7A
 10
23.0
 20
60.5
 30
0.0
 11
19.0
 21
60.5
 31
0.0
  0
LINE
  8
0
  6
CONTINUOUS
 62
     3
  5
7B
 10
233.0
 20
53.0
 30
0.0
 11
233.0
 21
16.5
 31
0.0
  0
LINE
  8
0
  6
CONTINUOUS
 62
     3
  5
7C
 10
210.0
 20
280.499985
 30
0.0
 11
210.0
 21
284.499985
 31
0.0
  0
LINE
  8
0
  6
CONTINUOUS
 62
     3
  5
7D
 10
116.5
 20
280.499985
 30
0.0
 11
116.5
 21
284.499985
 31
0.0
  0
LINE
  8
0
  6
CONTINUOUS
 62
     3
  5
7E
 10
69.75
 20
280.499985
 30
0.0
 11
69.75
 21
284.499985
 31
0.0
  0
LINE
  8
0
  6
CONTINUOUS
 62
     3
  5
7F
 10
163.25
 20
280.499985
 30
0.0
 11
163.25
 21
284.499985
 31
0.0
  0
LINE
  8
0
  6
CONTINUOUS
 62
     3
  5
80
 10
303.5
 20
280.499985
 30
0.0
 11
303.5
 21
284.499985
 31
0.0
  0
LINE
  8
0
  6
CONTINUOUS
 62
     3
  5
81
 10
256.75
 20
280.499985
 30
0.0
 11
256.75
 21
284.499985
 31
0.0
  0
LINE
  8
0
  6
CONTINUOUS
 62
     3
  5
82
 10
350.25
 20
280.499985
 30
0.0
 11
350.25
 21
284.499985
 31
0.0
  0
LINE
  8
0
  6
CONTINUOUS
 62
     3
  5
83
 10
69.75
 20
16.5
 30
0.0
 11
69.75
 21
12.5
 31
0.0
  0
LINE
  8
0
  6
CONTINUOUS
 62
     3
  5
84
 10
116.5
 20
16.5
 30
0.0
 11
116.5
 21
12.5
 31
0.0
  0
LINE
  8
0
  6
CONTINUOUS
 62
     3
  5
85
 10
210.0
 20
16.5
 30
0.0
 11
210.0
 21
12.5
 31
0.0
  0
LINE
  8
0
  6
CONTINUOUS
 62
     3
  5
86
 10
163.25
 20
16.5
 30
0.0
 11
163.25
 21
12.5
 31
0.0
  0
LINE
  8
0
  6
CONTINUOUS
 62
     3
  5
87
 10
350.25
 20
16.5
 30
0.0
 11
350.25
 21
12.5
 31
0.0
  0
LINE
  8
0
  6
CONTINUOUS
 62
     3
  5
88
 10
303.5
 20
16.5
 30
0.0
 11
303.5
 21
12.5
 31
0.0
  0
LINE
  8
0
  6
CONTINUOUS
 62
     3
  5
89
 10
256.75
 20
16.5
 30
0.0
 11
256.75
 21
12.5
 31
0.0
  0
LINE
  8
0
  6
CONTINUOUS
 62
    80
  5
8A
 10
319.846436
 20
27.410706
 30
0.0
 11
325.525024
 21
27.410706
 31
0.0
  0
LINE
  8
0
  6
CONTINUOUS
 62
    80
  5
8B
 10
319.846436
 20
27.410706
 30
0.0
 11
319.846436
 21
26.946411
 31
0.0
  0
LINE
  8
0
  6
CONTINUOUS
 62
    80
  5
8C
 10
319.846436
 20
26.946411
 30
0.0
 11
324.132172
 21
26.946411
 31
0.0
  0
LINE
  8
0
  6
CONTINUOUS
 62
    80
  5
8D
 10
324.132172
 20
26.946411
 30
0.0
 11
324.132172
 21
26.214233
 31
0.0
  0
LINE
  8
0
  6
CONTINUOUS
 62
    80
  5
8E
 10
325.525024
 20
27.410706
 30
0.0
 11
325.525024
 21
26.0
 31
0.0
  0
LINE
  8
0
  6
CONTINUOUS
 62
    80
  5
8F
 10
322.81073
 20
25.232117
 30
0.0
 11
324.757172
 21
25.232117
 31
0.0
  0
LINE
  8
0
  6
CONTINUOUS
 62
    80
  5
90
 10
322.81073
 20
25.767822
 30
0.0
 11
323.68573
 21
25.767822
 31
0.0
  0
LINE
  8
0
  6
CONTINUOUS
 62
    80
  5
91
 10
322.81073
 20
26.410767
 30
0.0
 11
322.81073
 21
25.767822
 31
0.0
  0
LINE
  8
0
  6
CONTINUOUS
 62
    80
  5
92
 10
321.346466
 20
26.410767
 30
0.0
 11
322.81073
 21
26.410767
 31
0.0
  0
LINE
  8
0
  6
CONTINUOUS
 62
    80
  5
93
 10
321.346466
 20
26.410767
 30
0.0
 11
321.346466
 21
24.428528
 31
0.0
  0
LINE
  8
0
  6
CONTINUOUS
 62
    80
  5
94
 10
319.846436
 20
24.053528
 30
0.0
 11
320.971466
 21
24.053528
 31
0.0
  0
LINE
  8
0
  6
CONTINUOUS
 62
    80
  5
95
 10
319.846436
 20
24.053528
 30
0.0
 11
319.846436
 21
23.589233
 31
0.0
  0
LINE
  8
0
  6
CONTINUOUS
 62
    80
  5
96
 10
319.846436
 20
23.589233
 30
0.0
 11
322.257172
 21
23.589233
 31
0.0
  0
LINE
  8
0
  6
CONTINUOUS
 62
    80
  5
97
 10
322.81073
 20
25.232117
 30
0.0
 11
322.81073
 21
24.142822
 31
0.0
  0
LINE
  8
0
  6
CONTINUOUS
 62
    80
  5
98
 10
326.005219
 20
27.196655
 30
0.0
 11
331.580444
 21
27.196655
 31
0.0
  0
LINE
  8
0
  6
CONTINUOUS
 62
    80
  5
99
 10
327.404999
 20
26.731995
 30
0.0
 11
330.180756
 21
26.731995
 31
0.0
  0
LINE
  8
0
  6
CONTINUOUS
 62
    80
  5
9A
 10
330.180761
 20
26.732009
 30
0.0
 11
329.835014
 21
24.195467
 31
0.0
  0
LINE
  8
0
  6
CONTINUOUS
 62
    80
  5
9B
 10
327.405017
 20
26.731976
 30
0.0
 11
327.750765
 21
24.195495
 31
0.0
  0
LINE
  8
0
  6
CONTINUOUS
 62
    80
  5
9C
 10
327.750763
 20
24.195496
 30
0.0
 11
329.835022
 21
24.195496
 31
0.0
  0
LINE
  8
0
  6
CONTINUOUS
 62
    80
  5
9D
 10
326.0052
 20
27.196645
 30
0.0
 11
326.582701
 21
23.732117
 31
0.0
  0
LINE
  8
0
  6
CONTINUOUS
 62
    80
  5
9E
 10
326.582703
 20
23.732117
 30
0.0
 11
331.003052
 21
23.732117
 31
0.0
  0
LINE
  8
0
  6
CONTINUOUS
 62
    80
  5
9F
 10
331.580439
 20
27.196658
 30
0.0
 11
331.003043
 21
23.732113
 31
0.0
  0
LINE
  8
0
  6
CONTINUOUS
 62
    80
  5
A0
 10
332.132385
 20
25.768005
 30
0.0
 11
335.810791
 21
25.768005
 31
0.0
  0
LINE
  8
0
  6
CONTINUOUS
 62
    80
  5
A1
 10
332.132385
 20
25.768005
 30
0.0
 11
332.132385
 21
25.017761
 31
0.0
  0
LINE
  8
0
  6
CONTINUOUS
 62
    80
  5
A2
 10
332.132385
 20
25.017761
 30
0.0
 11
335.810791
 21
25.017761
 31
0.0
  0
LINE
  8
0
  6
CONTINUOUS
 62
    80
  5
A3
 10
335.810791
 20
25.768005
 30
0.0
 11
335.810791
 21
25.017761
 31
0.0
  0
LINE
  8
0
  6
CONTINUOUS
 62
    80
  5
A4
 10
338.489319
 20
27.357117
 30
0.0
 11
338.489319
 21
26.017761
 31
0.0
  0
LINE
  8
0
  6
CONTINUOUS
 62
    80
  5
A5
 10
339.667877
 20
27.357117
 30
0.0
 11
339.667877
 21
26.017761
 31
0.0
  0
LINE
  8
0
  6
CONTINUOUS
 62
    80
  5
A6
 10
341.953705
 20
26.857117
 30
0.0
 11
341.953705
 21
26.017761
 31
0.0
  0
LINE
  8
0
  6
CONTINUOUS
 62
    80
  5
A7
 10
341.203491
 20
26.017761
 30
0.0
 11
341.953705
 21
26.017761
 31
0.0
  0
LINE
  8
0
  6
CONTINUOUS
 62
    80
  5
A8
 10
341.203491
 20
26.857117
 30
0.0
 11
341.203491
 21
26.017761
 31
0.0
  0
LINE
  8
0
  6
CONTINUOUS
 62
    80
  5
A9
 10
338.489319
 20
26.017761
 30
0.0
 11
339.667877
 21
26.017761
 31
0.0
  0
LINE
  8
0
  6
CONTINUOUS
 62
    80
  5
AA
 10
336.203644
 20
26.857117
 30
0.0
 11
336.203644
 21
26.017761
 31
0.0
  0
LINE
  8
0
  6
CONTINUOUS
 62
    80
  5
AB
 10
336.953705
 20
26.857117
 30
0.0
 11
336.953705
 21
26.017761
 31
0.0
  0
LINE
  8
0
  6
CONTINUOUS
 62
    80
  5
AC
 10
336.203644
 20
26.017761
 30
0.0
 11
336.953705
 21
26.017761
 31
0.0
  0
LINE
  8
0
  6
CONTINUOUS
 62
    80
  5
AD
 10
340.301422
 20
26.017822
 30
0.0
 11
340.569946
 21
26.017822
 31
0.0
  0
LINE
  8
0
  6
CONTINUOUS
 62
    80
  5
AE
 10
340.301422
 20
26.053406
 30
0.0
 11
340.480927
 21
26.053406
 31
0.0
  0
LINE
  8
0
  6
CONTINUOUS
 62
    80
  5
AF
 10
337.296509
 20
25.564331
 30
0.0
 11
337.296509
 21
24.364258
 31
0.0
  0
LINE
  8
0
  6
CONTINUOUS
 62
    80
  5
B0
 10
336.56073
 20
25.564331
 30
0.0
 11
336.56073
 21
24.364258
 31
0.0
  0
LINE
  8
0
  6
CONTINUOUS
 62
    80
  5
B1
 10
339.667877
 20
25.564331
 30
0.0
 11
339.667877
 21
23.872803
 31
0.0
  0
LINE
  8
0
  6
CONTINUOUS
 62
    80
  5
B2
 10
340.860687
 20
25.564331
 30
0.0
 11
340.860687
 21
24.364258
 31
0.0
  0
LINE
  8
0
  6
CONTINUOUS
 62
    80
  5
B3
 10
341.596527
 20
25.564331
 30
0.0
 11
341.596527
 21
24.364258
 31
0.0
  0
LINE
  8
0
  6
CONTINUOUS
 62
    80
  5
B4
 10
338.489319
 20
25.564331
 30
0.0
 11
338.489319
 21
23.842773
 31
0.0
  0
LINE
  8
0
  6
CONTINUOUS
 62
    80
  5
B5
 10
340.989197
 20
23.982178
 30
0.0
 11
340.989197
 21
23.642822
 31
0.0
  0
LINE
  8
0
  6
CONTINUOUS
 62
    80
  5
B6
 10
340.989197
 20
23.982178
 30
0.0
 11
341.667938
 21
23.982178
 31
0.0
  0
LINE
  8
0
  6
CONTINUOUS
 62
    80
  5
B7
 10
341.667938
 20
23.982178
 30
0.0
 11
341.667938
 21
23.842773
 31
0.0
  0
LINE
  8
0
  6
CONTINUOUS
 62
    80
  5
B8
 10
342.489319
 20
27.410706
 30
0.0
 11
348.167877
 21
27.410706
 31
0.0
  0
LINE
  8
0
  6
CONTINUOUS
 62
    80
  5
B9
 10
342.489319
 20
27.410706
 30
0.0
 11
342.489319
 21
26.946411
 31
0.0
  0
LINE
  8
0
  6
CONTINUOUS
 62
    80
  5
BA
 10
342.489319
 20
26.946411
 30
0.0
 11
346.531799
 21
26.946411
 31
0.0
  0
LINE
  8
0
  6
CONTINUOUS
 62
    80
  5
BB
 10
348.167877
 20
27.410706
 30
0.0
 11
348.167877
 21
26.908447
 31
0.0
  0
LINE
  8
0
  6
CONTINUOUS
 62
    80
  5
BC
 10
345.953583
 20
25.925476
 30
0.0
 11
345.953583
 21
25.625
 31
0.0
  0
LINE
  8
0
  6
CONTINUOUS
 62
    80
  5
BD
 10
344.846466
 20
26.13916
 30
0.0
 11
344.846466
 21
25.625
 31
0.0
  0
LINE
  8
0
  6
CONTINUOUS
 62
    80
  5
BE
 10
342.489319
 20
25.625
 30
0.0
 11
344.846466
 21
25.625
 31
0.0
  0
LINE
  8
0
  6
CONTINUOUS
 62
    80
  5
BF
 10
345.953583
 20
25.625
 30
0.0
 11
348.167877
 21
25.625
 31
0.0
  0
LINE
  8
0
  6
CONTINUOUS
 62
    80
  5
C0
 10
348.167877
 20
25.625
 30
0.0
 11
348.167877
 21
25.160583
 31
0.0
  0
LINE
  8
0
  6
CONTINUOUS
 62
    80
  5
C1
 10
345.953583
 20
25.160583
 30
0.0
 11
348.167877
 21
25.160583
 31
0.0
  0
LINE
  8
0
  6
CONTINUOUS
 62
    80
  5
C2
 10
345.953583
 20
25.160583
 30
0.0
 11
345.953583
 21
23.785706
 31
0.0
  0
LINE
  8
0
  6
CONTINUOUS
 62
    80
  5
C3
 10
343.68573
 20
23.589233
 30
0.0
 11
345.757172
 21
23.589233
 31
0.0
  0
LINE
  8
0
  6
CONTINUOUS
 62
    80
  5
C4
 10
343.489319
 20
24.339233
 30
0.0
 11
343.489319
 21
23.785706
 31
0.0
  0
LINE
  8
0
  6
CONTINUOUS
 62
    80
  5
C5
 10
343.489319
 20
24.339233
 30
0.0
 11
344.31073
 21
24.339233
 31
0.0
  0
LINE
  8
0
  6
CONTINUOUS
 62
    80
  5
C6
 10
344.542877
 20
24.053528
 30
0.0
 11
344.846466
 21
24.053528
 31
0.0
  0
LINE
  8
0
  6
CONTINUOUS
 62
    80
  5
C7
 10
344.846466
 20
25.160583
 30
0.0
 11
344.846466
 21
24.053528
 31
0.0
  0
LINE
  8
0
  6
CONTINUOUS
 62
    80
  5
C8
 10
342.489319
 20
25.160583
 30
0.0
 11
344.846466
 21
25.160583
 31
0.0
  0
LINE
  8
0
  6
CONTINUOUS
 62
    80
  5
C9
 10
342.489319
 20
25.625
 30
0.0
 11
342.489319
 21
25.160583
 31
0.0
  0
LINE
  8
0
  6
CONTINUOUS
 62
    80
  5
CA
 10
354.382294
 20
27.410706
 30
0.0
 11
348.703613
 21
27.410706
 31
0.0
  0
LINE
  8
0
  6
CONTINUOUS
 62
    80
  5
CB
 10
348.703613
 20
27.410706
 30
0.0
 11
348.703613
 21
26.946411
 31
0.0
  0
LINE
  8
0
  6
CONTINUOUS
 62
    80
  5
CC
 10
348.703613
 20
26.946411
 30
0.0
 11
350.989197
 21
26.946411
 31
0.0
  0
LINE
  8
0
  6
CONTINUOUS
 62
    80
  5
CD
 10
350.989197
 20
26.946411
 30
0.0
 11
350.989197
 21
24.05365
 31
0.0
  0
LINE
  8
0
  6
CONTINUOUS
 62
    80
  5
CE
 10
352.16803
 20
26.946411
 30
0.0
 11
352.16803
 21
24.05365
 31
0.0
  0
LINE
  8
0
  6
CONTINUOUS
 62
    80
  5
CF
 10
352.16803
 20
26.946411
 30
0.0
 11
354.382294
 21
26.946411
 31
0.0
  0
LINE
  8
0
  6
CONTINUOUS
 62
    80
  5
D0
 10
354.382294
 20
27.410706
 30
0.0
 11
354.382294
 21
26.946411
 31
0.0
  0
LINE
  8
0
  6
CONTINUOUS
 62
    80
  5
D1
 10
352.16803
 20
24.05365
 30
0.0
 11
354.382294
 21
24.05365
 31
0.0
  0
LINE
  8
0
  6
CONTINUOUS
 62
    80
  5
D2
 10
354.382294
 20
24.05365
 30
0.0
 11
354.382294
 21
23.589233
 31
0.0
  0
LINE
  8
0
  6
CONTINUOUS
 62
    80
  5
D3
 10
348.703613
 20
23.589233
 30
0.0
 11
354.382294
 21
23.589233
 31
0.0
  0
LINE
  8
0
  6
CONTINUOUS
 62
    80
  5
D4
 10
348.703613
 20
24.05365
 30
0.0
 11
350.989197
 21
24.05365
 31
0.0
  0
LINE
  8
0
  6
CONTINUOUS
 62
    80
  5
D5
 10
348.703613
 20
24.05365
 30
0.0
 11
348.703613
 21
23.589233
 31
0.0
  0
LINE
  8
0
  6
CONTINUOUS
 62
    80
  5
D6
 10
355.625305
 20
27.339233
 30
0.0
 11
356.158417
 21
27.339233
 31
0.0
  0
LINE
  8
0
  6
CONTINUOUS
 62
    80
  5
D7
 10
356.703583
 20
27.339233
 30
0.0
 11
356.703583
 21
26.785645
 31
0.0
  0
LINE
  8
0
  6
CONTINUOUS
 62
    80
  5
D8
 10
356.703583
 20
27.339233
 30
0.0
 11
357.31073
 21
27.339233
 31
0.0
  0
LINE
  8
0
  6
CONTINUOUS
 62
    80
  5
D9
 10
357.31073
 20
27.339233
 30
0.0
 11
357.31073
 21
26.785645
 31
0.0
  0
LINE
  8
0
  6
CONTINUOUS
 62
    80
  5
DA
 10
358.275024
 20
27.339233
 30
0.0
 11
358.275024
 21
26.785645
 31
0.0
  0
LINE
  8
0
  6
CONTINUOUS
 62
    80
  5
DB
 10
358.275024
 20
27.339233
 30
0.0
 11
358.882172
 21
27.339233
 31
0.0
  0
LINE
  8
0
  6
CONTINUOUS
 62
    80
  5
DC
 10
358.882172
 20
27.339233
 30
0.0
 11
358.882172
 21
26.785645
 31
0.0
  0
LINE
  8
0
  6
CONTINUOUS
 62
    80
  5
DD
 10
359.427338
 20
27.339233
 30
0.0
 11
359.960449
 21
27.339233
 31
0.0
  0
LINE
  8
0
  6
CONTINUOUS
 62
    80
  5
DE
 10
356.65736
 20
26.785649
 30
0.0
 11
357.014484
 21
26.071401
 31
0.0
  0
LINE
  8
0
  6
CONTINUOUS
 62
    80
  5
DF
 10
355.999874
 20
26.785649
 30
0.0
 11
356.356998
 21
26.071401
 31
0.0
  0
LINE
  8
0
  6
CONTINUOUS
 62
    80
  5
E0
 10
358.928402
 20
26.785655
 30
0.0
 11
358.571291
 21
26.071435
 31
0.0
  0
LINE
  8
0
  6
CONTINUOUS
 62
    80
  5
E1
 10
359.585908
 20
26.785679
 30
0.0
 11
359.228771
 21
26.071404
 31
0.0
  0
LINE
  8
0
  6
CONTINUOUS
 62
    80
  5
E2
 10
358.382172
 20
26.071411
 30
0.0
 11
358.382172
 21
23.589233
 31
0.0
  0
LINE
  8
0
  6
CONTINUOUS
 62
    80
  5
E3
 10
357.275024
 20
23.589233
 30
0.0
 11
358.382172
 21
23.589233
 31
0.0
  0
LINE
  8
0
  6
CONTINUOUS
 62
    80
  5
E4
 10
357.275024
 20
23.589233
 30
0.0
 11
357.275024
 21
26.071411
 31
0.0
  0
LINE
  8
0
  6
CONTINUOUS
 62
    80
  5
E5
 10
354.917877
 20
23.952515
 30
0.0
 11
354.917877
 21
23.589233
 31
0.0
  0
LINE
  8
0
  6
CONTINUOUS
 62
    80
  5
E6
 10
355.456787
 20
23.589233
 30
0.0
 11
354.917877
 21
23.589233
 31
0.0
  0
LINE
  8
0
  6
CONTINUOUS
 62
    80
  5
E7
 10
361.703583
 20
27.410706
 30
0.0
 11
361.703583
 21
26.76709
 31
0.0
  0
LINE
  8
0
  6
CONTINUOUS
 62
    80
  5
E8
 10
361.703583
 20
27.410706
 30
0.0
 11
362.453583
 21
27.410706
 31
0.0
  0
LINE
  8
0
  6
CONTINUOUS
 62
    80
  5
E9
 10
362.453583
 20
27.410706
 30
0.0
 11
362.453583
 21
26.76709
 31
0.0
  0
LINE
  8
0
  6
CONTINUOUS
 62
    80
  5
EA
 10
362.453583
 20
26.447144
 30
0.0
 11
362.453583
 21
25.827271
 31
0.0
  0
LINE
  8
0
  6
CONTINUOUS
 62
    80
  5
EB
 10
362.453583
 20
25.056091
 30
0.0
 11
362.453583
 21
23.589233
 31
0.0
  0
LINE
  8
0
  6
CONTINUOUS
 62
    80
  5
EC
 10
361.06073
 20
24.9021
 30
0.0
 11
361.06073
 21
24.225037
 31
0.0
  0
LINE
  8
0
  6
CONTINUOUS
 62
    80
  5
ED
 10
361.703583
 20
24.961609
 30
0.0
 11
361.703583
 21
23.589233
 31
0.0
  0
LINE
  8
0
  6
CONTINUOUS
 62
    80
  5
EE
 10
361.703583
 20
23.589233
 30
0.0
 11
362.453583
 21
23.589233
 31
0.0
  0
LINE
  8
0
  6
CONTINUOUS
 62
    80
  5
EF
 10
363.489319
 20
27.410706
 30
0.0
 11
363.489319
 21
26.447144
 31
0.0
  0
LINE
  8
0
  6
CONTINUOUS
 62
    80
  5
F0
 10
363.489319
 20
27.410706
 30
0.0
 11
364.239319
 21
27.410706
 31
0.0
  0
LINE
  8
0
  6
CONTINUOUS
 62
    80
  5
F1
 10
364.239319
 20
27.410706
 30
0.0
 11
364.239319
 21
26.76709
 31
0.0
  0
LINE
  8
0
  6
CONTINUOUS
 62
    80
  5
F2
 10
364.632172
 20
27.410706
 30
0.0
 11
365.31076
 21
27.410706
 31
0.0
  0
LINE
  8
0
  6
CONTINUOUS
 62
    80
  5
F3
 10
365.31076
 20
27.410706
 30
0.0
 11
365.31076
 21
26.76709
 31
0.0
  0
LINE
  8
0
  6
CONTINUOUS
 62
    80
  5
F4
 10
362.979791
 20
23.968561
 30
0.0
 11
363.599886
 21
23.743072
 31
0.0
  0
LINE
  8
0
  6
CONTINUOUS
 62
    80
  5
F5
 10
364.632172
 20
23.589233
 30
0.0
 11
364.632172
 21
24.643677
 31
0.0
  0
LINE
  8
0
  6
CONTINUOUS
 62
    80
  5
F6
 10
364.632172
 20
23.589233
 30
0.0
 11
365.31076
 21
23.589233
 31
0.0
  0
LINE
  8
0
  6
CONTINUOUS
 62
    80
  5
F7
 10
367.203613
 20
26.553528
 30
0.0
 11
370.521118
 21
26.553528
 31
0.0
  0
LINE
  8
0
  6
CONTINUOUS
 62
    80
  5
F8
 10
367.203613
 20
26.553528
 30
0.0
 11
367.203613
 21
26.089233
 31
0.0
  0
LINE
  8
0
  6
CONTINUOUS
 62
    80
  5
F9
 10
370.676941
 20
26.089233
 30
0.0
 11
367.203613
 21
26.089233
 31
0.0
  0
LINE
  8
0
  6
CONTINUOUS
 62
    80
  5
FA
 10
370.299561
 20
27.339233
 30
0.0
 11
371.114075
 21
27.339233
 31
0.0
  0
LINE
  8
0
  6
CONTINUOUS
 62
    80
  5
FB
 10
371.35321
 20
26.553528
 30
0.0
 11
372.753601
 21
26.553528
 31
0.0
  0
LINE
  8
0
  6
CONTINUOUS
 62
    80
  5
FC
 10
372.753601
 20
26.089233
 30
0.0
 11
372.753601
 21
26.553528
 31
0.0
  0
LINE
  8
0
  6
CONTINUOUS
 62
    80
  5
FD
 10
372.753601
 20
26.089233
 30
0.0
 11
371.558014
 21
26.089233
 31
0.0
  0
LINE
  8
0
  6
CONTINUOUS
 62
    80
  5
FE
 10
371.806152
 20
23.803528
 30
0.0
 11
372.870911
 21
23.803528
 31
0.0
  0
LINE
  8
0
  6
CONTINUOUS
 62
    80
  5
FF
 10
367.203613
 20
25.410706
 30
0.0
 11
370.096466
 21
25.410706
 31
0.0
  0
LINE
  8
0
  6
CONTINUOUS
 62
    80
  5
100
 10
367.203613
 20
25.410706
 30
0.0
 11
367.203613
 21
25.089233
 31
0.0
  0
LINE
  8
0
  6
CONTINUOUS
 62
    80
  5
101
 10
368.132172
 20
25.089233
 30
0.0
 11
367.203613
 21
25.089233
 31
0.0
  0
LINE
  8
0
  6
CONTINUOUS
 62
    80
  5
102
 10
368.132172
 20
25.089233
 30
0.0
 11
368.132172
 21
24.059021
 31
0.0
  0
LINE
  8
0
  6
CONTINUOUS
 62
    80
  5
103
 10
369.025024
 20
25.089233
 30
0.0
 11
369.025024
 21
24.116821
 31
0.0
  0
LINE
  8
0
  6
CONTINUOUS
 62
    80
  5
104
 10
370.096466
 20
25.089233
 30
0.0
 11
369.025024
 21
25.089233
 31
0.0
  0
LINE
  8
0
  6
CONTINUOUS
 62
    80
  5
105
 10
370.096466
 20
25.410706
 30
0.0
 11
370.096466
 21
25.089233
 31
0.0
  0
LINE
  8
0
  6
CONTINUOUS
 62
    80
  5
106
 10
370.096466
 20
24.251953
 30
0.0
 11
370.096466
 21
23.928101
 31
0.0
  0
LINE
  8
0
  6
CONTINUOUS
 62
    80
  5
107
 10
367.203613
 20
23.989197
 30
0.0
 11
367.203613
 21
23.522766
 31
0.0
  0
LINE
  8
0
  6
CONTINUOUS
 62
    80
  5
108
 10
379.303589
 20
26.625
 30
0.0
 11
379.303589
 21
26.303528
 31
0.0
  0
LINE
  8
0
  6
CONTINUOUS
 62
    80
  5
109
 10
378.839325
 20
25.906067
 30
0.0
 11
378.839325
 21
26.50647
 31
0.0
  0
LINE
  8
0
  6
CONTINUOUS
 62
    80
  5
10A
 10
373.289307
 20
25.906006
 30
0.0
 11
373.289307
 21
26.50647
 31
0.0
  0
LINE
  8
0
  6
CONTINUOUS
 62
    80
  5
10B
 10
374.432159
 20
26.053528
 30
0.0
 11
377.682159
 21
26.053528
 31
0.0
  0
LINE
  8
0
  6
CONTINUOUS
 62
    80
  5
10C
 10
374.432159
 20
26.053528
 30
0.0
 11
374.432159
 21
25.732117
 31
0.0
  0
LINE
  8
0
  6
CONTINUOUS
 62
    80
  5
10D
 10
374.432159
 20
25.732117
 30
0.0
 11
377.682159
 21
25.732117
 31
0.0
  0
LINE
  8
0
  6
CONTINUOUS
 62
    80
  5
10E
 10
377.682159
 20
26.053528
 30
0.0
 11
377.682159
 21
25.732117
 31
0.0
  0
LINE
  8
0
  6
CONTINUOUS
 62
    80
  5
10F
 10
373.289307
 20
25.267822
 30
0.0
 11
378.839325
 21
25.267822
 31
0.0
  0
LINE
  8
0
  6
CONTINUOUS
 62
    80
  5
110
 10
373.289307
 20
25.267822
 30
0.0
 11
373.289307
 21
24.875
 31
0.0
  0
LINE
  8
0
  6
CONTINUOUS
 62
    80
  5
111
 10
373.289307
 20
24.875
 30
0.0
 11
374.345764
 21
24.875
 31
0.0
  0
LINE
  8
0
  6
CONTINUOUS
 62
    80
  5
112
 10
373.378418
 20
23.589233
 30
0.0
 11
378.749146
 21
23.589233
 31
0.0
  0
LINE
  8
0
  6
CONTINUOUS
 62
    80
  5
113
 10
374.834442
 20
23.910706
 30
0.0
 11
377.292389
 21
23.910706
 31
0.0
  0
LINE
  8
0
  6
CONTINUOUS
 62
    80
  5
114
 10
375.354767
 20
24.875
 30
0.0
 11
376.772064
 21
24.875
 31
0.0
  0
LINE
  8
0
  6
CONTINUOUS
 62
    80
  5
115
 10
377.772552
 20
24.875
 30
0.0
 11
378.839325
 21
24.875
 31
0.0
  0
LINE
  8
0
  6
CONTINUOUS
 62
    80
  5
116
 10
378.839325
 20
24.875
 30
0.0
 11
378.839325
 21
25.267822
 31
0.0
  0
LINE
  8
0
  6
CONTINUOUS
 62
    80
  5
117
 10
379.303589
 20
24.743347
 30
0.0
 11
379.303589
 21
24.152588
 31
0.0
  0
LINE
  8
0
  6
CONTINUOUS
 62
    80
  5
118
 10
380.389313
 20
24.804688
 30
0.0
 11
380.389313
 21
23.589233
 31
0.0
  0
LINE
  8
0
  6
CONTINUOUS
 62
    80
  5
119
 10
380.389313
 20
23.589233
 30
0.0
 11
381.282166
 21
23.589233
 31
0.0
  0
LINE
  8
0
  6
CONTINUOUS
 62
    80
  5
11A
 10
381.282166
 20
23.589233
 30
0.0
 11
381.282166
 21
26.303528
 31
0.0
  0
LINE
  8
0
  6
CONTINUOUS
 62
    80
  5
11B
 10
381.282166
 20
26.303528
 30
0.0
 11
381.99646
 21
26.303528
 31
0.0
  0
LINE
  8
0
  6
CONTINUOUS
 62
    80
  5
11C
 10
381.99646
 20
26.303528
 30
0.0
 11
381.99646
 21
26.625
 31
0.0
  0
LINE
  8
0
  6
CONTINUOUS
 62
    80
  5
11D
 10
379.303589
 20
26.625
 30
0.0
 11
381.99646
 21
26.625
 31
0.0
  0
LINE
  8
0
  6
CONTINUOUS
 62
    80
  5
11E
 10
379.303589
 20
26.303528
 30
0.0
 11
380.351593
 21
26.303528
 31
0.0
  0
LINE
  8
0
  6
CONTINUOUS
 62
    80
  5
11F
 10
381.99646
 20
27.089233
 30
0.0
 11
379.303589
 21
27.089233
 31
0.0
  0
LINE
  8
0
  6
CONTINUOUS
 62
    80
  5
120
 10
379.303589
 20
27.410706
 30
0.0
 11
379.303589
 21
27.089233
 31
0.0
  0
LINE
  8
0
  6
CONTINUOUS
 62
    80
  5
121
 10
379.303589
 20
27.410706
 30
0.0
 11
381.99646
 21
27.410706
 31
0.0
  0
LINE
  8
0
  6
CONTINUOUS
 62
    80
  5
122
 10
381.99646
 20
27.410706
 30
0.0
 11
381.99646
 21
27.089233
 31
0.0
  0
LINE
  8
0
  6
CONTINUOUS
 62
    80
  5
123
 10
382.460724
 20
26.303528
 30
0.0
 11
382.460724
 21
26.625
 31
0.0
  0
LINE
  8
0
  6
CONTINUOUS
 62
    80
  5
124
 10
382.460724
 20
26.625
 30
0.0
 11
383.24646
 21
26.625
 31
0.0
  0
LINE
  8
0
  6
CONTINUOUS
 62
    80
  5
125
 10
383.24646
 20
26.625
 30
0.0
 11
383.24646
 21
27.410706
 31
0.0
  0
LINE
  8
0
  6
CONTINUOUS
 62
    80
  5
126
 10
383.24646
 20
27.410706
 30
0.0
 11
384.067871
 21
27.410706
 31
0.0
  0
LINE
  8
0
  6
CONTINUOUS
 62
    80
  5
127
 10
384.067871
 20
27.410706
 30
0.0
 11
384.067871
 21
26.625
 31
0.0
  0
LINE
  8
0
  6
CONTINUOUS
 62
    80
  5
128
 10
384.067871
 20
26.625
 30
0.0
 11
384.99646
 21
26.625
 31
0.0
  0
LINE
  8
0
  6
CONTINUOUS
 62
    80
  5
129
 10
384.99646
 20
26.303528
 30
0.0
 11
384.99646
 21
26.625
 31
0.0
  0
LINE
  8
0
  6
CONTINUOUS
 62
    80
  5
12A
 10
384.99646
 20
26.303528
 30
0.0
 11
384.067871
 21
26.303528
 31
0.0
  0
LINE
  8
0
  6
CONTINUOUS
 62
    80
  5
12B
 10
384.067871
 20
26.303528
 30
0.0
 11
384.067871
 21
23.910706
 31
0.0
  0
LINE
  8
0
  6
CONTINUOUS
 62
    80
  5
12C
 10
383.24646
 20
26.303528
 30
0.0
 11
382.460724
 21
26.303528
 31
0.0
  0
LINE
  8
0
  6
CONTINUOUS
 62
    80
  5
12D
 10
383.24646
 20
26.303528
 30
0.0
 11
383.24646
 21
23.910706
 31
0.0
  0
LINE
  8
0
  6
CONTINUOUS
 62
    80
  5
12E
 10
382.24646
 20
23.910706
 30
0.0
 11
383.24646
 21
23.910706
 31
0.0
  0
LINE
  8
0
  6
CONTINUOUS
 62
    80
  5
12F
 10
382.24646
 20
23.589233
 30
0.0
 11
382.24646
 21
23.910706
 31
0.0
  0
LINE
  8
0
  6
CONTINUOUS
 62
    80
  5
130
 10
384.99646
 20
23.589233
 30
0.0
 11
382.24646
 21
23.589233
 31
0.0
  0
LINE
  8
0
  6
CONTINUOUS
 62
    80
  5
131
 10
384.99646
 20
23.910706
 30
0.0
 11
384.99646
 21
23.589233
 31
0.0
  0
LINE
  8
0
  6
CONTINUOUS
 62
    80
  5
132
 10
384.067871
 20
23.910706
 30
0.0
 11
384.99646
 21
23.910706
 31
0.0
  0
LINE
  8
0
  6
CONTINUOUS
 62
    80
  5
133
 10
344.31073
 20
24.339233
 30
0.0
 11
344.31073
 21
24.285706
 31
0.0
  0
LINE
  8
0
  6
CONTINUOUS
 62
    80
  5
134
 10
355.625255
 20
27.339227
 30
0.0
 11
356.170421
 21
26.785635
 31
0.0
  0
LINE
  8
0
  6
CONTINUOUS
 62
    80
  5
135
 10
359.960458
 20
27.339237
 30
0.0
 11
359.415281
 21
26.785634
 31
0.0
  0
LINE
  8
0
  6
CONTINUOUS
 62
    80
  5
136
 10
337.58725
 20
26.446472
 30
0.0
 11
337.855774
 21
26.446472
 31
0.0
  0
LINE
  8
0
  6
CONTINUOUS
 62
    80
  5
137
 10
337.58725
 20
26.482117
 30
0.0
 11
337.766754
 21
26.482117
 31
0.0
  0
LINE
  8
0
  6
CONTINUOUS
 62
    80
  5
138
 10
337.58725
 20
26.017822
 30
0.0
 11
337.855774
 21
26.017822
 31
0.0
  0
LINE
  8
0
  6
CONTINUOUS
 62
    80
  5
139
 10
337.58725
 20
26.053406
 30
0.0
 11
337.766754
 21
26.053406
 31
0.0
  0
LINE
  8
0
  6
CONTINUOUS
 62
    80
  5
13A
 10
340.301422
 20
26.446472
 30
0.0
 11
340.569946
 21
26.446472
 31
0.0
  0
LINE
  8
0
  6
CONTINUOUS
 62
    80
  5
13B
 10
340.301422
 20
26.482117
 30
0.0
 11
340.480927
 21
26.482117
 31
0.0
  0
LINE
  8
0
  6
CONTINUOUS
 62
    80
  5
13C
 10
336.489349
 20
27.357117
 30
0.0
 11
341.667877
 21
27.357117
 31
0.0
  0
LINE
  8
0
  6
CONTINUOUS
 62
    80
  5
13D
 10
336.203644
 20
26.857117
 30
0.0
 11
341.953705
 21
26.857117
 31
0.0
  0
LINE
  8
0
  6
CONTINUOUS
 62
    80
  5
13E
 10
336.56073
 20
25.564331
 30
0.0
 11
341.596527
 21
25.564331
 31
0.0
  0
LINE
  8
0
  6
CONTINUOUS
 62
    80
  5
13F
 10
336.56073
 20
24.964233
 30
0.0
 11
341.596527
 21
24.964233
 31
0.0
  0
LINE
  8
0
  6
CONTINUOUS
 62
    80
  5
140
 10
336.56073
 20
24.364258
 30
0.0
 11
338.489319
 21
24.364258
 31
0.0
  0
LINE
  8
0
  6
CONTINUOUS
 62
    80
  5
141
 10
339.667877
 20
24.364258
 30
0.0
 11
341.596527
 21
24.364258
 31
0.0
  0
LINE
  8
0
  6
CONTINUOUS
 62
    80
  5
142
 10
338.689301
 20
23.642822
 30
0.0
 11
341.467926
 21
23.642822
 31
0.0
  0
LINE
  8
0
  6
CONTINUOUS
 62
    80
  5
143
 10
354.917877
 20
26.785645
 30
0.0
 11
360.596466
 21
26.785645
 31
0.0
  0
LINE
  8
0
  6
CONTINUOUS
 62
    80
  5
144
 10
354.917877
 20
26.071411
 30
0.0
 11
360.596466
 21
26.071411
 31
0.0
  0
LINE
  8
0
  6
CONTINUOUS
 62
    80
  5
145
 10
360.596466
 20
25.571411
 30
0.0
 11
354.917877
 21
25.571411
 31
0.0
  0
LINE
  8
0
  6
CONTINUOUS
 62
    80
  5
146
 10
360.596466
 20
25.071411
 30
0.0
 11
354.917877
 21
25.071411
 31
0.0
  0
LINE
  8
0
  6
CONTINUOUS
 62
    80
  5
147
 10
356.158406
 20
27.339239
 30
0.0
 11
356.703572
 21
26.785647
 31
0.0
  0
LINE
  8
0
  6
CONTINUOUS
 62
    80
  5
148
 10
359.427328
 20
27.339227
 30
0.0
 11
358.882152
 21
26.785624
 31
0.0
  0
LINE
  8
0
  6
CONTINUOUS
 62
    80
  5
149
 10
364.632172
 20
25.981384
 30
0.0
 11
364.632172
 21
26.447144
 31
0.0
  0
LINE
  8
0
  6
CONTINUOUS
 62
    80
  5
14A
 10
366.667877
 20
25.981384
 30
0.0
 11
365.31076
 21
25.981384
 31
0.0
  0
LINE
  8
0
  6
CONTINUOUS
 62
    80
  5
14B
 10
366.667877
 20
25.661438
 30
0.0
 11
365.31076
 21
25.661438
 31
0.0
  0
LINE
  8
0
  6
CONTINUOUS
 62
    80
  5
14C
 10
363.489319
 20
26.447144
 30
0.0
 11
364.632172
 21
26.447144
 31
0.0
  0
LINE
  8
0
  6
CONTINUOUS
 62
    80
  5
14D
 10
361.06073
 20
26.447144
 30
0.0
 11
361.686523
 21
26.447144
 31
0.0
  0
LINE
  8
0
  6
CONTINUOUS
 62
    80
  5
14E
 10
361.06073
 20
26.76709
 30
0.0
 11
361.703583
 21
26.76709
 31
0.0
  0
LINE
  8
0
  6
CONTINUOUS
 62
    80
  5
14F
 10
363.489319
 20
25.981384
 30
0.0
 11
363.489319
 21
25.661438
 31
0.0
  0
LINE
  8
0
  6
CONTINUOUS
 62
    80
  5
150
 10
366.667877
 20
25.981384
 30
0.0
 11
366.667877
 21
25.661438
 31
0.0
  0
LINE
  8
0
  6
CONTINUOUS
 62
    80
  5
151
 10
364.239319
 20
26.76709
 30
0.0
 11
364.632172
 21
26.76709
 31
0.0
  0
LINE
  8
0
  6
CONTINUOUS
 62
    80
  5
152
 10
366.667877
 20
26.76709
 30
0.0
 11
366.667877
 21
26.447144
 31
0.0
  0
LINE
  8
0
  6
CONTINUOUS
 62
    80
  5
153
 10
361.06073
 20
26.76709
 30
0.0
 11
361.06073
 21
26.447144
 31
0.0
  0
LINE
  8
0
  6
CONTINUOUS
 62
    80
  5
154
 10
363.096466
 20
26.76709
 30
0.0
 11
363.096466
 21
26.447144
 31
0.0
  0
LINE
  8
0
  6
CONTINUOUS
 62
    80
  5
155
 10
362.453583
 20
26.447144
 30
0.0
 11
363.096466
 21
26.447144
 31
0.0
  0
LINE
  8
0
  6
CONTINUOUS
 62
    80
  5
156
 10
362.453583
 20
26.76709
 30
0.0
 11
363.096466
 21
26.76709
 31
0.0
  0
LINE
  8
0
  6
CONTINUOUS
 62
    80
  5
157
 10
364.09259
 20
25.661438
 30
0.0
 11
363.489319
 21
25.661438
 31
0.0
  0
LINE
  8
0
  6
CONTINUOUS
 62
    80
  5
158
 10
365.31076
 20
26.447144
 30
0.0
 11
366.667877
 21
26.447144
 31
0.0
  0
LINE
  8
0
  6
CONTINUOUS
 62
    80
  5
159
 10
364.632172
 20
25.981384
 30
0.0
 11
363.489319
 21
25.981384
 31
0.0
  0
LINE
  8
0
  6
CONTINUOUS
 62
    80
  5
15A
 10
365.31076
 20
26.76709
 30
0.0
 11
366.667877
 21
26.76709
 31
0.0
  0
LINE
  8
0
  6
CONTINUOUS
 62
    80
  5
15B
 10
364.632172
 20
26.76709
 30
0.0
 11
364.632172
 21
27.410706
 31
0.0
  0
LINE
  8
0
  6
CONTINUOUS
 62
    80
  5
15C
 10
365.31076
 20
26.447144
 30
0.0
 11
365.31076
 21
25.981384
 31
0.0
  0
LINE
  8
0
  6
CONTINUOUS
 62
    80
  5
15D
 10
365.31076
 20
25.661438
 30
0.0
 11
365.31076
 21
23.589233
 31
0.0
  0
LINE
  8
0
  6
CONTINUOUS
 62
     3
  5
15E
 10
233.0
 20
53.0
 30
0.0
 11
397.0
 21
53.0
 31
0.0
  0
LINE
  8
0
  6
CONTINUOUS
 62
     3
  5
15F
 10
233.0
 20
27.0
 30
0.0
 11
271.0
 21
27.0
 31
0.0
  0
LINE
  8
0
  6
CONTINUOUS
 62
    80
  5
160
 10
233.0
 20
33.5
 30
0.0
 11
271.0
 21
33.5
 31
0.0
  0
LINE
  8
0
  6
CONTINUOUS
 62
    80
  5
161
 10
233.0
 20
23.0
 30
0.0
 11
271.0
 21
23.0
 31
0.0
  0
CIRCLE
  8
0
  6
CONTINUOUS
 62
     3
  5
162
 10
274.0
 20
272.999985
 30
0.0
 40
0.2
  0
CIRCLE
  8
0
  6
CONTINUOUS
 62
     3
  5
163
 10
279.0
 20
272.999985
 30
0.0
 40
0.2
  0
CIRCLE
  8
0
  6
CONTINUOUS
 62
     3
  5
164
 10
274.0
 20
267.999985
 30
0.0
 40
0.2
  0
CIRCLE
  8
0
  6
CONTINUOUS
 62
     3
  5
165
 10
279.0
 20
267.999985
 30
0.0
 40
0.2
  0
CIRCLE
  8
0
  6
CONTINUOUS
 62
     3
  5
166
 10
274.0
 20
262.999985
 30
0.0
 40
0.2
  0
CIRCLE
  8
0
  6
CONTINUOUS
 62
     3
  5
167
 10
279.0
 20
262.999985
 30
0.0
 40
0.2
  0
CIRCLE
  8
0
  6
CONTINUOUS
 62
     3
  5
168
 10
274.0
 20
257.999989
 30
0.0
 40
0.2
  0
CIRCLE
  8
0
  6
CONTINUOUS
 62
     3
  5
169
 10
279.0
 20
257.999989
 30
0.0
 40
0.2
  0
ARC
  8
0
  6
CONTINUOUS
 62
    80
  5
16A
 10
324.757172
 20
26.0
 30
0.0
 40
0.767857
 50
269.999997
 51
0.0
  0
ARC
  8
0
  6
CONTINUOUS
 62
    80
  5
16B
 10
323.68573
 20
26.214233
 30
0.0
 40
0.446429
 50
269.999997
 51
0.0
  0
ARC
  8
0
  6
CONTINUOUS
 62
    80
  5
16C
 10
320.971466
 20
24.428528
 30
0.0
 40
0.375
 50
269.999997
 51
0.0
  0
ARC
  8
0
  6
CONTINUOUS
 62
    80
  5
16D
 10
322.257172
 20
24.142822
 30
0.0
 40
0.553571
 50
269.999997
 51
0.0
  0
ARC
  8
0
  6
CONTINUOUS
 62
    80
  5
16E
 10
345.757172
 20
23.785706
 30
0.0
 40
0.196429
 50
269.999997
 51
0.0
  0
ARC
  8
0
  6
CONTINUOUS
 62
    80
  5
16F
 10
343.68573
 20
23.785706
 30
0.0
 40
0.196429
 50
179.999991
 51
270.000001
  0
ARC
  8
0
  6
CONTINUOUS
 62
    80
  5
170
 10
344.542877
 20
24.285706
 30
0.0
 40
0.232143
 50
179.999991
 51
270.000001
  0
CIRCLE
  8
0
  6
CONTINUOUS
 62
    80
  5
171
 10
360.18573
 20
24.142822
 30
0.0
 40
0.375
  0
CIRCLE
  8
0
  6
CONTINUOUS
 62
    80
  5
172
 10
366.257172
 20
24.357117
 30
0.0
 40
0.375
  0
CIRCLE
  8
0
  6
CONTINUOUS
 62
    80
  5
173
 10
371.985748
 20
27.142822
 30
0.0
 40
0.375
  0
CIRCLE
  8
0
  6
CONTINUOUS
 62
    80
  5
174
 10
382.157166
 20
24.785706
 30
0.0
 40
0.375
  0
ARC
  8
0
  6
CONTINUOUS
 62
    80
  5
175
 10
339.897888
 20
23.872803
 30
0.0
 40
0.23
 50
179.999995
 51
269.999997
  0
ARC
  8
0
  6
CONTINUOUS
 62
    80
  5
176
 10
338.689301
 20
23.842773
 30
0.0
 40
0.2
 50
179.999995
 51
269.999997
  0
ARC
  8
0
  6
CONTINUOUS
 62
    80
  5
177
 10
341.467926
 20
23.842773
 30
0.0
 40
0.2
 50
269.999997
 51
0.0
  0
POLYLINE
  8
0
  6
CONTINUOUS
 62
    80
  5
178
 66
     1
 10
0.0
 20
0.0
 30
0.0
  0
VERTEX
  8
0
  6
CONTINUOUS
 62
    80
  5
503
 10
346.531799
 20
26.946411
 30
0.0
  0
VERTEX
  8
0
  6
CONTINUOUS
 62
    80
  5
504
 10
346.523379
 20
26.935423
 30
0.0
  0
VERTEX
  8
0
  6
CONTINUOUS
 62
    80
  5
505
 10
346.514824
 20
26.924522
 30
0.0
  0
VERTEX
  8
0
  6
CONTINUOUS
 62
    80
  5
506
 10
346.506135
 20
26.913714
 30
0.0
  0
VERTEX
  8
0
  6
CONTINUOUS
 62
    80
  5
507
 10
346.49731
 20
26.903007
 30
0.0
  0
VERTEX
  8
0
  6
CONTINUOUS
 62
    80
  5
508
 10
346.48835
 20
26.892406
 30
0.0
  0
VERTEX
  8
0
  6
CONTINUOUS
 62
    80
  5
509
 10
346.479253
 20
26.881918
 30
0.0
  0
VERTEX
  8
0
  6
CONTINUOUS
 62
    80
  5
50A
 10
346.470021
 20
26.871549
 30
0.0
  0
VERTEX
  8
0
  6
CONTINUOUS
 62
    80
  5
50B
 10
346.460651
 20
26.861305
 30
0.0
  0
VERTEX
  8
0
  6
CONTINUOUS
 62
    80
  5
50C
 10
346.451143
 20
26.851192
 30
0.0
  0
VERTEX
  8
0
  6
CONTINUOUS
 62
    80
  5
50D
 10
346.441498
 20
26.841216
 30
0.0
  0
VERTEX
  8
0
  6
CONTINUOUS
 62
    80
  5
50E
 10
346.431715
 20
26.831385
 30
0.0
  0
VERTEX
  8
0
  6
CONTINUOUS
 62
    80
  5
50F
 10
346.421793
 20
26.821704
 30
0.0
  0
VERTEX
  8
0
  6
CONTINUOUS
 62
    80
  5
510
 10
346.411731
 20
26.812179
 30
0.0
  0
VERTEX
  8
0
  6
CONTINUOUS
 62
    80
  5
511
 10
346.40153
 20
26.802818
 30
0.0
  0
VERTEX
  8
0
  6
CONTINUOUS
 62
    80
  5
512
 10
346.391189
 20
26.793625
 30
0.0
  0
VERTEX
  8
0
  6
CONTINUOUS
 62
    80
  5
513
 10
346.380707
 20
26.784607
 30
0.0
  0
VERTEX
  8
0
  6
CONTINUOUS
 62
    80
  5
514
 10
346.368029
 20
26.774091
 30
0.0
  0
VERTEX
  8
0
  6
CONTINUOUS
 62
    80
  5
515
 10
346.355162
 20
26.76382
 30
0.0
  0
VERTEX
  8
0
  6
CONTINUOUS
 62
    80
  5
516
 10
346.342115
 20
26.75378
 30
0.0
  0
VERTEX
  8
0
  6
CONTINUOUS
 62
    80
  5
517
 10
346.328901
 20
26.743959
 30
0.0
  0
VERTEX
  8
0
  6
CONTINUOUS
 62
    80
  5
518
 10
346.315529
 20
26.734342
 30
0.0
  0
VERTEX
  8
0
  6
CONTINUOUS
 62
    80
  5
519
 10
346.30201
 20
26.724917
 30
0.0
  0
VERTEX
  8
0
  6
CONTINUOUS
 62
    80
  5
51A
 10
346.288355
 20
26.71567
 30
0.0
  0
VERTEX
  8
0
  6
CONTINUOUS
 62
    80
  5
51B
 10
346.274575
 20
26.706587
 30
0.0
  0
VERTEX
  8
0
  6
CONTINUOUS
 62
    80
  5
51C
 10
346.26068
 20
26.697656
 30
0.0
  0
VERTEX
  8
0
  6
CONTINUOUS
 62
    80
  5
51D
 10
346.246681
 20
26.688862
 30
0.0
  0
VERTEX
  8
0
  6
CONTINUOUS
 62
    80
  5
51E
 10
346.232589
 20
26.680193
 30
0.0
  0
VERTEX
  8
0
  6
CONTINUOUS
 62
    80
  5
51F
 10
346.218414
 20
26.671635
 30
0.0
  0
VERTEX
  8
0
  6
CONTINUOUS
 62
    80
  5
520
 10
346.204167
 20
26.663174
 30
0.0
  0
VERTEX
  8
0
  6
CONTINUOUS
 62
    80
  5
521
 10
346.189859
 20
26.654798
 30
0.0
  0
VERTEX
  8
0
  6
CONTINUOUS
 62
    80
  5
522
 10
346.175501
 20
26.646493
 30
0.0
  0
VERTEX
  8
0
  6
CONTINUOUS
 62
    80
  5
523
 10
346.161102
 20
26.638245
 30
0.0
  0
VERTEX
  8
0
  6
CONTINUOUS
 62
    80
  5
524
 10
346.083925
 20
26.595092
 30
0.0
  0
VERTEX
  8
0
  6
CONTINUOUS
 62
    80
  5
525
 10
346.00594
 20
26.553263
 30
0.0
  0
VERTEX
  8
0
  6
CONTINUOUS
 62
    80
  5
526
 10
345.927178
 20
26.512815
 30
0.0
  0
VERTEX
  8
0
  6
CONTINUOUS
 62
    80
  5
527
 10
345.847667
 20
26.473807
 30
0.0
  0
VERTEX
  8
0
  6
CONTINUOUS
 62
    80
  5
528
 10
345.767438
 20
26.436298
 30
0.0
  0
VERTEX
  8
0
  6
CONTINUOUS
 62
    80
  5
529
 10
345.68652
 20
26.400344
 30
0.0
  0
VERTEX
  8
0
  6
CONTINUOUS
 62
    80
  5
52A
 10
345.604942
 20
26.366005
 30
0.0
  0
VERTEX
  8
0
  6
CONTINUOUS
 62
    80
  5
52B
 10
345.522733
 20
26.333337
 30
0.0
  0
VERTEX
  8
0
  6
CONTINUOUS
 62
    80
  5
52C
 10
345.439924
 20
26.302401
 30
0.0
  0
VERTEX
  8
0
  6
CONTINUOUS
 62
    80
  5
52D
 10
345.356542
 20
26.273253
 30
0.0
  0
VERTEX
  8
0
  6
CONTINUOUS
 62
    80
  5
52E
 10
345.272619
 20
26.245951
 30
0.0
  0
VERTEX
  8
0
  6
CONTINUOUS
 62
    80
  5
52F
 10
345.188183
 20
26.220555
 30
0.0
  0
VERTEX
  8
0
  6
CONTINUOUS
 62
    80
  5
530
 10
345.103264
 20
26.197121
 30
0.0
  0
VERTEX
  8
0
  6
CONTINUOUS
 62
    80
  5
531
 10
345.017891
 20
26.175709
 30
0.0
  0
VERTEX
  8
0
  6
CONTINUOUS
 62
    80
  5
532
 10
344.932093
 20
26.156375
 30
0.0
  0
VERTEX
  8
0
  6
CONTINUOUS
 62
    80
  5
533
 10
344.845901
 20
26.139179
 30
0.0
  0
SEQEND
  8
0
  6
CONTINUOUS
 62
    80
  5
534
  0
POLYLINE
  8
0
  6
CONTINUOUS
 62
    80
  5
179
 66
     1
 10
0.0
 20
0.0
 30
0.0
  0
VERTEX
  8
0
  6
CONTINUOUS
 62
    80
  5
535
 10
348.166962
 20
26.908447
 30
0.0
  0
VERTEX
  8
0
  6
CONTINUOUS
 62
    80
  5
536
 10
348.092057
 20
26.8664
 30
0.0
  0
VERTEX
  8
0
  6
CONTINUOUS
 62
    80
  5
537
 10
348.016817
 20
26.824999
 30
0.0
  0
VERTEX
  8
0
  6
CONTINUOUS
 62
    80
  5
538
 10
347.941255
 20
26.784212
 30
0.0
  0
VERTEX
  8
0
  6
CONTINUOUS
 62
    80
  5
539
 10
347.865385
 20
26.74401
 30
0.0
  0
VERTEX
  8
0
  6
CONTINUOUS
 62
    80
  5
53A
 10
347.789223
 20
26.704363
 30
0.0
  0
VERTEX
  8
0
  6
CONTINUOUS
 62
    80
  5
53B
 10
347.712781
 20
26.665241
 30
0.0
  0
VERTEX
  8
0
  6
CONTINUOUS
 62
    80
  5
53C
 10
347.636074
 20
26.626613
 30
0.0
  0
VERTEX
  8
0
  6
CONTINUOUS
 62
    80
  5
53D
 10
347.559117
 20
26.58845
 30
0.0
  0
VERTEX
  8
0
  6
CONTINUOUS
 62
    80
  5
53E
 10
347.481923
 20
26.550721
 30
0.0
  0
VERTEX
  8
0
  6
CONTINUOUS
 62
    80
  5
53F
 10
347.404506
 20
26.513397
 30
0.0
  0
VERTEX
  8
0
  6
CONTINUOUS
 62
    80
  5
540
 10
347.326882
 20
26.476448
 30
0.0
  0
VERTEX
  8
0
  6
CONTINUOUS
 62
    80
  5
541
 10
347.249062
 20
26.439843
 30
0.0
  0
VERTEX
  8
0
  6
CONTINUOUS
 62
    80
  5
542
 10
347.171063
 20
26.403552
 30
0.0
  0
VERTEX
  8
0
  6
CONTINUOUS
 62
    80
  5
543
 10
347.092898
 20
26.367545
 30
0.0
  0
VERTEX
  8
0
  6
CONTINUOUS
 62
    80
  5
544
 10
347.014581
 20
26.331793
 30
0.0
  0
VERTEX
  8
0
  6
CONTINUOUS
 62
    80
  5
545
 10
346.936127
 20
26.296265
 30
0.0
  0
VERTEX
  8
0
  6
CONTINUOUS
 62
    80
  5
546
 10
346.879668
 20
26.270867
 30
0.0
  0
VERTEX
  8
0
  6
CONTINUOUS
 62
    80
  5
547
 10
346.823127
 20
26.245628
 30
0.0
  0
VERTEX
  8
0
  6
CONTINUOUS
 62
    80
  5
548
 10
346.76649
 20
26.220605
 30
0.0
  0
VERTEX
  8
0
  6
CONTINUOUS
 62
    80
  5
549
 10
346.709739
 20
26.195858
 30
0.0
  0
VERTEX
  8
0
  6
CONTINUOUS
 62
    80
  5
54A
 10
346.652859
 20
26.171445
 30
0.0
  0
VERTEX
  8
0
  6
CONTINUOUS
 62
    80
  5
54B
 10
346.595835
 20
26.147424
 30
0.0
  0
VERTEX
  8
0
  6
CONTINUOUS
 62
    80
  5
54C
 10
346.538649
 20
26.123854
 30
0.0
  0
VERTEX
  8
0
  6
CONTINUOUS
 62
    80
  5
54D
 10
346.481288
 20
26.100793
 30
0.0
  0
VERTEX
  8
0
  6
CONTINUOUS
 62
    80
  5
54E
 10
346.423733
 20
26.0783
 30
0.0
  0
VERTEX
  8
0
  6
CONTINUOUS
 62
    80
  5
54F
 10
346.36597
 20
26.056432
 30
0.0
  0
VERTEX
  8
0
  6
CONTINUOUS
 62
    80
  5
550
 10
346.307983
 20
26.035249
 30
0.0
  0
VERTEX
  8
0
  6
CONTINUOUS
 62
    80
  5
551
 10
346.249756
 20
26.01481
 30
0.0
  0
VERTEX
  8
0
  6
CONTINUOUS
 62
    80
  5
552
 10
346.191273
 20
25.995172
 30
0.0
  0
VERTEX
  8
0
  6
CONTINUOUS
 62
    80
  5
553
 10
346.132518
 20
25.976393
 30
0.0
  0
VERTEX
  8
0
  6
CONTINUOUS
 62
    80
  5
554
 10
346.073476
 20
25.958533
 30
0.0
  0
VERTEX
  8
0
  6
CONTINUOUS
 62
    80
  5
555
 10
346.01413
 20
25.94165
 30
0.0
  0
VERTEX
  8
0
  6
CONTINUOUS
 62
    80
  5
556
 10
346.010354
 20
25.940613
 30
0.0
  0
VERTEX
  8
0
  6
CONTINUOUS
 62
    80
  5
557
 10
346.006577
 20
25.93958
 30
0.0
  0
VERTEX
  8
0
  6
CONTINUOUS
 62
    80
  5
558
 10
346.002798
 20
25.938551
 30
0.0
  0
VERTEX
  8
0
  6
CONTINUOUS
 62
    80
  5
559
 10
345.999018
 20
25.937525
 30
0.0
  0
VERTEX
  8
0
  6
CONTINUOUS
 62
    80
  5
55A
 10
345.995236
 20
25.936503
 30
0.0
  0
VERTEX
  8
0
  6
CONTINUOUS
 62
    80
  5
55B
 10
345.991454
 20
25.935485
 30
0.0
  0
VERTEX
  8
0
  6
CONTINUOUS
 62
    80
  5
55C
 10
345.98767
 20
25.93447
 30
0.0
  0
VERTEX
  8
0
  6
CONTINUOUS
 62
    80
  5
55D
 10
345.983886
 20
25.933458
 30
0.0
  0
VERTEX
  8
0
  6
CONTINUOUS
 62
    80
  5
55E
 10
345.9801
 20
25.93245
 30
0.0
  0
VERTEX
  8
0
  6
CONTINUOUS
 62
    80
  5
55F
 10
345.976314
 20
25.931444
 30
0.0
  0
VERTEX
  8
0
  6
CONTINUOUS
 62
    80
  5
560
 10
345.972526
 20
25.930442
 30
0.0
  0
VERTEX
  8
0
  6
CONTINUOUS
 62
    80
  5
561
 10
345.968739
 20
25.929443
 30
0.0
  0
VERTEX
  8
0
  6
CONTINUOUS
 62
    80
  5
562
 10
345.96495
 20
25.928447
 30
0.0
  0
VERTEX
  8
0
  6
CONTINUOUS
 62
    80
  5
563
 10
345.961161
 20
25.927454
 30
0.0
  0
VERTEX
  8
0
  6
CONTINUOUS
 62
    80
  5
564
 10
345.957372
 20
25.926464
 30
0.0
  0
VERTEX
  8
0
  6
CONTINUOUS
 62
    80
  5
565
 10
345.953583
 20
25.925476
 30
0.0
  0
SEQEND
  8
0
  6
CONTINUOUS
 62
    80
  5
566
  0
POLYLINE
  8
0
  6
CONTINUOUS
 62
    80
  5
17A
 66
     1
 10
0.0
 20
0.0
 30
0.0
  0
VERTEX
  8
0
  6
CONTINUOUS
 62
    80
  5
567
 10
357.275024
 20
24.562988
 30
0.0
  0
VERTEX
  8
0
  6
CONTINUOUS
 62
    80
  5
568
 10
357.266259
 20
24.554253
 30
0.0
  0
VERTEX
  8
0
  6
CONTINUOUS
 62
    80
  5
569
 10
357.257462
 20
24.545547
 30
0.0
  0
VERTEX
  8
0
  6
CONTINUOUS
 62
    80
  5
56A
 10
357.248632
 20
24.536873
 30
0.0
  0
VERTEX
  8
0
  6
CONTINUOUS
 62
    80
  5
56B
 10
357.23977
 20
24.528232
 30
0.0
  0
VERTEX
  8
0
  6
CONTINUOUS
 62
    80
  5
56C
 10
357.230874
 20
24.519623
 30
0.0
  0
VERTEX
  8
0
  6
CONTINUOUS
 62
    80
  5
56D
 10
357.221945
 20
24.51105
 30
0.0
  0
VERTEX
  8
0
  6
CONTINUOUS
 62
    80
  5
56E
 10
357.212981
 20
24.502511
 30
0.0
  0
VERTEX
  8
0
  6
CONTINUOUS
 62
    80
  5
56F
 10
357.203983
 20
24.494009
 30
0.0
  0
VERTEX
  8
0
  6
CONTINUOUS
 62
    80
  5
570
 10
357.194951
 20
24.485545
 30
0.0
  0
VERTEX
  8
0
  6
CONTINUOUS
 62
    80
  5
571
 10
357.185882
 20
24.477119
 30
0.0
  0
VERTEX
  8
0
  6
CONTINUOUS
 62
    80
  5
572
 10
357.176778
 20
24.468732
 30
0.0
  0
VERTEX
  8
0
  6
CONTINUOUS
 62
    80
  5
573
 10
357.167638
 20
24.460387
 30
0.0
  0
VERTEX
  8
0
  6
CONTINUOUS
 62
    80
  5
574
 10
357.158461
 20
24.452082
 30
0.0
  0
VERTEX
  8
0
  6
CONTINUOUS
 62
    80
  5
575
 10
357.149248
 20
24.443821
 30
0.0
  0
VERTEX
  8
0
  6
CONTINUOUS
 62
    80
  5
576
 10
357.139996
 20
24.435603
 30
0.0
  0
VERTEX
  8
0
  6
CONTINUOUS
 62
    80
  5
577
 10
357.130707
 20
24.427429
 30
0.0
  0
VERTEX
  8
0
  6
CONTINUOUS
 62
    80
  5
578
 10
357.079845
 20
24.38404
 30
0.0
  0
VERTEX
  8
0
  6
CONTINUOUS
 62
    80
  5
579
 10
357.027911
 20
24.341949
 30
0.0
  0
VERTEX
  8
0
  6
CONTINUOUS
 62
    80
  5
57A
 10
356.974962
 20
24.301115
 30
0.0
  0
VERTEX
  8
0
  6
CONTINUOUS
 62
    80
  5
57B
 10
356.921052
 20
24.261499
 30
0.0
  0
VERTEX
  8
0
  6
CONTINUOUS
 62
    80
  5
57C
 10
356.866237
 20
24.223061
 30
0.0
  0
VERTEX
  8
0
  6
CONTINUOUS
 62
    80
  5
57D
 10
356.810572
 20
24.185761
 30
0.0
  0
VERTEX
  8
0
  6
CONTINUOUS
 62
    80
  5
57E
 10
356.754112
 20
24.14956
 30
0.0
  0
VERTEX
  8
0
  6
CONTINUOUS
 62
    80
  5
57F
 10
356.696914
 20
24.114416
 30
0.0
  0
VERTEX
  8
0
  6
CONTINUOUS
 62
    80
  5
580
 10
356.639031
 20
24.080291
 30
0.0
  0
VERTEX
  8
0
  6
CONTINUOUS
 62
    80
  5
581
 10
356.580521
 20
24.047144
 30
0.0
  0
VERTEX
  8
0
  6
CONTINUOUS
 62
    80
  5
582
 10
356.521437
 20
24.014936
 30
0.0
  0
VERTEX
  8
0
  6
CONTINUOUS
 62
    80
  5
583
 10
356.461835
 20
23.983626
 30
0.0
  0
VERTEX
  8
0
  6
CONTINUOUS
 62
    80
  5
584
 10
356.401772
 20
23.953175
 30
0.0
  0
VERTEX
  8
0
  6
CONTINUOUS
 62
    80
  5
585
 10
356.341301
 20
23.923544
 30
0.0
  0
VERTEX
  8
0
  6
CONTINUOUS
 62
    80
  5
586
 10
356.280479
 20
23.894691
 30
0.0
  0
VERTEX
  8
0
  6
CONTINUOUS
 62
    80
  5
587
 10
356.21936
 20
23.866577
 30
0.0
  0
VERTEX
  8
0
  6
CONTINUOUS
 62
    80
  5
588
 10
356.172853
 20
23.845734
 30
0.0
  0
VERTEX
  8
0
  6
CONTINUOUS
 62
    80
  5
589
 10
356.126206
 20
23.825304
 30
0.0
  0
VERTEX
  8
0
  6
CONTINUOUS
 62
    80
  5
58A
 10
356.079416
 20
23.805296
 30
0.0
  0
VERTEX
  8
0
  6
CONTINUOUS
 62
    80
  5
58B
 10
356.032481
 20
23.785722
 30
0.0
  0
VERTEX
  8
0
  6
CONTINUOUS
 62
    80
  5
58C
 10
355.985399
 20
23.766593
 30
0.0
  0
VERTEX
  8
0
  6
CONTINUOUS
 62
    80
  5
58D
 10
355.938167
 20
23.747918
 30
0.0
  0
VERTEX
  8
0
  6
CONTINUOUS
 62
    80
  5
58E
 10
355.890783
 20
23.72971
 30
0.0
  0
VERTEX
  8
0
  6
CONTINUOUS
 62
    80
  5
58F
 10
355.843245
 20
23.711978
 30
0.0
  0
VERTEX
  8
0
  6
CONTINUOUS
 62
    80
  5
590
 10
355.79555
 20
23.694733
 30
0.0
  0
VERTEX
  8
0
  6
CONTINUOUS
 62
    80
  5
591
 10
355.747697
 20
23.677985
 30
0.0
  0
VERTEX
  8
0
  6
CONTINUOUS
 62
    80
  5
592
 10
355.699682
 20
23.661747
 30
0.0
  0
VERTEX
  8
0
  6
CONTINUOUS
 62
    80
  5
593
 10
355.651503
 20
23.646027
 30
0.0
  0
VERTEX
  8
0
  6
CONTINUOUS
 62
    80
  5
594
 10
355.603159
 20
23.630838
 30
0.0
  0
VERTEX
  8
0
  6
CONTINUOUS
 62
    80
  5
595
 10
355.554646
 20
23.616189
 30
0.0
  0
VERTEX
  8
0
  6
CONTINUOUS
 62
    80
  5
596
 10
355.505963
 20
23.602091
 30
0.0
  0
VERTEX
  8
0
  6
CONTINUOUS
 62
    80
  5
597
 10
355.457106
 20
23.588555
 30
0.0
  0
SEQEND
  8
0
  6
CONTINUOUS
 62
    80
  5
598
  0
POLYLINE
  8
0
  6
CONTINUOUS
 62
    80
  5
17B
 66
     1
 10
0.0
 20
0.0
 30
0.0
  0
VERTEX
  8
0
  6
CONTINUOUS
 62
    80
  5
599
 10
361.703583
 20
24.961609
 30
0.0
  0
VERTEX
  8
0
  6
CONTINUOUS
 62
    80
  5
59A
 10
361.693945
 20
24.949807
 30
0.0
  0
VERTEX
  8
0
  6
CONTINUOUS
 62
    80
  5
59B
 10
361.684295
 20
24.938015
 30
0.0
  0
VERTEX
  8
0
  6
CONTINUOUS
 62
    80
  5
59C
 10
361.674633
 20
24.926234
 30
0.0
  0
VERTEX
  8
0
  6
CONTINUOUS
 62
    80
  5
59D
 10
361.664959
 20
24.914463
 30
0.0
  0
VERTEX
  8
0
  6
CONTINUOUS
 62
    80
  5
59E
 10
361.655273
 20
24.902702
 30
0.0
  0
VERTEX
  8
0
  6
CONTINUOUS
 62
    80
  5
59F
 10
361.645576
 20
24.890951
 30
0.0
  0
VERTEX
  8
0
  6
CONTINUOUS
 62
    80
  5
5A0
 10
361.635866
 20
24.87921
 30
0.0
  0
VERTEX
  8
0
  6
CONTINUOUS
 62
    80
  5
5A1
 10
361.626145
 20
24.867479
 30
0.0
  0
VERTEX
  8
0
  6
CONTINUOUS
 62
    80
  5
5A2
 10
361.616412
 20
24.855758
 30
0.0
  0
VERTEX
  8
0
  6
CONTINUOUS
 62
    80
  5
5A3
 10
361.606666
 20
24.844047
 30
0.0
  0
VERTEX
  8
0
  6
CONTINUOUS
 62
    80
  5
5A4
 10
361.596909
 20
24.832346
 30
0.0
  0
VERTEX
  8
0
  6
CONTINUOUS
 62
    80
  5
5A5
 10
361.58714
 20
24.820654
 30
0.0
  0
VERTEX
  8
0
  6
CONTINUOUS
 62
    80
  5
5A6
 10
361.577359
 20
24.808973
 30
0.0
  0
VERTEX
  8
0
  6
CONTINUOUS
 62
    80
  5
5A7
 10
361.567566
 20
24.797301
 30
0.0
  0
VERTEX
  8
0
  6
CONTINUOUS
 62
    80
  5
5A8
 10
361.55776
 20
24.785639
 30
0.0
  0
VERTEX
  8
0
  6
CONTINUOUS
 62
    80
  5
5A9
 10
361.547943
 20
24.773987
 30
0.0
  0
VERTEX
  8
0
  6
CONTINUOUS
 62
    80
  5
5AA
 10
361.518362
 20
24.739021
 30
0.0
  0
VERTEX
  8
0
  6
CONTINUOUS
 62
    80
  5
5AB
 10
361.488672
 20
24.704145
 30
0.0
  0
VERTEX
  8
0
  6
CONTINUOUS
 62
    80
  5
5AC
 10
361.458875
 20
24.669359
 30
0.0
  0
VERTEX
  8
0
  6
CONTINUOUS
 62
    80
  5
5AD
 10
361.428971
 20
24.634664
 30
0.0
  0
VERTEX
  8
0
  6
CONTINUOUS
 62
    80
  5
5AE
 10
361.398959
 20
24.60006
 30
0.0
  0
VERTEX
  8
0
  6
CONTINUOUS
 62
    80
  5
5AF
 10
361.368841
 20
24.565547
 30
0.0
  0
VERTEX
  8
0
  6
CONTINUOUS
 62
    80
  5
5B0
 10
361.338617
 20
24.531127
 30
0.0
  0
VERTEX
  8
0
  6
CONTINUOUS
 62
    80
  5
5B1
 10
361.308287
 20
24.496799
 30
0.0
  0
VERTEX
  8
0
  6
CONTINUOUS
 62
    80
  5
5B2
 10
361.277852
 20
24.462564
 30
0.0
  0
VERTEX
  8
0
  6
CONTINUOUS
 62
    80
  5
5B3
 10
361.247312
 20
24.428422
 30
0.0
  0
VERTEX
  8
0
  6
CONTINUOUS
 62
    80
  5
5B4
 10
361.216668
 20
24.394374
 30
0.0
  0
VERTEX
  8
0
  6
CONTINUOUS
 62
    80
  5
5B5
 10
361.185919
 20
24.36042
 30
0.0
  0
VERTEX
  8
0
  6
CONTINUOUS
 62
    80
  5
5B6
 10
361.155067
 20
24.326561
 30
0.0
  0
VERTEX
  8
0
  6
CONTINUOUS
 62
    80
  5
5B7
 10
361.124112
 20
24.292797
 30
0.0
  0
VERTEX
  8
0
  6
CONTINUOUS
 62
    80
  5
5B8
 10
361.093054
 20
24.259129
 30
0.0
  0
VERTEX
  8
0
  6
CONTINUOUS
 62
    80
  5
5B9
 10
361.061893
 20
24.225557
 30
0.0
  0
SEQEND
  8
0
  6
CONTINUOUS
 62
    80
  5
5BA
  0
POLYLINE
  8
0
  6
CONTINUOUS
 62
    80
  5
17C
 66
     1
 10
0.0
 20
0.0
 30
0.0
  0
VERTEX
  8
0
  6
CONTINUOUS
 62
    80
  5
5BB
 10
362.453583
 20
25.056091
 30
0.0
  0
VERTEX
  8
0
  6
CONTINUOUS
 62
    80
  5
5BC
 10
362.462762
 20
25.047856
 30
0.0
  0
VERTEX
  8
0
  6
CONTINUOUS
 62
    80
  5
5BD
 10
362.471945
 20
25.039626
 30
0.0
  0
VERTEX
  8
0
  6
CONTINUOUS
 62
    80
  5
5BE
 10
362.481134
 20
25.031401
 30
0.0
  0
VERTEX
  8
0
  6
CONTINUOUS
 62
    80
  5
5BF
 10
362.490326
 20
25.023181
 30
0.0
  0
VERTEX
  8
0
  6
CONTINUOUS
 62
    80
  5
5C0
 10
362.499524
 20
25.014966
 30
0.0
  0
VERTEX
  8
0
  6
CONTINUOUS
 62
    80
  5
5C1
 10
362.508725
 20
25.006756
 30
0.0
  0
VERTEX
  8
0
  6
CONTINUOUS
 62
    80
  5
5C2
 10
362.517931
 20
24.998551
 30
0.0
  0
VERTEX
  8
0
  6
CONTINUOUS
 62
    80
  5
5C3
 10
362.527142
 20
24.990351
 30
0.0
  0
VERTEX
  8
0
  6
CONTINUOUS
 62
    80
  5
5C4
 10
362.536357
 20
24.982156
 30
0.0
  0
VERTEX
  8
0
  6
CONTINUOUS
 62
    80
  5
5C5
 10
362.545576
 20
24.973966
 30
0.0
  0
VERTEX
  8
0
  6
CONTINUOUS
 62
    80
  5
5C6
 10
362.5548
 20
24.96578
 30
0.0
  0
VERTEX
  8
0
  6
CONTINUOUS
 62
    80
  5
5C7
 10
362.564028
 20
24.9576
 30
0.0
  0
VERTEX
  8
0
  6
CONTINUOUS
 62
    80
  5
5C8
 10
362.57326
 20
24.949424
 30
0.0
  0
VERTEX
  8
0
  6
CONTINUOUS
 62
    80
  5
5C9
 10
362.582497
 20
24.941254
 30
0.0
  0
VERTEX
  8
0
  6
CONTINUOUS
 62
    80
  5
5CA
 10
362.591738
 20
24.933088
 30
0.0
  0
VERTEX
  8
0
  6
CONTINUOUS
 62
    80
  5
5CB
 10
362.600983
 20
24.924927
 30
0.0
  0
VERTEX
  8
0
  6
CONTINUOUS
 62
    80
  5
5CC
 10
362.627444
 20
24.901616
 30
0.0
  0
VERTEX
  8
0
  6
CONTINUOUS
 62
    80
  5
5CD
 10
362.653941
 20
24.878346
 30
0.0
  0
VERTEX
  8
0
  6
CONTINUOUS
 62
    80
  5
5CE
 10
362.680474
 20
24.855116
 30
0.0
  0
VERTEX
  8
0
  6
CONTINUOUS
 62
    80
  5
5CF
 10
362.707043
 20
24.831927
 30
0.0
  0
VERTEX
  8
0
  6
CONTINUOUS
 62
    80
  5
5D0
 10
362.733647
 20
24.808778
 30
0.0
  0
VERTEX
  8
0
  6
CONTINUOUS
 62
    80
  5
5D1
 10
362.760287
 20
24.78567
 30
0.0
  0
VERTEX
  8
0
  6
CONTINUOUS
 62
    80
  5
5D2
 10
362.786962
 20
24.762602
 30
0.0
  0
VERTEX
  8
0
  6
CONTINUOUS
 62
    80
  5
5D3
 10
362.813673
 20
24.739575
 30
0.0
  0
VERTEX
  8
0
  6
CONTINUOUS
 62
    80
  5
5D4
 10
362.840419
 20
24.716589
 30
0.0
  0
VERTEX
  8
0
  6
CONTINUOUS
 62
    80
  5
5D5
 10
362.8672
 20
24.693644
 30
0.0
  0
VERTEX
  8
0
  6
CONTINUOUS
 62
    80
  5
5D6
 10
362.894016
 20
24.67074
 30
0.0
  0
VERTEX
  8
0
  6
CONTINUOUS
 62
    80
  5
5D7
 10
362.920867
 20
24.647877
 30
0.0
  0
VERTEX
  8
0
  6
CONTINUOUS
 62
    80
  5
5D8
 10
362.947753
 20
24.625056
 30
0.0
  0
VERTEX
  8
0
  6
CONTINUOUS
 62
    80
  5
5D9
 10
362.974674
 20
24.602276
 30
0.0
  0
VERTEX
  8
0
  6
CONTINUOUS
 62
    80
  5
5DA
 10
363.00163
 20
24.579538
 30
0.0
  0
VERTEX
  8
0
  6
CONTINUOUS
 62
    80
  5
5DB
 10
363.02862
 20
24.556841
 30
0.0
  0
SEQEND
  8
0
  6
CONTINUOUS
 62
    80
  5
5DC
  0
POLYLINE
  8
0
  6
CONTINUOUS
 62
    80
  5
17D
 66
     1
 10
0.0
 20
0.0
 30
0.0
  0
VERTEX
  8
0
  6
CONTINUOUS
 62
    80
  5
5DD
 10
362.453583
 20
25.827271
 30
0.0
  0
VERTEX
  8
0
  6
CONTINUOUS
 62
    80
  5
5DE
 10
362.455069
 20
25.825335
 30
0.0
  0
VERTEX
  8
0
  6
CONTINUOUS
 62
    80
  5
5DF
 10
362.456557
 20
25.8234
 30
0.0
  0
VERTEX
  8
0
  6
CONTINUOUS
 62
    80
  5
5E0
 10
362.458045
 20
25.821466
 30
0.0
  0
VERTEX
  8
0
  6
CONTINUOUS
 62
    80
  5
5E1
 10
362.459534
 20
25.819534
 30
0.0
  0
VERTEX
  8
0
  6
CONTINUOUS
 62
    80
  5
5E2
 10
362.461024
 20
25.817602
 30
0.0
  0
VERTEX
  8
0
  6
CONTINUOUS
 62
    80
  5
5E3
 10
362.462514
 20
25.815671
 30
0.0
  0
VERTEX
  8
0
  6
CONTINUOUS
 62
    80
  5
5E4
 10
362.464006
 20
25.813741
 30
0.0
  0
VERTEX
  8
0
  6
CONTINUOUS
 62
    80
  5
5E5
 10
362.465497
 20
25.811811
 30
0.0
  0
VERTEX
  8
0
  6
CONTINUOUS
 62
    80
  5
5E6
 10
362.46699
 20
25.809882
 30
0.0
  0
VERTEX
  8
0
  6
CONTINUOUS
 62
    80
  5
5E7
 10
362.468482
 20
25.807953
 30
0.0
  0
VERTEX
  8
0
  6
CONTINUOUS
 62
    80
  5
5E8
 10
362.469976
 20
25.806025
 30
0.0
  0
VERTEX
  8
0
  6
CONTINUOUS
 62
    80
  5
5E9
 10
362.471469
 20
25.804097
 30
0.0
  0
VERTEX
  8
0
  6
CONTINUOUS
 62
    80
  5
5EA
 10
362.472963
 20
25.802169
 30
0.0
  0
VERTEX
  8
0
  6
CONTINUOUS
 62
    80
  5
5EB
 10
362.474458
 20
25.800242
 30
0.0
  0
VERTEX
  8
0
  6
CONTINUOUS
 62
    80
  5
5EC
 10
362.475953
 20
25.798314
 30
0.0
  0
VERTEX
  8
0
  6
CONTINUOUS
 62
    80
  5
5ED
 10
362.477448
 20
25.796387
 30
0.0
  0
VERTEX
  8
0
  6
CONTINUOUS
 62
    80
  5
5EE
 10
362.523634
 20
25.737442
 30
0.0
  0
VERTEX
  8
0
  6
CONTINUOUS
 62
    80
  5
5EF
 10
362.570415
 20
25.678934
 30
0.0
  0
VERTEX
  8
0
  6
CONTINUOUS
 62
    80
  5
5F0
 10
362.617783
 20
25.620869
 30
0.0
  0
VERTEX
  8
0
  6
CONTINUOUS
 62
    80
  5
5F1
 10
362.66573
 20
25.563253
 30
0.0
  0
VERTEX
  8
0
  6
CONTINUOUS
 62
    80
  5
5F2
 10
362.714248
 20
25.506095
 30
0.0
  0
VERTEX
  8
0
  6
CONTINUOUS
 62
    80
  5
5F3
 10
362.76333
 20
25.449401
 30
0.0
  0
VERTEX
  8
0
  6
CONTINUOUS
 62
    80
  5
5F4
 10
362.812966
 20
25.393178
 30
0.0
  0
VERTEX
  8
0
  6
CONTINUOUS
 62
    80
  5
5F5
 10
362.863151
 20
25.337433
 30
0.0
  0
VERTEX
  8
0
  6
CONTINUOUS
 62
    80
  5
5F6
 10
362.913875
 20
25.282174
 30
0.0
  0
VERTEX
  8
0
  6
CONTINUOUS
 62
    80
  5
5F7
 10
362.965131
 20
25.227407
 30
0.0
  0
VERTEX
  8
0
  6
CONTINUOUS
 62
    80
  5
5F8
 10
363.016911
 20
25.173139
 30
0.0
  0
VERTEX
  8
0
  6
CONTINUOUS
 62
    80
  5
5F9
 10
363.069208
 20
25.119377
 30
0.0
  0
VERTEX
  8
0
  6
CONTINUOUS
 62
    80
  5
5FA
 10
363.122012
 20
25.066129
 30
0.0
  0
VERTEX
  8
0
  6
CONTINUOUS
 62
    80
  5
5FB
 10
363.175318
 20
25.013401
 30
0.0
  0
VERTEX
  8
0
  6
CONTINUOUS
 62
    80
  5
5FC
 10
363.229116
 20
24.9612
 30
0.0
  0
VERTEX
  8
0
  6
CONTINUOUS
 62
    80
  5
5FD
 10
363.283399
 20
24.909534
 30
0.0
  0
SEQEND
  8
0
  6
CONTINUOUS
 62
    80
  5
5FE
  0
POLYLINE
  8
0
  6
CONTINUOUS
 62
    80
  5
17E
 66
     1
 10
0.0
 20
0.0
 30
0.0
  0
VERTEX
  8
0
  6
CONTINUOUS
 62
    80
  5
5FF
 10
364.632172
 20
24.643677
 30
0.0
  0
VERTEX
  8
0
  6
CONTINUOUS
 62
    80
  5
600
 10
364.623092
 20
24.634386
 30
0.0
  0
VERTEX
  8
0
  6
CONTINUOUS
 62
    80
  5
601
 10
364.613999
 20
24.625109
 30
0.0
  0
VERTEX
  8
0
  6
CONTINUOUS
 62
    80
  5
602
 10
364.604892
 20
24.615847
 30
0.0
  0
VERTEX
  8
0
  6
CONTINUOUS
 62
    80
  5
603
 10
364.595771
 20
24.606598
 30
0.0
  0
VERTEX
  8
0
  6
CONTINUOUS
 62
    80
  5
604
 10
364.586636
 20
24.597364
 30
0.0
  0
VERTEX
  8
0
  6
CONTINUOUS
 62
    80
  5
605
 10
364.577488
 20
24.588144
 30
0.0
  0
VERTEX
  8
0
  6
CONTINUOUS
 62
    80
  5
606
 10
364.568325
 20
24.578937
 30
0.0
  0
VERTEX
  8
0
  6
CONTINUOUS
 62
    80
  5
607
 10
364.559149
 20
24.569745
 30
0.0
  0
VERTEX
  8
0
  6
CONTINUOUS
 62
    80
  5
608
 10
364.549958
 20
24.560566
 30
0.0
  0
VERTEX
  8
0
  6
CONTINUOUS
 62
    80
  5
609
 10
364.540754
 20
24.551402
 30
0.0
  0
VERTEX
  8
0
  6
CONTINUOUS
 62
    80
  5
60A
 10
364.531535
 20
24.542251
 30
0.0
  0
VERTEX
  8
0
  6
CONTINUOUS
 62
    80
  5
60B
 10
364.522303
 20
24.533114
 30
0.0
  0
VERTEX
  8
0
  6
CONTINUOUS
 62
    80
  5
60C
 10
364.513056
 20
24.523991
 30
0.0
  0
VERTEX
  8
0
  6
CONTINUOUS
 62
    80
  5
60D
 10
364.503795
 20
24.514882
 30
0.0
  0
VERTEX
  8
0
  6
CONTINUOUS
 62
    80
  5
60E
 10
364.494519
 20
24.505786
 30
0.0
  0
VERTEX
  8
0
  6
CONTINUOUS
 62
    80
  5
60F
 10
364.485229
 20
24.496704
 30
0.0
  0
VERTEX
  8
0
  6
CONTINUOUS
 62
    80
  5
610
 10
364.433011
 20
24.446166
 30
0.0
  0
VERTEX
  8
0
  6
CONTINUOUS
 62
    80
  5
611
 10
364.380352
 20
24.396066
 30
0.0
  0
VERTEX
  8
0
  6
CONTINUOUS
 62
    80
  5
612
 10
364.327257
 20
24.346408
 30
0.0
  0
VERTEX
  8
0
  6
CONTINUOUS
 62
    80
  5
613
 10
364.273732
 20
24.297197
 30
0.0
  0
VERTEX
  8
0
  6
CONTINUOUS
 62
    80
  5
614
 10
364.219785
 20
24.248436
 30
0.0
  0
VERTEX
  8
0
  6
CONTINUOUS
 62
    80
  5
615
 10
364.16542
 20
24.20013
 30
0.0
  0
VERTEX
  8
0
  6
CONTINUOUS
 62
    80
  5
616
 10
364.110645
 20
24.152283
 30
0.0
  0
VERTEX
  8
0
  6
CONTINUOUS
 62
    80
  5
617
 10
364.055464
 20
24.104901
 30
0.0
  0
VERTEX
  8
0
  6
CONTINUOUS
 62
    80
  5
618
 10
363.999885
 20
24.057986
 30
0.0
  0
VERTEX
  8
0
  6
CONTINUOUS
 62
    80
  5
619
 10
363.943914
 20
24.011544
 30
0.0
  0
VERTEX
  8
0
  6
CONTINUOUS
 62
    80
  5
61A
 10
363.887555
 20
23.965579
 30
0.0
  0
VERTEX
  8
0
  6
CONTINUOUS
 62
    80
  5
61B
 10
363.830817
 20
23.920095
 30
0.0
  0
VERTEX
  8
0
  6
CONTINUOUS
 62
    80
  5
61C
 10
363.773704
 20
23.875096
 30
0.0
  0
VERTEX
  8
0
  6
CONTINUOUS
 62
    80
  5
61D
 10
363.716223
 20
23.830588
 30
0.0
  0
VERTEX
  8
0
  6
CONTINUOUS
 62
    80
  5
61E
 10
363.65838
 20
23.786573
 30
0.0
  0
VERTEX
  8
0
  6
CONTINUOUS
 62
    80
  5
61F
 10
363.600181
 20
23.743058
 30
0.0
  0
SEQEND
  8
0
  6
CONTINUOUS
 62
    80
  5
620
  0
POLYLINE
  8
0
  6
CONTINUOUS
 62
    80
  5
17F
 66
     1
 10
0.0
 20
0.0
 30
0.0
  0
VERTEX
  8
0
  6
CONTINUOUS
 62
    80
  5
621
 10
373.289538
 20
25.906122
 30
0.0
  0
VERTEX
  8
0
  6
CONTINUOUS
 62
    80
  5
622
 10
373.462193
 20
25.958884
 30
0.0
  0
VERTEX
  8
0
  6
CONTINUOUS
 62
    80
  5
623
 10
373.634718
 20
26.012051
 30
0.0
  0
VERTEX
  8
0
  6
CONTINUOUS
 62
    80
  5
624
 10
373.807114
 20
26.065626
 30
0.0
  0
VERTEX
  8
0
  6
CONTINUOUS
 62
    80
  5
625
 10
373.979382
 20
26.119607
 30
0.0
  0
VERTEX
  8
0
  6
CONTINUOUS
 62
    80
  5
626
 10
374.151522
 20
26.173996
 30
0.0
  0
VERTEX
  8
0
  6
CONTINUOUS
 62
    80
  5
627
 10
374.323534
 20
26.228791
 30
0.0
  0
VERTEX
  8
0
  6
CONTINUOUS
 62
    80
  5
628
 10
374.495419
 20
26.283994
 30
0.0
  0
VERTEX
  8
0
  6
CONTINUOUS
 62
    80
  5
629
 10
374.667179
 20
26.339605
 30
0.0
  0
VERTEX
  8
0
  6
CONTINUOUS
 62
    80
  5
62A
 10
374.838812
 20
26.395623
 30
0.0
  0
VERTEX
  8
0
  6
CONTINUOUS
 62
    80
  5
62B
 10
375.010321
 20
26.45205
 30
0.0
  0
VERTEX
  8
0
  6
CONTINUOUS
 62
    80
  5
62C
 10
375.181704
 20
26.508885
 30
0.0
  0
VERTEX
  8
0
  6
CONTINUOUS
 62
    80
  5
62D
 10
375.352964
 20
26.566129
 30
0.0
  0
VERTEX
  8
0
  6
CONTINUOUS
 62
    80
  5
62E
 10
375.5241
 20
26.623782
 30
0.0
  0
VERTEX
  8
0
  6
CONTINUOUS
 62
    80
  5
62F
 10
375.695114
 20
26.681843
 30
0.0
  0
VERTEX
  8
0
  6
CONTINUOUS
 62
    80
  5
630
 10
375.866005
 20
26.740314
 30
0.0
  0
VERTEX
  8
0
  6
CONTINUOUS
 62
    80
  5
631
 10
376.036774
 20
26.799194
 30
0.0
  0
VERTEX
  8
0
  6
CONTINUOUS
 62
    80
  5
632
 10
376.038495
 20
26.79979
 30
0.0
  0
VERTEX
  8
0
  6
CONTINUOUS
 62
    80
  5
633
 10
376.040216
 20
26.800385
 30
0.0
  0
VERTEX
  8
0
  6
CONTINUOUS
 62
    80
  5
634
 10
376.041936
 20
26.80098
 30
0.0
  0
VERTEX
  8
0
  6
CONTINUOUS
 62
    80
  5
635
 10
376.043657
 20
26.801575
 30
0.0
  0
VERTEX
  8
0
  6
CONTINUOUS
 62
    80
  5
636
 10
376.045377
 20
26.80217
 30
0.0
  0
VERTEX
  8
0
  6
CONTINUOUS
 62
    80
  5
637
 10
376.047097
 20
26.802765
 30
0.0
  0
VERTEX
  8
0
  6
CONTINUOUS
 62
    80
  5
638
 10
376.048817
 20
26.803359
 30
0.0
  0
VERTEX
  8
0
  6
CONTINUOUS
 62
    80
  5
639
 10
376.050538
 20
26.803954
 30
0.0
  0
VERTEX
  8
0
  6
CONTINUOUS
 62
    80
  5
63A
 10
376.052258
 20
26.804548
 30
0.0
  0
VERTEX
  8
0
  6
CONTINUOUS
 62
    80
  5
63B
 10
376.053978
 20
26.805143
 30
0.0
  0
VERTEX
  8
0
  6
CONTINUOUS
 62
    80
  5
63C
 10
376.055698
 20
26.805738
 30
0.0
  0
VERTEX
  8
0
  6
CONTINUOUS
 62
    80
  5
63D
 10
376.057418
 20
26.806333
 30
0.0
  0
VERTEX
  8
0
  6
CONTINUOUS
 62
    80
  5
63E
 10
376.059138
 20
26.806928
 30
0.0
  0
VERTEX
  8
0
  6
CONTINUOUS
 62
    80
  5
63F
 10
376.060859
 20
26.807524
 30
0.0
  0
VERTEX
  8
0
  6
CONTINUOUS
 62
    80
  5
640
 10
376.06258
 20
26.80812
 30
0.0
  0
VERTEX
  8
0
  6
CONTINUOUS
 62
    80
  5
641
 10
376.064301
 20
26.808716
 30
0.0
  0
SEQEND
  8
0
  6
CONTINUOUS
 62
    80
  5
642
  0
POLYLINE
  8
0
  6
CONTINUOUS
 62
    80
  5
180
 66
     1
 10
0.0
 20
0.0
 30
0.0
  0
VERTEX
  8
0
  6
CONTINUOUS
 62
    80
  5
643
 10
376.064301
 20
26.808716
 30
0.0
  0
VERTEX
  8
0
  6
CONTINUOUS
 62
    80
  5
644
 10
376.066021
 20
26.80812
 30
0.0
  0
VERTEX
  8
0
  6
CONTINUOUS
 62
    80
  5
645
 10
376.067742
 20
26.807524
 30
0.0
  0
VERTEX
  8
0
  6
CONTINUOUS
 62
    80
  5
646
 10
376.069462
 20
26.806928
 30
0.0
  0
VERTEX
  8
0
  6
CONTINUOUS
 62
    80
  5
647
 10
376.071183
 20
26.806333
 30
0.0
  0
VERTEX
  8
0
  6
CONTINUOUS
 62
    80
  5
648
 10
376.072903
 20
26.805738
 30
0.0
  0
VERTEX
  8
0
  6
CONTINUOUS
 62
    80
  5
649
 10
376.074624
 20
26.805143
 30
0.0
  0
VERTEX
  8
0
  6
CONTINUOUS
 62
    80
  5
64A
 10
376.076344
 20
26.804548
 30
0.0
  0
VERTEX
  8
0
  6
CONTINUOUS
 62
    80
  5
64B
 10
376.078065
 20
26.803953
 30
0.0
  0
VERTEX
  8
0
  6
CONTINUOUS
 62
    80
  5
64C
 10
376.079785
 20
26.803359
 30
0.0
  0
VERTEX
  8
0
  6
CONTINUOUS
 62
    80
  5
64D
 10
376.081505
 20
26.802764
 30
0.0
  0
VERTEX
  8
0
  6
CONTINUOUS
 62
    80
  5
64E
 10
376.083226
 20
26.802169
 30
0.0
  0
VERTEX
  8
0
  6
CONTINUOUS
 62
    80
  5
64F
 10
376.084946
 20
26.801575
 30
0.0
  0
VERTEX
  8
0
  6
CONTINUOUS
 62
    80
  5
650
 10
376.086666
 20
26.80098
 30
0.0
  0
VERTEX
  8
0
  6
CONTINUOUS
 62
    80
  5
651
 10
376.088387
 20
26.800385
 30
0.0
  0
VERTEX
  8
0
  6
CONTINUOUS
 62
    80
  5
652
 10
376.090107
 20
26.79979
 30
0.0
  0
VERTEX
  8
0
  6
CONTINUOUS
 62
    80
  5
653
 10
376.091827
 20
26.799194
 30
0.0
  0
VERTEX
  8
0
  6
CONTINUOUS
 62
    80
  5
654
 10
376.262522
 20
26.740326
 30
0.0
  0
VERTEX
  8
0
  6
CONTINUOUS
 62
    80
  5
655
 10
376.433359
 20
26.681861
 30
0.0
  0
VERTEX
  8
0
  6
CONTINUOUS
 62
    80
  5
656
 10
376.604337
 20
26.623801
 30
0.0
  0
VERTEX
  8
0
  6
CONTINUOUS
 62
    80
  5
657
 10
376.775456
 20
26.566146
 30
0.0
  0
VERTEX
  8
0
  6
CONTINUOUS
 62
    80
  5
658
 10
376.946712
 20
26.508896
 30
0.0
  0
VERTEX
  8
0
  6
CONTINUOUS
 62
    80
  5
659
 10
377.118106
 20
26.452053
 30
0.0
  0
VERTEX
  8
0
  6
CONTINUOUS
 62
    80
  5
65A
 10
377.289635
 20
26.395616
 30
0.0
  0
VERTEX
  8
0
  6
CONTINUOUS
 62
    80
  5
65B
 10
377.461299
 20
26.339586
 30
0.0
  0
VERTEX
  8
0
  6
CONTINUOUS
 62
    80
  5
65C
 10
377.633094
 20
26.283963
 30
0.0
  0
VERTEX
  8
0
  6
CONTINUOUS
 62
    80
  5
65D
 10
377.805021
 20
26.228748
 30
0.0
  0
VERTEX
  8
0
  6
CONTINUOUS
 62
    80
  5
65E
 10
377.977078
 20
26.173942
 30
0.0
  0
VERTEX
  8
0
  6
CONTINUOUS
 62
    80
  5
65F
 10
378.149263
 20
26.119544
 30
0.0
  0
VERTEX
  8
0
  6
CONTINUOUS
 62
    80
  5
660
 10
378.321575
 20
26.065556
 30
0.0
  0
VERTEX
  8
0
  6
CONTINUOUS
 62
    80
  5
661
 10
378.494012
 20
26.011978
 30
0.0
  0
VERTEX
  8
0
  6
CONTINUOUS
 62
    80
  5
662
 10
378.666574
 20
25.95881
 30
0.0
  0
VERTEX
  8
0
  6
CONTINUOUS
 62
    80
  5
663
 10
378.839257
 20
25.906053
 30
0.0
  0
SEQEND
  8
0
  6
CONTINUOUS
 62
    80
  5
664
  0
POLYLINE
  8
0
  6
CONTINUOUS
 62
    80
  5
181
 66
     1
 10
0.0
 20
0.0
 30
0.0
  0
VERTEX
  8
0
  6
CONTINUOUS
 62
    80
  5
665
 10
374.345764
 20
24.875
 30
0.0
  0
VERTEX
  8
0
  6
CONTINUOUS
 62
    80
  5
666
 10
374.285328
 20
24.794634
 30
0.0
  0
VERTEX
  8
0
  6
CONTINUOUS
 62
    80
  5
667
 10
374.224892
 20
24.714268
 30
0.0
  0
VERTEX
  8
0
  6
CONTINUOUS
 62
    80
  5
668
 10
374.164456
 20
24.633901
 30
0.0
  0
VERTEX
  8
0
  6
CONTINUOUS
 62
    80
  5
669
 10
374.104019
 20
24.553533
 30
0.0
  0
VERTEX
  8
0
  6
CONTINUOUS
 62
    80
  5
66A
 10
374.043583
 20
24.473164
 30
0.0
  0
VERTEX
  8
0
  6
CONTINUOUS
 62
    80
  5
66B
 10
373.983146
 20
24.392795
 30
0.0
  0
VERTEX
  8
0
  6
CONTINUOUS
 62
    80
  5
66C
 10
373.922709
 20
24.312426
 30
0.0
  0
VERTEX
  8
0
  6
CONTINUOUS
 62
    80
  5
66D
 10
373.862272
 20
24.232056
 30
0.0
  0
VERTEX
  8
0
  6
CONTINUOUS
 62
    80
  5
66E
 10
373.801836
 20
24.151686
 30
0.0
  0
VERTEX
  8
0
  6
CONTINUOUS
 62
    80
  5
66F
 10
373.741399
 20
24.071317
 30
0.0
  0
VERTEX
  8
0
  6
CONTINUOUS
 62
    80
  5
670
 10
373.680962
 20
23.990947
 30
0.0
  0
VERTEX
  8
0
  6
CONTINUOUS
 62
    80
  5
671
 10
373.620525
 20
23.910578
 30
0.0
  0
VERTEX
  8
0
  6
CONTINUOUS
 62
    80
  5
672
 10
373.560088
 20
23.830209
 30
0.0
  0
VERTEX
  8
0
  6
CONTINUOUS
 62
    80
  5
673
 10
373.499652
 20
23.74984
 30
0.0
  0
VERTEX
  8
0
  6
CONTINUOUS
 62
    80
  5
674
 10
373.439215
 20
23.669473
 30
0.0
  0
VERTEX
  8
0
  6
CONTINUOUS
 62
    80
  5
675
 10
373.378779
 20
23.589105
 30
0.0
  0
SEQEND
  8
0
  6
CONTINUOUS
 62
    80
  5
676
  0
POLYLINE
  8
0
  6
CONTINUOUS
 62
    80
  5
182
 66
     1
 10
0.0
 20
0.0
 30
0.0
  0
VERTEX
  8
0
  6
CONTINUOUS
 62
    80
  5
677
 10
377.772552
 20
24.875
 30
0.0
  0
VERTEX
  8
0
  6
CONTINUOUS
 62
    80
  5
678
 10
377.833569
 20
24.794634
 30
0.0
  0
VERTEX
  8
0
  6
CONTINUOUS
 62
    80
  5
679
 10
377.894585
 20
24.714268
 30
0.0
  0
VERTEX
  8
0
  6
CONTINUOUS
 62
    80
  5
67A
 10
377.955602
 20
24.633901
 30
0.0
  0
VERTEX
  8
0
  6
CONTINUOUS
 62
    80
  5
67B
 10
378.016618
 20
24.553533
 30
0.0
  0
VERTEX
  8
0
  6
CONTINUOUS
 62
    80
  5
67C
 10
378.077634
 20
24.473164
 30
0.0
  0
VERTEX
  8
0
  6
CONTINUOUS
 62
    80
  5
67D
 10
378.13865
 20
24.392795
 30
0.0
  0
VERTEX
  8
0
  6
CONTINUOUS
 62
    80
  5
67E
 10
378.199667
 20
24.312426
 30
0.0
  0
VERTEX
  8
0
  6
CONTINUOUS
 62
    80
  5
67F
 10
378.260683
 20
24.232056
 30
0.0
  0
VERTEX
  8
0
  6
CONTINUOUS
 62
    80
  5
680
 10
378.321699
 20
24.151686
 30
0.0
  0
VERTEX
  8
0
  6
CONTINUOUS
 62
    80
  5
681
 10
378.382715
 20
24.071317
 30
0.0
  0
VERTEX
  8
0
  6
CONTINUOUS
 62
    80
  5
682
 10
378.443731
 20
23.990947
 30
0.0
  0
VERTEX
  8
0
  6
CONTINUOUS
 62
    80
  5
683
 10
378.504747
 20
23.910578
 30
0.0
  0
VERTEX
  8
0
  6
CONTINUOUS
 62
    80
  5
684
 10
378.565764
 20
23.830209
 30
0.0
  0
VERTEX
  8
0
  6
CONTINUOUS
 62
    80
  5
685
 10
378.62678
 20
23.74984
 30
0.0
  0
VERTEX
  8
0
  6
CONTINUOUS
 62
    80
  5
686
 10
378.687796
 20
23.669473
 30
0.0
  0
VERTEX
  8
0
  6
CONTINUOUS
 62
    80
  5
687
 10
378.748812
 20
23.589105
 30
0.0
  0
SEQEND
  8
0
  6
CONTINUOUS
 62
    80
  5
688
  0
POLYLINE
  8
0
  6
CONTINUOUS
 62
    80
  5
183
 66
     1
 10
0.0
 20
0.0
 30
0.0
  0
VERTEX
  8
0
  6
CONTINUOUS
 62
    80
  5
689
 10
375.354767
 20
24.875
 30
0.0
  0
VERTEX
  8
0
  6
CONTINUOUS
 62
    80
  5
68A
 10
375.322247
 20
24.814732
 30
0.0
  0
VERTEX
  8
0
  6
CONTINUOUS
 62
    80
  5
68B
 10
375.289727
 20
24.754464
 30
0.0
  0
VERTEX
  8
0
  6
CONTINUOUS
 62
    80
  5
68C
 10
375.257207
 20
24.694196
 30
0.0
  0
VERTEX
  8
0
  6
CONTINUOUS
 62
    80
  5
68D
 10
375.224687
 20
24.633927
 30
0.0
  0
VERTEX
  8
0
  6
CONTINUOUS
 62
    80
  5
68E
 10
375.192166
 20
24.573659
 30
0.0
  0
VERTEX
  8
0
  6
CONTINUOUS
 62
    80
  5
68F
 10
375.159646
 20
24.51339
 30
0.0
  0
VERTEX
  8
0
  6
CONTINUOUS
 62
    80
  5
690
 10
375.127125
 20
24.453121
 30
0.0
  0
VERTEX
  8
0
  6
CONTINUOUS
 62
    80
  5
691
 10
375.094604
 20
24.392853
 30
0.0
  0
VERTEX
  8
0
  6
CONTINUOUS
 62
    80
  5
692
 10
375.062084
 20
24.332584
 30
0.0
  0
VERTEX
  8
0
  6
CONTINUOUS
 62
    80
  5
693
 10
375.029563
 20
24.272315
 30
0.0
  0
VERTEX
  8
0
  6
CONTINUOUS
 62
    80
  5
694
 10
374.997043
 20
24.212047
 30
0.0
  0
VERTEX
  8
0
  6
CONTINUOUS
 62
    80
  5
695
 10
374.964522
 20
24.151778
 30
0.0
  0
VERTEX
  8
0
  6
CONTINUOUS
 62
    80
  5
696
 10
374.932002
 20
24.09151
 30
0.0
  0
VERTEX
  8
0
  6
CONTINUOUS
 62
    80
  5
697
 10
374.899482
 20
24.031242
 30
0.0
  0
VERTEX
  8
0
  6
CONTINUOUS
 62
    80
  5
698
 10
374.866962
 20
23.970974
 30
0.0
  0
VERTEX
  8
0
  6
CONTINUOUS
 62
    80
  5
699
 10
374.834442
 20
23.910706
 30
0.0
  0
SEQEND
  8
0
  6
CONTINUOUS
 62
    80
  5
69A
  0
POLYLINE
  8
0
  6
CONTINUOUS
 62
    80
  5
184
 66
     1
 10
0.0
 20
0.0
 30
0.0
  0
VERTEX
  8
0
  6
CONTINUOUS
 62
    80
  5
69B
 10
376.772064
 20
24.875
 30
0.0
  0
VERTEX
  8
0
  6
CONTINUOUS
 62
    80
  5
69C
 10
376.804584
 20
24.814732
 30
0.0
  0
VERTEX
  8
0
  6
CONTINUOUS
 62
    80
  5
69D
 10
376.837104
 20
24.754464
 30
0.0
  0
VERTEX
  8
0
  6
CONTINUOUS
 62
    80
  5
69E
 10
376.869624
 20
24.694196
 30
0.0
  0
VERTEX
  8
0
  6
CONTINUOUS
 62
    80
  5
69F
 10
376.902144
 20
24.633927
 30
0.0
  0
VERTEX
  8
0
  6
CONTINUOUS
 62
    80
  5
6A0
 10
376.934665
 20
24.573659
 30
0.0
  0
VERTEX
  8
0
  6
CONTINUOUS
 62
    80
  5
6A1
 10
376.967185
 20
24.51339
 30
0.0
  0
VERTEX
  8
0
  6
CONTINUOUS
 62
    80
  5
6A2
 10
376.999706
 20
24.453121
 30
0.0
  0
VERTEX
  8
0
  6
CONTINUOUS
 62
    80
  5
6A3
 10
377.032227
 20
24.392853
 30
0.0
  0
VERTEX
  8
0
  6
CONTINUOUS
 62
    80
  5
6A4
 10
377.064747
 20
24.332584
 30
0.0
  0
VERTEX
  8
0
  6
CONTINUOUS
 62
    80
  5
6A5
 10
377.097268
 20
24.272315
 30
0.0
  0
VERTEX
  8
0
  6
CONTINUOUS
 62
    80
  5
6A6
 10
377.129788
 20
24.212047
 30
0.0
  0
VERTEX
  8
0
  6
CONTINUOUS
 62
    80
  5
6A7
 10
377.162309
 20
24.151778
 30
0.0
  0
VERTEX
  8
0
  6
CONTINUOUS
 62
    80
  5
6A8
 10
377.194829
 20
24.09151
 30
0.0
  0
VERTEX
  8
0
  6
CONTINUOUS
 62
    80
  5
6A9
 10
377.227349
 20
24.031242
 30
0.0
  0
VERTEX
  8
0
  6
CONTINUOUS
 62
    80
  5
6AA
 10
377.259869
 20
23.970974
 30
0.0
  0
VERTEX
  8
0
  6
CONTINUOUS
 62
    80
  5
6AB
 10
377.292389
 20
23.910706
 30
0.0
  0
SEQEND
  8
0
  6
CONTINUOUS
 62
    80
  5
6AC
  0
POLYLINE
  8
0
  6
CONTINUOUS
 62
    80
  5
185
 66
     1
 10
0.0
 20
0.0
 30
0.0
  0
VERTEX
  8
0
  6
CONTINUOUS
 62
    80
  5
6AD
 10
380.389313
 20
24.804688
 30
0.0
  0
VERTEX
  8
0
  6
CONTINUOUS
 62
    80
  5
6AE
 10
380.380905
 20
24.799347
 30
0.0
  0
VERTEX
  8
0
  6
CONTINUOUS
 62
    80
  5
6AF
 10
380.372495
 20
24.794011
 30
0.0
  0
VERTEX
  8
0
  6
CONTINUOUS
 62
    80
  5
6B0
 10
380.364082
 20
24.788679
 30
0.0
  0
VERTEX
  8
0
  6
CONTINUOUS
 62
    80
  5
6B1
 10
380.355667
 20
24.78335
 30
0.0
  0
VERTEX
  8
0
  6
CONTINUOUS
 62
    80
  5
6B2
 10
380.347249
 20
24.778025
 30
0.0
  0
VERTEX
  8
0
  6
CONTINUOUS
 62
    80
  5
6B3
 10
380.338829
 20
24.772703
 30
0.0
  0
VERTEX
  8
0
  6
CONTINUOUS
 62
    80
  5
6B4
 10
380.330407
 20
24.767385
 30
0.0
  0
VERTEX
  8
0
  6
CONTINUOUS
 62
    80
  5
6B5
 10
380.321983
 20
24.76207
 30
0.0
  0
VERTEX
  8
0
  6
CONTINUOUS
 62
    80
  5
6B6
 10
380.313557
 20
24.756759
 30
0.0
  0
VERTEX
  8
0
  6
CONTINUOUS
 62
    80
  5
6B7
 10
380.305128
 20
24.75145
 30
0.0
  0
VERTEX
  8
0
  6
CONTINUOUS
 62
    80
  5
6B8
 10
380.296698
 20
24.746145
 30
0.0
  0
VERTEX
  8
0
  6
CONTINUOUS
 62
    80
  5
6B9
 10
380.288265
 20
24.740843
 30
0.0
  0
VERTEX
  8
0
  6
CONTINUOUS
 62
    80
  5
6BA
 10
380.279831
 20
24.735545
 30
0.0
  0
VERTEX
  8
0
  6
CONTINUOUS
 62
    80
  5
6BB
 10
380.271395
 20
24.730249
 30
0.0
  0
VERTEX
  8
0
  6
CONTINUOUS
 62
    80
  5
6BC
 10
380.262957
 20
24.724956
 30
0.0
  0
VERTEX
  8
0
  6
CONTINUOUS
 62
    80
  5
6BD
 10
380.254517
 20
24.719666
 30
0.0
  0
VERTEX
  8
0
  6
CONTINUOUS
 62
    80
  5
6BE
 10
380.195806
 20
24.682992
 30
0.0
  0
VERTEX
  8
0
  6
CONTINUOUS
 62
    80
  5
6BF
 10
380.136993
 20
24.646478
 30
0.0
  0
VERTEX
  8
0
  6
CONTINUOUS
 62
    80
  5
6C0
 10
380.078078
 20
24.610126
 30
0.0
  0
VERTEX
  8
0
  6
CONTINUOUS
 62
    80
  5
6C1
 10
380.019062
 20
24.573936
 30
0.0
  0
VERTEX
  8
0
  6
CONTINUOUS
 62
    80
  5
6C2
 10
379.959946
 20
24.537908
 30
0.0
  0
VERTEX
  8
0
  6
CONTINUOUS
 62
    80
  5
6C3
 10
379.90073
 20
24.502042
 30
0.0
  0
VERTEX
  8
0
  6
CONTINUOUS
 62
    80
  5
6C4
 10
379.841415
 20
24.466339
 30
0.0
  0
VERTEX
  8
0
  6
CONTINUOUS
 62
    80
  5
6C5
 10
379.782002
 20
24.430799
 30
0.0
  0
VERTEX
  8
0
  6
CONTINUOUS
 62
    80
  5
6C6
 10
379.722491
 20
24.395423
 30
0.0
  0
VERTEX
  8
0
  6
CONTINUOUS
 62
    80
  5
6C7
 10
379.662882
 20
24.360212
 30
0.0
  0
VERTEX
  8
0
  6
CONTINUOUS
 62
    80
  5
6C8
 10
379.603177
 20
24.325165
 30
0.0
  0
VERTEX
  8
0
  6
CONTINUOUS
 62
    80
  5
6C9
 10
379.543376
 20
24.290283
 30
0.0
  0
VERTEX
  8
0
  6
CONTINUOUS
 62
    80
  5
6CA
 10
379.483479
 20
24.255566
 30
0.0
  0
VERTEX
  8
0
  6
CONTINUOUS
 62
    80
  5
6CB
 10
379.423488
 20
24.221015
 30
0.0
  0
VERTEX
  8
0
  6
CONTINUOUS
 62
    80
  5
6CC
 10
379.363403
 20
24.186631
 30
0.0
  0
VERTEX
  8
0
  6
CONTINUOUS
 62
    80
  5
6CD
 10
379.303225
 20
24.152413
 30
0.0
  0
SEQEND
  8
0
  6
CONTINUOUS
 62
    80
  5
6CE
  0
POLYLINE
  8
0
  6
CONTINUOUS
 62
    80
  5
186
 66
     1
 10
0.0
 20
0.0
 30
0.0
  0
VERTEX
  8
0
  6
CONTINUOUS
 62
    80
  5
6CF
 10
356.082397
 20
25.071411
 30
0.0
  0
VERTEX
  8
0
  6
CONTINUOUS
 62
    80
  5
6D0
 10
356.076018
 20
25.058283
 30
0.0
  0
VERTEX
  8
0
  6
CONTINUOUS
 62
    80
  5
6D1
 10
356.069536
 20
25.045194
 30
0.0
  0
VERTEX
  8
0
  6
CONTINUOUS
 62
    80
  5
6D2
 10
356.062949
 20
25.032149
 30
0.0
  0
VERTEX
  8
0
  6
CONTINUOUS
 62
    80
  5
6D3
 10
356.056253
 20
25.019152
 30
0.0
  0
VERTEX
  8
0
  6
CONTINUOUS
 62
    80
  5
6D4
 10
356.049446
 20
25.00621
 30
0.0
  0
VERTEX
  8
0
  6
CONTINUOUS
 62
    80
  5
6D5
 10
356.042525
 20
24.993326
 30
0.0
  0
VERTEX
  8
0
  6
CONTINUOUS
 62
    80
  5
6D6
 10
356.035487
 20
24.980506
 30
0.0
  0
VERTEX
  8
0
  6
CONTINUOUS
 62
    80
  5
6D7
 10
356.028329
 20
24.967754
 30
0.0
  0
VERTEX
  8
0
  6
CONTINUOUS
 62
    80
  5
6D8
 10
356.021048
 20
24.955077
 30
0.0
  0
VERTEX
  8
0
  6
CONTINUOUS
 62
    80
  5
6D9
 10
356.013642
 20
24.942479
 30
0.0
  0
VERTEX
  8
0
  6
CONTINUOUS
 62
    80
  5
6DA
 10
356.006107
 20
24.929966
 30
0.0
  0
VERTEX
  8
0
  6
CONTINUOUS
 62
    80
  5
6DB
 10
355.99844
 20
24.917541
 30
0.0
  0
VERTEX
  8
0
  6
CONTINUOUS
 62
    80
  5
6DC
 10
355.990639
 20
24.90521
 30
0.0
  0
VERTEX
  8
0
  6
CONTINUOUS
 62
    80
  5
6DD
 10
355.9827
 20
24.892979
 30
0.0
  0
VERTEX
  8
0
  6
CONTINUOUS
 62
    80
  5
6DE
 10
355.974622
 20
24.880853
 30
0.0
  0
VERTEX
  8
0
  6
CONTINUOUS
 62
    80
  5
6DF
 10
355.9664
 20
24.868835
 30
0.0
  0
VERTEX
  8
0
  6
CONTINUOUS
 62
    80
  5
6E0
 10
355.944033
 20
24.837687
 30
0.0
  0
VERTEX
  8
0
  6
CONTINUOUS
 62
    80
  5
6E1
 10
355.920716
 20
24.807287
 30
0.0
  0
VERTEX
  8
0
  6
CONTINUOUS
 62
    80
  5
6E2
 10
355.896513
 20
24.777589
 30
0.0
  0
VERTEX
  8
0
  6
CONTINUOUS
 62
    80
  5
6E3
 10
355.871492
 20
24.748543
 30
0.0
  0
VERTEX
  8
0
  6
CONTINUOUS
 62
    80
  5
6E4
 10
355.845716
 20
24.720103
 30
0.0
  0
VERTEX
  8
0
  6
CONTINUOUS
 62
    80
  5
6E5
 10
355.819252
 20
24.692221
 30
0.0
  0
VERTEX
  8
0
  6
CONTINUOUS
 62
    80
  5
6E6
 10
355.792166
 20
24.664849
 30
0.0
  0
VERTEX
  8
0
  6
CONTINUOUS
 62
    80
  5
6E7
 10
355.764521
 20
24.637939
 30
0.0
  0
VERTEX
  8
0
  6
CONTINUOUS
 62
    80
  5
6E8
 10
355.736385
 20
24.611445
 30
0.0
  0
VERTEX
  8
0
  6
CONTINUOUS
 62
    80
  5
6E9
 10
355.707823
 20
24.585317
 30
0.0
  0
VERTEX
  8
0
  6
CONTINUOUS
 62
    80
  5
6EA
 10
355.678899
 20
24.559509
 30
0.0
  0
VERTEX
  8
0
  6
CONTINUOUS
 62
    80
  5
6EB
 10
355.64968
 20
24.533973
 30
0.0
  0
VERTEX
  8
0
  6
CONTINUOUS
 62
    80
  5
6EC
 10
355.620231
 20
24.508661
 30
0.0
  0
VERTEX
  8
0
  6
CONTINUOUS
 62
    80
  5
6ED
 10
355.590618
 20
24.483526
 30
0.0
  0
VERTEX
  8
0
  6
CONTINUOUS
 62
    80
  5
6EE
 10
355.560905
 20
24.458519
 30
0.0
  0
VERTEX
  8
0
  6
CONTINUOUS
 62
    80
  5
6EF
 10
355.531158
 20
24.433594
 30
0.0
  0
VERTEX
  8
0
  6
CONTINUOUS
 62
    80
  5
6F0
 10
355.493528
 20
24.402101
 30
0.0
  0
VERTEX
  8
0
  6
CONTINUOUS
 62
    80
  5
6F1
 10
355.455923
 20
24.370686
 30
0.0
  0
VERTEX
  8
0
  6
CONTINUOUS
 62
    80
  5
6F2
 10
355.418319
 20
24.339373
 30
0.0
  0
VERTEX
  8
0
  6
CONTINUOUS
 62
    80
  5
6F3
 10
355.380689
 20
24.308187
 30
0.0
  0
VERTEX
  8
0
  6
CONTINUOUS
 62
    80
  5
6F4
 10
355.343008
 20
24.277152
 30
0.0
  0
VERTEX
  8
0
  6
CONTINUOUS
 62
    80
  5
6F5
 10
355.305251
 20
24.246291
 30
0.0
  0
VERTEX
  8
0
  6
CONTINUOUS
 62
    80
  5
6F6
 10
355.267392
 20
24.21563
 30
0.0
  0
VERTEX
  8
0
  6
CONTINUOUS
 62
    80
  5
6F7
 10
355.229406
 20
24.185192
 30
0.0
  0
VERTEX
  8
0
  6
CONTINUOUS
 62
    80
  5
6F8
 10
355.191267
 20
24.155002
 30
0.0
  0
VERTEX
  8
0
  6
CONTINUOUS
 62
    80
  5
6F9
 10
355.15295
 20
24.125084
 30
0.0
  0
VERTEX
  8
0
  6
CONTINUOUS
 62
    80
  5
6FA
 10
355.11443
 20
24.095463
 30
0.0
  0
VERTEX
  8
0
  6
CONTINUOUS
 62
    80
  5
6FB
 10
355.07568
 20
24.066162
 30
0.0
  0
VERTEX
  8
0
  6
CONTINUOUS
 62
    80
  5
6FC
 10
355.036676
 20
24.037206
 30
0.0
  0
VERTEX
  8
0
  6
CONTINUOUS
 62
    80
  5
6FD
 10
354.997391
 20
24.008619
 30
0.0
  0
VERTEX
  8
0
  6
CONTINUOUS
 62
    80
  5
6FE
 10
354.957801
 20
23.980426
 30
0.0
  0
VERTEX
  8
0
  6
CONTINUOUS
 62
    80
  5
6FF
 10
354.91788
 20
23.95265
 30
0.0
  0
SEQEND
  8
0
  6
CONTINUOUS
 62
    80
  5
700
  0
POLYLINE
  8
0
  6
CONTINUOUS
 62
    80
  5
187
 66
     1
 10
0.0
 20
0.0
 30
0.0
  0
VERTEX
  8
0
  6
CONTINUOUS
 62
    80
  5
701
 10
361.686589
 20
26.44721
 30
0.0
  0
VERTEX
  8
0
  6
CONTINUOUS
 62
    80
  5
702
 10
361.678751
 20
26.398165
 30
0.0
  0
VERTEX
  8
0
  6
CONTINUOUS
 62
    80
  5
703
 10
361.67026
 20
26.34921
 30
0.0
  0
VERTEX
  8
0
  6
CONTINUOUS
 62
    80
  5
704
 10
361.661117
 20
26.300355
 30
0.0
  0
VERTEX
  8
0
  6
CONTINUOUS
 62
    80
  5
705
 10
361.651319
 20
26.251612
 30
0.0
  0
VERTEX
  8
0
  6
CONTINUOUS
 62
    80
  5
706
 10
361.640867
 20
26.202993
 30
0.0
  0
VERTEX
  8
0
  6
CONTINUOUS
 62
    80
  5
707
 10
361.629757
 20
26.154509
 30
0.0
  0
VERTEX
  8
0
  6
CONTINUOUS
 62
    80
  5
708
 10
361.617991
 20
26.106171
 30
0.0
  0
VERTEX
  8
0
  6
CONTINUOUS
 62
    80
  5
709
 10
361.605565
 20
26.057992
 30
0.0
  0
VERTEX
  8
0
  6
CONTINUOUS
 62
    80
  5
70A
 10
361.592479
 20
26.009982
 30
0.0
  0
VERTEX
  8
0
  6
CONTINUOUS
 62
    80
  5
70B
 10
361.578733
 20
25.962154
 30
0.0
  0
VERTEX
  8
0
  6
CONTINUOUS
 62
    80
  5
70C
 10
361.564323
 20
25.914518
 30
0.0
  0
VERTEX
  8
0
  6
CONTINUOUS
 62
    80
  5
70D
 10
361.549251
 20
25.867085
 30
0.0
  0
VERTEX
  8
0
  6
CONTINUOUS
 62
    80
  5
70E
 10
361.533513
 20
25.819869
 30
0.0
  0
VERTEX
  8
0
  6
CONTINUOUS
 62
    80
  5
70F
 10
361.51711
 20
25.772879
 30
0.0
  0
VERTEX
  8
0
  6
CONTINUOUS
 62
    80
  5
710
 10
361.500039
 20
25.726128
 30
0.0
  0
VERTEX
  8
0
  6
CONTINUOUS
 62
    80
  5
711
 10
361.4823
 20
25.679626
 30
0.0
  0
VERTEX
  8
0
  6
CONTINUOUS
 62
    80
  5
712
 10
361.46173
 20
25.628076
 30
0.0
  0
VERTEX
  8
0
  6
CONTINUOUS
 62
    80
  5
713
 10
361.440339
 20
25.57686
 30
0.0
  0
VERTEX
  8
0
  6
CONTINUOUS
 62
    80
  5
714
 10
361.418139
 20
25.525991
 30
0.0
  0
VERTEX
  8
0
  6
CONTINUOUS
 62
    80
  5
715
 10
361.395143
 20
25.475478
 30
0.0
  0
VERTEX
  8
0
  6
CONTINUOUS
 62
    80
  5
716
 10
361.371362
 20
25.425332
 30
0.0
  0
VERTEX
  8
0
  6
CONTINUOUS
 62
    80
  5
717
 10
361.346808
 20
25.375564
 30
0.0
  0
VERTEX
  8
0
  6
CONTINUOUS
 62
    80
  5
718
 10
361.321494
 20
25.326183
 30
0.0
  0
VERTEX
  8
0
  6
CONTINUOUS
 62
    80
  5
719
 10
361.29543
 20
25.277201
 30
0.0
  0
VERTEX
  8
0
  6
CONTINUOUS
 62
    80
  5
71A
 10
361.268629
 20
25.228628
 30
0.0
  0
VERTEX
  8
0
  6
CONTINUOUS
 62
    80
  5
71B
 10
361.241103
 20
25.180475
 30
0.0
  0
VERTEX
  8
0
  6
CONTINUOUS
 62
    80
  5
71C
 10
361.212865
 20
25.132752
 30
0.0
  0
VERTEX
  8
0
  6
CONTINUOUS
 62
    80
  5
71D
 10
361.183925
 20
25.085469
 30
0.0
  0
VERTEX
  8
0
  6
CONTINUOUS
 62
    80
  5
71E
 10
361.154295
 20
25.038638
 30
0.0
  0
VERTEX
  8
0
  6
CONTINUOUS
 62
    80
  5
71F
 10
361.123989
 20
24.992268
 30
0.0
  0
VERTEX
  8
0
  6
CONTINUOUS
 62
    80
  5
720
 10
361.093017
 20
24.946371
 30
0.0
  0
VERTEX
  8
0
  6
CONTINUOUS
 62
    80
  5
721
 10
361.061393
 20
24.900956
 30
0.0
  0
SEQEND
  8
0
  6
CONTINUOUS
 62
    80
  5
722
  0
POLYLINE
  8
0
  6
CONTINUOUS
 62
    80
  5
188
 66
     1
 10
0.0
 20
0.0
 30
0.0
  0
VERTEX
  8
0
  6
CONTINUOUS
 62
    80
  5
723
 10
380.351593
 20
26.302612
 30
0.0
  0
VERTEX
  8
0
  6
CONTINUOUS
 62
    80
  5
724
 10
380.33168
 20
26.235297
 30
0.0
  0
VERTEX
  8
0
  6
CONTINUOUS
 62
    80
  5
725
 10
380.310235
 20
26.168329
 30
0.0
  0
VERTEX
  8
0
  6
CONTINUOUS
 62
    80
  5
726
 10
380.287263
 20
26.101764
 30
0.0
  0
VERTEX
  8
0
  6
CONTINUOUS
 62
    80
  5
727
 10
380.262771
 20
26.035656
 30
0.0
  0
VERTEX
  8
0
  6
CONTINUOUS
 62
    80
  5
728
 10
380.236765
 20
25.970057
 30
0.0
  0
VERTEX
  8
0
  6
CONTINUOUS
 62
    80
  5
729
 10
380.20925
 20
25.905022
 30
0.0
  0
VERTEX
  8
0
  6
CONTINUOUS
 62
    80
  5
72A
 10
380.180232
 20
25.840606
 30
0.0
  0
VERTEX
  8
0
  6
CONTINUOUS
 62
    80
  5
72B
 10
380.149719
 20
25.776861
 30
0.0
  0
VERTEX
  8
0
  6
CONTINUOUS
 62
    80
  5
72C
 10
380.117714
 20
25.713841
 30
0.0
  0
VERTEX
  8
0
  6
CONTINUOUS
 62
    80
  5
72D
 10
380.084225
 20
25.651601
 30
0.0
  0
VERTEX
  8
0
  6
CONTINUOUS
 62
    80
  5
72E
 10
380.049258
 20
25.590194
 30
0.0
  0
VERTEX
  8
0
  6
CONTINUOUS
 62
    80
  5
72F
 10
380.012817
 20
25.529675
 30
0.0
  0
VERTEX
  8
0
  6
CONTINUOUS
 62
    80
  5
730
 10
379.97491
 20
25.470097
 30
0.0
  0
VERTEX
  8
0
  6
CONTINUOUS
 62
    80
  5
731
 10
379.935542
 20
25.411513
 30
0.0
  0
VERTEX
  8
0
  6
CONTINUOUS
 62
    80
  5
732
 10
379.894719
 20
25.353978
 30
0.0
  0
VERTEX
  8
0
  6
CONTINUOUS
 62
    80
  5
733
 10
379.852448
 20
25.297546
 30
0.0
  0
VERTEX
  8
0
  6
CONTINUOUS
 62
    80
  5
734
 10
379.822563
 20
25.259431
 30
0.0
  0
VERTEX
  8
0
  6
CONTINUOUS
 62
    80
  5
735
 10
379.792014
 20
25.221865
 30
0.0
  0
VERTEX
  8
0
  6
CONTINUOUS
 62
    80
  5
736
 10
379.760816
 20
25.184855
 30
0.0
  0
VERTEX
  8
0
  6
CONTINUOUS
 62
    80
  5
737
 10
379.728985
 20
25.148402
 30
0.0
  0
VERTEX
  8
0
  6
CONTINUOUS
 62
    80
  5
738
 10
379.696538
 20
25.112511
 30
0.0
  0
VERTEX
  8
0
  6
CONTINUOUS
 62
    80
  5
739
 10
379.663492
 20
25.077185
 30
0.0
  0
VERTEX
  8
0
  6
CONTINUOUS
 62
    80
  5
73A
 10
379.629861
 20
25.042428
 30
0.0
  0
VERTEX
  8
0
  6
CONTINUOUS
 62
    80
  5
73B
 10
379.595663
 20
25.008243
 30
0.0
  0
VERTEX
  8
0
  6
CONTINUOUS
 62
    80
  5
73C
 10
379.560913
 20
24.974634
 30
0.0
  0
VERTEX
  8
0
  6
CONTINUOUS
 62
    80
  5
73D
 10
379.525628
 20
24.941605
 30
0.0
  0
VERTEX
  8
0
  6
CONTINUOUS
 62
    80
  5
73E
 10
379.489824
 20
24.909158
 30
0.0
  0
VERTEX
  8
0
  6
CONTINUOUS
 62
    80
  5
73F
 10
379.453518
 20
24.877299
 30
0.0
  0
VERTEX
  8
0
  6
CONTINUOUS
 62
    80
  5
740
 10
379.416725
 20
24.846029
 30
0.0
  0
VERTEX
  8
0
  6
CONTINUOUS
 62
    80
  5
741
 10
379.379462
 20
24.815354
 30
0.0
  0
VERTEX
  8
0
  6
CONTINUOUS
 62
    80
  5
742
 10
379.341744
 20
24.785275
 30
0.0
  0
VERTEX
  8
0
  6
CONTINUOUS
 62
    80
  5
743
 10
379.303589
 20
24.755798
 30
0.0
  0
SEQEND
  8
0
  6
CONTINUOUS
 62
    80
  5
744
  0
TEXT
  8
0
  6
CONTINUOUS
 62
     3
  5
189
 10
270.452118
 20
55.331558
 30
0.0
 40
3.0
  1
ＮＯ．
 41
0.78125
  7
MX_NOTE_STANDARD
 11
270.452118
 21
56.831558
 31
0.0
 73
     2
  0
TEXT
  8
0
  6
CONTINUOUS
 62
     3
  5
18A
 10
279.932897
 20
55.277695
 30
0.0
 40
2.0
  1
ＮAＭＥ　ＯＦ　ＰＡＲＴＳ
 41
0.791396
  7
MX_NOTE_STANDARD
 11
279.932897
 21
56.277695
 31
0.0
 73
     2
  0
TEXT
  8
0
  6
CONTINUOUS
 62
     3
  5
18B
 10
305.89978
 20
55.054626
 30
0.0
 40
3.0
  1
品名
 41
0.78125
  7
MX_NOTE_STANDARD
 11
305.89978
 21
56.554626
 31
0.0
 73
     2
  0
TEXT
  8
0
  6
CONTINUOUS
 62
     3
  5
18C
 10
317.531067
 20
53.946884
 30
0.0
 40
3.0
  1
数量
 41
0.78125
  7
MX_NOTE_STANDARD
 11
317.531067
 21
55.446884
 31
0.0
 73
     2
  0
TEXT
  8
0
  6
CONTINUOUS
 62
     3
  5
18D
 10
341.901306
 20
55.054626
 30
0.0
 40
3.0
  1
材質
 41
0.78125
  7
MX_NOTE_STANDARD
 11
341.901306
 21
56.554626
 31
0.0
 73
     2
  0
TEXT
  8
0
  6
CONTINUOUS
 62
     3
  5
18E
 10
387.318604
 20
55.331558
 30
0.0
 40
3.0
  1
備考
 41
0.78125
  7
MX_NOTE_STANDARD
 11
387.318604
 21
56.831558
 31
0.0
 73
     2
  0
TEXT
  8
0
  6
CONTINUOUS
 62
     3
  5
18F
 10
314.823283
 20
57.770111
 30
0.0
 40
2.0
  1
Ｃｏ．Ｎｏ．
 41
0.78125
  7
MX_NOTE_STANDARD
 11
314.823283
 21
58.770111
 31
0.0
 73
     2
  0
TEXT
  8
0
  6
CONTINUOUS
 62
     3
  5
190
 10
330.331645
 20
55.554626
 30
0.0
 40
2.0
  1
ＭＴＲＬ
 41
0.78125
  7
MX_NOTE_STANDARD
 11
330.331645
 21
56.554626
 31
0.0
 73
     2
  0
TEXT
  8
0
  6
CONTINUOUS
 62
     3
  5
191
 10
356.917399
 20
55.554626
 30
0.0
 40
2.0
  1
ＮＯＴＥ　Ａ　ＲＥＭＡＲＫ
 41
0.78125
  7
MX_NOTE_STANDARD
 11
356.917399
 21
56.554626
 31
0.0
 73
     2
  0
TEXT
  8
0
  6
CONTINUOUS
 62
     3
  5
192
 10
272.862508
 20
61.5
 30
0.0
 40
3.0
  1
1
 41
1.575015
  7
MX_NOTE_STANDARD
 11
272.862508
 21
63.0
 31
0.0
 73
     2
  0
TEXT
  8
0
  6
CONTINUOUS
 62
     3
  5
193
 10
272.600005
 20
73.5
 30
0.0
 40
3.0
  1
3
 41
1.05001
  7
MX_NOTE_STANDARD
 11
272.600005
 21
75.0
 31
0.0
 73
     2
  0
TEXT
  8
0
  6
CONTINUOUS
 62
     3
  5
194
 10
272.600005
 20
79.5
 30
0.0
 40
3.0
  1
4
 41
1.05001
  7
MX_NOTE_STANDARD
 11
272.600005
 21
81.0
 31
0.0
 73
     2
  0
TEXT
  8
0
  6
CONTINUOUS
 62
     3
  5
195
 10
272.600005
 20
85.5
 30
0.0
 40
3.0
  1
5
 41
1.05001
  7
MX_NOTE_STANDARD
 11
272.600005
 21
87.0
 31
0.0
 73
     2
  0
TEXT
  8
0
  6
CONTINUOUS
 62
     3
  5
196
 10
272.600005
 20
67.5
 30
0.0
 40
3.0
  1
2
 41
1.05001
  7
MX_NOTE_STANDARD
 11
272.600005
 21
69.0
 31
0.0
 73
     2
  0
TEXT
  8
0
  6
CONTINUOUS
 62
     3
  5
197
 10
45.843756
 20
282.249985
 30
0.0
 40
2.5
  1
1
 41
1.575015
  7
MX_NOTE_STANDARD
 11
45.843756
 21
283.499985
 31
0.0
 73
     2
  0
TEXT
  8
0
  6
CONTINUOUS
 62
     3
  5
198
 10
92.375004
 20
282.249985
 30
0.0
 40
2.5
  1
2
 41
1.05001
  7
MX_NOTE_STANDARD
 11
92.375004
 21
283.499985
 31
0.0
 73
     2
  0
TEXT
  8
0
  6
CONTINUOUS
 62
     3
  5
199
 10
139.125004
 20
282.249985
 30
0.0
 40
2.5
  1
3
 41
1.05001
  7
MX_NOTE_STANDARD
 11
139.125004
 21
283.499985
 31
0.0
 73
     2
  0
TEXT
  8
0
  6
CONTINUOUS
 62
     3
  5
19A
 10
185.875004
 20
282.249985
 30
0.0
 40
2.5
  1
4
 41
1.05001
  7
MX_NOTE_STANDARD
 11
185.875004
 21
283.499985
 31
0.0
 73
     2
  0
TEXT
  8
0
  6
CONTINUOUS
 62
     3
  5
19B
 10
19.500004
 20
257.249985
 30
0.0
 40
2.5
  1
A
 41
1.05001
  7
MX_NOTE_STANDARD
 11
19.500004
 21
258.499985
 31
0.0
 73
     2
  0
TEXT
  8
0
  6
CONTINUOUS
 62
     3
  5
19C
 10
19.500004
 20
213.24999
 30
0.0
 40
2.5
  1
B
 41
1.05001
  7
MX_NOTE_STANDARD
 11
19.500004
 21
214.49999
 31
0.0
 73
     2
  0
TEXT
  8
0
  6
CONTINUOUS
 62
     3
  5
19D
 10
19.500004
 20
169.249996
 30
0.0
 40
2.5
  1
C
 41
1.05001
  7
MX_NOTE_STANDARD
 11
19.500004
 21
170.499996
 31
0.0
 73
     2
  0
TEXT
  8
0
  6
CONTINUOUS
 62
     3
  5
19E
 10
19.500004
 20
125.25
 30
0.0
 40
2.5
  1
D
 41
1.05001
  7
MX_NOTE_STANDARD
 11
19.500004
 21
126.5
 31
0.0
 73
     2
  0
TEXT
  8
0
  6
CONTINUOUS
 62
     3
  5
19F
 10
19.500004
 20
81.249992
 30
0.0
 40
2.5
  1
E
 41
1.05001
  7
MX_NOTE_STANDARD
 11
19.500004
 21
82.499992
 31
0.0
 73
     2
  0
TEXT
  8
0
  6
CONTINUOUS
 62
     3
  5
1A0
 10
19.500004
 20
37.25
 30
0.0
 40
2.5
  1
F
 41
1.05001
  7
MX_NOTE_STANDARD
 11
19.500004
 21
38.5
 31
0.0
 73
     2
  0
TEXT
  8
0
  6
CONTINUOUS
 62
     3
  5
1A1
 10
399.000004
 20
81.249992
 30
0.0
 40
2.5
  1
E
 41
1.05001
  7
MX_NOTE_STANDARD
 11
399.000004
 21
82.499992
 31
0.0
 73
     2
  0
TEXT
  8
0
  6
CONTINUOUS
 62
     3
  5
1A2
 10
399.000004
 20
257.249985
 30
0.0
 40
2.5
  1
A
 41
1.05001
  7
MX_NOTE_STANDARD
 11
399.000004
 21
258.499985
 31
0.0
 73
     2
  0
TEXT
  8
0
  6
CONTINUOUS
 62
     3
  5
1A3
 10
399.000004
 20
125.25
 30
0.0
 40
2.5
  1
D
 41
1.05001
  7
MX_NOTE_STANDARD
 11
399.000004
 21
126.5
 31
0.0
 73
     2
  0
TEXT
  8
0
  6
CONTINUOUS
 62
     3
  5
1A4
 10
399.000004
 20
213.24999
 30
0.0
 40
2.5
  1
B
 41
1.05001
  7
MX_NOTE_STANDARD
 11
399.000004
 21
214.49999
 31
0.0
 73
     2
  0
TEXT
  8
0
  6
CONTINUOUS
 62
     3
  5
1A5
 10
399.000004
 20
37.25
 30
0.0
 40
2.5
  1
F
 41
1.05001
  7
MX_NOTE_STANDARD
 11
399.000004
 21
38.5
 31
0.0
 73
     2
  0
TEXT
  8
0
  6
CONTINUOUS
 62
     3
  5
1A6
 10
399.000004
 20
169.249996
 30
0.0
 40
2.5
  1
C
 41
1.05001
  7
MX_NOTE_STANDARD
 11
399.000004
 21
170.499996
 31
0.0
 73
     2
  0
TEXT
  8
0
  6
CONTINUOUS
 62
     3
  5
1A7
 10
272.362244
 20
276.399985
 30
0.0
 40
3.2
  1
日　付
 41
0.791667
  7
MX_NOTE_STANDARD
 11
272.362244
 21
277.999985
 31
0.0
 73
     2
  0
TEXT
  8
0
  6
CONTINUOUS
 62
     3
  5
1A8
 10
286.382203
 20
276.399985
 30
0.0
 40
3.2
  1
符号
 41
0.791667
  7
MX_NOTE_STANDARD
 11
286.382203
 21
277.999985
 31
0.0
 73
     2
  0
TEXT
  8
0
  6
CONTINUOUS
 62
     3
  5
1A9
 10
333.22223
 20
276.399985
 30
0.0
 40
3.2
  1
訂　　正　　事　　項
 41
0.791667
  7
MX_NOTE_STANDARD
 11
333.22223
 21
277.999985
 31
0.0
 73
     2
  0
TEXT
  8
0
  6
CONTINUOUS
 62
     3
  5
1AA
 10
387.862244
 20
276.399985
 30
0.0
 40
3.2
  1
訂正者
 41
0.791667
  7
MX_NOTE_STANDARD
 11
387.862244
 21
277.999985
 31
0.0
 73
     2
  0
TEXT
  8
0
  6
CONTINUOUS
 62
     3
  5
1AB
 10
271.610313
 20
34.5
 30
0.0
 40
2.0
  1
CONFIRMED By
 41
0.813081
  7
MX_NOTE_STANDARD
 11
271.610313
 21
35.5
 31
0.0
 73
     2
  0
TEXT
  8
0
  6
CONTINUOUS
 62
     3
  5
1AC
 10
290.610313
 20
34.5
 30
0.0
 40
2.0
  1
SECTION HEAD
 41
0.813081
  7
MX_NOTE_STANDARD
 11
290.610313
 21
35.5
 31
0.0
 73
     2
  0
TEXT
  8
0
  6
CONTINUOUS
 62
     3
  5
1AD
 10
276.620833
 20
30.5
 30
0.0
 40
3.0
  1
確認者
 41
0.791667
  7
MX_NOTE_STANDARD
 11
276.620833
 21
32.0
 31
0.0
 73
     2
  0
TEXT
  8
0
  6
CONTINUOUS
 62
     3
  5
1AE
 10
295.620833
 20
30.5
 30
0.0
 40
3.0
  1
部門長
 41
0.791667
  7
MX_NOTE_STANDARD
 11
295.620833
 21
32.0
 31
0.0
 73
     2
  0
TEXT
  8
0
  6
CONTINUOUS
 62
     3
  5
1AF
 10
313.126948
 20
33.0
 30
0.0
 40
3.0
  1
ARROW ELECTRONICS IND. CO.,LTD.
 41
0.998074
  7
MX_NOTE_STANDARD
 11
313.126948
 21
34.5
 31
0.0
 73
     2
  0
TEXT
  8
0
  6
CONTINUOUS
 62
     3
  5
1B0
 10
232.625004
 20
282.249985
 30
0.0
 40
2.5
  1
5
 41
1.05001
  7
MX_NOTE_STANDARD
 11
232.625004
 21
283.499985
 31
0.0
 73
     2
  0
TEXT
  8
0
  6
CONTINUOUS
 62
     3
  5
1B1
 10
279.375004
 20
282.249985
 30
0.0
 40
2.5
  1
6
 41
1.05001
  7
MX_NOTE_STANDARD
 11
279.375004
 21
283.499985
 31
0.0
 73
     2
  0
TEXT
  8
0
  6
CONTINUOUS
 62
     3
  5
1B2
 10
326.125004
 20
282.249985
 30
0.0
 40
2.5
  1
7
 41
1.05001
  7
MX_NOTE_STANDARD
 11
326.125004
 21
283.499985
 31
0.0
 73
     2
  0
TEXT
  8
0
  6
CONTINUOUS
 62
     3
  5
1B3
 10
372.875004
 20
282.249985
 30
0.0
 40
2.5
  1
8
 41
1.05001
  7
MX_NOTE_STANDARD
 11
372.875004
 21
283.499985
 31
0.0
 73
     2
  0
TEXT
  8
0
  6
CONTINUOUS
 62
     3
  5
1B4
 10
45.843756
 20
12.25
 30
0.0
 40
2.5
  1
1
 41
1.575015
  7
MX_NOTE_STANDARD
 11
45.843756
 21
13.5
 31
0.0
 73
     2
  0
TEXT
  8
0
  6
CONTINUOUS
 62
     3
  5
1B5
 10
92.375004
 20
12.25
 30
0.0
 40
2.5
  1
2
 41
1.05001
  7
MX_NOTE_STANDARD
 11
92.375004
 21
13.5
 31
0.0
 73
     2
  0
TEXT
  8
0
  6
CONTINUOUS
 62
     3
  5
1B6
 10
139.125004
 20
12.25
 30
0.0
 40
2.5
  1
3
 41
1.05001
  7
MX_NOTE_STANDARD
 11
139.125004
 21
13.5
 31
0.0
 73
     2
  0
TEXT
  8
0
  6
CONTINUOUS
 62
     3
  5
1B7
 10
185.875004
 20
12.25
 30
0.0
 40
2.5
  1
4
 41
1.05001
  7
MX_NOTE_STANDARD
 11
185.875004
 21
13.5
 31
0.0
 73
     2
  0
TEXT
  8
0
  6
CONTINUOUS
 62
     3
  5
1B8
 10
232.625004
 20
12.25
 30
0.0
 40
2.5
  1
5
 41
1.05001
  7
MX_NOTE_STANDARD
 11
232.625004
 21
13.5
 31
0.0
 73
     2
  0
TEXT
  8
0
  6
CONTINUOUS
 62
     3
  5
1B9
 10
279.375004
 20
12.25
 30
0.0
 40
2.5
  1
6
 41
1.05001
  7
MX_NOTE_STANDARD
 11
279.375004
 21
13.5
 31
0.0
 73
     2
  0
TEXT
  8
0
  6
CONTINUOUS
 62
     3
  5
1BA
 10
326.125004
 20
12.25
 30
0.0
 40
2.5
  1
7
 41
1.05001
  7
MX_NOTE_STANDARD
 11
326.125004
 21
13.5
 31
0.0
 73
     2
  0
TEXT
  8
0
  6
CONTINUOUS
 62
     3
  5
1BB
 10
372.875004
 20
12.25
 30
0.0
 40
2.5
  1
8
 41
1.05001
  7
MX_NOTE_STANDARD
 11
372.875004
 21
13.5
 31
0.0
 73
     2
  0
TEXT
  8
0
  6
CONTINUOUS
 62
     3
  5
1BC
 10
235.54875
 20
49.019767
 30
0.0
 40
2.5
  1
TITLE　図名
 41
0.919355
  7
MX_NOTE_STANDARD
 11
235.54875
 21
50.269767
 31
0.0
 73
     2
  0
TEXT
  8
0
  6
CONTINUOUS
 62
     3
  5
1BD
 10
341.776128
 20
48.737588
 30
0.0
 40
2.5
  1
DRAWING.No.　図番
 41
1.002513
  7
MX_NOTE_STANDARD
 11
341.776128
 21
49.987588
 31
0.0
 73
     2
  0
TEXT
  8
0
  6
CONTINUOUS
 62
     3
  5
1BE
 10
285.417374
 20
48.815311
 30
0.0
 40
2.5
  1
TYPE　型式
 41
0.875
  7
MX_NOTE_STANDARD
 11
285.417374
 21
50.065311
 31
0.0
 73
     2
  0
TEXT
  8
0
  6
CONTINUOUS
 62
     3
  5
1BF
 10
234.375319
 20
34.5
 30
0.0
 40
2.0
  1
DESIGN DATE
 41
0.817921
  7
MX_NOTE_STANDARD
 11
234.375319
 21
35.5
 31
0.0
 73
     2
  0
TEXT
  8
0
  6
CONTINUOUS
 62
     3
  5
1C0
 10
234.375319
 20
24.0
 30
0.0
 40
2.0
  1
DESIGNED BY
 41
0.817921
  7
MX_NOTE_STANDARD
 11
234.375319
 21
25.0
 31
0.0
 73
     2
  0
TEXT
  8
0
  6
CONTINUOUS
 62
     3
  5
1C1
 10
255.142361
 20
23.75
 30
0.0
 40
2.5
  1
設計者
 41
0.791667
  7
MX_NOTE_STANDARD
 11
255.142361
 21
25.0
 31
0.0
 73
     2
  0
TEXT
  8
0
  6
CONTINUOUS
 62
     3
  5
1C2
 10
255.142361
 20
34.25
 30
0.0
 40
2.5
  1
設計日
 41
0.791667
  7
MX_NOTE_STANDARD
 11
255.142361
 21
35.5
 31
0.0
 73
     2
  0
INSERT
  8
0
  6
BYBLOCK
 62
    80
  5
1E2
  2
*X1
 10
0.0
 20
0.0
 30
0.0
  0
SOLID
  8
0
  6
CONTINUOUS
 62
    80
  5
1E3
 10
336.328644
 20
26.732117
 30
0.0
 11
336.828705
 21
26.732117
 31
0.0
 12
336.328644
 22
26.142761
 32
0.0
 13
336.828705
 23
26.142761
 33
0.0
  0
SOLID
  8
0
  6
CONTINUOUS
 62
    80
  5
1E4
 10
338.614319
 20
27.232117
 30
0.0
 11
339.542877
 21
27.232117
 31
0.0
 12
338.614319
 22
26.142761
 32
0.0
 13
339.542877
 23
26.142761
 33
0.0
  0
SOLID
  8
0
  6
CONTINUOUS
 62
    80
  5
1E5
 10
341.328491
 20
26.732117
 30
0.0
 11
341.828705
 21
26.732117
 31
0.0
 12
341.328491
 22
26.142761
 32
0.0
 13
341.828705
 23
26.142761
 33
0.0
  0
SOLID
  8
0
  6
CONTINUOUS
 62
    80
  5
1E6
 10
336.68573
 20
25.439331
 30
0.0
 11
337.171509
 21
25.439331
 31
0.0
 12
336.68573
 22
24.489258
 32
0.0
 13
337.171509
 23
24.489258
 33
0.0
  0
INSERT
  8
0
  6
BYBLOCK
 62
    80
  5
1EF
  2
*X2
 10
0.0
 20
0.0
 30
0.0
  0
SOLID
  8
0
  6
CONTINUOUS
 62
    80
  5
1F0
 10
340.985687
 20
25.439331
 30
0.0
 11
341.471527
 21
25.439331
 31
0.0
 12
340.985687
 22
24.489258
 32
0.0
 13
341.471527
 23
24.489258
 33
0.0
  0
INSERT
  8
0
  6
BYBLOCK
 62
    80
  5
1F5
  2
*X3
 10
0.0
 20
0.0
 30
0.0
  0
INSERT
  8
0
  6
BYBLOCK
 62
    80
  5
215
  2
*X4
 10
0.0
 20
0.0
 30
0.0
  0
SOLID
  8
0
  6
CONTINUOUS
 62
    80
  5
216
 10
332.257385
 20
25.643005
 30
0.0
 11
335.685791
 21
25.643005
 31
0.0
 12
332.257385
 22
25.142761
 32
0.0
 13
335.685791
 23
25.142761
 33
0.0
  0
INSERT
  8
0
  6
BYBLOCK
 62
    80
  5
23C
  2
*X5
 10
0.0
 20
0.0
 30
0.0
  0
INSERT
  8
0
  6
BYBLOCK
 62
    80
  5
25B
  2
*X6
 10
0.0
 20
0.0
 30
0.0
  0
SOLID
  8
0
  6
CONTINUOUS
 62
    80
  5
25C
 10
355.923828
 20
27.214233
 30
0.0
 11
356.106079
 21
27.214233
 31
0.0
 12
356.222778
 22
26.910645
 32
0.0
 13
356.40506
 23
26.910645
 33
0.0
  0
SOLID
  8
0
  6
CONTINUOUS
 62
    80
  5
25D
 10
356.828583
 20
27.214233
 30
0.0
 11
357.18573
 21
27.214233
 31
0.0
 12
356.828583
 22
26.910645
 32
0.0
 13
357.18573
 23
26.910645
 33
0.0
  0
SOLID
  8
0
  6
CONTINUOUS
 62
    80
  5
25E
 10
358.400024
 20
27.214233
 30
0.0
 11
358.757172
 21
27.214233
 31
0.0
 12
358.400024
 22
26.910645
 32
0.0
 13
358.757172
 23
26.910645
 33
0.0
  0
SOLID
  8
0
  6
CONTINUOUS
 62
    80
  5
25F
 10
359.479675
 20
27.214233
 30
0.0
 11
359.661926
 21
27.214233
 31
0.0
 12
359.180695
 22
26.910645
 32
0.0
 13
359.362946
 23
26.910645
 33
0.0
  0
SOLID
  8
0
  6
CONTINUOUS
 62
    80
  5
260
 10
356.202148
 20
26.660645
 30
0.0
 11
356.580109
 21
26.660645
 31
0.0
 12
356.434265
 22
26.196411
 32
0.0
 13
356.812225
 23
26.196411
 33
0.0
  0
SOLID
  8
0
  6
CONTINUOUS
 62
    80
  5
261
 10
359.005646
 20
26.660645
 30
0.0
 11
359.383636
 21
26.660645
 31
0.0
 12
358.773529
 22
26.196411
 32
0.0
 13
359.15152
 23
26.196411
 33
0.0
  0
INSERT
  8
0
  6
BYBLOCK
 62
    80
  5
267
  2
*X7
 10
0.0
 20
0.0
 30
0.0
  0
SOLID
  8
0
  6
CONTINUOUS
 62
    80
  5
268
 10
357.400024
 20
25.946411
 30
0.0
 11
358.257172
 21
25.946411
 31
0.0
 12
357.400024
 22
23.714233
 32
0.0
 13
358.257172
 23
23.714233
 33
0.0
  0
INSERT
  8
0
  6
BYBLOCK
 62
    80
  5
272
  2
*X8
 10
0.0
 20
0.0
 30
0.0
  0
INSERT
  8
0
  6
BYBLOCK
 62
    80
  5
278
  2
*X9
 10
0.0
 20
0.0
 30
0.0
  0
INSERT
  8
0
  6
BYBLOCK
 62
    80
  5
28B
  2
*X10
 10
0.0
 20
0.0
 30
0.0
  0
INSERT
  8
0
  6
BYBLOCK
 62
    80
  5
2A6
  2
*X11
 10
0.0
 20
0.0
 30
0.0
  0
INSERT
  8
0
  6
BYBLOCK
 62
    80
  5
2C0
  2
*X12
 10
0.0
 20
0.0
 30
0.0
  0
INSERT
  8
0
  6
BYBLOCK
 62
    80
  5
2C6
  2
*X13
 10
0.0
 20
0.0
 30
0.0
  0
INSERT
  8
0
  6
BYBLOCK
 62
    80
  5
2D7
  2
*X14
 10
0.0
 20
0.0
 30
0.0
  0
INSERT
  8
0
  6
BYBLOCK
 62
    80
  5
2E9
  2
*X15
 10
0.0
 20
0.0
 30
0.0
  0
SOLID
  8
0
  6
CONTINUOUS
 62
    80
  5
2EA
 10
374.557159
 20
25.928528
 30
0.0
 11
377.557159
 21
25.928528
 31
0.0
 12
374.557159
 22
25.857117
 32
0.0
 13
377.557159
 23
25.857117
 33
0.0
  0
INSERT
  8
0
  6
BYBLOCK
 62
    80
  5
307
  2
*X16
 10
0.0
 20
0.0
 30
0.0
  0
INSERT
  8
0
  6
BYBLOCK
 62
    80
  5
30D
  2
*X17
 10
0.0
 20
0.0
 30
0.0
  0
INSERT
  8
0
  6
BYBLOCK
 62
    80
  5
320
  2
*X18
 10
0.0
 20
0.0
 30
0.0
  0
SOLID
  8
0
  6
CONTINUOUS
 62
    80
  5
321
 10
379.428589
 20
27.285706
 30
0.0
 11
381.87146
 21
27.285706
 31
0.0
 12
379.428589
 22
27.214233
 32
0.0
 13
381.87146
 23
27.214233
 33
0.0
  0
INSERT
  8
0
  6
BYBLOCK
 62
    80
  5
335
  2
*X19
 10
0.0
 20
0.0
 30
0.0
  0
POLYLINE
  8
0
  6
CONTINUOUS
 62
    80
  5
336
 66
     1
 10
0.0
 20
0.0
 30
0.0
  0
VERTEX
  8
0
  6
CONTINUOUS
 62
    80
  5
745
 10
363.283638
 20
24.91011
 30
0.0
  0
VERTEX
  8
0
  6
CONTINUOUS
 62
    80
  5
746
 10
363.268248
 20
24.887719
 30
0.0
  0
VERTEX
  8
0
  6
CONTINUOUS
 62
    80
  5
747
 10
363.25279
 20
24.865374
 30
0.0
  0
VERTEX
  8
0
  6
CONTINUOUS
 62
    80
  5
748
 10
363.237263
 20
24.843076
 30
0.0
  0
VERTEX
  8
0
  6
CONTINUOUS
 62
    80
  5
749
 10
363.221668
 20
24.820824
 30
0.0
  0
VERTEX
  8
0
  6
CONTINUOUS
 62
    80
  5
74A
 10
363.206005
 20
24.79862
 30
0.0
  0
VERTEX
  8
0
  6
CONTINUOUS
 62
    80
  5
74B
 10
363.190275
 20
24.776462
 30
0.0
  0
VERTEX
  8
0
  6
CONTINUOUS
 62
    80
  5
74C
 10
363.174476
 20
24.754351
 30
0.0
  0
VERTEX
  8
0
  6
CONTINUOUS
 62
    80
  5
74D
 10
363.158611
 20
24.732288
 30
0.0
  0
VERTEX
  8
0
  6
CONTINUOUS
 62
    80
  5
74E
 10
363.142678
 20
24.710272
 30
0.0
  0
VERTEX
  8
0
  6
CONTINUOUS
 62
    80
  5
74F
 10
363.126678
 20
24.688305
 30
0.0
  0
VERTEX
  8
0
  6
CONTINUOUS
 62
    80
  5
750
 10
363.110612
 20
24.666385
 30
0.0
  0
VERTEX
  8
0
  6
CONTINUOUS
 62
    80
  5
751
 10
363.094479
 20
24.644514
 30
0.0
  0
VERTEX
  8
0
  6
CONTINUOUS
 62
    80
  5
752
 10
363.07828
 20
24.622692
 30
0.0
  0
VERTEX
  8
0
  6
CONTINUOUS
 62
    80
  5
753
 10
363.062015
 20
24.600918
 30
0.0
  0
VERTEX
  8
0
  6
CONTINUOUS
 62
    80
  5
754
 10
363.045685
 20
24.579193
 30
0.0
  0
VERTEX
  8
0
  6
CONTINUOUS
 62
    80
  5
755
 10
363.029288
 20
24.557518
 30
0.0
  0
SEQEND
  8
0
  6
CONTINUOUS
 62
    80
  5
756
  0
POLYLINE
  8
0
  6
CONTINUOUS
 62
    80
  5
337
 66
     1
 10
0.0
 20
0.0
 30
0.0
  0
VERTEX
  8
0
  6
CONTINUOUS
 62
    80
  5
757
 10
363.971466
 20
25.571411
 30
0.0
  0
VERTEX
  8
0
  6
CONTINUOUS
 62
    80
  5
758
 10
363.944878
 20
25.523004
 30
0.0
  0
VERTEX
  8
0
  6
CONTINUOUS
 62
    80
  5
759
 10
363.918002
 20
25.474753
 30
0.0
  0
VERTEX
  8
0
  6
CONTINUOUS
 62
    80
  5
75A
 10
363.890838
 20
25.42666
 30
0.0
  0
VERTEX
  8
0
  6
CONTINUOUS
 62
    80
  5
75B
 10
363.863388
 20
25.378727
 30
0.0
  0
VERTEX
  8
0
  6
CONTINUOUS
 62
    80
  5
75C
 10
363.835651
 20
25.330955
 30
0.0
  0
VERTEX
  8
0
  6
CONTINUOUS
 62
    80
  5
75D
 10
363.807629
 20
25.283347
 30
0.0
  0
VERTEX
  8
0
  6
CONTINUOUS
 62
    80
  5
75E
 10
363.779322
 20
25.235904
 30
0.0
  0
VERTEX
  8
0
  6
CONTINUOUS
 62
    80
  5
75F
 10
363.750731
 20
25.18863
 30
0.0
  0
VERTEX
  8
0
  6
CONTINUOUS
 62
    80
  5
760
 10
363.721857
 20
25.141525
 30
0.0
  0
VERTEX
  8
0
  6
CONTINUOUS
 62
    80
  5
761
 10
363.692701
 20
25.094592
 30
0.0
  0
VERTEX
  8
0
  6
CONTINUOUS
 62
    80
  5
762
 10
363.663263
 20
25.047832
 30
0.0
  0
VERTEX
  8
0
  6
CONTINUOUS
 62
    80
  5
763
 10
363.633544
 20
25.001249
 30
0.0
  0
VERTEX
  8
0
  6
CONTINUOUS
 62
    80
  5
764
 10
363.603544
 20
24.954843
 30
0.0
  0
VERTEX
  8
0
  6
CONTINUOUS
 62
    80
  5
765
 10
363.573265
 20
24.908616
 30
0.0
  0
VERTEX
  8
0
  6
CONTINUOUS
 62
    80
  5
766
 10
363.542707
 20
24.862572
 30
0.0
  0
VERTEX
  8
0
  6
CONTINUOUS
 62
    80
  5
767
 10
363.511871
 20
24.816711
 30
0.0
  0
VERTEX
  8
0
  6
CONTINUOUS
 62
    80
  5
768
 10
363.472367
 20
24.758818
 30
0.0
  0
VERTEX
  8
0
  6
CONTINUOUS
 62
    80
  5
769
 10
363.432418
 20
24.701227
 30
0.0
  0
VERTEX
  8
0
  6
CONTINUOUS
 62
    80
  5
76A
 10
363.39203
 20
24.64394
 30
0.0
  0
VERTEX
  8
0
  6
CONTINUOUS
 62
    80
  5
76B
 10
363.351206
 20
24.586961
 30
0.0
  0
VERTEX
  8
0
  6
CONTINUOUS
 62
    80
  5
76C
 10
363.309949
 20
24.530293
 30
0.0
  0
VERTEX
  8
0
  6
CONTINUOUS
 62
    80
  5
76D
 10
363.268263
 20
24.473942
 30
0.0
  0
VERTEX
  8
0
  6
CONTINUOUS
 62
    80
  5
76E
 10
363.226151
 20
24.417908
 30
0.0
  0
VERTEX
  8
0
  6
CONTINUOUS
 62
    80
  5
76F
 10
363.183618
 20
24.362197
 30
0.0
  0
VERTEX
  8
0
  6
CONTINUOUS
 62
    80
  5
770
 10
363.140665
 20
24.306812
 30
0.0
  0
VERTEX
  8
0
  6
CONTINUOUS
 62
    80
  5
771
 10
363.097298
 20
24.251756
 30
0.0
  0
VERTEX
  8
0
  6
CONTINUOUS
 62
    80
  5
772
 10
363.05352
 20
24.197032
 30
0.0
  0
VERTEX
  8
0
  6
CONTINUOUS
 62
    80
  5
773
 10
363.009334
 20
24.142645
 30
0.0
  0
VERTEX
  8
0
  6
CONTINUOUS
 62
    80
  5
774
 10
362.964743
 20
24.088597
 30
0.0
  0
VERTEX
  8
0
  6
CONTINUOUS
 62
    80
  5
775
 10
362.919752
 20
24.034893
 30
0.0
  0
VERTEX
  8
0
  6
CONTINUOUS
 62
    80
  5
776
 10
362.874364
 20
23.981535
 30
0.0
  0
VERTEX
  8
0
  6
CONTINUOUS
 62
    80
  5
777
 10
362.828583
 20
23.928528
 30
0.0
  0
SEQEND
  8
0
  6
CONTINUOUS
 62
    80
  5
778
  0
POLYLINE
  8
0
  6
CONTINUOUS
 62
    80
  5
338
 66
     1
 10
0.0
 20
0.0
 30
0.0
  0
VERTEX
  8
0
  6
CONTINUOUS
 62
    80
  5
779
 10
370.299764
 20
27.338467
 30
0.0
  0
VERTEX
  8
0
  6
CONTINUOUS
 62
    80
  5
77A
 10
370.310355
 20
27.296355
 30
0.0
  0
VERTEX
  8
0
  6
CONTINUOUS
 62
    80
  5
77B
 10
370.321085
 20
27.254276
 30
0.0
  0
VERTEX
  8
0
  6
CONTINUOUS
 62
    80
  5
77C
 10
370.331952
 20
27.21223
 30
0.0
  0
VERTEX
  8
0
  6
CONTINUOUS
 62
    80
  5
77D
 10
370.342957
 20
27.170218
 30
0.0
  0
VERTEX
  8
0
  6
CONTINUOUS
 62
    80
  5
77E
 10
370.354098
 20
27.128239
 30
0.0
  0
VERTEX
  8
0
  6
CONTINUOUS
 62
    80
  5
77F
 10
370.365375
 20
27.086295
 30
0.0
  0
VERTEX
  8
0
  6
CONTINUOUS
 62
    80
  5
780
 10
370.376787
 20
27.044386
 30
0.0
  0
VERTEX
  8
0
  6
CONTINUOUS
 62
    80
  5
781
 10
370.388333
 20
27.002512
 30
0.0
  0
VERTEX
  8
0
  6
CONTINUOUS
 62
    80
  5
782
 10
370.400012
 20
26.960673
 30
0.0
  0
VERTEX
  8
0
  6
CONTINUOUS
 62
    80
  5
783
 10
370.411824
 20
26.91887
 30
0.0
  0
VERTEX
  8
0
  6
CONTINUOUS
 62
    80
  5
784
 10
370.423768
 20
26.877104
 30
0.0
  0
VERTEX
  8
0
  6
CONTINUOUS
 62
    80
  5
785
 10
370.435843
 20
26.835375
 30
0.0
  0
VERTEX
  8
0
  6
CONTINUOUS
 62
    80
  5
786
 10
370.448048
 20
26.793682
 30
0.0
  0
VERTEX
  8
0
  6
CONTINUOUS
 62
    80
  5
787
 10
370.460383
 20
26.752027
 30
0.0
  0
VERTEX
  8
0
  6
CONTINUOUS
 62
    80
  5
788
 10
370.472846
 20
26.71041
 30
0.0
  0
VERTEX
  8
0
  6
CONTINUOUS
 62
    80
  5
789
 10
370.485438
 20
26.668832
 30
0.0
  0
VERTEX
  8
0
  6
CONTINUOUS
 62
    80
  5
78A
 10
370.487643
 20
26.661598
 30
0.0
  0
VERTEX
  8
0
  6
CONTINUOUS
 62
    80
  5
78B
 10
370.489852
 20
26.654365
 30
0.0
  0
VERTEX
  8
0
  6
CONTINUOUS
 62
    80
  5
78C
 10
370.492064
 20
26.647134
 30
0.0
  0
VERTEX
  8
0
  6
CONTINUOUS
 62
    80
  5
78D
 10
370.494281
 20
26.639904
 30
0.0
  0
VERTEX
  8
0
  6
CONTINUOUS
 62
    80
  5
78E
 10
370.496501
 20
26.632675
 30
0.0
  0
VERTEX
  8
0
  6
CONTINUOUS
 62
    80
  5
78F
 10
370.498725
 20
26.625448
 30
0.0
  0
VERTEX
  8
0
  6
CONTINUOUS
 62
    80
  5
790
 10
370.500953
 20
26.618222
 30
0.0
  0
VERTEX
  8
0
  6
CONTINUOUS
 62
    80
  5
791
 10
370.503185
 20
26.610998
 30
0.0
  0
VERTEX
  8
0
  6
CONTINUOUS
 62
    80
  5
792
 10
370.505421
 20
26.603775
 30
0.0
  0
VERTEX
  8
0
  6
CONTINUOUS
 62
    80
  5
793
 10
370.507661
 20
26.596554
 30
0.0
  0
VERTEX
  8
0
  6
CONTINUOUS
 62
    80
  5
794
 10
370.509904
 20
26.589334
 30
0.0
  0
VERTEX
  8
0
  6
CONTINUOUS
 62
    80
  5
795
 10
370.512152
 20
26.582115
 30
0.0
  0
VERTEX
  8
0
  6
CONTINUOUS
 62
    80
  5
796
 10
370.514404
 20
26.574898
 30
0.0
  0
VERTEX
  8
0
  6
CONTINUOUS
 62
    80
  5
797
 10
370.516659
 20
26.567683
 30
0.0
  0
VERTEX
  8
0
  6
CONTINUOUS
 62
    80
  5
798
 10
370.518919
 20
26.560469
 30
0.0
  0
VERTEX
  8
0
  6
CONTINUOUS
 62
    80
  5
799
 10
370.521182
 20
26.553256
 30
0.0
  0
SEQEND
  8
0
  6
CONTINUOUS
 62
    80
  5
79A
  0
POLYLINE
  8
0
  6
CONTINUOUS
 62
    80
  5
339
 66
     1
 10
0.0
 20
0.0
 30
0.0
  0
VERTEX
  8
0
  6
CONTINUOUS
 62
    80
  5
79B
 10
370.18576
 20
27.428528
 30
0.0
  0
VERTEX
  8
0
  6
CONTINUOUS
 62
    80
  5
79C
 10
370.197758
 20
27.379061
 30
0.0
  0
VERTEX
  8
0
  6
CONTINUOUS
 62
    80
  5
79D
 10
370.209948
 20
27.329638
 30
0.0
  0
VERTEX
  8
0
  6
CONTINUOUS
 62
    80
  5
79E
 10
370.222328
 20
27.280262
 30
0.0
  0
VERTEX
  8
0
  6
CONTINUOUS
 62
    80
  5
79F
 10
370.234897
 20
27.230932
 30
0.0
  0
VERTEX
  8
0
  6
CONTINUOUS
 62
    80
  5
7A0
 10
370.247653
 20
27.18165
 30
0.0
  0
VERTEX
  8
0
  6
CONTINUOUS
 62
    80
  5
7A1
 10
370.260597
 20
27.132414
 30
0.0
  0
VERTEX
  8
0
  6
CONTINUOUS
 62
    80
  5
7A2
 10
370.273725
 20
27.083228
 30
0.0
  0
VERTEX
  8
0
  6
CONTINUOUS
 62
    80
  5
7A3
 10
370.287038
 20
27.03409
 30
0.0
  0
VERTEX
  8
0
  6
CONTINUOUS
 62
    80
  5
7A4
 10
370.300534
 20
26.985001
 30
0.0
  0
VERTEX
  8
0
  6
CONTINUOUS
 62
    80
  5
7A5
 10
370.314212
 20
26.935963
 30
0.0
  0
VERTEX
  8
0
  6
CONTINUOUS
 62
    80
  5
7A6
 10
370.32807
 20
26.886976
 30
0.0
  0
VERTEX
  8
0
  6
CONTINUOUS
 62
    80
  5
7A7
 10
370.342107
 20
26.83804
 30
0.0
  0
VERTEX
  8
0
  6
CONTINUOUS
 62
    80
  5
7A8
 10
370.356322
 20
26.789156
 30
0.0
  0
VERTEX
  8
0
  6
CONTINUOUS
 62
    80
  5
7A9
 10
370.370715
 20
26.740324
 30
0.0
  0
VERTEX
  8
0
  6
CONTINUOUS
 62
    80
  5
7AA
 10
370.385282
 20
26.691546
 30
0.0
  0
VERTEX
  8
0
  6
CONTINUOUS
 62
    80
  5
7AB
 10
370.400024
 20
26.642822
 30
0.0
  0
SEQEND
  8
0
  6
CONTINUOUS
 62
    80
  5
7AC
  0
POLYLINE
  8
0
  6
CONTINUOUS
 62
    80
  5
33A
 66
     1
 10
0.0
 20
0.0
 30
0.0
  0
VERTEX
  8
0
  6
CONTINUOUS
 62
    80
  5
7AD
 10
371.11428
 20
27.338025
 30
0.0
  0
VERTEX
  8
0
  6
CONTINUOUS
 62
    80
  5
7AE
 10
371.124913
 20
27.291904
 30
0.0
  0
VERTEX
  8
0
  6
CONTINUOUS
 62
    80
  5
7AF
 10
371.135909
 20
27.245842
 30
0.0
  0
VERTEX
  8
0
  6
CONTINUOUS
 62
    80
  5
7B0
 10
371.147271
 20
27.199848
 30
0.0
  0
VERTEX
  8
0
  6
CONTINUOUS
 62
    80
  5
7B1
 10
371.159005
 20
27.153928
 30
0.0
  0
VERTEX
  8
0
  6
CONTINUOUS
 62
    80
  5
7B2
 10
371.171117
 20
27.108089
 30
0.0
  0
VERTEX
  8
0
  6
CONTINUOUS
 62
    80
  5
7B3
 10
371.183612
 20
27.062338
 30
0.0
  0
VERTEX
  8
0
  6
CONTINUOUS
 62
    80
  5
7B4
 10
371.196496
 20
27.016681
 30
0.0
  0
VERTEX
  8
0
  6
CONTINUOUS
 62
    80
  5
7B5
 10
371.209773
 20
26.971125
 30
0.0
  0
VERTEX
  8
0
  6
CONTINUOUS
 62
    80
  5
7B6
 10
371.22345
 20
26.925678
 30
0.0
  0
VERTEX
  8
0
  6
CONTINUOUS
 62
    80
  5
7B7
 10
371.237532
 20
26.880346
 30
0.0
  0
VERTEX
  8
0
  6
CONTINUOUS
 62
    80
  5
7B8
 10
371.252023
 20
26.835136
 30
0.0
  0
VERTEX
  8
0
  6
CONTINUOUS
 62
    80
  5
7B9
 10
371.26693
 20
26.790055
 30
0.0
  0
VERTEX
  8
0
  6
CONTINUOUS
 62
    80
  5
7BA
 10
371.282258
 20
26.74511
 30
0.0
  0
VERTEX
  8
0
  6
CONTINUOUS
 62
    80
  5
7BB
 10
371.298013
 20
26.700308
 30
0.0
  0
VERTEX
  8
0
  6
CONTINUOUS
 62
    80
  5
7BC
 10
371.314199
 20
26.655656
 30
0.0
  0
VERTEX
  8
0
  6
CONTINUOUS
 62
    80
  5
7BD
 10
371.330823
 20
26.611161
 30
0.0
  0
VERTEX
  8
0
  6
CONTINUOUS
 62
    80
  5
7BE
 10
371.33219
 20
26.607562
 30
0.0
  0
VERTEX
  8
0
  6
CONTINUOUS
 62
    80
  5
7BF
 10
371.333559
 20
26.603964
 30
0.0
  0
VERTEX
  8
0
  6
CONTINUOUS
 62
    80
  5
7C0
 10
371.334932
 20
26.600367
 30
0.0
  0
VERTEX
  8
0
  6
CONTINUOUS
 62
    80
  5
7C1
 10
371.336307
 20
26.596772
 30
0.0
  0
VERTEX
  8
0
  6
CONTINUOUS
 62
    80
  5
7C2
 10
371.337684
 20
26.593178
 30
0.0
  0
VERTEX
  8
0
  6
CONTINUOUS
 62
    80
  5
7C3
 10
371.339065
 20
26.589586
 30
0.0
  0
VERTEX
  8
0
  6
CONTINUOUS
 62
    80
  5
7C4
 10
371.340448
 20
26.585995
 30
0.0
  0
VERTEX
  8
0
  6
CONTINUOUS
 62
    80
  5
7C5
 10
371.341834
 20
26.582405
 30
0.0
  0
VERTEX
  8
0
  6
CONTINUOUS
 62
    80
  5
7C6
 10
371.343222
 20
26.578817
 30
0.0
  0
VERTEX
  8
0
  6
CONTINUOUS
 62
    80
  5
7C7
 10
371.344613
 20
26.57523
 30
0.0
  0
VERTEX
  8
0
  6
CONTINUOUS
 62
    80
  5
7C8
 10
371.346007
 20
26.571645
 30
0.0
  0
VERTEX
  8
0
  6
CONTINUOUS
 62
    80
  5
7C9
 10
371.347404
 20
26.568061
 30
0.0
  0
VERTEX
  8
0
  6
CONTINUOUS
 62
    80
  5
7CA
 10
371.348803
 20
26.564478
 30
0.0
  0
VERTEX
  8
0
  6
CONTINUOUS
 62
    80
  5
7CB
 10
371.350204
 20
26.560897
 30
0.0
  0
VERTEX
  8
0
  6
CONTINUOUS
 62
    80
  5
7CC
 10
371.351609
 20
26.557318
 30
0.0
  0
VERTEX
  8
0
  6
CONTINUOUS
 62
    80
  5
7CD
 10
371.353016
 20
26.553739
 30
0.0
  0
SEQEND
  8
0
  6
CONTINUOUS
 62
    80
  5
7CE
  0
POLYLINE
  8
0
  6
CONTINUOUS
 62
    80
  5
33B
 66
     1
 10
0.0
 20
0.0
 30
0.0
  0
VERTEX
  8
0
  6
CONTINUOUS
 62
    80
  5
7CF
 10
371.18576
 20
27.428528
 30
0.0
  0
VERTEX
  8
0
  6
CONTINUOUS
 62
    80
  5
7D0
 10
371.196685
 20
27.378554
 30
0.0
  0
VERTEX
  8
0
  6
CONTINUOUS
 62
    80
  5
7D1
 10
371.208026
 20
27.328654
 30
0.0
  0
VERTEX
  8
0
  6
CONTINUOUS
 62
    80
  5
7D2
 10
371.21979
 20
27.278836
 30
0.0
  0
VERTEX
  8
0
  6
CONTINUOUS
 62
    80
  5
7D3
 10
371.231985
 20
27.229109
 30
0.0
  0
VERTEX
  8
0
  6
CONTINUOUS
 62
    80
  5
7D4
 10
371.244616
 20
27.179483
 30
0.0
  0
VERTEX
  8
0
  6
CONTINUOUS
 62
    80
  5
7D5
 10
371.257691
 20
27.129966
 30
0.0
  0
VERTEX
  8
0
  6
CONTINUOUS
 62
    80
  5
7D6
 10
371.271217
 20
27.080568
 30
0.0
  0
VERTEX
  8
0
  6
CONTINUOUS
 62
    80
  5
7D7
 10
371.285199
 20
27.031298
 30
0.0
  0
VERTEX
  8
0
  6
CONTINUOUS
 62
    80
  5
7D8
 10
371.299645
 20
26.982165
 30
0.0
  0
VERTEX
  8
0
  6
CONTINUOUS
 62
    80
  5
7D9
 10
371.314561
 20
26.933177
 30
0.0
  0
VERTEX
  8
0
  6
CONTINUOUS
 62
    80
  5
7DA
 10
371.329954
 20
26.884344
 30
0.0
  0
VERTEX
  8
0
  6
CONTINUOUS
 62
    80
  5
7DB
 10
371.34583
 20
26.835676
 30
0.0
  0
VERTEX
  8
0
  6
CONTINUOUS
 62
    80
  5
7DC
 10
371.362197
 20
26.78718
 30
0.0
  0
VERTEX
  8
0
  6
CONTINUOUS
 62
    80
  5
7DD
 10
371.379061
 20
26.738866
 30
0.0
  0
VERTEX
  8
0
  6
CONTINUOUS
 62
    80
  5
7DE
 10
371.396429
 20
26.690744
 30
0.0
  0
VERTEX
  8
0
  6
CONTINUOUS
 62
    80
  5
7DF
 10
371.414307
 20
26.642822
 30
0.0
  0
SEQEND
  8
0
  6
CONTINUOUS
 62
    80
  5
7E0
  0
POLYLINE
  8
0
  6
CONTINUOUS
 62
    80
  5
33C
 66
     1
 10
0.0
 20
0.0
 30
0.0
  0
VERTEX
  8
0
  6
CONTINUOUS
 62
    80
  5
7E1
 10
371.557714
 20
26.089227
 30
0.0
  0
VERTEX
  8
0
  6
CONTINUOUS
 62
    80
  5
7E2
 10
371.561564
 20
26.081172
 30
0.0
  0
VERTEX
  8
0
  6
CONTINUOUS
 62
    80
  5
7E3
 10
371.565418
 20
26.073121
 30
0.0
  0
VERTEX
  8
0
  6
CONTINUOUS
 62
    80
  5
7E4
 10
371.569277
 20
26.065073
 30
0.0
  0
VERTEX
  8
0
  6
CONTINUOUS
 62
    80
  5
7E5
 10
371.573142
 20
26.05703
 30
0.0
  0
VERTEX
  8
0
  6
CONTINUOUS
 62
    80
  5
7E6
 10
371.57701
 20
26.048991
 30
0.0
  0
VERTEX
  8
0
  6
CONTINUOUS
 62
    80
  5
7E7
 10
371.580884
 20
26.040955
 30
0.0
  0
VERTEX
  8
0
  6
CONTINUOUS
 62
    80
  5
7E8
 10
371.584761
 20
26.032923
 30
0.0
  0
VERTEX
  8
0
  6
CONTINUOUS
 62
    80
  5
7E9
 10
371.588643
 20
26.024894
 30
0.0
  0
VERTEX
  8
0
  6
CONTINUOUS
 62
    80
  5
7EA
 10
371.592529
 20
26.016869
 30
0.0
  0
VERTEX
  8
0
  6
CONTINUOUS
 62
    80
  5
7EB
 10
371.596418
 20
26.008848
 30
0.0
  0
VERTEX
  8
0
  6
CONTINUOUS
 62
    80
  5
7EC
 10
371.600312
 20
26.00083
 30
0.0
  0
VERTEX
  8
0
  6
CONTINUOUS
 62
    80
  5
7ED
 10
371.604208
 20
25.992815
 30
0.0
  0
VERTEX
  8
0
  6
CONTINUOUS
 62
    80
  5
7EE
 10
371.608109
 20
25.984803
 30
0.0
  0
VERTEX
  8
0
  6
CONTINUOUS
 62
    80
  5
7EF
 10
371.612012
 20
25.976795
 30
0.0
  0
VERTEX
  8
0
  6
CONTINUOUS
 62
    80
  5
7F0
 10
371.615919
 20
25.96879
 30
0.0
  0
VERTEX
  8
0
  6
CONTINUOUS
 62
    80
  5
7F1
 10
371.619828
 20
25.960788
 30
0.0
  0
VERTEX
  8
0
  6
CONTINUOUS
 62
    80
  5
7F2
 10
371.68884
 20
25.820975
 30
0.0
  0
VERTEX
  8
0
  6
CONTINUOUS
 62
    80
  5
7F3
 10
371.758965
 20
25.681665
 30
0.0
  0
VERTEX
  8
0
  6
CONTINUOUS
 62
    80
  5
7F4
 10
371.830228
 20
25.542892
 30
0.0
  0
VERTEX
  8
0
  6
CONTINUOUS
 62
    80
  5
7F5
 10
371.902652
 20
25.40469
 30
0.0
  0
VERTEX
  8
0
  6
CONTINUOUS
 62
    80
  5
7F6
 10
371.976261
 20
25.267093
 30
0.0
  0
VERTEX
  8
0
  6
CONTINUOUS
 62
    80
  5
7F7
 10
372.05108
 20
25.130135
 30
0.0
  0
VERTEX
  8
0
  6
CONTINUOUS
 62
    80
  5
7F8
 10
372.127132
 20
24.993851
 30
0.0
  0
VERTEX
  8
0
  6
CONTINUOUS
 62
    80
  5
7F9
 10
372.204442
 20
24.858274
 30
0.0
  0
VERTEX
  8
0
  6
CONTINUOUS
 62
    80
  5
7FA
 10
372.283033
 20
24.723439
 30
0.0
  0
VERTEX
  8
0
  6
CONTINUOUS
 62
    80
  5
7FB
 10
372.362931
 20
24.58938
 30
0.0
  0
VERTEX
  8
0
  6
CONTINUOUS
 62
    80
  5
7FC
 10
372.444158
 20
24.45613
 30
0.0
  0
VERTEX
  8
0
  6
CONTINUOUS
 62
    80
  5
7FD
 10
372.526739
 20
24.323725
 30
0.0
  0
VERTEX
  8
0
  6
CONTINUOUS
 62
    80
  5
7FE
 10
372.610699
 20
24.192199
 30
0.0
  0
VERTEX
  8
0
  6
CONTINUOUS
 62
    80
  5
7FF
 10
372.69606
 20
24.061585
 30
0.0
  0
VERTEX
  8
0
  6
CONTINUOUS
 62
    80
  5
800
 10
372.782848
 20
23.931919
 30
0.0
  0
VERTEX
  8
0
  6
CONTINUOUS
 62
    80
  5
801
 10
372.871086
 20
23.803234
 30
0.0
  0
SEQEND
  8
0
  6
CONTINUOUS
 62
    80
  5
802
  0
POLYLINE
  8
0
  6
CONTINUOUS
 62
    80
  5
33D
 66
     1
 10
0.0
 20
0.0
 30
0.0
  0
VERTEX
  8
0
  6
CONTINUOUS
 62
    80
  5
803
 10
371.700043
 20
26.0
 30
0.0
  0
VERTEX
  8
0
  6
CONTINUOUS
 62
    80
  5
804
 10
371.773529
 20
25.851221
 30
0.0
  0
VERTEX
  8
0
  6
CONTINUOUS
 62
    80
  5
805
 10
371.848274
 20
25.703039
 30
0.0
  0
VERTEX
  8
0
  6
CONTINUOUS
 62
    80
  5
806
 10
371.924306
 20
25.555493
 30
0.0
  0
VERTEX
  8
0
  6
CONTINUOUS
 62
    80
  5
807
 10
372.001653
 20
25.408626
 30
0.0
  0
VERTEX
  8
0
  6
CONTINUOUS
 62
    80
  5
808
 10
372.080344
 20
25.262478
 30
0.0
  0
VERTEX
  8
0
  6
CONTINUOUS
 62
    80
  5
809
 10
372.160408
 20
25.117093
 30
0.0
  0
VERTEX
  8
0
  6
CONTINUOUS
 62
    80
  5
80A
 10
372.241873
 20
24.97251
 30
0.0
  0
VERTEX
  8
0
  6
CONTINUOUS
 62
    80
  5
80B
 10
372.324769
 20
24.828771
 30
0.0
  0
VERTEX
  8
0
  6
CONTINUOUS
 62
    80
  5
80C
 10
372.409124
 20
24.685919
 30
0.0
  0
VERTEX
  8
0
  6
CONTINUOUS
 62
    80
  5
80D
 10
372.494967
 20
24.543993
 30
0.0
  0
VERTEX
  8
0
  6
CONTINUOUS
 62
    80
  5
80E
 10
372.582326
 20
24.403036
 30
0.0
  0
VERTEX
  8
0
  6
CONTINUOUS
 62
    80
  5
80F
 10
372.671231
 20
24.26309
 30
0.0
  0
VERTEX
  8
0
  6
CONTINUOUS
 62
    80
  5
810
 10
372.76171
 20
24.124195
 30
0.0
  0
VERTEX
  8
0
  6
CONTINUOUS
 62
    80
  5
811
 10
372.853791
 20
23.986393
 30
0.0
  0
VERTEX
  8
0
  6
CONTINUOUS
 62
    80
  5
812
 10
372.947504
 20
23.849725
 30
0.0
  0
VERTEX
  8
0
  6
CONTINUOUS
 62
    80
  5
813
 10
373.042877
 20
23.714233
 30
0.0
  0
SEQEND
  8
0
  6
CONTINUOUS
 62
    80
  5
814
  0
POLYLINE
  8
0
  6
CONTINUOUS
 62
    80
  5
33E
 66
     1
 10
0.0
 20
0.0
 30
0.0
  0
VERTEX
  8
0
  6
CONTINUOUS
 62
    80
  5
815
 10
370.676973
 20
26.089194
 30
0.0
  0
VERTEX
  8
0
  6
CONTINUOUS
 62
    80
  5
816
 10
370.678289
 20
26.085531
 30
0.0
  0
VERTEX
  8
0
  6
CONTINUOUS
 62
    80
  5
817
 10
370.679606
 20
26.081869
 30
0.0
  0
VERTEX
  8
0
  6
CONTINUOUS
 62
    80
  5
818
 10
370.680924
 20
26.078207
 30
0.0
  0
VERTEX
  8
0
  6
CONTINUOUS
 62
    80
  5
819
 10
370.682244
 20
26.074546
 30
0.0
  0
VERTEX
  8
0
  6
CONTINUOUS
 62
    80
  5
81A
 10
370.683565
 20
26.070885
 30
0.0
  0
VERTEX
  8
0
  6
CONTINUOUS
 62
    80
  5
81B
 10
370.684887
 20
26.067225
 30
0.0
  0
VERTEX
  8
0
  6
CONTINUOUS
 62
    80
  5
81C
 10
370.68621
 20
26.063565
 30
0.0
  0
VERTEX
  8
0
  6
CONTINUOUS
 62
    80
  5
81D
 10
370.687535
 20
26.059905
 30
0.0
  0
VERTEX
  8
0
  6
CONTINUOUS
 62
    80
  5
81E
 10
370.688861
 20
26.056246
 30
0.0
  0
VERTEX
  8
0
  6
CONTINUOUS
 62
    80
  5
81F
 10
370.690189
 20
26.052588
 30
0.0
  0
VERTEX
  8
0
  6
CONTINUOUS
 62
    80
  5
820
 10
370.691517
 20
26.04893
 30
0.0
  0
VERTEX
  8
0
  6
CONTINUOUS
 62
    80
  5
821
 10
370.692847
 20
26.045272
 30
0.0
  0
VERTEX
  8
0
  6
CONTINUOUS
 62
    80
  5
822
 10
370.694178
 20
26.041615
 30
0.0
  0
VERTEX
  8
0
  6
CONTINUOUS
 62
    80
  5
823
 10
370.695511
 20
26.037959
 30
0.0
  0
VERTEX
  8
0
  6
CONTINUOUS
 62
    80
  5
824
 10
370.696845
 20
26.034302
 30
0.0
  0
VERTEX
  8
0
  6
CONTINUOUS
 62
    80
  5
825
 10
370.69818
 20
26.030647
 30
0.0
  0
VERTEX
  8
0
  6
CONTINUOUS
 62
    80
  5
826
 10
370.752632
 20
25.884894
 30
0.0
  0
VERTEX
  8
0
  6
CONTINUOUS
 62
    80
  5
827
 10
370.809188
 20
25.739853
 30
0.0
  0
VERTEX
  8
0
  6
CONTINUOUS
 62
    80
  5
828
 10
370.86782
 20
25.595557
 30
0.0
  0
VERTEX
  8
0
  6
CONTINUOUS
 62
    80
  5
829
 10
370.928501
 20
25.45204
 30
0.0
  0
VERTEX
  8
0
  6
CONTINUOUS
 62
    80
  5
82A
 10
370.991203
 20
25.309336
 30
0.0
  0
VERTEX
  8
0
  6
CONTINUOUS
 62
    80
  5
82B
 10
371.055899
 20
25.167476
 30
0.0
  0
VERTEX
  8
0
  6
CONTINUOUS
 62
    80
  5
82C
 10
371.12256
 20
25.026496
 30
0.0
  0
VERTEX
  8
0
  6
CONTINUOUS
 62
    80
  5
82D
 10
371.19116
 20
24.886427
 30
0.0
  0
VERTEX
  8
0
  6
CONTINUOUS
 62
    80
  5
82E
 10
371.261669
 20
24.747304
 30
0.0
  0
VERTEX
  8
0
  6
CONTINUOUS
 62
    80
  5
82F
 10
371.334062
 20
24.60916
 30
0.0
  0
VERTEX
  8
0
  6
CONTINUOUS
 62
    80
  5
830
 10
371.408309
 20
24.472028
 30
0.0
  0
VERTEX
  8
0
  6
CONTINUOUS
 62
    80
  5
831
 10
371.484383
 20
24.335941
 30
0.0
  0
VERTEX
  8
0
  6
CONTINUOUS
 62
    80
  5
832
 10
371.562257
 20
24.200933
 30
0.0
  0
VERTEX
  8
0
  6
CONTINUOUS
 62
    80
  5
833
 10
371.641901
 20
24.067038
 30
0.0
  0
VERTEX
  8
0
  6
CONTINUOUS
 62
    80
  5
834
 10
371.723289
 20
23.934287
 30
0.0
  0
VERTEX
  8
0
  6
CONTINUOUS
 62
    80
  5
835
 10
371.806393
 20
23.802716
 30
0.0
  0
SEQEND
  8
0
  6
CONTINUOUS
 62
    80
  5
836
  0
POLYLINE
  8
0
  6
CONTINUOUS
 62
    80
  5
33F
 66
     1
 10
0.0
 20
0.0
 30
0.0
  0
VERTEX
  8
0
  6
CONTINUOUS
 62
    80
  5
837
 10
370.614319
 20
26.0
 30
0.0
  0
VERTEX
  8
0
  6
CONTINUOUS
 62
    80
  5
838
 10
370.670288
 20
25.850248
 30
0.0
  0
VERTEX
  8
0
  6
CONTINUOUS
 62
    80
  5
839
 10
370.728456
 20
25.701252
 30
0.0
  0
VERTEX
  8
0
  6
CONTINUOUS
 62
    80
  5
83A
 10
370.788793
 20
25.553047
 30
0.0
  0
VERTEX
  8
0
  6
CONTINUOUS
 62
    80
  5
83B
 10
370.85127
 20
25.405668
 30
0.0
  0
VERTEX
  8
0
  6
CONTINUOUS
 62
    80
  5
83C
 10
370.915857
 20
25.25915
 30
0.0
  0
VERTEX
  8
0
  6
CONTINUOUS
 62
    80
  5
83D
 10
370.982525
 20
25.113527
 30
0.0
  0
VERTEX
  8
0
  6
CONTINUOUS
 62
    80
  5
83E
 10
371.051245
 20
24.968835
 30
0.0
  0
VERTEX
  8
0
  6
CONTINUOUS
 62
    80
  5
83F
 10
371.121986
 20
24.825107
 30
0.0
  0
VERTEX
  8
0
  6
CONTINUOUS
 62
    80
  5
840
 10
371.19472
 20
24.682381
 30
0.0
  0
VERTEX
  8
0
  6
CONTINUOUS
 62
    80
  5
841
 10
371.269417
 20
24.540689
 30
0.0
  0
VERTEX
  8
0
  6
CONTINUOUS
 62
    80
  5
842
 10
371.346047
 20
24.400068
 30
0.0
  0
VERTEX
  8
0
  6
CONTINUOUS
 62
    80
  5
843
 10
371.424582
 20
24.260551
 30
0.0
  0
VERTEX
  8
0
  6
CONTINUOUS
 62
    80
  5
844
 10
371.504991
 20
24.122175
 30
0.0
  0
VERTEX
  8
0
  6
CONTINUOUS
 62
    80
  5
845
 10
371.587245
 20
23.984973
 30
0.0
  0
VERTEX
  8
0
  6
CONTINUOUS
 62
    80
  5
846
 10
371.671315
 20
23.848981
 30
0.0
  0
VERTEX
  8
0
  6
CONTINUOUS
 62
    80
  5
847
 10
371.757172
 20
23.714233
 30
0.0
  0
SEQEND
  8
0
  6
CONTINUOUS
 62
    80
  5
848
  0
POLYLINE
  8
0
  6
CONTINUOUS
 62
    80
  5
340
 66
     1
 10
0.0
 20
0.0
 30
0.0
  0
VERTEX
  8
0
  6
CONTINUOUS
 62
    80
  5
849
 10
370.096321
 20
24.251916
 30
0.0
  0
VERTEX
  8
0
  6
CONTINUOUS
 62
    80
  5
84A
 10
370.035806
 20
24.242219
 30
0.0
  0
VERTEX
  8
0
  6
CONTINUOUS
 62
    80
  5
84B
 10
369.975242
 20
24.232715
 30
0.0
  0
VERTEX
  8
0
  6
CONTINUOUS
 62
    80
  5
84C
 10
369.914629
 20
24.223414
 30
0.0
  0
VERTEX
  8
0
  6
CONTINUOUS
 62
    80
  5
84D
 10
369.853969
 20
24.214326
 30
0.0
  0
VERTEX
  8
0
  6
CONTINUOUS
 62
    80
  5
84E
 10
369.793261
 20
24.20546
 30
0.0
  0
VERTEX
  8
0
  6
CONTINUOUS
 62
    80
  5
84F
 10
369.732507
 20
24.196825
 30
0.0
  0
VERTEX
  8
0
  6
CONTINUOUS
 62
    80
  5
850
 10
369.671705
 20
24.188432
 30
0.0
  0
VERTEX
  8
0
  6
CONTINUOUS
 62
    80
  5
851
 10
369.610858
 20
24.180289
 30
0.0
  0
VERTEX
  8
0
  6
CONTINUOUS
 62
    80
  5
852
 10
369.549966
 20
24.172407
 30
0.0
  0
VERTEX
  8
0
  6
CONTINUOUS
 62
    80
  5
853
 10
369.489029
 20
24.164795
 30
0.0
  0
VERTEX
  8
0
  6
CONTINUOUS
 62
    80
  5
854
 10
369.428047
 20
24.157462
 30
0.0
  0
VERTEX
  8
0
  6
CONTINUOUS
 62
    80
  5
855
 10
369.367021
 20
24.150418
 30
0.0
  0
VERTEX
  8
0
  6
CONTINUOUS
 62
    80
  5
856
 10
369.305952
 20
24.143672
 30
0.0
  0
VERTEX
  8
0
  6
CONTINUOUS
 62
    80
  5
857
 10
369.24484
 20
24.137235
 30
0.0
  0
VERTEX
  8
0
  6
CONTINUOUS
 62
    80
  5
858
 10
369.183686
 20
24.131115
 30
0.0
  0
VERTEX
  8
0
  6
CONTINUOUS
 62
    80
  5
859
 10
369.122489
 20
24.125322
 30
0.0
  0
VERTEX
  8
0
  6
CONTINUOUS
 62
    80
  5
85A
 10
369.11635
 20
24.12476
 30
0.0
  0
VERTEX
  8
0
  6
CONTINUOUS
 62
    80
  5
85B
 10
369.11021
 20
24.124201
 30
0.0
  0
VERTEX
  8
0
  6
CONTINUOUS
 62
    80
  5
85C
 10
369.10407
 20
24.123645
 30
0.0
  0
VERTEX
  8
0
  6
CONTINUOUS
 62
    80
  5
85D
 10
369.097931
 20
24.123093
 30
0.0
  0
VERTEX
  8
0
  6
CONTINUOUS
 62
    80
  5
85E
 10
369.091792
 20
24.122544
 30
0.0
  0
VERTEX
  8
0
  6
CONTINUOUS
 62
    80
  5
85F
 10
369.085652
 20
24.121998
 30
0.0
  0
VERTEX
  8
0
  6
CONTINUOUS
 62
    80
  5
860
 10
369.079513
 20
24.121455
 30
0.0
  0
VERTEX
  8
0
  6
CONTINUOUS
 62
    80
  5
861
 10
369.073374
 20
24.120916
 30
0.0
  0
VERTEX
  8
0
  6
CONTINUOUS
 62
    80
  5
862
 10
369.067236
 20
24.12038
 30
0.0
  0
VERTEX
  8
0
  6
CONTINUOUS
 62
    80
  5
863
 10
369.061097
 20
24.119847
 30
0.0
  0
VERTEX
  8
0
  6
CONTINUOUS
 62
    80
  5
864
 10
369.054958
 20
24.119317
 30
0.0
  0
VERTEX
  8
0
  6
CONTINUOUS
 62
    80
  5
865
 10
369.04882
 20
24.118791
 30
0.0
  0
VERTEX
  8
0
  6
CONTINUOUS
 62
    80
  5
866
 10
369.042682
 20
24.118267
 30
0.0
  0
VERTEX
  8
0
  6
CONTINUOUS
 62
    80
  5
867
 10
369.036544
 20
24.117747
 30
0.0
  0
VERTEX
  8
0
  6
CONTINUOUS
 62
    80
  5
868
 10
369.030406
 20
24.117229
 30
0.0
  0
VERTEX
  8
0
  6
CONTINUOUS
 62
    80
  5
869
 10
369.024268
 20
24.116715
 30
0.0
  0
SEQEND
  8
0
  6
CONTINUOUS
 62
    80
  5
86A
  0
POLYLINE
  8
0
  6
CONTINUOUS
 62
    80
  5
341
 66
     1
 10
0.0
 20
0.0
 30
0.0
  0
VERTEX
  8
0
  6
CONTINUOUS
 62
    80
  5
86B
 10
370.18576
 20
24.357117
 30
0.0
  0
VERTEX
  8
0
  6
CONTINUOUS
 62
    80
  5
86C
 10
370.119105
 20
24.346088
 30
0.0
  0
VERTEX
  8
0
  6
CONTINUOUS
 62
    80
  5
86D
 10
370.052405
 20
24.335279
 30
0.0
  0
VERTEX
  8
0
  6
CONTINUOUS
 62
    80
  5
86E
 10
369.985661
 20
24.324703
 30
0.0
  0
VERTEX
  8
0
  6
CONTINUOUS
 62
    80
  5
86F
 10
369.918873
 20
24.314374
 30
0.0
  0
VERTEX
  8
0
  6
CONTINUOUS
 62
    80
  5
870
 10
369.852043
 20
24.304302
 30
0.0
  0
VERTEX
  8
0
  6
CONTINUOUS
 62
    80
  5
871
 10
369.785172
 20
24.294503
 30
0.0
  0
VERTEX
  8
0
  6
CONTINUOUS
 62
    80
  5
872
 10
369.718259
 20
24.284987
 30
0.0
  0
VERTEX
  8
0
  6
CONTINUOUS
 62
    80
  5
873
 10
369.651306
 20
24.275768
 30
0.0
  0
VERTEX
  8
0
  6
CONTINUOUS
 62
    80
  5
874
 10
369.584313
 20
24.266859
 30
0.0
  0
VERTEX
  8
0
  6
CONTINUOUS
 62
    80
  5
875
 10
369.517282
 20
24.258272
 30
0.0
  0
VERTEX
  8
0
  6
CONTINUOUS
 62
    80
  5
876
 10
369.450212
 20
24.25002
 30
0.0
  0
VERTEX
  8
0
  6
CONTINUOUS
 62
    80
  5
877
 10
369.383106
 20
24.242116
 30
0.0
  0
VERTEX
  8
0
  6
CONTINUOUS
 62
    80
  5
878
 10
369.315962
 20
24.234573
 30
0.0
  0
VERTEX
  8
0
  6
CONTINUOUS
 62
    80
  5
879
 10
369.248783
 20
24.227403
 30
0.0
  0
VERTEX
  8
0
  6
CONTINUOUS
 62
    80
  5
87A
 10
369.181568
 20
24.220619
 30
0.0
  0
VERTEX
  8
0
  6
CONTINUOUS
 62
    80
  5
87B
 10
369.114319
 20
24.214233
 30
0.0
  0
SEQEND
  8
0
  6
CONTINUOUS
 62
    80
  5
87C
  0
POLYLINE
  8
0
  6
CONTINUOUS
 62
    80
  5
342
 66
     1
 10
0.0
 20
0.0
 30
0.0
  0
VERTEX
  8
0
  6
CONTINUOUS
 62
    80
  5
87D
 10
368.13214
 20
24.059022
 30
0.0
  0
VERTEX
  8
0
  6
CONTINUOUS
 62
    80
  5
87E
 10
368.12692
 20
24.058698
 30
0.0
  0
VERTEX
  8
0
  6
CONTINUOUS
 62
    80
  5
87F
 10
368.121701
 20
24.058373
 30
0.0
  0
VERTEX
  8
0
  6
CONTINUOUS
 62
    80
  5
880
 10
368.116482
 20
24.058047
 30
0.0
  0
VERTEX
  8
0
  6
CONTINUOUS
 62
    80
  5
881
 10
368.111264
 20
24.05772
 30
0.0
  0
VERTEX
  8
0
  6
CONTINUOUS
 62
    80
  5
882
 10
368.106046
 20
24.057392
 30
0.0
  0
VERTEX
  8
0
  6
CONTINUOUS
 62
    80
  5
883
 10
368.100828
 20
24.057064
 30
0.0
  0
VERTEX
  8
0
  6
CONTINUOUS
 62
    80
  5
884
 10
368.095611
 20
24.056734
 30
0.0
  0
VERTEX
  8
0
  6
CONTINUOUS
 62
    80
  5
885
 10
368.090394
 20
24.056404
 30
0.0
  0
VERTEX
  8
0
  6
CONTINUOUS
 62
    80
  5
886
 10
368.085177
 20
24.056072
 30
0.0
  0
VERTEX
  8
0
  6
CONTINUOUS
 62
    80
  5
887
 10
368.079961
 20
24.05574
 30
0.0
  0
VERTEX
  8
0
  6
CONTINUOUS
 62
    80
  5
888
 10
368.074745
 20
24.055407
 30
0.0
  0
VERTEX
  8
0
  6
CONTINUOUS
 62
    80
  5
889
 10
368.06953
 20
24.055072
 30
0.0
  0
VERTEX
  8
0
  6
CONTINUOUS
 62
    80
  5
88A
 10
368.064314
 20
24.054737
 30
0.0
  0
VERTEX
  8
0
  6
CONTINUOUS
 62
    80
  5
88B
 10
368.0591
 20
24.054401
 30
0.0
  0
VERTEX
  8
0
  6
CONTINUOUS
 62
    80
  5
88C
 10
368.053886
 20
24.054063
 30
0.0
  0
VERTEX
  8
0
  6
CONTINUOUS
 62
    80
  5
88D
 10
368.048672
 20
24.053725
 30
0.0
  0
VERTEX
  8
0
  6
CONTINUOUS
 62
    80
  5
88E
 10
367.995882
 20
24.050236
 30
0.0
  0
VERTEX
  8
0
  6
CONTINUOUS
 62
    80
  5
88F
 10
367.943088
 20
24.04664
 30
0.0
  0
VERTEX
  8
0
  6
CONTINUOUS
 62
    80
  5
890
 10
367.89029
 20
24.042944
 30
0.0
  0
VERTEX
  8
0
  6
CONTINUOUS
 62
    80
  5
891
 10
367.837488
 20
24.039156
 30
0.0
  0
VERTEX
  8
0
  6
CONTINUOUS
 62
    80
  5
892
 10
367.784679
 20
24.035282
 30
0.0
  0
VERTEX
  8
0
  6
CONTINUOUS
 62
    80
  5
893
 10
367.731865
 20
24.03133
 30
0.0
  0
VERTEX
  8
0
  6
CONTINUOUS
 62
    80
  5
894
 10
367.679044
 20
24.027307
 30
0.0
  0
VERTEX
  8
0
  6
CONTINUOUS
 62
    80
  5
895
 10
367.626216
 20
24.023221
 30
0.0
  0
VERTEX
  8
0
  6
CONTINUOUS
 62
    80
  5
896
 10
367.57338
 20
24.019078
 30
0.0
  0
VERTEX
  8
0
  6
CONTINUOUS
 62
    80
  5
897
 10
367.520536
 20
24.014886
 30
0.0
  0
VERTEX
  8
0
  6
CONTINUOUS
 62
    80
  5
898
 10
367.467682
 20
24.010652
 30
0.0
  0
VERTEX
  8
0
  6
CONTINUOUS
 62
    80
  5
899
 10
367.414819
 20
24.006383
 30
0.0
  0
VERTEX
  8
0
  6
CONTINUOUS
 62
    80
  5
89A
 10
367.361946
 20
24.002087
 30
0.0
  0
VERTEX
  8
0
  6
CONTINUOUS
 62
    80
  5
89B
 10
367.309061
 20
23.99777
 30
0.0
  0
VERTEX
  8
0
  6
CONTINUOUS
 62
    80
  5
89C
 10
367.256166
 20
23.993441
 30
0.0
  0
VERTEX
  8
0
  6
CONTINUOUS
 62
    80
  5
89D
 10
367.203258
 20
23.989106
 30
0.0
  0
SEQEND
  8
0
  6
CONTINUOUS
 62
    80
  5
89E
  0
POLYLINE
  8
0
  6
CONTINUOUS
 62
    80
  5
343
 66
     1
 10
0.0
 20
0.0
 30
0.0
  0
VERTEX
  8
0
  6
CONTINUOUS
 62
    80
  5
89F
 10
368.042877
 20
24.142822
 30
0.0
  0
VERTEX
  8
0
  6
CONTINUOUS
 62
    80
  5
8A0
 10
367.984793
 20
24.138978
 30
0.0
  0
VERTEX
  8
0
  6
CONTINUOUS
 62
    80
  5
8A1
 10
367.926719
 20
24.135006
 30
0.0
  0
VERTEX
  8
0
  6
CONTINUOUS
 62
    80
  5
8A2
 10
367.868655
 20
24.130916
 30
0.0
  0
VERTEX
  8
0
  6
CONTINUOUS
 62
    80
  5
8A3
 10
367.810599
 20
24.126719
 30
0.0
  0
VERTEX
  8
0
  6
CONTINUOUS
 62
    80
  5
8A4
 10
367.752551
 20
24.122423
 30
0.0
  0
VERTEX
  8
0
  6
CONTINUOUS
 62
    80
  5
8A5
 10
367.69451
 20
24.118038
 30
0.0
  0
VERTEX
  8
0
  6
CONTINUOUS
 62
    80
  5
8A6
 10
367.636476
 20
24.113573
 30
0.0
  0
VERTEX
  8
0
  6
CONTINUOUS
 62
    80
  5
8A7
 10
367.578447
 20
24.10904
 30
0.0
  0
VERTEX
  8
0
  6
CONTINUOUS
 62
    80
  5
8A8
 10
367.520422
 20
24.104446
 30
0.0
  0
VERTEX
  8
0
  6
CONTINUOUS
 62
    80
  5
8A9
 10
367.462402
 20
24.099801
 30
0.0
  0
VERTEX
  8
0
  6
CONTINUOUS
 62
    80
  5
8AA
 10
367.404385
 20
24.095116
 30
0.0
  0
VERTEX
  8
0
  6
CONTINUOUS
 62
    80
  5
8AB
 10
367.34637
 20
24.090399
 30
0.0
  0
VERTEX
  8
0
  6
CONTINUOUS
 62
    80
  5
8AC
 10
367.288357
 20
24.085661
 30
0.0
  0
VERTEX
  8
0
  6
CONTINUOUS
 62
    80
  5
8AD
 10
367.230345
 20
24.08091
 30
0.0
  0
VERTEX
  8
0
  6
CONTINUOUS
 62
    80
  5
8AE
 10
367.172332
 20
24.076157
 30
0.0
  0
VERTEX
  8
0
  6
CONTINUOUS
 62
    80
  5
8AF
 10
367.114319
 20
24.071411
 30
0.0
  0
SEQEND
  8
0
  6
CONTINUOUS
 62
    80
  5
8B0
  0
POLYLINE
  8
0
  6
CONTINUOUS
 62
    80
  5
344
 66
     1
 10
0.0
 20
0.0
 30
0.0
  0
VERTEX
  8
0
  6
CONTINUOUS
 62
    80
  5
8B1
 10
367.202941
 20
23.5227
 30
0.0
  0
VERTEX
  8
0
  6
CONTINUOUS
 62
    80
  5
8B2
 10
367.25494
 20
23.525706
 30
0.0
  0
VERTEX
  8
0
  6
CONTINUOUS
 62
    80
  5
8B3
 10
367.306931
 20
23.528865
 30
0.0
  0
VERTEX
  8
0
  6
CONTINUOUS
 62
    80
  5
8B4
 10
367.358914
 20
23.532176
 30
0.0
  0
VERTEX
  8
0
  6
CONTINUOUS
 62
    80
  5
8B5
 10
367.410888
 20
23.535638
 30
0.0
  0
VERTEX
  8
0
  6
CONTINUOUS
 62
    80
  5
8B6
 10
367.462854
 20
23.539252
 30
0.0
  0
VERTEX
  8
0
  6
CONTINUOUS
 62
    80
  5
8B7
 10
367.514811
 20
23.543016
 30
0.0
  0
VERTEX
  8
0
  6
CONTINUOUS
 62
    80
  5
8B8
 10
367.566758
 20
23.546929
 30
0.0
  0
VERTEX
  8
0
  6
CONTINUOUS
 62
    80
  5
8B9
 10
367.618694
 20
23.550993
 30
0.0
  0
VERTEX
  8
0
  6
CONTINUOUS
 62
    80
  5
8BA
 10
367.670621
 20
23.555205
 30
0.0
  0
VERTEX
  8
0
  6
CONTINUOUS
 62
    80
  5
8BB
 10
367.722536
 20
23.559566
 30
0.0
  0
VERTEX
  8
0
  6
CONTINUOUS
 62
    80
  5
8BC
 10
367.77444
 20
23.564075
 30
0.0
  0
VERTEX
  8
0
  6
CONTINUOUS
 62
    80
  5
8BD
 10
367.826332
 20
23.568731
 30
0.0
  0
VERTEX
  8
0
  6
CONTINUOUS
 62
    80
  5
8BE
 10
367.878211
 20
23.573534
 30
0.0
  0
VERTEX
  8
0
  6
CONTINUOUS
 62
    80
  5
8BF
 10
367.930078
 20
23.578484
 30
0.0
  0
VERTEX
  8
0
  6
CONTINUOUS
 62
    80
  5
8C0
 10
367.981932
 20
23.583579
 30
0.0
  0
VERTEX
  8
0
  6
CONTINUOUS
 62
    80
  5
8C1
 10
368.033772
 20
23.58882
 30
0.0
  0
VERTEX
  8
0
  6
CONTINUOUS
 62
    80
  5
8C2
 10
368.100654
 20
23.595799
 30
0.0
  0
VERTEX
  8
0
  6
CONTINUOUS
 62
    80
  5
8C3
 10
368.167507
 20
23.603021
 30
0.0
  0
VERTEX
  8
0
  6
CONTINUOUS
 62
    80
  5
8C4
 10
368.23433
 20
23.610488
 30
0.0
  0
VERTEX
  8
0
  6
CONTINUOUS
 62
    80
  5
8C5
 10
368.301121
 20
23.618204
 30
0.0
  0
VERTEX
  8
0
  6
CONTINUOUS
 62
    80
  5
8C6
 10
368.36788
 20
23.62617
 30
0.0
  0
VERTEX
  8
0
  6
CONTINUOUS
 62
    80
  5
8C7
 10
368.434605
 20
23.634387
 30
0.0
  0
VERTEX
  8
0
  6
CONTINUOUS
 62
    80
  5
8C8
 10
368.501295
 20
23.64286
 30
0.0
  0
VERTEX
  8
0
  6
CONTINUOUS
 62
    80
  5
8C9
 10
368.567949
 20
23.651588
 30
0.0
  0
VERTEX
  8
0
  6
CONTINUOUS
 62
    80
  5
8CA
 10
368.634565
 20
23.660575
 30
0.0
  0
VERTEX
  8
0
  6
CONTINUOUS
 62
    80
  5
8CB
 10
368.701141
 20
23.669823
 30
0.0
  0
VERTEX
  8
0
  6
CONTINUOUS
 62
    80
  5
8CC
 10
368.767678
 20
23.679334
 30
0.0
  0
VERTEX
  8
0
  6
CONTINUOUS
 62
    80
  5
8CD
 10
368.834173
 20
23.689109
 30
0.0
  0
VERTEX
  8
0
  6
CONTINUOUS
 62
    80
  5
8CE
 10
368.900624
 20
23.699152
 30
0.0
  0
VERTEX
  8
0
  6
CONTINUOUS
 62
    80
  5
8CF
 10
368.967032
 20
23.709464
 30
0.0
  0
VERTEX
  8
0
  6
CONTINUOUS
 62
    80
  5
8D0
 10
369.033395
 20
23.720048
 30
0.0
  0
VERTEX
  8
0
  6
CONTINUOUS
 62
    80
  5
8D1
 10
369.09971
 20
23.730905
 30
0.0
  0
VERTEX
  8
0
  6
CONTINUOUS
 62
    80
  5
8D2
 10
369.162399
 20
23.741428
 30
0.0
  0
VERTEX
  8
0
  6
CONTINUOUS
 62
    80
  5
8D3
 10
369.225048
 20
23.752198
 30
0.0
  0
VERTEX
  8
0
  6
CONTINUOUS
 62
    80
  5
8D4
 10
369.287657
 20
23.763212
 30
0.0
  0
VERTEX
  8
0
  6
CONTINUOUS
 62
    80
  5
8D5
 10
369.350224
 20
23.77447
 30
0.0
  0
VERTEX
  8
0
  6
CONTINUOUS
 62
    80
  5
8D6
 10
369.412748
 20
23.785972
 30
0.0
  0
VERTEX
  8
0
  6
CONTINUOUS
 62
    80
  5
8D7
 10
369.475228
 20
23.797716
 30
0.0
  0
VERTEX
  8
0
  6
CONTINUOUS
 62
    80
  5
8D8
 10
369.537664
 20
23.809701
 30
0.0
  0
VERTEX
  8
0
  6
CONTINUOUS
 62
    80
  5
8D9
 10
369.600054
 20
23.821927
 30
0.0
  0
VERTEX
  8
0
  6
CONTINUOUS
 62
    80
  5
8DA
 10
369.662396
 20
23.834392
 30
0.0
  0
VERTEX
  8
0
  6
CONTINUOUS
 62
    80
  5
8DB
 10
369.724691
 20
23.847096
 30
0.0
  0
VERTEX
  8
0
  6
CONTINUOUS
 62
    80
  5
8DC
 10
369.786937
 20
23.860038
 30
0.0
  0
VERTEX
  8
0
  6
CONTINUOUS
 62
    80
  5
8DD
 10
369.849133
 20
23.873216
 30
0.0
  0
VERTEX
  8
0
  6
CONTINUOUS
 62
    80
  5
8DE
 10
369.911278
 20
23.88663
 30
0.0
  0
VERTEX
  8
0
  6
CONTINUOUS
 62
    80
  5
8DF
 10
369.97337
 20
23.90028
 30
0.0
  0
VERTEX
  8
0
  6
CONTINUOUS
 62
    80
  5
8E0
 10
370.03541
 20
23.914163
 30
0.0
  0
VERTEX
  8
0
  6
CONTINUOUS
 62
    80
  5
8E1
 10
370.097395
 20
23.92828
 30
0.0
  0
SEQEND
  8
0
  6
CONTINUOUS
 62
    80
  5
8E2
  0
POLYLINE
  8
0
  6
CONTINUOUS
 62
    80
  5
345
 66
     1
 10
0.0
 20
0.0
 30
0.0
  0
VERTEX
  8
0
  6
CONTINUOUS
 62
    80
  5
8E3
 10
367.114319
 20
23.428528
 30
0.0
  0
VERTEX
  8
0
  6
CONTINUOUS
 62
    80
  5
8E4
 10
367.172446
 20
23.43159
 30
0.0
  0
VERTEX
  8
0
  6
CONTINUOUS
 62
    80
  5
8E5
 10
367.230563
 20
23.434843
 30
0.0
  0
VERTEX
  8
0
  6
CONTINUOUS
 62
    80
  5
8E6
 10
367.288671
 20
23.438286
 30
0.0
  0
VERTEX
  8
0
  6
CONTINUOUS
 62
    80
  5
8E7
 10
367.346767
 20
23.441918
 30
0.0
  0
VERTEX
  8
0
  6
CONTINUOUS
 62
    80
  5
8E8
 10
367.404853
 20
23.445739
 30
0.0
  0
VERTEX
  8
0
  6
CONTINUOUS
 62
    80
  5
8E9
 10
367.462926
 20
23.449747
 30
0.0
  0
VERTEX
  8
0
  6
CONTINUOUS
 62
    80
  5
8EA
 10
367.520987
 20
23.453943
 30
0.0
  0
VERTEX
  8
0
  6
CONTINUOUS
 62
    80
  5
8EB
 10
367.579035
 20
23.458325
 30
0.0
  0
VERTEX
  8
0
  6
CONTINUOUS
 62
    80
  5
8EC
 10
367.63707
 20
23.462892
 30
0.0
  0
VERTEX
  8
0
  6
CONTINUOUS
 62
    80
  5
8ED
 10
367.69509
 20
23.467644
 30
0.0
  0
VERTEX
  8
0
  6
CONTINUOUS
 62
    80
  5
8EE
 10
367.753095
 20
23.472581
 30
0.0
  0
VERTEX
  8
0
  6
CONTINUOUS
 62
    80
  5
8EF
 10
367.811085
 20
23.4777
 30
0.0
  0
VERTEX
  8
0
  6
CONTINUOUS
 62
    80
  5
8F0
 10
367.869058
 20
23.483003
 30
0.0
  0
VERTEX
  8
0
  6
CONTINUOUS
 62
    80
  5
8F1
 10
367.927015
 20
23.488488
 30
0.0
  0
VERTEX
  8
0
  6
CONTINUOUS
 62
    80
  5
8F2
 10
367.984955
 20
23.494153
 30
0.0
  0
VERTEX
  8
0
  6
CONTINUOUS
 62
    80
  5
8F3
 10
368.042877
 20
23.5
 30
0.0
  0
VERTEX
  8
0
  6
CONTINUOUS
 62
    80
  5
8F4
 10
368.110081
 20
23.507012
 30
0.0
  0
VERTEX
  8
0
  6
CONTINUOUS
 62
    80
  5
8F5
 10
368.177259
 20
23.514269
 30
0.0
  0
VERTEX
  8
0
  6
CONTINUOUS
 62
    80
  5
8F6
 10
368.24441
 20
23.521774
 30
0.0
  0
VERTEX
  8
0
  6
CONTINUOUS
 62
    80
  5
8F7
 10
368.311533
 20
23.529528
 30
0.0
  0
VERTEX
  8
0
  6
CONTINUOUS
 62
    80
  5
8F8
 10
368.378626
 20
23.537533
 30
0.0
  0
VERTEX
  8
0
  6
CONTINUOUS
 62
    80
  5
8F9
 10
368.445688
 20
23.545792
 30
0.0
  0
VERTEX
  8
0
  6
CONTINUOUS
 62
    80
  5
8FA
 10
368.512718
 20
23.554307
 30
0.0
  0
VERTEX
  8
0
  6
CONTINUOUS
 62
    80
  5
8FB
 10
368.579714
 20
23.563081
 30
0.0
  0
VERTEX
  8
0
  6
CONTINUOUS
 62
    80
  5
8FC
 10
368.646675
 20
23.572115
 30
0.0
  0
VERTEX
  8
0
  6
CONTINUOUS
 62
    80
  5
8FD
 10
368.7136
 20
23.581411
 30
0.0
  0
VERTEX
  8
0
  6
CONTINUOUS
 62
    80
  5
8FE
 10
368.780488
 20
23.590972
 30
0.0
  0
VERTEX
  8
0
  6
CONTINUOUS
 62
    80
  5
8FF
 10
368.847336
 20
23.600799
 30
0.0
  0
VERTEX
  8
0
  6
CONTINUOUS
 62
    80
  5
900
 10
368.914145
 20
23.610896
 30
0.0
  0
VERTEX
  8
0
  6
CONTINUOUS
 62
    80
  5
901
 10
368.980913
 20
23.621264
 30
0.0
  0
VERTEX
  8
0
  6
CONTINUOUS
 62
    80
  5
902
 10
369.047638
 20
23.631905
 30
0.0
  0
VERTEX
  8
0
  6
CONTINUOUS
 62
    80
  5
903
 10
369.114319
 20
23.642822
 30
0.0
  0
VERTEX
  8
0
  6
CONTINUOUS
 62
    80
  5
904
 10
369.181679
 20
23.654139
 30
0.0
  0
VERTEX
  8
0
  6
CONTINUOUS
 62
    80
  5
905
 10
369.248992
 20
23.665738
 30
0.0
  0
VERTEX
  8
0
  6
CONTINUOUS
 62
    80
  5
906
 10
369.316257
 20
23.677618
 30
0.0
  0
VERTEX
  8
0
  6
CONTINUOUS
 62
    80
  5
907
 10
369.383473
 20
23.689778
 30
0.0
  0
VERTEX
  8
0
  6
CONTINUOUS
 62
    80
  5
908
 10
369.450638
 20
23.702217
 30
0.0
  0
VERTEX
  8
0
  6
CONTINUOUS
 62
    80
  5
909
 10
369.517752
 20
23.714933
 30
0.0
  0
VERTEX
  8
0
  6
CONTINUOUS
 62
    80
  5
90A
 10
369.584813
 20
23.727925
 30
0.0
  0
VERTEX
  8
0
  6
CONTINUOUS
 62
    80
  5
90B
 10
369.651819
 20
23.741193
 30
0.0
  0
VERTEX
  8
0
  6
CONTINUOUS
 62
    80
  5
90C
 10
369.718769
 20
23.754736
 30
0.0
  0
VERTEX
  8
0
  6
CONTINUOUS
 62
    80
  5
90D
 10
369.785663
 20
23.768551
 30
0.0
  0
VERTEX
  8
0
  6
CONTINUOUS
 62
    80
  5
90E
 10
369.852499
 20
23.782638
 30
0.0
  0
VERTEX
  8
0
  6
CONTINUOUS
 62
    80
  5
90F
 10
369.919275
 20
23.796997
 30
0.0
  0
VERTEX
  8
0
  6
CONTINUOUS
 62
    80
  5
910
 10
369.985991
 20
23.811625
 30
0.0
  0
VERTEX
  8
0
  6
CONTINUOUS
 62
    80
  5
911
 10
370.052644
 20
23.826522
 30
0.0
  0
VERTEX
  8
0
  6
CONTINUOUS
 62
    80
  5
912
 10
370.119235
 20
23.841686
 30
0.0
  0
VERTEX
  8
0
  6
CONTINUOUS
 62
    80
  5
913
 10
370.18576
 20
23.857117
 30
0.0
  0
SEQEND
  8
0
  6
CONTINUOUS
 62
    80
  5
914
  0
POLYLINE
  8
0
  6
CONTINUOUS
 62
    80
  5
346
 66
     1
 10
0.0
 20
0.0
 30
0.0
  0
VERTEX
  8
0
  6
CONTINUOUS
 62
    80
  5
915
 10
376.064983
 20
27.406361
 30
0.0
  0
VERTEX
  8
0
  6
CONTINUOUS
 62
    80
  5
916
 10
375.891456
 20
27.350105
 30
0.0
  0
VERTEX
  8
0
  6
CONTINUOUS
 62
    80
  5
917
 10
375.71793
 20
27.293849
 30
0.0
  0
VERTEX
  8
0
  6
CONTINUOUS
 62
    80
  5
918
 10
375.544404
 20
27.237592
 30
0.0
  0
VERTEX
  8
0
  6
CONTINUOUS
 62
    80
  5
919
 10
375.370879
 20
27.181335
 30
0.0
  0
VERTEX
  8
0
  6
CONTINUOUS
 62
    80
  5
91A
 10
375.197354
 20
27.125079
 30
0.0
  0
VERTEX
  8
0
  6
CONTINUOUS
 62
    80
  5
91B
 10
375.023829
 20
27.068821
 30
0.0
  0
VERTEX
  8
0
  6
CONTINUOUS
 62
    80
  5
91C
 10
374.850305
 20
27.012564
 30
0.0
  0
VERTEX
  8
0
  6
CONTINUOUS
 62
    80
  5
91D
 10
374.67678
 20
26.956307
 30
0.0
  0
VERTEX
  8
0
  6
CONTINUOUS
 62
    80
  5
91E
 10
374.503256
 20
26.90005
 30
0.0
  0
VERTEX
  8
0
  6
CONTINUOUS
 62
    80
  5
91F
 10
374.329731
 20
26.843792
 30
0.0
  0
VERTEX
  8
0
  6
CONTINUOUS
 62
    80
  5
920
 10
374.156206
 20
26.787535
 30
0.0
  0
VERTEX
  8
0
  6
CONTINUOUS
 62
    80
  5
921
 10
373.982681
 20
26.731278
 30
0.0
  0
VERTEX
  8
0
  6
CONTINUOUS
 62
    80
  5
922
 10
373.809155
 20
26.675021
 30
0.0
  0
VERTEX
  8
0
  6
CONTINUOUS
 62
    80
  5
923
 10
373.635629
 20
26.618765
 30
0.0
  0
VERTEX
  8
0
  6
CONTINUOUS
 62
    80
  5
924
 10
373.462103
 20
26.562508
 30
0.0
  0
VERTEX
  8
0
  6
CONTINUOUS
 62
    80
  5
925
 10
373.288576
 20
26.506252
 30
0.0
  0
SEQEND
  8
0
  6
CONTINUOUS
 62
    80
  5
926
  0
POLYLINE
  8
0
  6
CONTINUOUS
 62
    80
  5
347
 66
     1
 10
0.0
 20
0.0
 30
0.0
  0
VERTEX
  8
0
  6
CONTINUOUS
 62
    80
  5
927
 10
376.064301
 20
27.5
 30
0.0
  0
VERTEX
  8
0
  6
CONTINUOUS
 62
    80
  5
928
 10
375.885283
 20
27.441964
 30
0.0
  0
VERTEX
  8
0
  6
CONTINUOUS
 62
    80
  5
929
 10
375.706266
 20
27.383928
 30
0.0
  0
VERTEX
  8
0
  6
CONTINUOUS
 62
    80
  5
92A
 10
375.52725
 20
27.325891
 30
0.0
  0
VERTEX
  8
0
  6
CONTINUOUS
 62
    80
  5
92B
 10
375.348233
 20
27.267854
 30
0.0
  0
VERTEX
  8
0
  6
CONTINUOUS
 62
    80
  5
92C
 10
375.169218
 20
27.209817
 30
0.0
  0
VERTEX
  8
0
  6
CONTINUOUS
 62
    80
  5
92D
 10
374.990202
 20
27.15178
 30
0.0
  0
VERTEX
  8
0
  6
CONTINUOUS
 62
    80
  5
92E
 10
374.811187
 20
27.093743
 30
0.0
  0
VERTEX
  8
0
  6
CONTINUOUS
 62
    80
  5
92F
 10
374.632172
 20
27.035706
 30
0.0
  0
VERTEX
  8
0
  6
CONTINUOUS
 62
    80
  5
930
 10
374.453156
 20
26.977668
 30
0.0
  0
VERTEX
  8
0
  6
CONTINUOUS
 62
    80
  5
931
 10
374.274141
 20
26.919631
 30
0.0
  0
VERTEX
  8
0
  6
CONTINUOUS
 62
    80
  5
932
 10
374.095126
 20
26.861594
 30
0.0
  0
VERTEX
  8
0
  6
CONTINUOUS
 62
    80
  5
933
 10
373.91611
 20
26.803557
 30
0.0
  0
VERTEX
  8
0
  6
CONTINUOUS
 62
    80
  5
934
 10
373.737094
 20
26.74552
 30
0.0
  0
VERTEX
  8
0
  6
CONTINUOUS
 62
    80
  5
935
 10
373.558077
 20
26.687483
 30
0.0
  0
VERTEX
  8
0
  6
CONTINUOUS
 62
    80
  5
936
 10
373.37906
 20
26.629447
 30
0.0
  0
VERTEX
  8
0
  6
CONTINUOUS
 62
    80
  5
937
 10
373.200043
 20
26.571411
 30
0.0
  0
SEQEND
  8
0
  6
CONTINUOUS
 62
    80
  5
938
  0
POLYLINE
  8
0
  6
CONTINUOUS
 62
    80
  5
348
 66
     1
 10
0.0
 20
0.0
 30
0.0
  0
VERTEX
  8
0
  6
CONTINUOUS
 62
    80
  5
939
 10
376.063618
 20
27.406361
 30
0.0
  0
VERTEX
  8
0
  6
CONTINUOUS
 62
    80
  5
93A
 10
376.237146
 20
27.350105
 30
0.0
  0
VERTEX
  8
0
  6
CONTINUOUS
 62
    80
  5
93B
 10
376.410673
 20
27.293849
 30
0.0
  0
VERTEX
  8
0
  6
CONTINUOUS
 62
    80
  5
93C
 10
376.5842
 20
27.237592
 30
0.0
  0
VERTEX
  8
0
  6
CONTINUOUS
 62
    80
  5
93D
 10
376.757727
 20
27.181335
 30
0.0
  0
VERTEX
  8
0
  6
CONTINUOUS
 62
    80
  5
93E
 10
376.931254
 20
27.125078
 30
0.0
  0
VERTEX
  8
0
  6
CONTINUOUS
 62
    80
  5
93F
 10
377.104782
 20
27.068821
 30
0.0
  0
VERTEX
  8
0
  6
CONTINUOUS
 62
    80
  5
940
 10
377.278309
 20
27.012564
 30
0.0
  0
VERTEX
  8
0
  6
CONTINUOUS
 62
    80
  5
941
 10
377.451836
 20
26.956307
 30
0.0
  0
VERTEX
  8
0
  6
CONTINUOUS
 62
    80
  5
942
 10
377.625364
 20
26.90005
 30
0.0
  0
VERTEX
  8
0
  6
CONTINUOUS
 62
    80
  5
943
 10
377.798891
 20
26.843792
 30
0.0
  0
VERTEX
  8
0
  6
CONTINUOUS
 62
    80
  5
944
 10
377.972418
 20
26.787535
 30
0.0
  0
VERTEX
  8
0
  6
CONTINUOUS
 62
    80
  5
945
 10
378.145946
 20
26.731278
 30
0.0
  0
VERTEX
  8
0
  6
CONTINUOUS
 62
    80
  5
946
 10
378.319473
 20
26.675021
 30
0.0
  0
VERTEX
  8
0
  6
CONTINUOUS
 62
    80
  5
947
 10
378.493001
 20
26.618765
 30
0.0
  0
VERTEX
  8
0
  6
CONTINUOUS
 62
    80
  5
948
 10
378.666528
 20
26.562508
 30
0.0
  0
VERTEX
  8
0
  6
CONTINUOUS
 62
    80
  5
949
 10
378.840055
 20
26.506252
 30
0.0
  0
SEQEND
  8
0
  6
CONTINUOUS
 62
    80
  5
94A
  0
POLYLINE
  8
0
  6
CONTINUOUS
 62
    80
  5
349
 66
     1
 10
0.0
 20
0.0
 30
0.0
  0
VERTEX
  8
0
  6
CONTINUOUS
 62
    80
  5
94B
 10
376.064301
 20
27.5
 30
0.0
  0
VERTEX
  8
0
  6
CONTINUOUS
 62
    80
  5
94C
 10
376.243318
 20
27.441964
 30
0.0
  0
VERTEX
  8
0
  6
CONTINUOUS
 62
    80
  5
94D
 10
376.422336
 20
27.383928
 30
0.0
  0
VERTEX
  8
0
  6
CONTINUOUS
 62
    80
  5
94E
 10
376.601354
 20
27.325891
 30
0.0
  0
VERTEX
  8
0
  6
CONTINUOUS
 62
    80
  5
94F
 10
376.780372
 20
27.267854
 30
0.0
  0
VERTEX
  8
0
  6
CONTINUOUS
 62
    80
  5
950
 10
376.95939
 20
27.209817
 30
0.0
  0
VERTEX
  8
0
  6
CONTINUOUS
 62
    80
  5
951
 10
377.138409
 20
27.15178
 30
0.0
  0
VERTEX
  8
0
  6
CONTINUOUS
 62
    80
  5
952
 10
377.317427
 20
27.093743
 30
0.0
  0
VERTEX
  8
0
  6
CONTINUOUS
 62
    80
  5
953
 10
377.496445
 20
27.035706
 30
0.0
  0
VERTEX
  8
0
  6
CONTINUOUS
 62
    80
  5
954
 10
377.675463
 20
26.977668
 30
0.0
  0
VERTEX
  8
0
  6
CONTINUOUS
 62
    80
  5
955
 10
377.854481
 20
26.919631
 30
0.0
  0
VERTEX
  8
0
  6
CONTINUOUS
 62
    80
  5
956
 10
378.033499
 20
26.861594
 30
0.0
  0
VERTEX
  8
0
  6
CONTINUOUS
 62
    80
  5
957
 10
378.212517
 20
26.803557
 30
0.0
  0
VERTEX
  8
0
  6
CONTINUOUS
 62
    80
  5
958
 10
378.391535
 20
26.74552
 30
0.0
  0
VERTEX
  8
0
  6
CONTINUOUS
 62
    80
  5
959
 10
378.570553
 20
26.687483
 30
0.0
  0
VERTEX
  8
0
  6
CONTINUOUS
 62
    80
  5
95A
 10
378.749571
 20
26.629447
 30
0.0
  0
VERTEX
  8
0
  6
CONTINUOUS
 62
    80
  5
95B
 10
378.928589
 20
26.571411
 30
0.0
  0
SEQEND
  8
0
  6
CONTINUOUS
 62
    80
  5
95C
  0
POLYLINE
  8
0
  6
CONTINUOUS
 62
    80
  5
34A
 66
     1
 10
0.0
 20
0.0
 30
0.0
  0
VERTEX
  8
0
  6
CONTINUOUS
 62
    80
  5
95D
 10
364.092568
 20
25.661199
 30
0.0
  0
VERTEX
  8
0
  6
CONTINUOUS
 62
    80
  5
95E
 10
364.092525
 20
25.661035
 30
0.0
  0
VERTEX
  8
0
  6
CONTINUOUS
 62
    80
  5
95F
 10
364.092481
 20
25.660871
 30
0.0
  0
VERTEX
  8
0
  6
CONTINUOUS
 62
    80
  5
960
 10
364.092437
 20
25.660707
 30
0.0
  0
VERTEX
  8
0
  6
CONTINUOUS
 62
    80
  5
961
 10
364.092393
 20
25.660543
 30
0.0
  0
VERTEX
  8
0
  6
CONTINUOUS
 62
    80
  5
962
 10
364.092349
 20
25.660379
 30
0.0
  0
VERTEX
  8
0
  6
CONTINUOUS
 62
    80
  5
963
 10
364.092305
 20
25.660215
 30
0.0
  0
VERTEX
  8
0
  6
CONTINUOUS
 62
    80
  5
964
 10
364.092261
 20
25.660052
 30
0.0
  0
VERTEX
  8
0
  6
CONTINUOUS
 62
    80
  5
965
 10
364.092217
 20
25.659888
 30
0.0
  0
VERTEX
  8
0
  6
CONTINUOUS
 62
    80
  5
966
 10
364.092173
 20
25.659724
 30
0.0
  0
VERTEX
  8
0
  6
CONTINUOUS
 62
    80
  5
967
 10
364.092129
 20
25.65956
 30
0.0
  0
VERTEX
  8
0
  6
CONTINUOUS
 62
    80
  5
968
 10
364.092085
 20
25.659396
 30
0.0
  0
VERTEX
  8
0
  6
CONTINUOUS
 62
    80
  5
969
 10
364.092041
 20
25.659232
 30
0.0
  0
VERTEX
  8
0
  6
CONTINUOUS
 62
    80
  5
96A
 10
364.091997
 20
25.659069
 30
0.0
  0
VERTEX
  8
0
  6
CONTINUOUS
 62
    80
  5
96B
 10
364.091953
 20
25.658905
 30
0.0
  0
VERTEX
  8
0
  6
CONTINUOUS
 62
    80
  5
96C
 10
364.091909
 20
25.658741
 30
0.0
  0
VERTEX
  8
0
  6
CONTINUOUS
 62
    80
  5
96D
 10
364.091865
 20
25.658577
 30
0.0
  0
VERTEX
  8
0
  6
CONTINUOUS
 62
    80
  5
96E
 10
364.089642
 20
25.650438
 30
0.0
  0
VERTEX
  8
0
  6
CONTINUOUS
 62
    80
  5
96F
 10
364.087366
 20
25.642309
 30
0.0
  0
VERTEX
  8
0
  6
CONTINUOUS
 62
    80
  5
970
 10
364.085037
 20
25.634188
 30
0.0
  0
VERTEX
  8
0
  6
CONTINUOUS
 62
    80
  5
971
 10
364.082656
 20
25.626077
 30
0.0
  0
VERTEX
  8
0
  6
CONTINUOUS
 62
    80
  5
972
 10
364.080223
 20
25.617976
 30
0.0
  0
VERTEX
  8
0
  6
CONTINUOUS
 62
    80
  5
973
 10
364.077739
 20
25.609886
 30
0.0
  0
VERTEX
  8
0
  6
CONTINUOUS
 62
    80
  5
974
 10
364.075203
 20
25.601805
 30
0.0
  0
VERTEX
  8
0
  6
CONTINUOUS
 62
    80
  5
975
 10
364.072618
 20
25.593736
 30
0.0
  0
VERTEX
  8
0
  6
CONTINUOUS
 62
    80
  5
976
 10
364.069982
 20
25.585677
 30
0.0
  0
VERTEX
  8
0
  6
CONTINUOUS
 62
    80
  5
977
 10
364.067298
 20
25.57763
 30
0.0
  0
VERTEX
  8
0
  6
CONTINUOUS
 62
    80
  5
978
 10
364.064564
 20
25.569595
 30
0.0
  0
VERTEX
  8
0
  6
CONTINUOUS
 62
    80
  5
979
 10
364.061783
 20
25.561572
 30
0.0
  0
VERTEX
  8
0
  6
CONTINUOUS
 62
    80
  5
97A
 10
364.058954
 20
25.55356
 30
0.0
  0
VERTEX
  8
0
  6
CONTINUOUS
 62
    80
  5
97B
 10
364.056077
 20
25.545562
 30
0.0
  0
VERTEX
  8
0
  6
CONTINUOUS
 62
    80
  5
97C
 10
364.053155
 20
25.537576
 30
0.0
  0
VERTEX
  8
0
  6
CONTINUOUS
 62
    80
  5
97D
 10
364.050186
 20
25.529604
 30
0.0
  0
VERTEX
  8
0
  6
CONTINUOUS
 62
    80
  5
97E
 10
364.030506
 20
25.479843
 30
0.0
  0
VERTEX
  8
0
  6
CONTINUOUS
 62
    80
  5
97F
 10
364.009098
 20
25.43057
 30
0.0
  0
VERTEX
  8
0
  6
CONTINUOUS
 62
    80
  5
980
 10
363.986057
 20
25.381732
 30
0.0
  0
VERTEX
  8
0
  6
CONTINUOUS
 62
    80
  5
981
 10
363.961478
 20
25.333281
 30
0.0
  0
VERTEX
  8
0
  6
CONTINUOUS
 62
    80
  5
982
 10
363.93546
 20
25.285171
 30
0.0
  0
VERTEX
  8
0
  6
CONTINUOUS
 62
    80
  5
983
 10
363.908106
 20
25.23736
 30
0.0
  0
VERTEX
  8
0
  6
CONTINUOUS
 62
    80
  5
984
 10
363.879522
 20
25.189804
 30
0.0
  0
VERTEX
  8
0
  6
CONTINUOUS
 62
    80
  5
985
 10
363.849815
 20
25.142463
 30
0.0
  0
VERTEX
  8
0
  6
CONTINUOUS
 62
    80
  5
986
 10
363.819098
 20
25.095296
 30
0.0
  0
VERTEX
  8
0
  6
CONTINUOUS
 62
    80
  5
987
 10
363.787483
 20
25.048259
 30
0.0
  0
VERTEX
  8
0
  6
CONTINUOUS
 62
    80
  5
988
 10
363.755085
 20
25.00131
 30
0.0
  0
VERTEX
  8
0
  6
CONTINUOUS
 62
    80
  5
989
 10
363.722021
 20
24.954404
 30
0.0
  0
VERTEX
  8
0
  6
CONTINUOUS
 62
    80
  5
98A
 10
363.688411
 20
24.907497
 30
0.0
  0
VERTEX
  8
0
  6
CONTINUOUS
 62
    80
  5
98B
 10
363.654373
 20
24.860541
 30
0.0
  0
VERTEX
  8
0
  6
CONTINUOUS
 62
    80
  5
98C
 10
363.620028
 20
24.813488
 30
0.0
  0
VERTEX
  8
0
  6
CONTINUOUS
 62
    80
  5
98D
 10
363.585498
 20
24.766285
 30
0.0
  0
VERTEX
  8
0
  6
CONTINUOUS
 62
    80
  5
98E
 10
363.547904
 20
24.714815
 30
0.0
  0
VERTEX
  8
0
  6
CONTINUOUS
 62
    80
  5
98F
 10
363.510443
 20
24.663459
 30
0.0
  0
VERTEX
  8
0
  6
CONTINUOUS
 62
    80
  5
990
 10
363.473077
 20
24.612239
 30
0.0
  0
VERTEX
  8
0
  6
CONTINUOUS
 62
    80
  5
991
 10
363.43577
 20
24.561175
 30
0.0
  0
VERTEX
  8
0
  6
CONTINUOUS
 62
    80
  5
992
 10
363.398484
 20
24.510286
 30
0.0
  0
VERTEX
  8
0
  6
CONTINUOUS
 62
    80
  5
993
 10
363.361182
 20
24.459592
 30
0.0
  0
VERTEX
  8
0
  6
CONTINUOUS
 62
    80
  5
994
 10
363.323828
 20
24.409114
 30
0.0
  0
VERTEX
  8
0
  6
CONTINUOUS
 62
    80
  5
995
 10
363.286385
 20
24.358871
 30
0.0
  0
VERTEX
  8
0
  6
CONTINUOUS
 62
    80
  5
996
 10
363.248816
 20
24.308881
 30
0.0
  0
VERTEX
  8
0
  6
CONTINUOUS
 62
    80
  5
997
 10
363.211085
 20
24.259165
 30
0.0
  0
VERTEX
  8
0
  6
CONTINUOUS
 62
    80
  5
998
 10
363.173156
 20
24.209741
 30
0.0
  0
VERTEX
  8
0
  6
CONTINUOUS
 62
    80
  5
999
 10
363.134992
 20
24.160629
 30
0.0
  0
VERTEX
  8
0
  6
CONTINUOUS
 62
    80
  5
99A
 10
363.096556
 20
24.111847
 30
0.0
  0
VERTEX
  8
0
  6
CONTINUOUS
 62
    80
  5
99B
 10
363.057814
 20
24.063413
 30
0.0
  0
VERTEX
  8
0
  6
CONTINUOUS
 62
    80
  5
99C
 10
363.018727
 20
24.015347
 30
0.0
  0
VERTEX
  8
0
  6
CONTINUOUS
 62
    80
  5
99D
 10
362.979261
 20
23.967665
 30
0.0
  0
SEQEND
  8
0
  6
CONTINUOUS
 62
    80
  5
99E
  0
POLYLINE
  8
0
  6
CONTINUOUS
 62
    80
  5
34B
 66
     1
 10
0.0
 20
0.0
 30
0.0
  0
VERTEX
  8
0
  6
CONTINUOUS
 62
    80
  5
99F
 10
364.221762
 20
25.662003
 30
0.0
  0
VERTEX
  8
0
  6
CONTINUOUS
 62
    80
  5
9A0
 10
364.221213
 20
25.659748
 30
0.0
  0
VERTEX
  8
0
  6
CONTINUOUS
 62
    80
  5
9A1
 10
364.220661
 20
25.657494
 30
0.0
  0
VERTEX
  8
0
  6
CONTINUOUS
 62
    80
  5
9A2
 10
364.220105
 20
25.655241
 30
0.0
  0
VERTEX
  8
0
  6
CONTINUOUS
 62
    80
  5
9A3
 10
364.219545
 20
25.652989
 30
0.0
  0
VERTEX
  8
0
  6
CONTINUOUS
 62
    80
  5
9A4
 10
364.218982
 20
25.650737
 30
0.0
  0
VERTEX
  8
0
  6
CONTINUOUS
 62
    80
  5
9A5
 10
364.218416
 20
25.648487
 30
0.0
  0
VERTEX
  8
0
  6
CONTINUOUS
 62
    80
  5
9A6
 10
364.217846
 20
25.646238
 30
0.0
  0
VERTEX
  8
0
  6
CONTINUOUS
 62
    80
  5
9A7
 10
364.217272
 20
25.643989
 30
0.0
  0
VERTEX
  8
0
  6
CONTINUOUS
 62
    80
  5
9A8
 10
364.216695
 20
25.641742
 30
0.0
  0
VERTEX
  8
0
  6
CONTINUOUS
 62
    80
  5
9A9
 10
364.216114
 20
25.639495
 30
0.0
  0
VERTEX
  8
0
  6
CONTINUOUS
 62
    80
  5
9AA
 10
364.21553
 20
25.63725
 30
0.0
  0
VERTEX
  8
0
  6
CONTINUOUS
 62
    80
  5
9AB
 10
364.214942
 20
25.635005
 30
0.0
  0
VERTEX
  8
0
  6
CONTINUOUS
 62
    80
  5
9AC
 10
364.214351
 20
25.632762
 30
0.0
  0
VERTEX
  8
0
  6
CONTINUOUS
 62
    80
  5
9AD
 10
364.213756
 20
25.630519
 30
0.0
  0
VERTEX
  8
0
  6
CONTINUOUS
 62
    80
  5
9AE
 10
364.213157
 20
25.628278
 30
0.0
  0
VERTEX
  8
0
  6
CONTINUOUS
 62
    80
  5
9AF
 10
364.212555
 20
25.626038
 30
0.0
  0
VERTEX
  8
0
  6
CONTINUOUS
 62
    80
  5
9B0
 10
364.210121
 20
25.617125
 30
0.0
  0
VERTEX
  8
0
  6
CONTINUOUS
 62
    80
  5
9B1
 10
364.207631
 20
25.608229
 30
0.0
  0
VERTEX
  8
0
  6
CONTINUOUS
 62
    80
  5
9B2
 10
364.205085
 20
25.599352
 30
0.0
  0
VERTEX
  8
0
  6
CONTINUOUS
 62
    80
  5
9B3
 10
364.202484
 20
25.590492
 30
0.0
  0
VERTEX
  8
0
  6
CONTINUOUS
 62
    80
  5
9B4
 10
364.199828
 20
25.58165
 30
0.0
  0
VERTEX
  8
0
  6
CONTINUOUS
 62
    80
  5
9B5
 10
364.197119
 20
25.572827
 30
0.0
  0
VERTEX
  8
0
  6
CONTINUOUS
 62
    80
  5
9B6
 10
364.194356
 20
25.564022
 30
0.0
  0
VERTEX
  8
0
  6
CONTINUOUS
 62
    80
  5
9B7
 10
364.191541
 20
25.555236
 30
0.0
  0
VERTEX
  8
0
  6
CONTINUOUS
 62
    80
  5
9B8
 10
364.188674
 20
25.546469
 30
0.0
  0
VERTEX
  8
0
  6
CONTINUOUS
 62
    80
  5
9B9
 10
364.185756
 20
25.537722
 30
0.0
  0
VERTEX
  8
0
  6
CONTINUOUS
 62
    80
  5
9BA
 10
364.182787
 20
25.528994
 30
0.0
  0
VERTEX
  8
0
  6
CONTINUOUS
 62
    80
  5
9BB
 10
364.179768
 20
25.520286
 30
0.0
  0
VERTEX
  8
0
  6
CONTINUOUS
 62
    80
  5
9BC
 10
364.1767
 20
25.511598
 30
0.0
  0
VERTEX
  8
0
  6
CONTINUOUS
 62
    80
  5
9BD
 10
364.173583
 20
25.50293
 30
0.0
  0
VERTEX
  8
0
  6
CONTINUOUS
 62
    80
  5
9BE
 10
364.170418
 20
25.494283
 30
0.0
  0
VERTEX
  8
0
  6
CONTINUOUS
 62
    80
  5
9BF
 10
364.167206
 20
25.485657
 30
0.0
  0
VERTEX
  8
0
  6
CONTINUOUS
 62
    80
  5
9C0
 10
364.145947
 20
25.431904
 30
0.0
  0
VERTEX
  8
0
  6
CONTINUOUS
 62
    80
  5
9C1
 10
364.122941
 20
25.378949
 30
0.0
  0
VERTEX
  8
0
  6
CONTINUOUS
 62
    80
  5
9C2
 10
364.098311
 20
25.32674
 30
0.0
  0
VERTEX
  8
0
  6
CONTINUOUS
 62
    80
  5
9C3
 10
364.072179
 20
25.275227
 30
0.0
  0
VERTEX
  8
0
  6
CONTINUOUS
 62
    80
  5
9C4
 10
364.044669
 20
25.224358
 30
0.0
  0
VERTEX
  8
0
  6
CONTINUOUS
 62
    80
  5
9C5
 10
364.015905
 20
25.17408
 30
0.0
  0
VERTEX
  8
0
  6
CONTINUOUS
 62
    80
  5
9C6
 10
363.98601
 20
25.124343
 30
0.0
  0
VERTEX
  8
0
  6
CONTINUOUS
 62
    80
  5
9C7
 10
363.955107
 20
25.075094
 30
0.0
  0
VERTEX
  8
0
  6
CONTINUOUS
 62
    80
  5
9C8
 10
363.92332
 20
25.026282
 30
0.0
  0
VERTEX
  8
0
  6
CONTINUOUS
 62
    80
  5
9C9
 10
363.890771
 20
24.977856
 30
0.0
  0
VERTEX
  8
0
  6
CONTINUOUS
 62
    80
  5
9CA
 10
363.857585
 20
24.929764
 30
0.0
  0
VERTEX
  8
0
  6
CONTINUOUS
 62
    80
  5
9CB
 10
363.823884
 20
24.881954
 30
0.0
  0
VERTEX
  8
0
  6
CONTINUOUS
 62
    80
  5
9CC
 10
363.789792
 20
24.834375
 30
0.0
  0
VERTEX
  8
0
  6
CONTINUOUS
 62
    80
  5
9CD
 10
363.755432
 20
24.786975
 30
0.0
  0
VERTEX
  8
0
  6
CONTINUOUS
 62
    80
  5
9CE
 10
363.720927
 20
24.739702
 30
0.0
  0
VERTEX
  8
0
  6
CONTINUOUS
 62
    80
  5
9CF
 10
363.686401
 20
24.692505
 30
0.0
  0
VERTEX
  8
0
  6
CONTINUOUS
 62
    80
  5
9D0
 10
363.655484
 20
24.650182
 30
0.0
  0
VERTEX
  8
0
  6
CONTINUOUS
 62
    80
  5
9D1
 10
363.624628
 20
24.607889
 30
0.0
  0
VERTEX
  8
0
  6
CONTINUOUS
 62
    80
  5
9D2
 10
363.593813
 20
24.565639
 30
0.0
  0
VERTEX
  8
0
  6
CONTINUOUS
 62
    80
  5
9D3
 10
363.563017
 20
24.523441
 30
0.0
  0
VERTEX
  8
0
  6
CONTINUOUS
 62
    80
  5
9D4
 10
363.532221
 20
24.481308
 30
0.0
  0
VERTEX
  8
0
  6
CONTINUOUS
 62
    80
  5
9D5
 10
363.501402
 20
24.43925
 30
0.0
  0
VERTEX
  8
0
  6
CONTINUOUS
 62
    80
  5
9D6
 10
363.470541
 20
24.397279
 30
0.0
  0
VERTEX
  8
0
  6
CONTINUOUS
 62
    80
  5
9D7
 10
363.439615
 20
24.355405
 30
0.0
  0
VERTEX
  8
0
  6
CONTINUOUS
 62
    80
  5
9D8
 10
363.408606
 20
24.31364
 30
0.0
  0
VERTEX
  8
0
  6
CONTINUOUS
 62
    80
  5
9D9
 10
363.37749
 20
24.271995
 30
0.0
  0
VERTEX
  8
0
  6
CONTINUOUS
 62
    80
  5
9DA
 10
363.346249
 20
24.230481
 30
0.0
  0
VERTEX
  8
0
  6
CONTINUOUS
 62
    80
  5
9DB
 10
363.31486
 20
24.189109
 30
0.0
  0
VERTEX
  8
0
  6
CONTINUOUS
 62
    80
  5
9DC
 10
363.283303
 20
24.147891
 30
0.0
  0
VERTEX
  8
0
  6
CONTINUOUS
 62
    80
  5
9DD
 10
363.251557
 20
24.106837
 30
0.0
  0
VERTEX
  8
0
  6
CONTINUOUS
 62
    80
  5
9DE
 10
363.219601
 20
24.065958
 30
0.0
  0
VERTEX
  8
0
  6
CONTINUOUS
 62
    80
  5
9DF
 10
363.187415
 20
24.025267
 30
0.0
  0
SEQEND
  8
0
  6
CONTINUOUS
 62
    80
  5
9E0
  0
LINE
  8
0
  6
CONTINUOUS
 62
    80
  5
34C
 10
304.0
 20
280.499985
 30
0.0
 11
304.0
 21
235.536564
 31
0.0
  0
TEXT
  8
0
  6
CONTINUOUS
 62
     3
  5
34D
 10
294.916667
 20
276.399985
 30
0.0
 40
3.2
  1
訂正数
 41
0.78125
  7
MX_NOTE_STANDARD
 11
294.916667
 21
277.999985
 31
0.0
 73
     2
  0
LINE
  8
0
  6
CONTINUOUS
 62
     3
  5
34E
 10
283.0
 20
53.0
 30
0.0
 11
283.0
 21
37.5
 31
0.0
  0
LINE
  8
0
  6
CONTINUOUS
 62
     3
  5
34F
 10
340.0
 20
53.0
 30
0.0
 11
340.0
 21
37.5
 31
0.0
  0
TEXT
  8
0
  6
CONTINUOUS
 62
     3
  5
350
 10
372.892738
 20
18.04042
 30
0.0
 40
3.0
  1
様式　D-094
 41
0.901186
  7
MX_NOTE_STANDARD
 11
372.892738
 21
19.54042
 31
0.0
 73
     2
  0
LINE
  8
0
  6
CONTINUOUS
 62
     3
  5
351
 10
0.0
 20
297.0
 30
0.0
 11
420.0
 21
297.0
 31
0.0
  0
ENDBLK
  8
0
  5
352
  0
BLOCK
  8
0
  6
BYBLOCK
 62
     0
  5
1C4
  2
*X1
 70
     1
 10
0.0
 20
0.0
 30
0.0
  3
*X1
  0
LINE
  8
0
  6
CONTINUOUS
 62
     0
  5
1C5
 10
321.229078
 20
24.0
 30
0.0
 11
322.661245
 21
24.0
 31
0.0
  0
LINE
  8
0
  6
CONTINUOUS
 62
     0
  5
1C6
 10
321.471466
 20
24.5
 30
0.0
 11
322.685739
 21
24.5
 31
0.0
  0
LINE
  8
0
  6
CONTINUOUS
 62
     0
  5
1C7
 10
321.471466
 20
25.0
 30
0.0
 11
322.685734
 21
25.0
 31
0.0
  0
LINE
  8
0
  6
CONTINUOUS
 62
     0
  5
1C8
 10
321.471466
 20
25.5
 30
0.0
 11
325.161233
 21
25.5
 31
0.0
  0
LINE
  8
0
  6
CONTINUOUS
 62
     0
  5
1C9
 10
321.471466
 20
26.0
 30
0.0
 11
322.68573
 21
26.0
 31
0.0
  0
LINE
  8
0
  6
CONTINUOUS
 62
     0
  5
1CA
 10
324.21548
 20
26.0
 30
0.0
 11
325.400029
 21
26.0
 31
0.0
  0
LINE
  8
0
  6
CONTINUOUS
 62
     0
  5
1CB
 10
324.257163
 20
26.5
 30
0.0
 11
325.400027
 21
26.5
 31
0.0
  0
LINE
  8
0
  6
CONTINUOUS
 62
     0
  5
1CC
 10
324.257171
 20
27.0
 30
0.0
 11
325.400025
 21
27.0
 31
0.0
  0
LINE
  8
0
  6
CONTINUOUS
 62
     0
  5
1CD
 10
320.0
 20
23.714234
 30
0.0
 11
320.0
 21
23.928528
 31
0.0
  0
LINE
  8
0
  6
CONTINUOUS
 62
     0
  5
1CE
 10
320.0
 20
27.071411
 30
0.0
 11
320.0
 21
27.285706
 31
0.0
  0
LINE
  8
0
  6
CONTINUOUS
 62
     0
  5
1CF
 10
320.5
 20
23.714237
 30
0.0
 11
320.5
 21
23.928528
 31
0.0
  0
LINE
  8
0
  6
CONTINUOUS
 62
     0
  5
1D0
 10
320.5
 20
27.071411
 30
0.0
 11
320.5
 21
27.285706
 31
0.0
  0
LINE
  8
0
  6
CONTINUOUS
 62
     0
  5
1D1
 10
321.0
 20
23.714241
 30
0.0
 11
321.0
 21
23.929343
 31
0.0
  0
LINE
  8
0
  6
CONTINUOUS
 62
     0
  5
1D2
 10
321.0
 20
27.071411
 30
0.0
 11
321.0
 21
27.285706
 31
0.0
  0
LINE
  8
0
  6
CONTINUOUS
 62
     0
  5
1D3
 10
321.5
 20
23.714245
 30
0.0
 11
321.5
 21
26.285767
 31
0.0
  0
LINE
  8
0
  6
CONTINUOUS
 62
     0
  5
1D4
 10
321.5
 20
27.071411
 30
0.0
 11
321.5
 21
27.285706
 31
0.0
  0
LINE
  8
0
  6
CONTINUOUS
 62
     0
  5
1D5
 10
322.0
 20
23.714249
 30
0.0
 11
322.0
 21
26.285767
 31
0.0
  0
LINE
  8
0
  6
CONTINUOUS
 62
     0
  5
1D6
 10
322.0
 20
27.071411
 30
0.0
 11
322.0
 21
27.285706
 31
0.0
  0
LINE
  8
0
  6
CONTINUOUS
 62
     0
  5
1D7
 10
322.5
 20
23.789682
 30
0.0
 11
322.5
 21
26.285767
 31
0.0
  0
LINE
  8
0
  6
CONTINUOUS
 62
     0
  5
1D8
 10
322.5
 20
27.071411
 30
0.0
 11
322.5
 21
27.285706
 31
0.0
  0
LINE
  8
0
  6
CONTINUOUS
 62
     0
  5
1D9
 10
323.0
 20
25.357121
 30
0.0
 11
323.0
 21
25.642817
 31
0.0
  0
LINE
  8
0
  6
CONTINUOUS
 62
     0
  5
1DA
 10
323.0
 20
27.071411
 30
0.0
 11
323.0
 21
27.285706
 31
0.0
  0
LINE
  8
0
  6
CONTINUOUS
 62
     0
  5
1DB
 10
323.5
 20
25.357127
 30
0.0
 11
323.5
 21
25.642808
 31
0.0
  0
LINE
  8
0
  6
CONTINUOUS
 62
     0
  5
1DC
 10
323.5
 20
27.071411
 30
0.0
 11
323.5
 21
27.285706
 31
0.0
  0
LINE
  8
0
  6
CONTINUOUS
 62
     0
  5
1DD
 10
324.0
 20
25.357133
 30
0.0
 11
324.0
 21
25.736986
 31
0.0
  0
LINE
  8
0
  6
CONTINUOUS
 62
     0
  5
1DE
 10
324.0
 20
27.071411
 30
0.0
 11
324.0
 21
27.285706
 31
0.0
  0
LINE
  8
0
  6
CONTINUOUS
 62
     0
  5
1DF
 10
324.5
 20
25.35714
 30
0.0
 11
324.5
 21
27.285706
 31
0.0
  0
LINE
  8
0
  6
CONTINUOUS
 62
     0
  5
1E0
 10
325.0
 20
25.404769
 30
0.0
 11
325.0
 21
27.285706
 31
0.0
  0
ENDBLK
  8
0
  6
BYBLOCK
 62
     0
  5
1E1
  0
BLOCK
  8
0
  6
BYBLOCK
 62
     0
  5
1E8
  2
*X2
 70
     1
 10
0.0
 20
0.0
 30
0.0
  3
*X2
  0
LINE
  8
0
  6
CONTINUOUS
 62
     0
  5
1E9
 10
338.614302
 20
24.0
 30
0.0
 11
339.542877
 21
24.0
 31
0.0
  0
LINE
  8
0
  6
CONTINUOUS
 62
     0
  5
1EA
 10
338.614308
 20
24.5
 30
0.0
 11
339.542877
 21
24.5
 31
0.0
  0
LINE
  8
0
  6
CONTINUOUS
 62
     0
  5
1EB
 10
338.614314
 20
25.0
 30
0.0
 11
339.542877
 21
25.0
 31
0.0
  0
LINE
  8
0
  6
CONTINUOUS
 62
     0
  5
1EC
 10
339.0
 20
23.767791
 30
0.0
 11
339.0
 21
25.439331
 31
0.0
  0
LINE
  8
0
  6
CONTINUOUS
 62
     0
  5
1ED
 10
339.5
 20
23.76782
 30
0.0
 11
339.5
 21
25.439331
 31
0.0
  0
ENDBLK
  8
0
  6
BYBLOCK
 62
     0
  5
1EE
  0
BLOCK
  8
0
  6
BYBLOCK
 62
     0
  5
1F2
  2
*X3
 70
     1
 10
0.0
 20
0.0
 30
0.0
  3
*X3
  0
LINE
  8
0
  6
CONTINUOUS
 62
     0
  5
1F3
 10
341.5
 20
23.774978
 30
0.0
 11
341.5
 21
23.857142
 31
0.0
  0
ENDBLK
  8
0
  6
BYBLOCK
 62
     0
  5
1F4
  0
BLOCK
  8
0
  6
BYBLOCK
 62
     0
  5
1F7
  2
*X4
 70
     1
 10
0.0
 20
0.0
 30
0.0
  3
*X4
  0
LINE
  8
0
  6
CONTINUOUS
 62
     0
  5
1F8
 10
326.664782
 20
24.0
 30
0.0
 11
330.920969
 21
24.0
 31
0.0
  0
LINE
  8
0
  6
CONTINUOUS
 62
     0
  5
1F9
 10
326.581437
 20
24.5
 30
0.0
 11
327.583087
 21
24.5
 31
0.0
  0
LINE
  8
0
  6
CONTINUOUS
 62
     0
  5
1FA
 10
330.002667
 20
24.5
 30
0.0
 11
331.004299
 21
24.5
 31
0.0
  0
LINE
  8
0
  6
CONTINUOUS
 62
     0
  5
1FB
 10
326.498093
 20
25.0
 30
0.0
 11
327.514933
 21
25.0
 31
0.0
  0
LINE
  8
0
  6
CONTINUOUS
 62
     0
  5
1FC
 10
330.070821
 20
25.0
 30
0.0
 11
331.087629
 21
25.0
 31
0.0
  0
LINE
  8
0
  6
CONTINUOUS
 62
     0
  5
1FD
 10
326.414748
 20
25.5
 30
0.0
 11
327.446779
 21
25.5
 31
0.0
  0
LINE
  8
0
  6
CONTINUOUS
 62
     0
  5
1FE
 10
330.138975
 20
25.5
 30
0.0
 11
331.170959
 21
25.5
 31
0.0
  0
LINE
  8
0
  6
CONTINUOUS
 62
     0
  5
1FF
 10
326.331404
 20
26.0
 30
0.0
 11
327.378625
 21
26.0
 31
0.0
  0
LINE
  8
0
  6
CONTINUOUS
 62
     0
  5
200
 10
330.207129
 20
26.0
 30
0.0
 11
331.254289
 21
26.0
 31
0.0
  0
LINE
  8
0
  6
CONTINUOUS
 62
     0
  5
201
 10
326.24806
 20
26.5
 30
0.0
 11
327.310471
 21
26.5
 31
0.0
  0
LINE
  8
0
  6
CONTINUOUS
 62
     0
  5
202
 10
330.275283
 20
26.5
 30
0.0
 11
331.33762
 21
26.5
 31
0.0
  0
LINE
  8
0
  6
CONTINUOUS
 62
     0
  5
203
 10
326.164715
 20
27.0
 30
0.0
 11
331.42095
 21
27.0
 31
0.0
  0
LINE
  8
0
  6
CONTINUOUS
 62
     0
  5
204
 10
326.5
 20
24.988558
 30
0.0
 11
326.5
 21
27.071655
 31
0.0
  0
LINE
  8
0
  6
CONTINUOUS
 62
     0
  5
205
 10
327.0
 20
23.857117
 30
0.0
 11
327.0
 21
27.071655
 31
0.0
  0
LINE
  8
0
  6
CONTINUOUS
 62
     0
  5
206
 10
327.5
 20
23.857117
 30
0.0
 11
327.5
 21
25.109556
 31
0.0
  0
LINE
  8
0
  6
CONTINUOUS
 62
     0
  5
207
 10
327.5
 20
26.856995
 30
0.0
 11
327.5
 21
27.071655
 31
0.0
  0
LINE
  8
0
  6
CONTINUOUS
 62
     0
  5
208
 10
328.0
 20
23.857117
 30
0.0
 11
328.0
 21
24.070496
 31
0.0
  0
LINE
  8
0
  6
CONTINUOUS
 62
     0
  5
209
 10
328.0
 20
26.856995
 30
0.0
 11
328.0
 21
27.071655
 31
0.0
  0
LINE
  8
0
  6
CONTINUOUS
 62
     0
  5
20A
 10
328.5
 20
23.857117
 30
0.0
 11
328.5
 21
24.070496
 31
0.0
  0
LINE
  8
0
  6
CONTINUOUS
 62
     0
  5
20B
 10
328.5
 20
26.856995
 30
0.0
 11
328.5
 21
27.071655
 31
0.0
  0
LINE
  8
0
  6
CONTINUOUS
 62
     0
  5
20C
 10
329.0
 20
23.857117
 30
0.0
 11
329.0
 21
24.070496
 31
0.0
  0
LINE
  8
0
  6
CONTINUOUS
 62
     0
  5
20D
 10
329.0
 20
26.856995
 30
0.0
 11
329.0
 21
27.071655
 31
0.0
  0
LINE
  8
0
  6
CONTINUOUS
 62
     0
  5
20E
 10
329.5
 20
23.857117
 30
0.0
 11
329.5
 21
24.070496
 31
0.0
  0
LINE
  8
0
  6
CONTINUOUS
 62
     0
  5
20F
 10
329.5
 20
26.856995
 30
0.0
 11
329.5
 21
27.071655
 31
0.0
  0
LINE
  8
0
  6
CONTINUOUS
 62
     0
  5
210
 10
330.0
 20
23.857117
 30
0.0
 11
330.0
 21
24.480433
 31
0.0
  0
LINE
  8
0
  6
CONTINUOUS
 62
     0
  5
211
 10
330.0
 20
26.856995
 30
0.0
 11
330.0
 21
27.071655
 31
0.0
  0
LINE
  8
0
  6
CONTINUOUS
 62
     0
  5
212
 10
330.5
 20
23.857117
 30
0.0
 11
330.5
 21
27.071655
 31
0.0
  0
LINE
  8
0
  6
CONTINUOUS
 62
     0
  5
213
 10
331.0
 20
24.474206
 30
0.0
 11
331.0
 21
27.071655
 31
0.0
  0
ENDBLK
  8
0
  6
BYBLOCK
 62
     0
  5
214
  0
BLOCK
  8
0
  6
BYBLOCK
 62
     0
  5
218
  2
*X5
 70
     1
 10
0.0
 20
0.0
 30
0.0
  3
*X5
  0
LINE
  8
0
  6
CONTINUOUS
 62
     0
  5
219
 10
343.61431
 20
24.0
 30
0.0
 11
344.32858
 21
24.0
 31
0.0
  0
LINE
  8
0
  6
CONTINUOUS
 62
     0
  5
21A
 10
344.971466
 20
24.0
 30
0.0
 11
345.828598
 21
24.0
 31
0.0
  0
LINE
  8
0
  6
CONTINUOUS
 62
     0
  5
21B
 10
344.971466
 20
24.5
 30
0.0
 11
345.828592
 21
24.5
 31
0.0
  0
LINE
  8
0
  6
CONTINUOUS
 62
     0
  5
21C
 10
344.971466
 20
25.0
 30
0.0
 11
345.828586
 21
25.0
 31
0.0
  0
LINE
  8
0
  6
CONTINUOUS
 62
     0
  5
21D
 10
342.614319
 20
25.5
 30
0.0
 11
348.042877
 21
25.5
 31
0.0
  0
LINE
  8
0
  6
CONTINUOUS
 62
     0
  5
21E
 10
344.971372
 20
26.0
 30
0.0
 11
345.828041
 21
26.0
 31
0.0
  0
LINE
  8
0
  6
CONTINUOUS
 62
     0
  5
21F
 10
346.17173
 20
26.5
 30
0.0
 11
347.084007
 21
26.5
 31
0.0
  0
LINE
  8
0
  6
CONTINUOUS
 62
     0
  5
220
 10
346.708836
 20
27.0
 30
0.0
 11
348.043653
 21
27.0
 31
0.0
  0
LINE
  8
0
  6
CONTINUOUS
 62
     0
  5
221
 10
343.0
 20
25.285583
 30
0.0
 11
343.0
 21
25.5
 31
0.0
  0
LINE
  8
0
  6
CONTINUOUS
 62
     0
  5
222
 10
343.0
 20
27.071418
 30
0.0
 11
343.0
 21
27.285706
 31
0.0
  0
LINE
  8
0
  6
CONTINUOUS
 62
     0
  5
223
 10
343.5
 20
25.285583
 30
0.0
 11
343.5
 21
25.5
 31
0.0
  0
LINE
  8
0
  6
CONTINUOUS
 62
     0
  5
224
 10
343.5
 20
27.071427
 30
0.0
 11
343.5
 21
27.285706
 31
0.0
  0
LINE
  8
0
  6
CONTINUOUS
 62
     0
  5
225
 10
344.0
 20
23.714277
 30
0.0
 11
344.0
 21
24.214239
 31
0.0
  0
LINE
  8
0
  6
CONTINUOUS
 62
     0
  5
226
 10
344.0
 20
25.285583
 30
0.0
 11
344.0
 21
25.5
 31
0.0
  0
LINE
  8
0
  6
CONTINUOUS
 62
     0
  5
227
 10
344.0
 20
27.071436
 30
0.0
 11
344.0
 21
27.285706
 31
0.0
  0
LINE
  8
0
  6
CONTINUOUS
 62
     0
  5
228
 10
344.5
 20
23.714277
 30
0.0
 11
344.5
 21
23.931146
 31
0.0
  0
LINE
  8
0
  6
CONTINUOUS
 62
     0
  5
229
 10
344.5
 20
25.285583
 30
0.0
 11
344.5
 21
25.5
 31
0.0
  0
LINE
  8
0
  6
CONTINUOUS
 62
     0
  5
22A
 10
344.5
 20
27.071445
 30
0.0
 11
344.5
 21
27.285706
 31
0.0
  0
LINE
  8
0
  6
CONTINUOUS
 62
     0
  5
22B
 10
345.0
 20
23.714277
 30
0.0
 11
345.0
 21
26.043427
 31
0.0
  0
LINE
  8
0
  6
CONTINUOUS
 62
     0
  5
22C
 10
345.0
 20
27.071454
 30
0.0
 11
345.0
 21
27.285706
 31
0.0
  0
LINE
  8
0
  6
CONTINUOUS
 62
     0
  5
22D
 10
345.5
 20
23.714277
 30
0.0
 11
345.5
 21
26.190551
 31
0.0
  0
LINE
  8
0
  6
CONTINUOUS
 62
     0
  5
22E
 10
345.5
 20
27.071462
 30
0.0
 11
345.5
 21
27.285706
 31
0.0
  0
LINE
  8
0
  6
CONTINUOUS
 62
     0
  5
22F
 10
346.0
 20
25.285583
 30
0.0
 11
346.0
 21
25.5
 31
0.0
  0
LINE
  8
0
  6
CONTINUOUS
 62
     0
  5
230
 10
346.0
 20
26.067899
 30
0.0
 11
346.0
 21
26.407388
 31
0.0
  0
LINE
  8
0
  6
CONTINUOUS
 62
     0
  5
231
 10
346.0
 20
27.071471
 30
0.0
 11
346.0
 21
27.285706
 31
0.0
  0
LINE
  8
0
  6
CONTINUOUS
 62
     0
  5
232
 10
346.5
 20
25.285583
 30
0.0
 11
346.5
 21
25.5
 31
0.0
  0
LINE
  8
0
  6
CONTINUOUS
 62
     0
  5
233
 10
346.5
 20
26.242383
 30
0.0
 11
346.5
 21
26.722789
 31
0.0
  0
LINE
  8
0
  6
CONTINUOUS
 62
     0
  5
234
 10
346.5
 20
27.07148
 30
0.0
 11
346.5
 21
27.285706
 31
0.0
  0
LINE
  8
0
  6
CONTINUOUS
 62
     0
  5
235
 10
347.0
 20
25.285583
 30
0.0
 11
347.0
 21
25.5
 31
0.0
  0
LINE
  8
0
  6
CONTINUOUS
 62
     0
  5
236
 10
347.0
 20
26.461719
 30
0.0
 11
347.0
 21
27.285706
 31
0.0
  0
LINE
  8
0
  6
CONTINUOUS
 62
     0
  5
237
 10
347.5
 20
25.285583
 30
0.0
 11
347.5
 21
25.5
 31
0.0
  0
LINE
  8
0
  6
CONTINUOUS
 62
     0
  5
238
 10
347.5
 20
26.698771
 30
0.0
 11
347.5
 21
27.285706
 31
0.0
  0
LINE
  8
0
  6
CONTINUOUS
 62
     0
  5
239
 10
348.0
 20
25.285583
 30
0.0
 11
348.0
 21
25.5
 31
0.0
  0
LINE
  8
0
  6
CONTINUOUS
 62
     0
  5
23A
 10
348.0
 20
26.958693
 30
0.0
 11
348.0
 21
27.285706
 31
0.0
  0
ENDBLK
  8
0
  6
BYBLOCK
 62
     0
  5
23B
  0
BLOCK
  8
0
  6
BYBLOCK
 62
     0
  5
23E
  2
*X6
 70
     1
 10
0.0
 20
0.0
 30
0.0
  3
*X6
  0
LINE
  8
0
  6
CONTINUOUS
 62
     0
  5
23F
 10
351.114197
 20
24.0
 30
0.0
 11
352.04303
 21
24.0
 31
0.0
  0
LINE
  8
0
  6
CONTINUOUS
 62
     0
  5
240
 10
351.114197
 20
24.5
 30
0.0
 11
352.04303
 21
24.5
 31
0.0
  0
LINE
  8
0
  6
CONTINUOUS
 62
     0
  5
241
 10
351.114197
 20
25.0
 30
0.0
 11
352.04303
 21
25.0
 31
0.0
  0
LINE
  8
0
  6
CONTINUOUS
 62
     0
  5
242
 10
351.114197
 20
25.5
 30
0.0
 11
352.04303
 21
25.5
 31
0.0
  0
LINE
  8
0
  6
CONTINUOUS
 62
     0
  5
243
 10
351.114197
 20
26.0
 30
0.0
 11
352.04303
 21
26.0
 31
0.0
  0
LINE
  8
0
  6
CONTINUOUS
 62
     0
  5
244
 10
351.114197
 20
26.5
 30
0.0
 11
352.04303
 21
26.5
 31
0.0
  0
LINE
  8
0
  6
CONTINUOUS
 62
     0
  5
245
 10
351.114197
 20
27.0
 30
0.0
 11
352.04303
 21
27.0
 31
0.0
  0
LINE
  8
0
  6
CONTINUOUS
 62
     0
  5
246
 10
349.0
 20
23.714233
 30
0.0
 11
349.0
 21
23.92865
 31
0.0
  0
LINE
  8
0
  6
CONTINUOUS
 62
     0
  5
247
 10
349.0
 20
27.071411
 30
0.0
 11
349.0
 21
27.285706
 31
0.0
  0
LINE
  8
0
  6
CONTINUOUS
 62
     0
  5
248
 10
349.5
 20
23.714233
 30
0.0
 11
349.5
 21
23.92865
 31
0.0
  0
LINE
  8
0
  6
CONTINUOUS
 62
     0
  5
249
 10
349.5
 20
27.071411
 30
0.0
 11
349.5
 21
27.285706
 31
0.0
  0
LINE
  8
0
  6
CONTINUOUS
 62
     0
  5
24A
 10
350.0
 20
23.714233
 30
0.0
 11
350.0
 21
23.92865
 31
0.0
  0
LINE
  8
0
  6
CONTINUOUS
 62
     0
  5
24B
 10
350.0
 20
27.071411
 30
0.0
 11
350.0
 21
27.285706
 31
0.0
  0
LINE
  8
0
  6
CONTINUOUS
 62
     0
  5
24C
 10
350.5
 20
23.714233
 30
0.0
 11
350.5
 21
23.92865
 31
0.0
  0
LINE
  8
0
  6
CONTINUOUS
 62
     0
  5
24D
 10
350.5
 20
27.071411
 30
0.0
 11
350.5
 21
27.285706
 31
0.0
  0
LINE
  8
0
  6
CONTINUOUS
 62
     0
  5
24E
 10
351.0
 20
23.714233
 30
0.0
 11
351.0
 21
23.92865
 31
0.0
  0
LINE
  8
0
  6
CONTINUOUS
 62
     0
  5
24F
 10
351.0
 20
27.071411
 30
0.0
 11
351.0
 21
27.285706
 31
0.0
  0
LINE
  8
0
  6
CONTINUOUS
 62
     0
  5
250
 10
351.5
 20
23.714233
 30
0.0
 11
351.5
 21
27.285706
 31
0.0
  0
LINE
  8
0
  6
CONTINUOUS
 62
     0
  5
251
 10
352.0
 20
23.714233
 30
0.0
 11
352.0
 21
27.285706
 31
0.0
  0
LINE
  8
0
  6
CONTINUOUS
 62
     0
  5
252
 10
352.5
 20
23.714233
 30
0.0
 11
352.5
 21
23.92865
 31
0.0
  0
LINE
  8
0
  6
CONTINUOUS
 62
     0
  5
253
 10
352.5
 20
27.071411
 30
0.0
 11
352.5
 21
27.285706
 31
0.0
  0
LINE
  8
0
  6
CONTINUOUS
 62
     0
  5
254
 10
353.0
 20
23.714233
 30
0.0
 11
353.0
 21
23.92865
 31
0.0
  0
LINE
  8
0
  6
CONTINUOUS
 62
     0
  5
255
 10
353.0
 20
27.071411
 30
0.0
 11
353.0
 21
27.285706
 31
0.0
  0
LINE
  8
0
  6
CONTINUOUS
 62
     0
  5
256
 10
353.5
 20
23.714233
 30
0.0
 11
353.5
 21
23.92865
 31
0.0
  0
LINE
  8
0
  6
CONTINUOUS
 62
     0
  5
257
 10
353.5
 20
27.071411
 30
0.0
 11
353.5
 21
27.285706
 31
0.0
  0
LINE
  8
0
  6
CONTINUOUS
 62
     0
  5
258
 10
354.0
 20
23.714233
 30
0.0
 11
354.0
 21
23.92865
 31
0.0
  0
LINE
  8
0
  6
CONTINUOUS
 62
     0
  5
259
 10
354.0
 20
27.071411
 30
0.0
 11
354.0
 21
27.285706
 31
0.0
  0
ENDBLK
  8
0
  6
BYBLOCK
 62
     0
  5
25A
  0
BLOCK
  8
0
  6
BYBLOCK
 62
     0
  5
263
  2
*X7
 70
     1
 10
0.0
 20
0.0
 30
0.0
  3
*X7
  0
LINE
  8
0
  6
CONTINUOUS
 62
     0
  5
264
 10
359.980543
 20
24.0
 30
0.0
 11
360.390917
 21
24.0
 31
0.0
  0
LINE
  8
0
  6
CONTINUOUS
 62
     0
  5
265
 10
360.0
 20
23.975477
 30
0.0
 11
360.0
 21
24.310167
 31
0.0
  0
ENDBLK
  8
0
  6
BYBLOCK
 62
     0
  5
266
  0
BLOCK
  8
0
  6
BYBLOCK
 62
     0
  5
26A
  2
*X8
 70
     1
 10
0.0
 20
0.0
 30
0.0
  3
*X8
  0
LINE
  8
0
  6
CONTINUOUS
 62
     0
  5
26B
 10
355.195726
 20
24.0
 30
0.0
 11
356.21255
 21
24.0
 31
0.0
  0
LINE
  8
0
  6
CONTINUOUS
 62
     0
  5
26C
 10
355.79627
 20
24.5
 30
0.0
 11
357.022453
 21
24.5
 31
0.0
  0
LINE
  8
0
  6
CONTINUOUS
 62
     0
  5
26D
 10
355.5
 20
23.730631
 30
0.0
 11
355.5
 21
24.242455
 31
0.0
  0
LINE
  8
0
  6
CONTINUOUS
 62
     0
  5
26E
 10
356.0
 20
23.907188
 30
0.0
 11
356.0
 21
24.714066
 31
0.0
  0
LINE
  8
0
  6
CONTINUOUS
 62
     0
  5
26F
 10
356.5
 20
24.143782
 30
0.0
 11
356.5
 21
24.946604
 31
0.0
  0
LINE
  8
0
  6
CONTINUOUS
 62
     0
  5
270
 10
357.0
 20
24.481708
 30
0.0
 11
357.0
 21
24.946456
 31
0.0
  0
ENDBLK
  8
0
  6
BYBLOCK
 62
     0
  5
271
  0
BLOCK
  8
0
  6
BYBLOCK
 62
     0
  5
274
  2
*X9
 70
     1
 10
0.0
 20
0.0
 30
0.0
  3
*X9
  0
LINE
  8
0
  6
CONTINUOUS
 62
     0
  5
275
 10
366.052027
 20
24.5
 30
0.0
 11
366.462316
 21
24.5
 31
0.0
  0
LINE
  8
0
  6
CONTINUOUS
 62
     0
  5
276
 10
366.5
 20
24.297666
 30
0.0
 11
366.5
 21
24.416567
 31
0.0
  0
ENDBLK
  8
0
  6
BYBLOCK
 62
     0
  5
277
  0
BLOCK
  8
0
  6
BYBLOCK
 62
     0
  5
27A
  2
*X10
 70
     1
 10
0.0
 20
0.0
 30
0.0
  3
*X10
  0
LINE
  8
0
  6
CONTINUOUS
 62
     0
  5
27B
 10
361.828593
 20
24.0
 30
0.0
 11
362.328737
 21
24.0
 31
0.0
  0
LINE
  8
0
  6
CONTINUOUS
 62
     0
  5
27C
 10
361.828611
 20
24.5
 30
0.0
 11
362.329007
 21
24.5
 31
0.0
  0
LINE
  8
0
  6
CONTINUOUS
 62
     0
  5
27D
 10
361.278772
 20
25.0
 30
0.0
 11
361.573606
 21
25.0
 31
0.0
  0
LINE
  8
0
  6
CONTINUOUS
 62
     0
  5
27E
 10
361.828628
 20
25.0
 30
0.0
 11
362.329278
 21
25.0
 31
0.0
  0
LINE
  8
0
  6
CONTINUOUS
 62
     0
  5
27F
 10
362.7049
 20
25.0
 30
0.0
 11
363.010817
 21
25.0
 31
0.0
  0
LINE
  8
0
  6
CONTINUOUS
 62
     0
  5
280
 10
361.543614
 20
25.5
 30
0.0
 11
362.555471
 21
25.5
 31
0.0
  0
LINE
  8
0
  6
CONTINUOUS
 62
     0
  5
281
 10
361.717051
 20
26.0
 30
0.0
 11
362.32919
 21
26.0
 31
0.0
  0
LINE
  8
0
  6
CONTINUOUS
 62
     0
  5
282
 10
361.813794
 20
26.5
 30
0.0
 11
362.328659
 21
26.5
 31
0.0
  0
LINE
  8
0
  6
CONTINUOUS
 62
     0
  5
283
 10
361.828583
 20
27.0
 30
0.0
 11
362.328583
 21
27.0
 31
0.0
  0
LINE
  8
0
  6
CONTINUOUS
 62
     0
  5
284
 10
361.5
 20
24.911082
 30
0.0
 11
361.5
 21
25.403438
 31
0.0
  0
LINE
  8
0
  6
CONTINUOUS
 62
     0
  5
285
 10
361.5
 20
26.572272
 30
0.0
 11
361.5
 21
26.64209
 31
0.0
  0
LINE
  8
0
  6
CONTINUOUS
 62
     0
  5
286
 10
362.0
 20
23.714233
 30
0.0
 11
362.0
 21
27.285706
 31
0.0
  0
LINE
  8
0
  6
CONTINUOUS
 62
     0
  5
287
 10
362.5
 20
25.183074
 30
0.0
 11
362.5
 21
25.567218
 31
0.0
  0
LINE
  8
0
  6
CONTINUOUS
 62
     0
  5
288
 10
362.5
 20
26.572144
 30
0.0
 11
362.5
 21
26.64209
 31
0.0
  0
LINE
  8
0
  6
CONTINUOUS
 62
     0
  5
289
 10
363.0
 20
24.744809
 30
0.0
 11
363.0
 21
25.010915
 31
0.0
  0
ENDBLK
  8
0
  6
BYBLOCK
 62
     0
  5
28A
  0
BLOCK
  8
0
  6
BYBLOCK
 62
     0
  5
28D
  2
*X11
 70
     1
 10
0.0
 20
0.0
 30
0.0
  3
*X11
  0
LINE
  8
0
  6
CONTINUOUS
 62
     0
  5
28E
 10
363.256993
 20
24.0
 30
0.0
 11
363.731082
 21
24.0
 31
0.0
  0
LINE
  8
0
  6
CONTINUOUS
 62
     0
  5
28F
 10
364.757107
 20
24.0
 30
0.0
 11
365.18576
 21
24.0
 31
0.0
  0
LINE
  8
0
  6
CONTINUOUS
 62
     0
  5
290
 10
363.546763
 20
24.5
 30
0.0
 11
364.308702
 21
24.5
 31
0.0
  0
LINE
  8
0
  6
CONTINUOUS
 62
     0
  5
291
 10
364.756994
 20
24.5
 30
0.0
 11
365.18576
 21
24.5
 31
0.0
  0
LINE
  8
0
  6
CONTINUOUS
 62
     0
  5
292
 10
363.908325
 20
25.0
 30
0.0
 11
365.18576
 21
25.0
 31
0.0
  0
LINE
  8
0
  6
CONTINUOUS
 62
     0
  5
293
 10
364.172518
 20
25.5
 30
0.0
 11
365.18576
 21
25.5
 31
0.0
  0
LINE
  8
0
  6
CONTINUOUS
 62
     0
  5
294
 10
364.757172
 20
26.0
 30
0.0
 11
365.18576
 21
26.0
 31
0.0
  0
LINE
  8
0
  6
CONTINUOUS
 62
     0
  5
295
 10
364.757172
 20
26.5
 30
0.0
 11
365.18576
 21
26.5
 31
0.0
  0
LINE
  8
0
  6
CONTINUOUS
 62
     0
  5
296
 10
363.614319
 20
27.0
 30
0.0
 11
364.114319
 21
27.0
 31
0.0
  0
LINE
  8
0
  6
CONTINUOUS
 62
     0
  5
297
 10
364.757172
 20
27.0
 30
0.0
 11
365.18576
 21
27.0
 31
0.0
  0
LINE
  8
0
  6
CONTINUOUS
 62
     0
  5
298
 10
363.5
 20
23.911773
 30
0.0
 11
363.5
 21
24.436569
 31
0.0
  0
LINE
  8
0
  6
CONTINUOUS
 62
     0
  5
299
 10
364.0
 20
24.221005
 30
0.0
 11
364.0
 21
25.151509
 31
0.0
  0
LINE
  8
0
  6
CONTINUOUS
 62
     0
  5
29A
 10
364.0
 20
25.786071
 30
0.0
 11
364.0
 21
25.856384
 31
0.0
  0
LINE
  8
0
  6
CONTINUOUS
 62
     0
  5
29B
 10
364.0
 20
26.572144
 30
0.0
 11
364.0
 21
27.285706
 31
0.0
  0
LINE
  8
0
  6
CONTINUOUS
 62
     0
  5
29C
 10
364.5
 20
24.688028
 30
0.0
 11
364.5
 21
25.856384
 31
0.0
  0
LINE
  8
0
  6
CONTINUOUS
 62
     0
  5
29D
 10
364.5
 20
26.572144
 30
0.0
 11
364.5
 21
26.64209
 31
0.0
  0
LINE
  8
0
  6
CONTINUOUS
 62
     0
  5
29E
 10
365.0
 20
23.714233
 30
0.0
 11
365.0
 21
27.285706
 31
0.0
  0
LINE
  8
0
  6
CONTINUOUS
 62
     0
  5
29F
 10
365.5
 20
25.786438
 30
0.0
 11
365.5
 21
25.856384
 31
0.0
  0
LINE
  8
0
  6
CONTINUOUS
 62
     0
  5
2A0
 10
365.5
 20
26.572144
 30
0.0
 11
365.5
 21
26.64209
 31
0.0
  0
LINE
  8
0
  6
CONTINUOUS
 62
     0
  5
2A1
 10
366.0
 20
25.786438
 30
0.0
 11
366.0
 21
25.856384
 31
0.0
  0
LINE
  8
0
  6
CONTINUOUS
 62
     0
  5
2A2
 10
366.0
 20
26.572144
 30
0.0
 11
366.0
 21
26.64209
 31
0.0
  0
LINE
  8
0
  6
CONTINUOUS
 62
     0
  5
2A3
 10
366.5
 20
25.786438
 30
0.0
 11
366.5
 21
25.856384
 31
0.0
  0
LINE
  8
0
  6
CONTINUOUS
 62
     0
  5
2A4
 10
366.5
 20
26.572144
 30
0.0
 11
366.5
 21
26.64209
 31
0.0
  0
ENDBLK
  8
0
  6
BYBLOCK
 62
     0
  5
2A5
  0
BLOCK
  8
0
  6
BYBLOCK
 62
     0
  5
2A8
  2
*X12
 70
     1
 10
0.0
 20
0.0
 30
0.0
  3
*X12
  0
LINE
  8
0
  6
CONTINUOUS
 62
     0
  5
2A9
 10
371.829502
 20
24.0
 30
0.0
 11
372.587322
 21
24.0
 31
0.0
  0
LINE
  8
0
  6
CONTINUOUS
 62
     0
  5
2AA
 10
371.535332
 20
24.5
 30
0.0
 11
372.271841
 21
24.5
 31
0.0
  0
LINE
  8
0
  6
CONTINUOUS
 62
     0
  5
2AB
 10
371.274435
 20
25.0
 30
0.0
 11
371.980077
 21
25.0
 31
0.0
  0
LINE
  8
0
  6
CONTINUOUS
 62
     0
  5
2AC
 10
371.044288
 20
25.5
 30
0.0
 11
371.710646
 21
25.5
 31
0.0
  0
LINE
  8
0
  6
CONTINUOUS
 62
     0
  5
2AD
 10
370.842875
 20
26.0
 30
0.0
 11
371.461799
 21
26.0
 31
0.0
  0
LINE
  8
0
  6
CONTINUOUS
 62
     0
  5
2AE
 10
370.669303
 20
26.5
 30
0.0
 11
371.239851
 21
26.5
 31
0.0
  0
LINE
  8
0
  6
CONTINUOUS
 62
     0
  5
2AF
 10
370.51881
 20
27.0
 30
0.0
 11
371.071159
 21
27.0
 31
0.0
  0
LINE
  8
0
  6
CONTINUOUS
 62
     0
  5
2B0
 10
367.5
 20
26.214266
 30
0.0
 11
367.5
 21
26.428514
 31
0.0
  0
LINE
  8
0
  6
CONTINUOUS
 62
     0
  5
2B1
 10
368.0
 20
26.214361
 30
0.0
 11
368.0
 21
26.428474
 31
0.0
  0
LINE
  8
0
  6
CONTINUOUS
 62
     0
  5
2B2
 10
368.5
 20
26.214456
 30
0.0
 11
368.5
 21
26.428435
 31
0.0
  0
LINE
  8
0
  6
CONTINUOUS
 62
     0
  5
2B3
 10
369.0
 20
26.214551
 30
0.0
 11
369.0
 21
26.428395
 31
0.0
  0
LINE
  8
0
  6
CONTINUOUS
 62
     0
  5
2B4
 10
369.5
 20
26.214646
 30
0.0
 11
369.5
 21
26.428355
 31
0.0
  0
LINE
  8
0
  6
CONTINUOUS
 62
     0
  5
2B5
 10
370.0
 20
26.214741
 30
0.0
 11
370.0
 21
26.428316
 31
0.0
  0
LINE
  8
0
  6
CONTINUOUS
 62
     0
  5
2B6
 10
370.5
 20
26.214836
 30
0.0
 11
370.5
 21
26.428276
 31
0.0
  0
LINE
  8
0
  6
CONTINUOUS
 62
     0
  5
2B7
 10
370.5
 20
27.067774
 30
0.0
 11
370.5
 21
27.213652
 31
0.0
  0
LINE
  8
0
  6
CONTINUOUS
 62
     0
  5
2B8
 10
371.0
 20
25.604206
 30
0.0
 11
371.0
 21
27.214928
 31
0.0
  0
LINE
  8
0
  6
CONTINUOUS
 62
     0
  5
2B9
 10
371.5
 20
24.564255
 30
0.0
 11
371.5
 21
25.921238
 31
0.0
  0
LINE
  8
0
  6
CONTINUOUS
 62
     0
  5
2BA
 10
371.5
 20
26.214293
 30
0.0
 11
371.5
 21
26.427855
 31
0.0
  0
LINE
  8
0
  6
CONTINUOUS
 62
     0
  5
2BB
 10
372.0
 20
23.929268
 30
0.0
 11
372.0
 21
24.964572
 31
0.0
  0
LINE
  8
0
  6
CONTINUOUS
 62
     0
  5
2BC
 10
372.0
 20
26.214266
 30
0.0
 11
372.0
 21
26.428153
 31
0.0
  0
LINE
  8
0
  6
CONTINUOUS
 62
     0
  5
2BD
 10
372.5
 20
23.92854
 30
0.0
 11
372.5
 21
24.13456
 31
0.0
  0
LINE
  8
0
  6
CONTINUOUS
 62
     0
  5
2BE
 10
372.5
 20
26.21424
 30
0.0
 11
372.5
 21
26.428451
 31
0.0
  0
ENDBLK
  8
0
  6
BYBLOCK
 62
     0
  5
2BF
  0
BLOCK
  8
0
  6
BYBLOCK
 62
     0
  5
2C2
  2
*X13
 70
     1
 10
0.0
 20
0.0
 30
0.0
  3
*X13
  0
LINE
  8
0
  6
CONTINUOUS
 62
     0
  5
2C3
 10
371.780561
 20
27.0
 30
0.0
 11
372.190936
 21
27.0
 31
0.0
  0
LINE
  8
0
  6
CONTINUOUS
 62
     0
  5
2C4
 10
372.0
 20
26.893229
 30
0.0
 11
372.0
 21
27.392416
 31
0.0
  0
ENDBLK
  8
0
  6
BYBLOCK
 62
     0
  5
2C5
  0
BLOCK
  8
0
  6
BYBLOCK
 62
     0
  5
2C8
  2
*X14
 70
     1
 10
0.0
 20
0.0
 30
0.0
  3
*X14
  0
LINE
  8
0
  6
CONTINUOUS
 62
     0
  5
2C9
 10
368.256564
 20
24.0
 30
0.0
 11
368.901283
 21
24.0
 31
0.0
  0
LINE
  8
0
  6
CONTINUOUS
 62
     0
  5
2CA
 10
369.124777
 20
24.0
 30
0.0
 11
369.844203
 21
24.0
 31
0.0
  0
LINE
  8
0
  6
CONTINUOUS
 62
     0
  5
2CB
 10
368.256814
 20
24.5
 30
0.0
 11
368.900764
 21
24.5
 31
0.0
  0
LINE
  8
0
  6
CONTINUOUS
 62
     0
  5
2CC
 10
368.257064
 20
25.0
 30
0.0
 11
368.900246
 21
25.0
 31
0.0
  0
LINE
  8
0
  6
CONTINUOUS
 62
     0
  5
2CD
 10
367.5
 20
23.667258
 30
0.0
 11
367.5
 21
23.887993
 31
0.0
  0
LINE
  8
0
  6
CONTINUOUS
 62
     0
  5
2CE
 10
367.5
 20
25.214233
 30
0.0
 11
367.5
 21
25.285706
 31
0.0
  0
LINE
  8
0
  6
CONTINUOUS
 62
     0
  5
2CF
 10
368.0
 20
23.71101
 30
0.0
 11
368.0
 21
23.925126
 31
0.0
  0
LINE
  8
0
  6
CONTINUOUS
 62
     0
  5
2D0
 10
368.0
 20
25.214233
 30
0.0
 11
368.0
 21
25.285706
 31
0.0
  0
LINE
  8
0
  6
CONTINUOUS
 62
     0
  5
2D1
 10
368.5
 20
23.768714
 30
0.0
 11
368.5
 21
25.285706
 31
0.0
  0
LINE
  8
0
  6
CONTINUOUS
 62
     0
  5
2D2
 10
369.0
 20
23.841336
 30
0.0
 11
369.0
 21
23.989279
 31
0.0
  0
LINE
  8
0
  6
CONTINUOUS
 62
     0
  5
2D3
 10
369.0
 20
25.214233
 30
0.0
 11
369.0
 21
25.285706
 31
0.0
  0
LINE
  8
0
  6
CONTINUOUS
 62
     0
  5
2D4
 10
369.5
 20
23.929746
 30
0.0
 11
369.5
 21
24.040248
 31
0.0
  0
LINE
  8
0
  6
CONTINUOUS
 62
     0
  5
2D5
 10
369.5
 20
25.214233
 30
0.0
 11
369.5
 21
25.285706
 31
0.0
  0
ENDBLK
  8
0
  6
BYBLOCK
 62
     0
  5
2D6
  0
BLOCK
  8
0
  6
BYBLOCK
 62
     0
  5
2D9
  2
*X15
 70
     1
 10
0.0
 20
0.0
 30
0.0
  3
*X15
  0
LINE
  8
0
  6
CONTINUOUS
 62
     0
  5
2DA
 10
373.674582
 20
26.5
 30
0.0
 11
374.70478
 21
26.5
 31
0.0
  0
LINE
  8
0
  6
CONTINUOUS
 62
     0
  5
2DB
 10
377.423821
 20
26.5
 30
0.0
 11
378.454137
 21
26.5
 31
0.0
  0
LINE
  8
0
  6
CONTINUOUS
 62
     0
  5
2DC
 10
375.216825
 20
27.0
 30
0.0
 11
376.912408
 21
27.0
 31
0.0
  0
LINE
  8
0
  6
CONTINUOUS
 62
     0
  5
2DD
 10
373.5
 20
26.108456
 30
0.0
 11
373.5
 21
26.4434
 31
0.0
  0
LINE
  8
0
  6
CONTINUOUS
 62
     0
  5
2DE
 10
374.0
 20
26.270952
 30
0.0
 11
374.0
 21
26.605502
 31
0.0
  0
LINE
  8
0
  6
CONTINUOUS
 62
     0
  5
2DF
 10
374.5
 20
26.433448
 30
0.0
 11
374.5
 21
26.767603
 31
0.0
  0
LINE
  8
0
  6
CONTINUOUS
 62
     0
  5
2E0
 10
375.0
 20
26.595944
 30
0.0
 11
375.0
 21
26.929705
 31
0.0
  0
LINE
  8
0
  6
CONTINUOUS
 62
     0
  5
2E1
 10
375.5
 20
26.75844
 30
0.0
 11
375.5
 21
27.091806
 31
0.0
  0
LINE
  8
0
  6
CONTINUOUS
 62
     0
  5
2E2
 10
376.0
 20
26.920936
 30
0.0
 11
376.0
 21
27.253908
 31
0.0
  0
LINE
  8
0
  6
CONTINUOUS
 62
     0
  5
2E3
 10
376.5
 20
26.800235
 30
0.0
 11
376.5
 21
27.133749
 31
0.0
  0
LINE
  8
0
  6
CONTINUOUS
 62
     0
  5
2E4
 10
377.0
 20
26.637738
 30
0.0
 11
377.0
 21
26.971593
 31
0.0
  0
LINE
  8
0
  6
CONTINUOUS
 62
     0
  5
2E5
 10
377.5
 20
26.475242
 30
0.0
 11
377.5
 21
26.809437
 31
0.0
  0
LINE
  8
0
  6
CONTINUOUS
 62
     0
  5
2E6
 10
378.0
 20
26.312746
 30
0.0
 11
378.0
 21
26.647282
 31
0.0
  0
LINE
  8
0
  6
CONTINUOUS
 62
     0
  5
2E7
 10
378.5
 20
26.15025
 30
0.0
 11
378.5
 21
26.485126
 31
0.0
  0
ENDBLK
  8
0
  6
BYBLOCK
 62
     0
  5
2E8
  0
BLOCK
  8
0
  6
BYBLOCK
 62
     0
  5
2EC
  2
*X16
 70
     1
 10
0.0
 20
0.0
 30
0.0
  3
*X16
  0
LINE
  8
0
  6
CONTINUOUS
 62
     0
  5
2ED
 10
373.849445
 20
24.0
 30
0.0
 11
374.735153
 21
24.0
 31
0.0
  0
LINE
  8
0
  6
CONTINUOUS
 62
     0
  5
2EE
 10
377.402573
 20
24.0
 30
0.0
 11
378.279751
 21
24.0
 31
0.0
  0
LINE
  8
0
  6
CONTINUOUS
 62
     0
  5
2EF
 10
374.234659
 20
24.5
 30
0.0
 11
375.004127
 21
24.5
 31
0.0
  0
LINE
  8
0
  6
CONTINUOUS
 62
     0
  5
2F0
 10
377.131035
 20
24.5
 30
0.0
 11
377.899351
 21
24.5
 31
0.0
  0
LINE
  8
0
  6
CONTINUOUS
 62
     0
  5
2F1
 10
373.414307
 20
25.0
 30
0.0
 11
378.714325
 21
25.0
 31
0.0
  0
LINE
  8
0
  6
CONTINUOUS
 62
     0
  5
2F2
 10
373.5
 20
25.0
 30
0.0
 11
373.5
 21
25.142822
 31
0.0
  0
LINE
  8
0
  6
CONTINUOUS
 62
     0
  5
2F3
 10
374.0
 20
23.713782
 30
0.0
 11
374.0
 21
24.195417
 31
0.0
  0
LINE
  8
0
  6
CONTINUOUS
 62
     0
  5
2F4
 10
374.0
 20
25.0
 30
0.0
 11
374.0
 21
25.142822
 31
0.0
  0
LINE
  8
0
  6
CONTINUOUS
 62
     0
  5
2F5
 10
374.5
 20
23.713832
 30
0.0
 11
374.5
 21
24.844407
 31
0.0
  0
LINE
  8
0
  6
CONTINUOUS
 62
     0
  5
2F6
 10
374.5
 20
25.0
 30
0.0
 11
374.5
 21
25.142822
 31
0.0
  0
LINE
  8
0
  6
CONTINUOUS
 62
     0
  5
2F7
 10
375.0
 20
23.713883
 30
0.0
 11
375.0
 21
23.785706
 31
0.0
  0
LINE
  8
0
  6
CONTINUOUS
 62
     0
  5
2F8
 10
375.0
 20
24.492328
 30
0.0
 11
375.0
 21
25.142822
 31
0.0
  0
LINE
  8
0
  6
CONTINUOUS
 62
     0
  5
2F9
 10
375.5
 20
23.713933
 30
0.0
 11
375.5
 21
23.785706
 31
0.0
  0
LINE
  8
0
  6
CONTINUOUS
 62
     0
  5
2FA
 10
375.5
 20
25.0
 30
0.0
 11
375.5
 21
25.142822
 31
0.0
  0
LINE
  8
0
  6
CONTINUOUS
 62
     0
  5
2FB
 10
376.0
 20
23.713983
 30
0.0
 11
376.0
 21
23.785706
 31
0.0
  0
LINE
  8
0
  6
CONTINUOUS
 62
     0
  5
2FC
 10
376.0
 20
25.0
 30
0.0
 11
376.0
 21
25.142822
 31
0.0
  0
LINE
  8
0
  6
CONTINUOUS
 62
     0
  5
2FD
 10
376.5
 20
23.714033
 30
0.0
 11
376.5
 21
23.785706
 31
0.0
  0
LINE
  8
0
  6
CONTINUOUS
 62
     0
  5
2FE
 10
376.5
 20
25.0
 30
0.0
 11
376.5
 21
25.142822
 31
0.0
  0
LINE
  8
0
  6
CONTINUOUS
 62
     0
  5
2FF
 10
377.0
 20
23.714083
 30
0.0
 11
377.0
 21
23.785706
 31
0.0
  0
LINE
  8
0
  6
CONTINUOUS
 62
     0
  5
300
 10
377.0
 20
24.741283
 30
0.0
 11
377.0
 21
25.142822
 31
0.0
  0
LINE
  8
0
  6
CONTINUOUS
 62
     0
  5
301
 10
377.5
 20
23.714133
 30
0.0
 11
377.5
 21
23.785706
 31
0.0
  0
LINE
  8
0
  6
CONTINUOUS
 62
     0
  5
302
 10
377.5
 20
23.820602
 30
0.0
 11
377.5
 21
25.142822
 31
0.0
  0
LINE
  8
0
  6
CONTINUOUS
 62
     0
  5
303
 10
378.0
 20
23.714184
 30
0.0
 11
378.0
 21
24.367706
 31
0.0
  0
LINE
  8
0
  6
CONTINUOUS
 62
     0
  5
304
 10
378.0
 20
25.0
 30
0.0
 11
378.0
 21
25.142822
 31
0.0
  0
LINE
  8
0
  6
CONTINUOUS
 62
     0
  5
305
 10
378.5
 20
25.0
 30
0.0
 11
378.5
 21
25.142822
 31
0.0
  0
ENDBLK
  8
0
  6
BYBLOCK
 62
     0
  5
306
  0
BLOCK
  8
0
  6
BYBLOCK
 62
     0
  5
309
  2
*X17
 70
     1
 10
0.0
 20
0.0
 30
0.0
  3
*X17
  0
LINE
  8
0
  6
CONTINUOUS
 62
     0
  5
30A
 10
382.02841
 20
25.0
 30
0.0
 11
382.285921
 21
25.0
 31
0.0
  0
LINE
  8
0
  6
CONTINUOUS
 62
     0
  5
30B
 10
382.0
 20
24.591286
 30
0.0
 11
382.0
 21
24.980125
 31
0.0
  0
ENDBLK
  8
0
  6
BYBLOCK
 62
     0
  5
30C
  0
BLOCK
  8
0
  6
BYBLOCK
 62
     0
  5
30F
  2
*X18
 70
     1
 10
0.0
 20
0.0
 30
0.0
  3
*X18
  0
LINE
  8
0
  6
CONTINUOUS
 62
     0
  5
310
 10
383.37146
 20
24.0
 30
0.0
 11
383.942871
 21
24.0
 31
0.0
  0
LINE
  8
0
  6
CONTINUOUS
 62
     0
  5
311
 10
383.37146
 20
24.5
 30
0.0
 11
383.942871
 21
24.5
 31
0.0
  0
LINE
  8
0
  6
CONTINUOUS
 62
     0
  5
312
 10
383.37146
 20
25.0
 30
0.0
 11
383.942871
 21
25.0
 31
0.0
  0
LINE
  8
0
  6
CONTINUOUS
 62
     0
  5
313
 10
383.37146
 20
25.5
 30
0.0
 11
383.942871
 21
25.5
 31
0.0
  0
LINE
  8
0
  6
CONTINUOUS
 62
     0
  5
314
 10
383.37146
 20
26.0
 30
0.0
 11
383.942871
 21
26.0
 31
0.0
  0
LINE
  8
0
  6
CONTINUOUS
 62
     0
  5
315
 10
382.585724
 20
26.5
 30
0.0
 11
384.87146
 21
26.5
 31
0.0
  0
LINE
  8
0
  6
CONTINUOUS
 62
     0
  5
316
 10
383.37146
 20
27.0
 30
0.0
 11
383.942871
 21
27.0
 31
0.0
  0
LINE
  8
0
  6
CONTINUOUS
 62
     0
  5
317
 10
382.5
 20
23.714233
 30
0.0
 11
382.5
 21
23.785706
 31
0.0
  0
LINE
  8
0
  6
CONTINUOUS
 62
     0
  5
318
 10
383.0
 20
23.714233
 30
0.0
 11
383.0
 21
23.785706
 31
0.0
  0
LINE
  8
0
  6
CONTINUOUS
 62
     0
  5
319
 10
383.0
 20
26.428528
 30
0.0
 11
383.0
 21
26.5
 31
0.0
  0
LINE
  8
0
  6
CONTINUOUS
 62
     0
  5
31A
 10
383.5
 20
23.714233
 30
0.0
 11
383.5
 21
27.285706
 31
0.0
  0
LINE
  8
0
  6
CONTINUOUS
 62
     0
  5
31B
 10
384.0
 20
23.714233
 30
0.0
 11
384.0
 21
23.785706
 31
0.0
  0
LINE
  8
0
  6
CONTINUOUS
 62
     0
  5
31C
 10
384.0
 20
26.428528
 30
0.0
 11
384.0
 21
26.5
 31
0.0
  0
LINE
  8
0
  6
CONTINUOUS
 62
     0
  5
31D
 10
384.5
 20
23.714233
 30
0.0
 11
384.5
 21
23.785706
 31
0.0
  0
LINE
  8
0
  6
CONTINUOUS
 62
     0
  5
31E
 10
384.5
 20
26.428528
 30
0.0
 11
384.5
 21
26.5
 31
0.0
  0
ENDBLK
  8
0
  6
BYBLOCK
 62
     0
  5
31F
  0
BLOCK
  8
0
  6
BYBLOCK
 62
     0
  5
323
  2
*X19
 70
     1
 10
0.0
 20
0.0
 30
0.0
  3
*X19
  0
LINE
  8
0
  6
CONTINUOUS
 62
     0
  5
324
 10
380.514313
 20
24.0
 30
0.0
 11
381.157166
 21
24.0
 31
0.0
  0
LINE
  8
0
  6
CONTINUOUS
 62
     0
  5
325
 10
379.428137
 20
24.5
 30
0.0
 11
379.652678
 21
24.5
 31
0.0
  0
LINE
  8
0
  6
CONTINUOUS
 62
     0
  5
326
 10
380.514314
 20
24.5
 30
0.0
 11
381.157166
 21
24.5
 31
0.0
  0
LINE
  8
0
  6
CONTINUOUS
 62
     0
  5
327
 10
379.765473
 20
25.0
 30
0.0
 11
380.452505
 21
25.0
 31
0.0
  0
LINE
  8
0
  6
CONTINUOUS
 62
     0
  5
328
 10
380.514314
 20
25.0
 30
0.0
 11
381.157166
 21
25.0
 31
0.0
  0
LINE
  8
0
  6
CONTINUOUS
 62
     0
  5
329
 10
380.138267
 20
25.5
 30
0.0
 11
381.157166
 21
25.5
 31
0.0
  0
LINE
  8
0
  6
CONTINUOUS
 62
     0
  5
32A
 10
380.382005
 20
26.0
 30
0.0
 11
381.157166
 21
26.0
 31
0.0
  0
LINE
  8
0
  6
CONTINUOUS
 62
     0
  5
32B
 10
379.428589
 20
26.5
 30
0.0
 11
381.87146
 21
26.5
 31
0.0
  0
LINE
  8
0
  6
CONTINUOUS
 62
     0
  5
32C
 10
379.5
 20
24.409911
 30
0.0
 11
379.5
 21
24.743966
 31
0.0
  0
LINE
  8
0
  6
CONTINUOUS
 62
     0
  5
32D
 10
379.5
 20
26.428528
 30
0.0
 11
379.5
 21
26.5
 31
0.0
  0
LINE
  8
0
  6
CONTINUOUS
 62
     0
  5
32E
 10
380.0
 20
24.709453
 30
0.0
 11
380.0
 21
25.2879
 31
0.0
  0
LINE
  8
0
  6
CONTINUOUS
 62
     0
  5
32F
 10
380.0
 20
26.428529
 30
0.0
 11
380.0
 21
26.5
 31
0.0
  0
LINE
  8
0
  6
CONTINUOUS
 62
     0
  5
330
 10
380.5
 20
25.034887
 30
0.0
 11
380.5
 21
26.369992
 31
0.0
  0
LINE
  8
0
  6
CONTINUOUS
 62
     0
  5
331
 10
380.5
 20
26.42853
 30
0.0
 11
380.5
 21
26.5
 31
0.0
  0
LINE
  8
0
  6
CONTINUOUS
 62
     0
  5
332
 10
381.0
 20
23.714233
 30
0.0
 11
381.0
 21
26.5
 31
0.0
  0
LINE
  8
0
  6
CONTINUOUS
 62
     0
  5
333
 10
381.5
 20
26.428528
 30
0.0
 11
381.5
 21
26.5
 31
0.0
  0
ENDBLK
  8
0
  6
BYBLOCK
 62
     0
  5
334
  0
ENDSEC
  0
SECTION
  2
ENTITIES
  0
ARC
  8
LY_1
  6
CONTINUOUS
 62
     3
  5
353
 10
173.053951
 20
588.015898
 30
0.0
 40
2.0
 50
189.524357
 51
270.0
  0
LINE
  8
LY_1
  6
CONTINUOUS
 62
     3
  5
354
 10
211.053951
 20
588.382685
 30
0.0
 11
211.053951
 21
591.203368
 31
0.0
  0
LINE
  8
LY_1
  6
CONTINUOUS
 62
     3
  5
355
 10
191.053951
 20
597.049062
 30
0.0
 11
191.053951
 21
678.982733
 31
0.0
  0
LINE
  8
LY_1
  6
CONTINUOUS
 62
     3
  5
356
 10
189.153951
 20
597.049062
 30
0.0
 11
189.153951
 21
678.982733
 31
0.0
  0
ARC
  8
LY_1
  6
CONTINUOUS
 62
     3
  5
357
 10
173.053951
 20
688.015898
 30
0.0
 40
2.0
 50
90.0
 51
170.475643
  0
LINE
  8
LY_1
  6
CONTINUOUS
 62
     3
  5
358
 10
211.053951
 20
687.64911
 30
0.0
 11
211.053951
 21
688.015898
 31
0.0
  0
LINE
  8
LY_1
  6
CONTINUOUS
 62
     3
  5
359
 10
241.053951
 20
678.982733
 30
0.0
 11
244.053951
 21
678.982733
 31
0.0
  0
LINE
  8
LY_1
  6
CONTINUOUS
 62
     3
  5
35A
 10
211.053951
 20
684.828428
 30
0.0
 11
211.053951
 21
687.64911
 31
0.0
  0
ARC
  8
LY_1
  6
CONTINUOUS
 62
     3
  5
35B
 10
244.053951
 20
671.982733
 30
0.0
 40
7.0
 50
0.0
 51
53.07548
  0
LINE
  8
LY_1
  6
CONTINUOUS
 62
     3
  5
35C
 10
241.053951
 20
597.049062
 30
0.0
 11
244.053951
 21
597.049062
 31
0.0
  0
ARC
  8
LY_1
  6
CONTINUOUS
 62
     3
  5
35D
 10
195.048792
 20
686.928329
 30
0.0
 40
1.0
 50
78.973713
 51
89.0
  0
ARC
  8
LY_1
  6
CONTINUOUS
 62
     3
  5
35E
 10
195.048792
 20
589.103467
 30
0.0
 40
1.0
 50
271.0
 51
281.026287
  0
ARC
  8
LY_1
  6
CONTINUOUS
 62
     3
  5
35F
 10
75.553951
 20
572.400419
 30
0.0
 40
1.5
 50
180.0
 51
0.0
  0
ARC
  8
LY_1
  6
CONTINUOUS
 62
     3
  5
360
 10
146.4954
 20
417.229916
 30
0.0
 40
170.0
 50
91.0
 51
114.109331
  0
LINE
  8
LY_1
  6
CONTINUOUS
 62
     3
  5
361
 10
143.528491
 20
587.204024
 30
0.0
 11
195.066244
 21
588.103619
 31
0.0
  0
LINE
  8
LY_1
  6
CONTINUOUS
 62
     3
  5
362
 10
241.053951
 20
597.049062
 30
0.0
 11
195.240051
 21
588.121927
 31
0.0
  0
LINE
  8
LY_1
  6
CONTINUOUS
 62
     3
  5
363
 10
241.053951
 20
678.982733
 30
0.0
 11
195.240051
 21
687.909868
 31
0.0
  0
LINE
  8
LY_1
  6
CONTINUOUS
 62
     3
  5
364
 10
143.528491
 20
688.827771
 30
0.0
 11
195.066244
 21
687.928177
 31
0.0
  0
ARC
  8
LY_1
  6
CONTINUOUS
 62
     3
  5
365
 10
75.553951
 20
703.631376
 30
0.0
 40
1.5
 50
0.0
 51
180.0
  0
ARC
  8
LY_1
  6
CONTINUOUS
 62
     3
  5
366
 10
146.4954
 20
858.80188
 30
0.0
 40
170.0
 50
245.890669
 51
269.0
  0
LINE
  8
LY_1
  6
CONTINUOUS
 62
     3
  5
367
 10
77.053951
 20
703.631376
 30
0.0
 11
77.053951
 21
590.431376
 31
0.0
  0
LINE
  8
LY_1
  6
CONTINUOUS
 62
     3
  5
368
 10
74.053951
 20
703.631376
 30
0.0
 11
74.053951
 21
590.431376
 31
0.0
  0
ARC
  8
LY_1
  6
CONTINUOUS
 62
     3
  5
369
 10
244.053951
 20
604.049062
 30
0.0
 40
7.0
 50
270.0
 51
0.0
  0
LINE
  8
LY_1
  6
CONTINUOUS
 62
     3
  5
36A
 10
191.053951
 20
597.049062
 30
0.0
 11
241.053951
 21
597.049062
 31
0.0
  0
LINE
  8
LY_1
  6
CONTINUOUS
 62
     3
  5
36B
 10
143.528491
 20
596.219502
 30
0.0
 11
191.053951
 21
597.049062
 31
0.0
  0
ARC
  8
LY_1
  6
CONTINUOUS
 62
     3
  5
36C
 10
146.4954
 20
426.245394
 30
0.0
 40
170.0
 50
91.0
 51
114.109331
  0
LINE
  8
LY_1
  6
CONTINUOUS
 62
     3
  5
36D
 10
143.528491
 20
679.812293
 30
0.0
 11
191.053951
 21
678.982733
 31
0.0
  0
ARC
  8
LY_1
  6
CONTINUOUS
 62
     3
  5
36E
 10
146.4954
 20
849.786401
 30
0.0
 40
170.0
 50
245.890669
 51
269.0
  0
LINE
  8
LY_1
  6
CONTINUOUS
 62
     3
  5
36F
 10
191.053951
 20
678.982733
 30
0.0
 11
241.053951
 21
678.982733
 31
0.0
  0
ARC
  8
LY_1
  6
CONTINUOUS
 62
     3
  5
370
 10
244.053951
 20
671.982733
 30
0.0
 40
7.0
 50
53.07548
 51
90.0
  0
LINE
  8
LY_1
  6
CONTINUOUS
 62
     3
  5
371
 10
251.053951
 20
671.982733
 30
0.0
 11
251.053951
 21
604.049062
 31
0.0
  0
LINE
  8
LY_1
  6
CONTINUOUS
 62
     3
  5
372
 10
77.053951
 20
694.615898
 30
0.0
 11
77.053951
 21
572.400419
 31
0.0
  0
LINE
  8
LY_1
  6
CONTINUOUS
 62
     3
  5
373
 10
74.053951
 20
694.615898
 30
0.0
 11
74.053951
 21
572.400419
 31
0.0
  0
LINE
  8
LY_1
  6
CONTINUOUS
 62
     3
  5
374
 10
173.053951
 20
690.015898
 30
0.0
 11
209.053951
 21
690.015898
 31
0.0
  0
LINE
  8
LY_1
  6
CONTINUOUS
 62
     3
  5
375
 10
173.053951
 20
586.015898
 30
0.0
 11
209.053951
 21
586.015898
 31
0.0
  0
LINE
  8
LY_1
  6
CONTINUOUS
 62
     3
  5
376
 10
211.053951
 20
588.015898
 30
0.0
 11
211.053951
 21
588.382685
 31
0.0
  0
ARC
  8
LY_1
  6
CONTINUOUS
 62
     3
  5
377
 10
173.053951
 20
588.015898
 30
0.0
 40
2.0
 50
180.0
 51
189.524357
  0
ARC
  8
LY_1
  6
CONTINUOUS
 62
     3
  5
378
 10
209.053951
 20
588.015898
 30
0.0
 40
2.0
 50
270.0
 51
0.0
  0
ARC
  8
LY_1
  6
CONTINUOUS
 62
     3
  5
379
 10
173.053951
 20
688.015898
 30
0.0
 40
2.0
 50
170.475643
 51
180.0
  0
ARC
  8
LY_1
  6
CONTINUOUS
 62
     3
  5
37A
 10
209.053951
 20
688.015898
 30
0.0
 40
2.0
 50
0.0
 51
90.0
  0
CIRCLE
  8
LY_1
  6
CONTINUOUS
 62
     3
  5
37B
 10
-62.718785
 20
376.015898
 30
0.0
 40
41.0
  0
ARC
  8
LY_1
  6
CONTINUOUS
 62
     3
  5
37C
 10
-62.718785
 20
376.015898
 30
0.0
 40
20.0
 50
272.865087
 51
267.134913
  0
ARC
  8
LY_1
  6
CONTINUOUS
 62
     3
  5
37D
 10
-62.718785
 20
356.015898
 30
0.0
 40
1.0
 50
1.432544
 51
178.567456
  0
LINE
  8
LY_1
  6
CONTINUOUS
 62
     3
  5
37E
 10
-36.555834
 20
328.639743
 30
0.0
 11
-15.342631
 21
349.852947
 31
0.0
  0
LINE
  8
LY_1
  6
CONTINUOUS
 62
     3
  5
37F
 10
-46.343912
 20
338.427821
 30
0.0
 11
-36.555834
 21
328.639743
 31
0.0
  0
LINE
  8
LY_1
  6
CONTINUOUS
 62
     3
  5
380
 10
-64.718785
 20
333.015898
 30
0.0
 11
-64.718785
 21
307.015898
 31
0.0
  0
LINE
  8
LY_1
  6
CONTINUOUS
 62
     3
  5
381
 10
-60.718785
 20
333.015898
 30
0.0
 11
-60.718785
 21
307.015898
 31
0.0
  0
LINE
  8
LY_1
  6
CONTINUOUS
 62
     3
  5
382
 10
-68.718785
 20
331.515898
 30
0.0
 11
-68.718785
 21
307.015898
 31
0.0
  0
LINE
  8
LY_1
  6
CONTINUOUS
 62
     3
  5
383
 10
-56.718785
 20
331.515898
 30
0.0
 11
-56.718785
 21
307.015898
 31
0.0
  0
LINE
  8
LY_1
  6
CONTINUOUS
 62
     3
  5
384
 10
-57.718785
 20
311.015898
 30
0.0
 11
-59.718785
 21
311.015898
 31
0.0
  0
ARC
  8
LY_1
  6
CONTINUOUS
 62
     3
  5
385
 10
-62.718785
 20
333.015898
 30
0.0
 40
2.0
 50
0.0
 51
180.0
  0
LINE
  8
LY_1
  6
CONTINUOUS
 62
     3
  5
386
 10
-65.718785
 20
311.015898
 30
0.0
 11
-67.718785
 21
311.015898
 31
0.0
  0
ARC
  8
LY_1
  6
CONTINUOUS
 62
     3
  5
387
 10
-57.718785
 20
312.015898
 30
0.0
 40
1.0
 50
270.0
 51
0.0
  0
ARC
  8
LY_1
  6
CONTINUOUS
 62
     3
  5
388
 10
-59.718785
 20
312.015898
 30
0.0
 40
1.0
 50
180.0
 51
270.0
  0
ARC
  8
LY_1
  6
CONTINUOUS
 62
     3
  5
389
 10
-65.718785
 20
312.015898
 30
0.0
 40
1.0
 50
270.0
 51
0.0
  0
ARC
  8
LY_1
  6
CONTINUOUS
 62
     3
  5
38A
 10
-67.718785
 20
312.015898
 30
0.0
 40
1.0
 50
180.0
 51
270.0
  0
LINE
  8
LY_1
  6
CONTINUOUS
 62
     3
  5
38B
 10
-68.718785
 20
331.515898
 30
0.0
 11
-70.24635
 21
335.712849
 31
0.0
  0
LINE
  8
LY_1
  6
CONTINUOUS
 62
     3
  5
38C
 10
-56.718785
 20
331.515898
 30
0.0
 11
-55.19122
 21
335.712849
 31
0.0
  0
LINE
  8
LY_1
  6
CONTINUOUS
 62
     3
  5
38D
 10
4.123284
 20
377.953156
 30
0.0
 11
-8.657602
 21
422.331235
 31
0.0
  0
LINE
  8
LY_1
  6
CONTINUOUS
 62
     3
  5
38E
 10
4.123284
 20
374.07864
 30
0.0
 11
-8.657602
 21
329.70056
 31
0.0
  0
LINE
  8
LY_1
  6
CONTINUOUS
 62
     3
  5
38F
 10
-116.779968
 20
422.331235
 30
0.0
 11
-129.560855
 21
377.953156
 31
0.0
  0
LINE
  8
LY_1
  6
CONTINUOUS
 62
     3
  5
390
 10
-129.560855
 20
374.07864
 30
0.0
 11
-116.779968
 21
329.70056
 31
0.0
  0
ARC
  8
LY_1
  6
CONTINUOUS
 62
     3
  5
391
 10
-62.718785
 20
253.99555
 30
0.0
 40
180.0
 50
74.120782
 51
105.879218
  0
ARC
  8
LY_1
  6
CONTINUOUS
 62
     3
  5
392
 10
-62.718785
 20
498.036245
 30
0.0
 40
180.0
 50
275.336017
 51
285.190425
  0
ARC
  8
LY_1
  6
CONTINUOUS
 62
     3
  5
393
 10
-110.053377
 20
420.393977
 30
0.0
 40
7.0
 50
105.879218
 51
163.933599
  0
ARC
  8
LY_1
  6
CONTINUOUS
 62
     3
  5
394
 10
-15.384194
 20
420.393977
 30
0.0
 40
7.0
 50
16.066401
 51
74.120782
  0
ARC
  8
LY_1
  6
CONTINUOUS
 62
     3
  5
395
 10
-2.603307
 20
376.015898
 30
0.0
 40
7.0
 50
343.933599
 51
16.066401
  0
ARC
  8
LY_1
  6
CONTINUOUS
 62
     3
  5
396
 10
-110.053377
 20
331.637819
 30
0.0
 40
7.0
 50
196.066401
 51
254.120782
  0
ARC
  8
LY_1
  6
CONTINUOUS
 62
     3
  5
397
 10
-122.834264
 20
376.015898
 30
0.0
 40
7.0
 50
163.933599
 51
196.066401
  0
LINE
  8
LY_1
  6
CONTINUOUS
 62
     3
  5
398
 10
-14.718785
 20
368.015898
 30
0.0
 11
-14.718785
 21
384.015898
 31
0.0
  0
LINE
  8
LY_1
  6
CONTINUOUS
 62
     3
  5
399
 10
-110.718785
 20
368.015898
 30
0.0
 11
-110.718785
 21
384.015898
 31
0.0
  0
LINE
  8
LY_1
  6
CONTINUOUS
 62
     3
  5
39A
 10
-14.718785
 20
384.015898
 30
0.0
 11
-22.506847
 21
384.015898
 31
0.0
  0
LINE
  8
LY_1
  6
CONTINUOUS
 62
     3
  5
39B
 10
-14.718785
 20
368.015898
 30
0.0
 11
-22.506847
 21
368.015898
 31
0.0
  0
LINE
  8
LY_1
  6
CONTINUOUS
 62
     3
  5
39C
 10
-102.930724
 20
368.015898
 30
0.0
 11
-110.718785
 21
368.015898
 31
0.0
  0
LINE
  8
LY_1
  6
CONTINUOUS
 62
     3
  5
39D
 10
-102.930724
 20
384.015898
 30
0.0
 11
-110.718785
 21
384.015898
 31
0.0
  0
LINE
  8
LY_1
  6
CONTINUOUS
 62
     3
  5
39E
 10
-14.718785
 20
381.015898
 30
0.0
 11
-22.131272
 21
381.817085
 31
0.0
  0
LINE
  8
LY_1
  6
CONTINUOUS
 62
     3
  5
39F
 10
-14.718785
 20
381.015898
 30
0.0
 11
-22.024805
 21
381.015898
 31
0.0
  0
LINE
  8
LY_1
  6
CONTINUOUS
 62
     3
  5
3A0
 10
-14.718785
 20
371.015898
 30
0.0
 11
-22.131272
 21
370.21471
 31
0.0
  0
LINE
  8
LY_1
  6
CONTINUOUS
 62
     3
  5
3A1
 10
-14.718785
 20
371.015898
 30
0.0
 11
-22.024805
 21
371.015898
 31
0.0
  0
LINE
  8
LY_1
  6
CONTINUOUS
 62
     3
  5
3A2
 10
-14.718785
 20
384.015898
 30
0.0
 11
-22.351481
 21
383.190909
 31
0.0
  0
LINE
  8
LY_1
  6
CONTINUOUS
 62
     3
  5
3A3
 10
-14.718785
 20
368.015898
 30
0.0
 11
-22.351481
 21
368.840887
 31
0.0
  0
LINE
  8
LY_1
  6
CONTINUOUS
 62
     3
  5
3A4
 10
-110.718785
 20
381.015898
 30
0.0
 11
-103.306298
 21
381.817085
 31
0.0
  0
LINE
  8
LY_1
  6
CONTINUOUS
 62
     3
  5
3A5
 10
-110.718785
 20
381.015898
 30
0.0
 11
-103.412765
 21
381.015898
 31
0.0
  0
LINE
  8
LY_1
  6
CONTINUOUS
 62
     3
  5
3A6
 10
-110.718785
 20
384.015898
 30
0.0
 11
-103.086089
 21
383.190909
 31
0.0
  0
LINE
  8
LY_1
  6
CONTINUOUS
 62
     3
  5
3A7
 10
-110.718785
 20
371.015898
 30
0.0
 11
-103.306298
 21
370.21471
 31
0.0
  0
LINE
  8
LY_1
  6
CONTINUOUS
 62
     3
  5
3A8
 10
-110.718785
 20
371.015898
 30
0.0
 11
-103.412765
 21
371.015898
 31
0.0
  0
LINE
  8
LY_1
  6
CONTINUOUS
 62
     3
  5
3A9
 10
-110.718785
 20
368.015898
 30
0.0
 11
-103.086089
 21
368.840887
 31
0.0
  0
CIRCLE
  8
LY_1
  6
CONTINUOUS
 62
     3
  5
3AA
 10
-106.718785
 20
376.015898
 30
0.0
 40
1.5
  0
CIRCLE
  8
LY_1
  6
CONTINUOUS
 62
     3
  5
3AB
 10
-18.718785
 20
376.015898
 30
0.0
 40
1.5
  0
ARC
  8
LY_1
  6
CONTINUOUS
 62
     3
  5
3AC
 10
-62.718785
 20
498.036245
 30
0.0
 40
180.0
 50
254.120782
 51
264.663983
  0
LINE
  8
LY_1
  6
CONTINUOUS
 62
     3
  5
3AD
 10
-10.718785
 20
286.015898
 30
0.0
 11
-32.718785
 21
286.015898
 31
0.0
  0
LINE
  8
LY_1
  6
CONTINUOUS
 62
     3
  5
3AE
 10
-10.718785
 20
286.015898
 30
0.0
 11
-10.718785
 21
294.130088
 31
0.0
  0
LINE
  8
LY_1
  6
CONTINUOUS
 62
     3
  5
3AF
 10
-114.718785
 20
286.015898
 30
0.0
 11
-114.718785
 21
294.130088
 31
0.0
  0
LINE
  8
LY_1
  6
CONTINUOUS
 62
     3
  5
3B0
 10
-83.376093
 20
297.859586
 30
0.0
 11
-112.836229
 21
296.126636
 31
0.0
  0
LINE
  8
LY_1
  6
CONTINUOUS
 62
     3
  5
3B1
 10
-42.061478
 20
297.859586
 30
0.0
 11
-12.601341
 21
296.126636
 31
0.0
  0
ARC
  8
LY_1
  6
CONTINUOUS
 62
     3
  5
3B2
 10
-12.718785
 20
294.130088
 30
0.0
 40
2.0
 50
0.0
 51
86.633539
  0
ARC
  8
LY_1
  6
CONTINUOUS
 62
     3
  5
3B3
 10
-112.718785
 20
294.130088
 30
0.0
 40
2.0
 50
93.366461
 51
180.0
  0
LINE
  8
LY_1
  6
CONTINUOUS
 62
     3
  5
3B4
 10
-34.718785
 20
291.015898
 30
0.0
 11
-90.718785
 21
291.015898
 31
0.0
  0
LINE
  8
LY_1
  6
CONTINUOUS
 62
     3
  5
3B5
 10
-32.718785
 20
286.015898
 30
0.0
 11
-32.718785
 21
289.015898
 31
0.0
  0
LINE
  8
LY_1
  6
CONTINUOUS
 62
     3
  5
3B6
 10
-92.718785
 20
286.015898
 30
0.0
 11
-92.718785
 21
289.015898
 31
0.0
  0
ARC
  8
LY_1
  6
CONTINUOUS
 62
     3
  5
3B7
 10
-34.718785
 20
289.015898
 30
0.0
 40
2.0
 50
0.0
 51
90.0
  0
ARC
  8
LY_1
  6
CONTINUOUS
 62
     3
  5
3B8
 10
-90.718785
 20
289.015898
 30
0.0
 40
2.0
 50
90.0
 51
180.0
  0
LINE
  8
LY_1
  6
CONTINUOUS
 62
     3
  5
3B9
 10
-92.718785
 20
286.015898
 30
0.0
 11
-114.718785
 21
286.015898
 31
0.0
  0
LINE
  8
LY_1
  6
CONTINUOUS
 62
     3
  5
3BA
 10
-47.660014
 20
331.015898
 30
0.0
 11
-56.718785
 21
331.015898
 31
0.0
  0
LINE
  8
LY_1
  6
CONTINUOUS
 62
     3
  5
3BB
 10
-46.661846
 20
330.076393
 30
0.0
 11
-44.879817
 21
300.672924
 31
0.0
  0
LINE
  8
LY_1
  6
CONTINUOUS
 62
     3
  5
3BC
 10
-78.775725
 20
330.076393
 30
0.0
 11
-80.557753
 21
300.672924
 31
0.0
  0
ARC
  8
LY_1
  6
CONTINUOUS
 62
     3
  5
3BD
 10
-47.660014
 20
330.015898
 30
0.0
 40
1.0
 50
3.468229
 51
90.0
  0
ARC
  8
LY_1
  6
CONTINUOUS
 62
     3
  5
3BE
 10
-77.777556
 20
330.015898
 30
0.0
 40
1.0
 50
90.0
 51
176.531771
  0
ARC
  8
LY_1
  6
CONTINUOUS
 62
     3
  5
3BF
 10
-57.718785
 20
307.015898
 30
0.0
 40
1.0
 50
270.0
 51
0.0
  0
ARC
  8
LY_1
  6
CONTINUOUS
 62
     3
  5
3C0
 10
-59.718785
 20
307.015898
 30
0.0
 40
1.0
 50
180.0
 51
270.0
  0
LINE
  8
LY_1
  6
CONTINUOUS
 62
     3
  5
3C1
 10
-57.718785
 20
306.015898
 30
0.0
 11
-59.718785
 21
306.015898
 31
0.0
  0
ARC
  8
LY_1
  6
CONTINUOUS
 62
     3
  5
3C2
 10
-65.718785
 20
307.015898
 30
0.0
 40
1.0
 50
270.0
 51
0.0
  0
ARC
  8
LY_1
  6
CONTINUOUS
 62
     3
  5
3C3
 10
-67.718785
 20
307.015898
 30
0.0
 40
1.0
 50
180.0
 51
270.0
  0
LINE
  8
LY_1
  6
CONTINUOUS
 62
     3
  5
3C4
 10
-65.718785
 20
306.015898
 30
0.0
 11
-67.718785
 21
306.015898
 31
0.0
  0
LINE
  8
LY_1
  6
CONTINUOUS
 62
     3
  5
3C5
 10
-68.718785
 20
331.015898
 30
0.0
 11
-77.777556
 21
331.015898
 31
0.0
  0
LINE
  8
LY_1
  6
CONTINUOUS
 62
     3
  5
3C6
 10
-60.718785
 20
331.015898
 30
0.0
 11
-64.718785
 21
331.015898
 31
0.0
  0
LINE
  8
LY_1
  6
CONTINUOUS
 62
     3
  5
3C7
 10
-110.718785
 20
384.015898
 30
0.0
 11
-126.300724
 21
384.287882
 31
0.0
  0
LINE
  8
LY_1
  6
CONTINUOUS
 62
     3
  5
3C8
 10
-110.718785
 20
368.015898
 30
0.0
 11
-126.300724
 21
367.743914
 31
0.0
  0
LINE
  8
LY_1
  6
CONTINUOUS
 62
     3
  5
3C9
 10
-14.718785
 20
368.015898
 30
0.0
 11
1.020608
 21
368.29063
 31
0.0
  0
LINE
  8
LY_1
  6
CONTINUOUS
 62
     3
  5
3CA
 10
-14.718785
 20
384.015898
 30
0.0
 11
0.863154
 21
384.287882
 31
0.0
  0
ARC
  8
LY_1
  6
CONTINUOUS
 62
     3
  5
3CB
 10
-83.552259
 20
300.854409
 30
0.0
 40
3.0
 50
273.366461
 51
356.531771
  0
ARC
  8
LY_1
  6
CONTINUOUS
 62
     3
  5
3CC
 10
-41.885312
 20
300.854409
 30
0.0
 40
3.0
 50
183.468229
 51
266.633539
  0
LINE
  8
LY_1
  6
CONTINUOUS
 62
     3
  5
3CD
 10
-32.666747
 20
326.871977
 30
0.0
 11
-13.574864
 21
345.96386
 31
0.0
  0
LINE
  8
LY_1
  6
CONTINUOUS
 62
     3
  5
3CE
 10
-11.453544
 20
342.428326
 30
0.0
 11
-29.131213
 21
324.750656
 31
0.0
  0
LINE
  8
LY_1
  6
CONTINUOUS
 62
     3
  5
3CF
 10
-34.434514
 20
330.761064
 30
0.0
 11
-31.606087
 21
327.932637
 31
0.0
  0
LINE
  8
LY_1
  6
CONTINUOUS
 62
     3
  5
3D0
 10
-17.463951
 20
347.731627
 30
0.0
 11
-14.635524
 21
344.903199
 31
0.0
  0
LINE
  8
LY_1
  6
CONTINUOUS
 62
     3
  5
3D1
 10
-13.574864
 20
345.96386
 30
0.0
 11
-11.453544
 21
343.842539
 31
0.0
  0
LINE
  8
LY_1
  6
CONTINUOUS
 62
     3
  5
3D2
 10
-25.130708
 20
359.641024
 30
0.0
 11
-15.342631
 21
349.852947
 31
0.0
  0
LINE
  8
LY_1
  6
CONTINUOUS
 62
     3
  5
3D3
 10
-32.666747
 20
326.871977
 30
0.0
 11
-30.545427
 21
324.750656
 31
0.0
  0
LINE
  8
LY_1
  6
CONTINUOUS
 62
     3
  5
3D4
 10
-17.817505
 20
341.721219
 30
0.0
 11
-15.696184
 21
339.599899
 31
0.0
  0
LINE
  8
LY_1
  6
CONTINUOUS
 62
     3
  5
3D5
 10
-28.424106
 20
331.114617
 30
0.0
 11
-26.302786
 21
328.993297
 31
0.0
  0
ARC
  8
LY_1
  6
CONTINUOUS
 62
     3
  5
3D6
 10
-12.16065
 20
343.135432
 30
0.0
 40
1.0
 50
315.0
 51
45.0
  0
ARC
  8
LY_1
  6
CONTINUOUS
 62
     3
  5
3D7
 10
-14.989077
 20
340.307005
 30
0.0
 40
1.0
 50
225.0
 51
315.0
  0
ARC
  8
LY_1
  6
CONTINUOUS
 62
     3
  5
3D8
 10
-16.403291
 20
338.892792
 30
0.0
 40
1.0
 50
315.0
 51
45.0
  0
ARC
  8
LY_1
  6
CONTINUOUS
 62
     3
  5
3D9
 10
-25.595679
 20
329.700404
 30
0.0
 40
1.0
 50
225.0
 51
315.0
  0
ARC
  8
LY_1
  6
CONTINUOUS
 62
     3
  5
3DA
 10
-27.009893
 20
328.28619
 30
0.0
 40
1.0
 50
315.0
 51
45.0
  0
ARC
  8
LY_1
  6
CONTINUOUS
 62
     3
  5
3DB
 10
-29.83832
 20
325.457763
 30
0.0
 40
1.0
 50
225.0
 51
315.0
  0
LINE
  8
LY_1
  6
CONTINUOUS
 62
     3
  5
3DC
 10
-22.55512
 20
331.326749
 30
0.0
 11
-5.964459
 21
314.736088
 31
0.0
  0
LINE
  8
LY_1
  6
CONTINUOUS
 62
     3
  5
3DD
 10
-18.029637
 20
335.852233
 30
0.0
 11
-4.313187
 21
322.135783
 31
0.0
  0
ARC
  8
LY_1
  6
CONTINUOUS
 62
     3
  5
3DE
 10
-15.384194
 20
331.637819
 30
0.0
 40
7.0
 50
324.119262
 51
343.933599
  0
ARC
  8
LY_1
  6
CONTINUOUS
 62
     3
  5
3DF
 10
-8.206498
 20
317.178454
 30
0.0
 40
3.315402
 50
247.710613
 51
22.289387
  0
ARC
  8
LY_1
  6
CONTINUOUS
 62
     3
  5
3E0
 10
-2.071148
 20
319.693417
 30
0.0
 40
3.315402
 50
67.710613
 51
202.289387
  0
ARC
  8
LY_1
  6
PHANTOM
 62
   130
  5
3E2
 10
201.053951
 20
321.015898
 30
0.0
 40
169.442877
 50
58.355128
 51
188.355128
  0
LINE
  8
LY_1
  6
PHANTOM
 62
    50
  5
3E3
 10
197.633749
 20
311.618972
 30
0.0
 11
217.200879
 21
304.497119
 31
0.0
  0
LINE
  8
LY_1
  6
PHANTOM
 62
    50
  5
3E4
 10
218.486455
 20
302.96503
 30
0.0
 11
222.340792
 21
281.105998
 31
0.0
  0
ARC
  8
LY_1
  6
PHANTOM
 62
    50
  5
3E5
 10
216.516839
 20
302.617733
 30
0.0
 40
2.0
 50
10.0
 51
70.0
  0
ARC
  8
LY_1
  6
PHANTOM
 62
    50
  5
3E6
 10
229.234446
 20
282.321535
 30
0.0
 40
7.0
 50
190.0
 51
280.0
  0
ARC
  8
LY_1
  6
PHANTOM
 62
    50
  5
3E7
 10
296.136052
 20
294.118093
 30
0.0
 40
7.0
 50
280.0
 51
10.0
  0
LINE
  8
LY_1
  6
PHANTOM
 62
    50
  5
3E8
 10
293.496421
 20
349.399576
 30
0.0
 11
303.029706
 21
295.333631
 31
0.0
  0
LINE
  8
LY_1
  6
PHANTOM
 62
    50
  5
3E9
 10
199.317469
 20
330.863975
 30
0.0
 11
213.137438
 21
333.300809
 31
0.0
  0
LINE
  8
LY_1
  6
PHANTOM
 62
    50
  5
3EA
 10
230.449983
 20
275.427881
 30
0.0
 11
297.351589
 21
287.224439
 31
0.0
  0
ARC
  8
LY_1
  6
PHANTOM
 62
    50
  5
3EB
 10
177.685412
 20
444.331434
 30
0.0
 40
1.5
 50
100.0
 51
280.0
  0
ARC
  8
LY_1
  6
PHANTOM
 62
    50
  5
3EC
 10
289.16565
 20
463.988407
 30
0.0
 40
1.5
 50
280.0
 51
100.0
  0
ARC
  8
LY_1
  6
PHANTOM
 62
    50
  5
3ED
 10
37.191151
 20
347.52267
 30
0.0
 40
170.0
 50
11.0
 51
34.109331
  0
LINE
  8
LY_1
  6
PHANTOM
 62
    50
  5
3EE
 10
204.067772
 20
379.960199
 30
0.0
 11
213.137438
 21
333.300809
 31
0.0
  0
ARC
  8
LY_1
  6
PHANTOM
 62
    50
  5
3EF
 10
454.297618
 20
421.069794
 30
0.0
 40
170.0
 50
165.890669
 51
189.0
  0
LINE
  8
LY_1
  6
PHANTOM
 62
    50
  5
3F0
 10
286.3906
 20
394.475935
 30
0.0
 11
293.529082
 21
349.405335
 31
0.0
  0
LINE
  8
LY_1
  6
PHANTOM
 62
    50
  5
3F1
 10
177.42494
 20
445.808645
 30
0.0
 11
288.905178
 21
465.465619
 31
0.0
  0
ARC
  8
LY_1
  6
PHANTOM
 62
    50
  5
3F2
 10
201.053951
 20
321.015898
 30
0.0
 40
10.0
 50
100.0
 51
250.0
  0
ARC
  8
LY_1
  6
PHANTOM
 62
   130
  5
3F3
 10
201.053951
 20
321.015898
 30
0.0
 40
10.0
 50
230.0
 51
20.0
  0
LINE
  8
LY_1
  6
PHANTOM
 62
   130
  5
3F4
 10
120.645596
 20
222.699793
 30
0.0
 11
33.929365
 21
295.463351
 31
0.0
  0
LINE
  8
LY_1
  6
PHANTOM
 62
   130
  5
3F5
 10
89.926957
 20
339.168362
 30
0.0
 11
119.864512
 21
373.607579
 31
0.0
  0
ARC
  8
LY_1
  6
PHANTOM
 62
   130
  5
3F6
 10
-38.373672
 20
450.698397
 30
0.0
 40
170.0
 50
295.890669
 51
319.0
  0
LINE
  8
LY_1
  6
PHANTOM
 62
   130
  5
3F7
 10
153.96275
 20
285.435952
 30
0.0
 11
183.876047
 21
322.375798
 31
0.0
  0
ARC
  8
LY_1
  6
PHANTOM
 62
   130
  5
3F8
 10
286.077563
 20
178.451486
 30
0.0
 40
170.0
 50
141.0
 51
164.109331
  0
ARC
  8
LY_1
  6
PHANTOM
 62
   130
  5
3F9
 10
34.893546
 20
296.612417
 30
0.0
 40
1.5
 50
50.0
 51
230.0
  0
ARC
  8
LY_1
  6
PHANTOM
 62
   130
  5
3FA
 10
121.609777
 20
223.84886
 30
0.0
 40
1.5
 50
230.0
 51
50.0
  0
LINE
  8
LY_1
  6
PHANTOM
 62
   130
  5
3FB
 10
217.080992
 20
372.837978
 30
0.0
 11
165.040781
 21
416.504899
 31
0.0
  0
LINE
  8
LY_1
  6
PHANTOM
 62
   130
  5
3FC
 10
194.626075
 20
313.355453
 30
0.0
 11
183.876047
 21
322.375798
 31
0.0
  0
LINE
  8
LY_1
  6
PHANTOM
 62
   130
  5
3FD
 10
119.889917
 20
373.586262
 30
0.0
 11
155.178957
 21
415.642102
 31
0.0
  0
ARC
  8
LY_1
  6
PHANTOM
 62
   130
  5
3FE
 10
160.541268
 20
411.142588
 30
0.0
 40
7.0
 50
50.0
 51
140.0
  0
ARC
  8
LY_1
  6
PHANTOM
 62
   130
  5
3FF
 10
212.581479
 20
367.475666
 30
0.0
 40
7.0
 50
320.0
 51
50.0
  0
ARC
  8
LY_1
  6
PHANTOM
 62
   130
  5
400
 10
205.208409
 20
344.68727
 30
0.0
 40
2.0
 50
140.0
 51
200.0
  0
LINE
  8
LY_1
  6
PHANTOM
 62
   130
  5
401
 10
203.67632
 20
345.972845
 30
0.0
 11
217.94379
 21
362.976153
 31
0.0
  0
LINE
  8
LY_1
  6
PHANTOM
 62
   130
  5
402
 10
210.450877
 20
324.436099
 30
0.0
 11
203.329024
 21
344.003229
 31
0.0
  0
LINE
  8
LY_1
  6
CONTINUOUS
 62
     3
  5
403
 10
193.053951
 20
129.22068
 30
0.0
 11
207.053951
 21
129.22068
 31
0.0
  0
LINE
  8
LY_1
  6
CONTINUOUS
 62
     3
  5
404
 10
193.053951
 20
127.22068
 30
0.0
 11
207.053951
 21
127.22068
 31
0.0
  0
LINE
  8
LY_1
  6
CONTINUOUS
 62
     3
  5
405
 10
193.053951
 20
124.015898
 30
0.0
 11
207.053951
 21
124.015898
 31
0.0
  0
LINE
  8
LY_1
  6
CONTINUOUS
 62
     3
  5
406
 10
175.053951
 20
129.22068
 30
0.0
 11
189.053951
 21
129.22068
 31
0.0
  0
LINE
  8
LY_1
  6
CONTINUOUS
 62
     3
  5
407
 10
175.053951
 20
127.22068
 30
0.0
 11
189.053951
 21
127.22068
 31
0.0
  0
LINE
  8
LY_1
  6
CONTINUOUS
 62
     3
  5
408
 10
175.053951
 20
124.015898
 30
0.0
 11
189.053951
 21
124.015898
 31
0.0
  0
LINE
  8
LY_1
  6
CONTINUOUS
 62
     3
  5
409
 10
193.053951
 20
98.811116
 30
0.0
 11
207.053951
 21
98.811116
 31
0.0
  0
LINE
  8
LY_1
  6
CONTINUOUS
 62
     3
  5
40A
 10
175.053951
 20
98.811116
 30
0.0
 11
189.053951
 21
98.811116
 31
0.0
  0
LINE
  8
LY_1
  6
CONTINUOUS
 62
     3
  5
40B
 10
193.053951
 20
100.811116
 30
0.0
 11
207.053951
 21
100.811116
 31
0.0
  0
LINE
  8
LY_1
  6
CONTINUOUS
 62
     3
  5
40C
 10
193.053951
 20
104.015898
 30
0.0
 11
207.053951
 21
104.015898
 31
0.0
  0
LINE
  8
LY_1
  6
CONTINUOUS
 62
     3
  5
40D
 10
175.053951
 20
100.811116
 30
0.0
 11
189.053951
 21
100.811116
 31
0.0
  0
LINE
  8
LY_1
  6
CONTINUOUS
 62
     3
  5
40E
 10
175.053951
 20
104.015898
 30
0.0
 11
189.053951
 21
104.015898
 31
0.0
  0
LINE
  8
LY_1
  6
CONTINUOUS
 62
     3
  5
40F
 10
194.445116
 20
162.015898
 30
0.0
 11
207.053951
 21
162.015898
 31
0.0
  0
ARC
  8
LY_1
  6
CONTINUOUS
 62
     3
  5
410
 10
191.053951
 20
156.765898
 30
0.0
 40
6.25
 50
0.0
 51
57.14012
  0
LINE
  8
LY_1
  6
CONTINUOUS
 62
     3
  5
411
 10
194.445116
 20
148.015898
 30
0.0
 11
207.053951
 21
148.015898
 31
0.0
  0
ARC
  8
LY_1
  6
CONTINUOUS
 62
     3
  5
412
 10
191.053951
 20
153.265898
 30
0.0
 40
6.25
 50
180.0
 51
237.14012
  0
LINE
  8
LY_1
  6
CONTINUOUS
 62
     3
  5
413
 10
197.303951
 20
156.765898
 30
0.0
 11
197.303951
 21
153.265898
 31
0.0
  0
ARC
  8
LY_1
  6
CONTINUOUS
 62
     3
  5
414
 10
191.053951
 20
156.765898
 30
0.0
 40
6.25
 50
122.85988
 51
180.0
  0
ARC
  8
LY_1
  6
CONTINUOUS
 62
     3
  5
415
 10
191.053951
 20
153.265898
 30
0.0
 40
6.25
 50
302.85988
 51
0.0
  0
LINE
  8
LY_1
  6
CONTINUOUS
 62
     3
  5
416
 10
184.803951
 20
156.765898
 30
0.0
 11
184.803951
 21
153.265898
 31
0.0
  0
ARC
  8
LY_1
  6
CONTINUOUS
 62
     3
  5
417
 10
191.053951
 20
153.265898
 30
0.0
 40
2.25
 50
180.0
 51
0.0
  0
ARC
  8
LY_1
  6
CONTINUOUS
 62
     3
  5
418
 10
191.053951
 20
156.765898
 30
0.0
 40
2.25
 50
0.0
 51
180.0
  0
LINE
  8
LY_1
  6
CONTINUOUS
 62
     3
  5
419
 10
193.303951
 20
156.765898
 30
0.0
 11
193.303951
 21
153.265898
 31
0.0
  0
LINE
  8
LY_1
  6
CONTINUOUS
 62
     3
  5
41A
 10
188.803951
 20
156.765898
 30
0.0
 11
188.803951
 21
153.265898
 31
0.0
  0
LINE
  8
LY_1
  6
CONTINUOUS
 62
     3
  5
41B
 10
193.053951
 20
66.015898
 30
0.0
 11
207.053951
 21
66.015898
 31
0.0
  0
LINE
  8
LY_1
  6
CONTINUOUS
 62
     3
  5
41C
 10
193.053951
 20
80.015898
 30
0.0
 11
207.053951
 21
80.015898
 31
0.0
  0
LINE
  8
LY_1
  6
CONTINUOUS
 62
     3
  5
41D
 10
193.053951
 20
67.094538
 30
0.0
 11
193.053951
 21
66.015898
 31
0.0
  0
LINE
  8
LY_1
  6
CONTINUOUS
 62
     3
  5
41E
 10
189.053951
 20
67.094538
 30
0.0
 11
189.053951
 21
66.015898
 31
0.0
  0
ARC
  8
LY_1
  6
CONTINUOUS
 62
     3
  5
41F
 10
191.053951
 20
73.015898
 30
0.0
 40
6.25
 50
288.662925
 51
71.337075
  0
LINE
  8
LY_1
  6
CONTINUOUS
 62
     3
  5
420
 10
189.053951
 20
80.015898
 30
0.0
 11
189.053951
 21
78.937257
 31
0.0
  0
LINE
  8
LY_1
  6
CONTINUOUS
 62
     3
  5
421
 10
193.053951
 20
80.015898
 30
0.0
 11
193.053951
 21
78.937257
 31
0.0
  0
ARC
  8
LY_1
  6
CONTINUOUS
 62
     3
  5
422
 10
191.053951
 20
73.015898
 30
0.0
 40
6.25
 50
108.662925
 51
251.337075
  0
CIRCLE
  8
LY_1
  6
CONTINUOUS
 62
     3
  5
423
 10
191.053951
 20
73.015898
 30
0.0
 40
2.25
  0
LINE
  8
LY_1
  6
CONTINUOUS
 62
     3
  5
424
 10
193.053951
 20
112.015898
 30
0.0
 11
193.053951
 21
84.015898
 31
0.0
  0
LINE
  8
LY_1
  6
CONTINUOUS
 62
     3
  5
425
 10
189.053951
 20
112.015898
 30
0.0
 11
189.053951
 21
84.015898
 31
0.0
  0
LINE
  8
LY_1
  6
CONTINUOUS
 62
     3
  5
426
 10
193.053951
 20
112.015898
 30
0.0
 11
211.053951
 21
112.015898
 31
0.0
  0
LINE
  8
LY_1
  6
CONTINUOUS
 62
     3
  5
427
 10
193.053951
 20
116.015898
 30
0.0
 11
211.053951
 21
116.015898
 31
0.0
  0
LINE
  8
LY_1
  6
CONTINUOUS
 62
     3
  5
428
 10
193.053951
 20
144.015898
 30
0.0
 11
193.053951
 21
116.015898
 31
0.0
  0
LINE
  8
LY_1
  6
CONTINUOUS
 62
     3
  5
429
 10
189.053951
 20
144.015898
 30
0.0
 11
189.053951
 21
116.015898
 31
0.0
  0
LINE
  8
LY_1
  6
CONTINUOUS
 62
     3
  5
42A
 10
207.053951
 20
112.015898
 30
0.0
 11
207.053951
 21
84.015898
 31
0.0
  0
LINE
  8
LY_1
  6
CONTINUOUS
 62
     3
  5
42B
 10
175.053951
 20
112.015898
 30
0.0
 11
175.053951
 21
84.015898
 31
0.0
  0
LINE
  8
LY_1
  6
CONTINUOUS
 62
     3
  5
42C
 10
175.053951
 20
112.015898
 30
0.0
 11
189.053951
 21
112.015898
 31
0.0
  0
LINE
  8
LY_1
  6
CONTINUOUS
 62
     3
  5
42D
 10
175.053951
 20
116.015898
 30
0.0
 11
189.053951
 21
116.015898
 31
0.0
  0
LINE
  8
LY_1
  6
CONTINUOUS
 62
     3
  5
42E
 10
207.053951
 20
144.015898
 30
0.0
 11
207.053951
 21
116.015898
 31
0.0
  0
LINE
  8
LY_1
  6
CONTINUOUS
 62
     3
  5
42F
 10
175.053951
 20
144.015898
 30
0.0
 11
175.053951
 21
116.015898
 31
0.0
  0
LINE
  8
LY_1
  6
CONTINUOUS
 62
     3
  5
430
 10
207.053951
 20
80.015898
 30
0.0
 11
207.053951
 21
66.015898
 31
0.0
  0
LINE
  8
LY_1
  6
CONTINUOUS
 62
     3
  5
431
 10
175.053951
 20
80.015898
 30
0.0
 11
175.053951
 21
66.015898
 31
0.0
  0
LINE
  8
LY_1
  6
CONTINUOUS
 62
     3
  5
432
 10
175.053951
 20
148.015898
 30
0.0
 11
187.662786
 21
148.015898
 31
0.0
  0
LINE
  8
LY_1
  6
CONTINUOUS
 62
     3
  5
433
 10
175.053951
 20
162.015898
 30
0.0
 11
187.662786
 21
162.015898
 31
0.0
  0
LINE
  8
LY_1
  6
CONTINUOUS
 62
     3
  5
434
 10
207.053951
 20
162.015898
 30
0.0
 11
207.053951
 21
148.015898
 31
0.0
  0
LINE
  8
LY_1
  6
CONTINUOUS
 62
     3
  5
435
 10
175.053951
 20
162.015898
 30
0.0
 11
175.053951
 21
148.015898
 31
0.0
  0
LINE
  8
LY_1
  6
CONTINUOUS
 62
     3
  5
436
 10
175.053951
 20
66.015898
 30
0.0
 11
189.053951
 21
66.015898
 31
0.0
  0
LINE
  8
LY_1
  6
CONTINUOUS
 62
     3
  5
437
 10
175.053951
 20
80.015898
 30
0.0
 11
189.053951
 21
80.015898
 31
0.0
  0
LINE
  8
LY_1
  6
CONTINUOUS
 62
     3
  5
438
 10
171.053951
 20
144.015898
 30
0.0
 11
211.053951
 21
144.015898
 31
0.0
  0
LINE
  8
LY_1
  6
CONTINUOUS
 62
     3
  5
439
 10
171.053951
 20
84.015898
 30
0.0
 11
211.053951
 21
84.015898
 31
0.0
  0
ARC
  8
LY_1
  6
CONTINUOUS
 62
     3
  5
43A
 10
209.053951
 20
64.015898
 30
0.0
 40
2.0
 50
270.0
 51
0.0
  0
ARC
  8
LY_1
  6
CONTINUOUS
 62
     3
  5
43B
 10
173.053951
 20
64.015898
 30
0.0
 40
2.0
 50
180.0
 51
270.0
  0
ARC
  8
LY_1
  6
CONTINUOUS
 62
     3
  5
43C
 10
209.053951
 20
164.015898
 30
0.0
 40
2.0
 50
0.0
 51
90.0
  0
ARC
  8
LY_1
  6
CONTINUOUS
 62
     3
  5
43D
 10
173.053951
 20
164.015898
 30
0.0
 40
2.0
 50
90.0
 51
180.0
  0
LINE
  8
LY_1
  6
CONTINUOUS
 62
     3
  5
43E
 10
211.053951
 20
164.015898
 30
0.0
 11
211.053951
 21
64.015898
 31
0.0
  0
LINE
  8
LY_1
  6
CONTINUOUS
 62
     3
  5
43F
 10
171.053951
 20
164.015898
 30
0.0
 11
171.053951
 21
64.015898
 31
0.0
  0
LINE
  8
LY_1
  6
CONTINUOUS
 62
     3
  5
440
 10
173.053951
 20
166.015898
 30
0.0
 11
209.053951
 21
166.015898
 31
0.0
  0
LINE
  8
LY_1
  6
CONTINUOUS
 62
     3
  5
441
 10
173.053951
 20
62.015898
 30
0.0
 11
209.053951
 21
62.015898
 31
0.0
  0
LINE
  8
LY_1
  6
CONTINUOUS
 62
     3
  5
442
 10
74.053951
 20
57.415898
 30
0.0
 11
74.053951
 21
179.631376
 31
0.0
  0
LINE
  8
LY_1
  6
CONTINUOUS
 62
     3
  5
443
 10
77.053951
 20
57.415898
 30
0.0
 11
77.053951
 21
179.631376
 31
0.0
  0
LINE
  8
LY_1
  6
CONTINUOUS
 62
     3
  5
444
 10
251.053951
 20
80.049062
 30
0.0
 11
251.053951
 21
147.982733
 31
0.0
  0
ARC
  8
LY_1
  6
CONTINUOUS
 62
     3
  5
445
 10
244.053951
 20
80.049062
 30
0.0
 40
7.0
 50
270.0
 51
360.0
  0
LINE
  8
LY_1
  6
CONTINUOUS
 62
     3
  5
446
 10
211.053951
 20
73.049062
 30
0.0
 11
244.053951
 21
73.049062
 31
0.0
  0
LINE
  8
LY_1
  6
CONTINUOUS
 62
     3
  5
447
 10
171.053951
 20
105.968181
 30
0.0
 11
77.053951
 21
105.743914
 31
0.0
  0
LINE
  8
LY_1
  6
CONTINUOUS
 62
     3
  5
448
 10
211.053951
 20
108.738362
 30
0.0
 11
241.053951
 21
108.21471
 31
0.0
  0
LINE
  8
LY_1
  6
CONTINUOUS
 62
     3
  5
449
 10
211.053951
 20
106.015898
 30
0.0
 11
241.053951
 21
106.015898
 31
0.0
  0
ARC
  8
LY_1
  6
CONTINUOUS
 62
     3
  5
44A
 10
146.4954
 20
-97.754606
 30
0.0
 40
170.0
 50
91.0
 51
114.109331
  0
LINE
  8
LY_1
  6
CONTINUOUS
 62
     3
  5
44B
 10
143.528491
 20
72.219502
 30
0.0
 11
171.053951
 21
72.699961
 31
0.0
  0
ARC
  8
LY_1
  6
CONTINUOUS
 62
     3
  5
44C
 10
146.4954
 20
325.786401
 30
0.0
 40
170.0
 50
245.890669
 51
269.0
  0
LINE
  8
LY_1
  6
CONTINUOUS
 62
     3
  5
44D
 10
143.528491
 20
155.812293
 30
0.0
 11
171.053951
 21
155.331834
 31
0.0
  0
LINE
  8
LY_1
  6
CONTINUOUS
 62
     3
  5
44E
 10
211.053951
 20
122.015898
 30
0.0
 11
241.053951
 21
122.015898
 31
0.0
  0
LINE
  8
LY_1
  6
CONTINUOUS
 62
     3
  5
44F
 10
211.053951
 20
119.293433
 30
0.0
 11
241.053951
 21
119.817085
 31
0.0
  0
LINE
  8
LY_1
  6
CONTINUOUS
 62
     3
  5
450
 10
171.053951
 20
122.063614
 30
0.0
 11
77.053951
 21
122.287882
 31
0.0
  0
LINE
  8
LY_1
  6
CONTINUOUS
 62
     3
  5
451
 10
211.053951
 20
154.982733
 30
0.0
 11
244.053951
 21
154.982733
 31
0.0
  0
ARC
  8
LY_1
  6
CONTINUOUS
 62
     3
  5
452
 10
244.053951
 20
147.982733
 30
0.0
 40
7.0
 50
0.0
 51
90.0
  0
LINE
  8
LY_1
  6
CONTINUOUS
 62
     3
  5
453
 10
74.053951
 20
48.400419
 30
0.0
 11
74.053951
 21
161.60042
 31
0.0
  0
LINE
  8
LY_1
  6
CONTINUOUS
 62
     3
  5
454
 10
77.053951
 20
48.400419
 30
0.0
 11
77.053951
 21
161.60042
 31
0.0
  0
ARC
  8
LY_1
  6
CONTINUOUS
 62
     3
  5
455
 10
146.4954
 20
-106.770084
 30
0.0
 40
170.0
 50
91.0
 51
114.109331
  0
ARC
  8
LY_1
  6
CONTINUOUS
 62
     3
  5
456
 10
75.553951
 20
48.400419
 30
0.0
 40
1.5
 50
180.0
 51
360.0
  0
LINE
  8
LY_1
  6
CONTINUOUS
 62
     3
  5
457
 10
143.528491
 20
63.204024
 30
0.0
 11
171.053951
 21
63.684483
 31
0.0
  0
LINE
  8
LY_1
  6
CONTINUOUS
 62
     3
  5
458
 10
241.053951
 20
73.049062
 30
0.0
 11
211.053951
 21
67.203368
 31
0.0
  0
LINE
  8
LY_1
  6
CONTINUOUS
 62
     3
  5
459
 10
241.053951
 20
154.982733
 30
0.0
 11
211.053951
 21
160.828428
 31
0.0
  0
LINE
  8
LY_1
  6
CONTINUOUS
 62
     3
  5
45A
 10
143.528491
 20
164.827771
 30
0.0
 11
171.053951
 21
164.347313
 31
0.0
  0
ARC
  8
LY_1
  6
CONTINUOUS
 62
     3
  5
45B
 10
146.4954
 20
334.80188
 30
0.0
 40
170.0
 50
245.890669
 51
269.0
  0
ARC
  8
LY_1
  6
CONTINUOUS
 62
     3
  5
45C
 10
75.553951
 20
179.631376
 30
0.0
 40
1.5
 50
0.0
 51
180.0
  0
ARC
  8
LY_1
  6
CONTINUOUS
 62
     3
  5
45D
 10
354.17905
 20
319.693417
 30
0.0
 40
3.315402
 50
337.710613
 51
112.289387
  0
ARC
  8
LY_1
  6
CONTINUOUS
 62
     3
  5
45E
 10
360.314399
 20
317.178454
 30
0.0
 40
3.315402
 50
157.710613
 51
292.289387
  0
ARC
  8
LY_1
  6
CONTINUOUS
 62
     3
  5
45F
 10
235.185481
 20
313.179587
 30
0.0
 40
3.315402
 50
261.120209
 51
35.698984
  0
ARC
  8
LY_1
  6
CONTINUOUS
 62
     3
  5
460
 10
234.161937
 20
306.628258
 30
0.0
 40
3.315402
 50
81.120209
 51
215.698984
  0
ARC
  8
LY_1
  6
CONTINUOUS
 62
     3
  5
461
 10
212.853951
 20
331.305448
 30
0.0
 40
3.6
 50
180.0
 51
238.409596
  0
ARC
  8
LY_1
  6
CONTINUOUS
 62
     3
  5
462
 10
212.853951
 20
331.305448
 30
0.0
 40
10.0
 50
180.0
 51
238.409596
  0
LINE
  8
LY_1
  6
CONTINUOUS
 62
     3
  5
463
 10
210.968115
 20
328.238915
 30
0.0
 11
238.081213
 21
311.565084
 31
0.0
  0
LINE
  8
LY_1
  6
CONTINUOUS
 62
     3
  5
464
 10
207.615518
 20
322.787301
 30
0.0
 11
231.266204
 21
308.242761
 31
0.0
  0
POLYLINE
  8
LY_1
  6
CONTINUOUS
 62
     3
  5
465
 66
     1
 10
0.0
 20
0.0
 30
0.0
  0
VERTEX
  8
LY_1
  6
CONTINUOUS
 62
     3
  5
9E1
 10
209.253951
 20
333.589491
 30
0.0
  0
VERTEX
  8
LY_1
  6
CONTINUOUS
 62
     3
  5
9E2
 10
209.226574
 20
333.884838
 30
0.0
  0
VERTEX
  8
LY_1
  6
CONTINUOUS
 62
     3
  5
9E3
 10
209.144913
 20
334.175132
 30
0.0
  0
VERTEX
  8
LY_1
  6
CONTINUOUS
 62
     3
  5
9E4
 10
209.010365
 20
334.455405
 30
0.0
  0
VERTEX
  8
LY_1
  6
CONTINUOUS
 62
     3
  5
9E5
 10
208.825232
 20
334.720862
 30
0.0
  0
VERTEX
  8
LY_1
  6
CONTINUOUS
 62
     3
  5
9E6
 10
208.592682
 20
334.966961
 30
0.0
  0
VERTEX
  8
LY_1
  6
CONTINUOUS
 62
     3
  5
9E7
 10
208.316693
 20
335.189491
 30
0.0
  0
VERTEX
  8
LY_1
  6
CONTINUOUS
 62
     3
  5
9E8
 10
208.001987
 20
335.384645
 30
0.0
  0
VERTEX
  8
LY_1
  6
CONTINUOUS
 62
     3
  5
9E9
 10
207.653951
 20
335.549083
 30
0.0
  0
VERTEX
  8
LY_1
  6
CONTINUOUS
 62
     3
  5
9EA
 10
207.278538
 20
335.679992
 30
0.0
  0
VERTEX
  8
LY_1
  6
CONTINUOUS
 62
     3
  5
9EB
 10
206.882172
 20
335.775132
 30
0.0
  0
VERTEX
  8
LY_1
  6
CONTINUOUS
 62
     3
  5
9EC
 10
206.471635
 20
335.832875
 30
0.0
  0
VERTEX
  8
LY_1
  6
CONTINUOUS
 62
     3
  5
9ED
 10
206.053951
 20
335.852233
 30
0.0
  0
VERTEX
  8
LY_1
  6
CONTINUOUS
 62
     3
  5
9EE
 10
205.636267
 20
335.832875
 30
0.0
  0
VERTEX
  8
LY_1
  6
CONTINUOUS
 62
     3
  5
9EF
 10
205.22573
 20
335.775132
 30
0.0
  0
VERTEX
  8
LY_1
  6
CONTINUOUS
 62
     3
  5
9F0
 10
204.829364
 20
335.679992
 30
0.0
  0
VERTEX
  8
LY_1
  6
CONTINUOUS
 62
     3
  5
9F1
 10
204.453951
 20
335.549083
 30
0.0
  0
VERTEX
  8
LY_1
  6
CONTINUOUS
 62
     3
  5
9F2
 10
204.105914
 20
335.384645
 30
0.0
  0
VERTEX
  8
LY_1
  6
CONTINUOUS
 62
     3
  5
9F3
 10
203.791209
 20
335.189491
 30
0.0
  0
VERTEX
  8
LY_1
  6
CONTINUOUS
 62
     3
  5
9F4
 10
203.51522
 20
334.966961
 30
0.0
  0
VERTEX
  8
LY_1
  6
CONTINUOUS
 62
     3
  5
9F5
 10
203.28267
 20
334.720862
 30
0.0
  0
VERTEX
  8
LY_1
  6
CONTINUOUS
 62
     3
  5
9F6
 10
203.097536
 20
334.455405
 30
0.0
  0
VERTEX
  8
LY_1
  6
CONTINUOUS
 62
     3
  5
9F7
 10
202.962988
 20
334.175132
 30
0.0
  0
VERTEX
  8
LY_1
  6
CONTINUOUS
 62
     3
  5
9F8
 10
202.881327
 20
333.884838
 30
0.0
  0
VERTEX
  8
LY_1
  6
CONTINUOUS
 62
     3
  5
9F9
 10
202.853951
 20
333.589491
 30
0.0
  0
VERTEX
  8
LY_1
  6
CONTINUOUS
 62
     3
  5
9FA
 10
202.853951
 20
333.589491
 30
0.0
  0
SEQEND
  8
LY_1
  6
CONTINUOUS
 62
     3
  5
9FB
  0
LINE
  8
LY_1
  6
CONTINUOUS
 62
     3
  5
466
 10
202.853951
 20
331.305448
 30
0.0
 11
202.853951
 21
333.589491
 31
0.0
  0
LINE
  8
LY_1
  6
CONTINUOUS
 62
     3
  5
467
 10
209.253951
 20
331.305448
 30
0.0
 11
209.253951
 21
333.589491
 31
0.0
  0
ARC
  8
LY_1
  6
CONTINUOUS
 62
     3
  5
468
 10
367.492095
 20
331.637819
 30
0.0
 40
7.0
 50
196.066401
 51
215.880738
  0
LINE
  8
LY_1
  6
CONTINUOUS
 62
     3
  5
469
 10
370.137538
 20
335.852233
 30
0.0
 11
356.421088
 21
322.135783
 31
0.0
  0
LINE
  8
LY_1
  6
CONTINUOUS
 62
     3
  5
46A
 10
374.663022
 20
331.326749
 30
0.0
 11
358.072361
 21
314.736088
 31
0.0
  0
LINE
  8
LY_1
  6
CONTINUOUS
 62
     3
  5
46B
 10
206.683116
 20
317.765898
 30
0.0
 11
206.683116
 21
323.241014
 31
0.0
  0
ARC
  8
LY_1
  6
CONTINUOUS
 62
     3
  5
46C
 10
216.053951
 20
329.528831
 30
0.0
 40
2.0
 50
289.471221
 51
0.0
  0
ARC
  8
LY_1
  6
CONTINUOUS
 62
     3
  5
46D
 10
196.053951
 20
329.528831
 30
0.0
 40
2.0
 50
180.0
 51
250.528779
  0
POLYLINE
  8
LY_1
  6
CONTINUOUS
 62
     3
  5
46E
 66
     1
 10
0.0
 20
0.0
 30
0.0
  0
VERTEX
  8
LY_1
  6
CONTINUOUS
 62
     3
  5
9FC
 10
206.053949
 20
342.963864
 30
0.0
  0
VERTEX
  8
LY_1
  6
CONTINUOUS
 62
     3
  5
9FD
 10
206.039798
 20
342.840572
 30
0.0
  0
VERTEX
  8
LY_1
  6
CONTINUOUS
 62
     3
  5
9FE
 10
205.923227
 20
342.683092
 30
0.0
  0
VERTEX
  8
LY_1
  6
CONTINUOUS
 62
     3
  5
9FF
 10
205.706231
 20
342.494121
 30
0.0
  0
VERTEX
  8
LY_1
  6
CONTINUOUS
 62
     3
  5
A00
 10
205.392523
 20
342.27689
 30
0.0
  0
VERTEX
  8
LY_1
  6
CONTINUOUS
 62
     3
  5
A01
 10
204.987471
 20
342.035117
 30
0.0
  0
VERTEX
  8
LY_1
  6
CONTINUOUS
 62
     3
  5
A02
 10
204.498004
 20
341.772939
 30
0.0
  0
VERTEX
  8
LY_1
  6
CONTINUOUS
 62
     3
  5
A03
 10
203.932499
 20
341.494841
 30
0.0
  0
VERTEX
  8
LY_1
  6
CONTINUOUS
 62
     3
  5
A04
 10
203.300631
 20
341.205582
 30
0.0
  0
VERTEX
  8
LY_1
  6
CONTINUOUS
 62
     3
  5
A05
 10
202.613211
 20
340.910112
 30
0.0
  0
VERTEX
  8
LY_1
  6
CONTINUOUS
 62
     3
  5
A06
 10
201.882001
 20
340.613485
 30
0.0
  0
VERTEX
  8
LY_1
  6
CONTINUOUS
 62
     3
  5
A07
 10
201.119513
 20
340.320777
 30
0.0
  0
VERTEX
  8
LY_1
  6
CONTINUOUS
 62
     3
  5
A08
 10
200.338793
 20
340.036997
 30
0.0
  0
VERTEX
  8
LY_1
  6
CONTINUOUS
 62
     3
  5
A09
 10
199.5532
 20
339.767
 30
0.0
  0
VERTEX
  8
LY_1
  6
CONTINUOUS
 62
     3
  5
A0A
 10
198.776174
 20
339.515406
 30
0.0
  0
VERTEX
  8
LY_1
  6
CONTINUOUS
 62
     3
  5
A0B
 10
198.021011
 20
339.28652
 30
0.0
  0
VERTEX
  8
LY_1
  6
CONTINUOUS
 62
     3
  5
A0C
 10
197.300633
 20
339.084257
 30
0.0
  0
VERTEX
  8
LY_1
  6
CONTINUOUS
 62
     3
  5
A0D
 10
196.627364
 20
338.912079
 30
0.0
  0
VERTEX
  8
LY_1
  6
CONTINUOUS
 62
     3
  5
A0E
 10
196.012725
 20
338.772932
 30
0.0
  0
VERTEX
  8
LY_1
  6
CONTINUOUS
 62
     3
  5
A0F
 10
195.467233
 20
338.669196
 30
0.0
  0
VERTEX
  8
LY_1
  6
CONTINUOUS
 62
     3
  5
A10
 10
195.000221
 20
338.602647
 30
0.0
  0
VERTEX
  8
LY_1
  6
CONTINUOUS
 62
     3
  5
A11
 10
194.61968
 20
338.574423
 30
0.0
  0
VERTEX
  8
LY_1
  6
CONTINUOUS
 62
     3
  5
A12
 10
194.33212
 20
338.585007
 30
0.0
  0
VERTEX
  8
LY_1
  6
CONTINUOUS
 62
     3
  5
A13
 10
194.142463
 20
338.634218
 30
0.0
  0
VERTEX
  8
LY_1
  6
CONTINUOUS
 62
     3
  5
A14
 10
194.053953
 20
338.721214
 30
0.0
  0
SEQEND
  8
LY_1
  6
CONTINUOUS
 62
     3
  5
A15
  0
POLYLINE
  8
LY_1
  6
CONTINUOUS
 62
     3
  5
46F
 66
     1
 10
0.0
 20
0.0
 30
0.0
  0
VERTEX
  8
LY_1
  6
CONTINUOUS
 62
     3
  5
A16
 10
206.053953
 20
342.963864
 30
0.0
  0
VERTEX
  8
LY_1
  6
CONTINUOUS
 62
     3
  5
A17
 10
206.068104
 20
342.840572
 30
0.0
  0
VERTEX
  8
LY_1
  6
CONTINUOUS
 62
     3
  5
A18
 10
206.184675
 20
342.683092
 30
0.0
  0
VERTEX
  8
LY_1
  6
CONTINUOUS
 62
     3
  5
A19
 10
206.401671
 20
342.494121
 30
0.0
  0
VERTEX
  8
LY_1
  6
CONTINUOUS
 62
     3
  5
A1A
 10
206.715379
 20
342.27689
 30
0.0
  0
VERTEX
  8
LY_1
  6
CONTINUOUS
 62
     3
  5
A1B
 10
207.120431
 20
342.035117
 30
0.0
  0
VERTEX
  8
LY_1
  6
CONTINUOUS
 62
     3
  5
A1C
 10
207.609897
 20
341.772939
 30
0.0
  0
VERTEX
  8
LY_1
  6
CONTINUOUS
 62
     3
  5
A1D
 10
208.175403
 20
341.494841
 30
0.0
  0
VERTEX
  8
LY_1
  6
CONTINUOUS
 62
     3
  5
A1E
 10
208.807271
 20
341.205582
 30
0.0
  0
VERTEX
  8
LY_1
  6
CONTINUOUS
 62
     3
  5
A1F
 10
209.494691
 20
340.910112
 30
0.0
  0
VERTEX
  8
LY_1
  6
CONTINUOUS
 62
     3
  5
A20
 10
210.2259
 20
340.613485
 30
0.0
  0
VERTEX
  8
LY_1
  6
CONTINUOUS
 62
     3
  5
A21
 10
210.988388
 20
340.320777
 30
0.0
  0
VERTEX
  8
LY_1
  6
CONTINUOUS
 62
     3
  5
A22
 10
211.769108
 20
340.036997
 30
0.0
  0
VERTEX
  8
LY_1
  6
CONTINUOUS
 62
     3
  5
A23
 10
212.554702
 20
339.767
 30
0.0
  0
VERTEX
  8
LY_1
  6
CONTINUOUS
 62
     3
  5
A24
 10
213.331728
 20
339.515406
 30
0.0
  0
VERTEX
  8
LY_1
  6
CONTINUOUS
 62
     3
  5
A25
 10
214.086891
 20
339.28652
 30
0.0
  0
VERTEX
  8
LY_1
  6
CONTINUOUS
 62
     3
  5
A26
 10
214.807269
 20
339.084257
 30
0.0
  0
VERTEX
  8
LY_1
  6
CONTINUOUS
 62
     3
  5
A27
 10
215.480538
 20
338.912079
 30
0.0
  0
VERTEX
  8
LY_1
  6
CONTINUOUS
 62
     3
  5
A28
 10
216.095176
 20
338.772932
 30
0.0
  0
VERTEX
  8
LY_1
  6
CONTINUOUS
 62
     3
  5
A29
 10
216.640668
 20
338.669196
 30
0.0
  0
VERTEX
  8
LY_1
  6
CONTINUOUS
 62
     3
  5
A2A
 10
217.107681
 20
338.602647
 30
0.0
  0
VERTEX
  8
LY_1
  6
CONTINUOUS
 62
     3
  5
A2B
 10
217.488222
 20
338.574423
 30
0.0
  0
VERTEX
  8
LY_1
  6
CONTINUOUS
 62
     3
  5
A2C
 10
217.775781
 20
338.585007
 30
0.0
  0
VERTEX
  8
LY_1
  6
CONTINUOUS
 62
     3
  5
A2D
 10
217.965439
 20
338.634218
 30
0.0
  0
VERTEX
  8
LY_1
  6
CONTINUOUS
 62
     3
  5
A2E
 10
218.053949
 20
338.721214
 30
0.0
  0
VERTEX
  8
LY_1
  6
CONTINUOUS
 62
     3
  5
A2F
 10
218.053949
 20
338.721214
 30
0.0
  0
SEQEND
  8
LY_1
  6
CONTINUOUS
 62
     3
  5
A30
  0
LINE
  8
LY_1
  6
CONTINUOUS
 62
     3
  5
470
 10
195.387284
 20
327.643213
 30
0.0
 11
206.053951
 21
323.871977
 31
0.0
  0
LINE
  8
LY_1
  6
CONTINUOUS
 62
     3
  5
471
 10
216.720617
 20
327.643213
 30
0.0
 11
213.683083
 21
326.569282
 31
0.0
  0
LINE
  8
LY_1
  6
CONTINUOUS
 62
     3
  5
472
 10
206.053951
 20
345.96386
 30
0.0
 11
194.053951
 21
341.721219
 31
0.0
  0
LINE
  8
LY_1
  6
CONTINUOUS
 62
     3
  5
473
 10
206.053951
 20
345.96386
 30
0.0
 11
218.053951
 21
341.721219
 31
0.0
  0
LINE
  8
LY_1
  6
CONTINUOUS
 62
     3
  5
474
 10
218.053951
 20
329.528831
 30
0.0
 11
218.053951
 21
341.721219
 31
0.0
  0
LINE
  8
LY_1
  6
CONTINUOUS
 62
     3
  5
475
 10
218.053951
 20
330.460762
 30
0.0
 11
220.125657
 21
334.049062
 31
0.0
  0
LINE
  8
LY_1
  6
CONTINUOUS
 62
     3
  5
476
 10
215.28328
 20
325.661819
 30
0.0
 11
216.351993
 21
327.512884
 31
0.0
  0
LINE
  8
LY_1
  6
CONTINUOUS
 62
     3
  5
477
 10
194.053951
 20
341.721219
 30
0.0
 11
194.053951
 21
329.528831
 31
0.0
  0
LINE
  8
LY_1
  6
CONTINUOUS
 62
     3
  5
478
 10
206.053951
 20
345.96386
 30
0.0
 11
206.053951
 21
342.96386
 31
0.0
  0
POLYLINE
  8
LY_1
  6
CONTINUOUS
 62
     3
  5
479
 66
     1
 10
0.0
 20
0.0
 30
0.0
  0
VERTEX
  8
LY_1
  6
CONTINUOUS
 62
     3
  5
A31
 10
211.73227
 20
327.76898
 30
0.0
  0
VERTEX
  8
LY_1
  6
CONTINUOUS
 62
     3
  5
A32
 10
212.790253
 20
328.363487
 30
0.0
  0
VERTEX
  8
LY_1
  6
CONTINUOUS
 62
     3
  5
A33
 10
213.725218
 20
329.053432
 30
0.0
  0
VERTEX
  8
LY_1
  6
CONTINUOUS
 62
     3
  5
A34
 10
214.520089
 20
329.826214
 30
0.0
  0
VERTEX
  8
LY_1
  6
CONTINUOUS
 62
     3
  5
A35
 10
215.160351
 20
330.667722
 30
0.0
  0
VERTEX
  8
LY_1
  6
CONTINUOUS
 62
     3
  5
A36
 10
215.634312
 20
331.562587
 30
0.0
  0
VERTEX
  8
LY_1
  6
CONTINUOUS
 62
     3
  5
A37
 10
215.933316
 20
332.494467
 30
0.0
  0
VERTEX
  8
LY_1
  6
CONTINUOUS
 62
     3
  5
A38
 10
216.051902
 20
333.446345
 30
0.0
  0
VERTEX
  8
LY_1
  6
CONTINUOUS
 62
     3
  5
A39
 10
215.987904
 20
334.400837
 30
0.0
  0
VERTEX
  8
LY_1
  6
CONTINUOUS
 62
     3
  5
A3A
 10
215.742493
 20
335.340513
 30
0.0
  0
VERTEX
  8
LY_1
  6
CONTINUOUS
 62
     3
  5
A3B
 10
215.320149
 20
336.248211
 30
0.0
  0
VERTEX
  8
LY_1
  6
CONTINUOUS
 62
     3
  5
A3C
 10
214.728584
 20
337.107355
 30
0.0
  0
VERTEX
  8
LY_1
  6
CONTINUOUS
 62
     3
  5
A3D
 10
213.978604
 20
337.902256
 30
0.0
  0
VERTEX
  8
LY_1
  6
CONTINUOUS
 62
     3
  5
A3E
 10
213.083902
 20
338.618396
 30
0.0
  0
VERTEX
  8
LY_1
  6
CONTINUOUS
 62
     3
  5
A3F
 10
212.06082
 20
339.242699
 30
0.0
  0
VERTEX
  8
LY_1
  6
CONTINUOUS
 62
     3
  5
A40
 10
210.928039
 20
339.763763
 30
0.0
  0
VERTEX
  8
LY_1
  6
CONTINUOUS
 62
     3
  5
A41
 10
209.706248
 20
340.172071
 30
0.0
  0
VERTEX
  8
LY_1
  6
CONTINUOUS
 62
     3
  5
A42
 10
208.417758
 20
340.460168
 30
0.0
  0
VERTEX
  8
LY_1
  6
CONTINUOUS
 62
     3
  5
A43
 10
207.0861
 20
340.622793
 30
0.0
  0
VERTEX
  8
LY_1
  6
CONTINUOUS
 62
     3
  5
A44
 10
205.735593
 20
340.656975
 30
0.0
  0
VERTEX
  8
LY_1
  6
CONTINUOUS
 62
     3
  5
A45
 10
204.3909
 20
340.56209
 30
0.0
  0
VERTEX
  8
LY_1
  6
CONTINUOUS
 62
     3
  5
A46
 10
203.076578
 20
340.339871
 30
0.0
  0
VERTEX
  8
LY_1
  6
CONTINUOUS
 62
     3
  5
A47
 10
201.816628
 20
339.994376
 30
0.0
  0
VERTEX
  8
LY_1
  6
CONTINUOUS
 62
     3
  5
A48
 10
200.634061
 20
339.531915
 30
0.0
  0
VERTEX
  8
LY_1
  6
CONTINUOUS
 62
     3
  5
A49
 10
199.550472
 20
338.960933
 30
0.0
  0
VERTEX
  8
LY_1
  6
CONTINUOUS
 62
     3
  5
A4A
 10
198.585651
 20
338.291857
 30
0.0
  0
VERTEX
  8
LY_1
  6
CONTINUOUS
 62
     3
  5
A4B
 10
197.757215
 20
337.536906
 30
0.0
  0
VERTEX
  8
LY_1
  6
CONTINUOUS
 62
     3
  5
A4C
 10
197.080295
 20
336.709868
 30
0.0
  0
VERTEX
  8
LY_1
  6
CONTINUOUS
 62
     3
  5
A4D
 10
196.567253
 20
335.825845
 30
0.0
  0
VERTEX
  8
LY_1
  6
CONTINUOUS
 62
     3
  5
A4E
 10
196.227457
 20
334.900981
 30
0.0
  0
VERTEX
  8
LY_1
  6
CONTINUOUS
 62
     3
  5
A4F
 10
196.067113
 20
333.952168
 30
0.0
  0
VERTEX
  8
LY_1
  6
CONTINUOUS
 62
     3
  5
A50
 10
196.089149
 20
332.99673
 30
0.0
  0
VERTEX
  8
LY_1
  6
CONTINUOUS
 62
     3
  5
A51
 10
196.293163
 20
332.052118
 30
0.0
  0
VERTEX
  8
LY_1
  6
CONTINUOUS
 62
     3
  5
A52
 10
196.67543
 20
331.135582
 30
0.0
  0
VERTEX
  8
LY_1
  6
CONTINUOUS
 62
     3
  5
A53
 10
197.228967
 20
330.263859
 30
0.0
  0
VERTEX
  8
LY_1
  6
CONTINUOUS
 62
     3
  5
A54
 10
197.943667
 20
329.452869
 30
0.0
  0
VERTEX
  8
LY_1
  6
CONTINUOUS
 62
     3
  5
A55
 10
198.806477
 20
328.717422
 30
0.0
  0
VERTEX
  8
LY_1
  6
CONTINUOUS
 62
     3
  5
A56
 10
199.801641
 20
328.070949
 30
0.0
  0
VERTEX
  8
LY_1
  6
CONTINUOUS
 62
     3
  5
A57
 10
200.910985
 20
327.525256
 30
0.0
  0
VERTEX
  8
LY_1
  6
CONTINUOUS
 62
     3
  5
A58
 10
202.11425
 20
327.090308
 30
0.0
  0
VERTEX
  8
LY_1
  6
CONTINUOUS
 62
     3
  5
A59
 10
203.389462
 20
326.774049
 30
0.0
  0
VERTEX
  8
LY_1
  6
CONTINUOUS
 62
     3
  5
A5A
 10
203.690144
 20
326.718814
 30
0.0
  0
VERTEX
  8
LY_1
  6
CONTINUOUS
 62
     3
  5
A5B
 10
203.993106
 20
326.670209
 30
0.0
  0
SEQEND
  8
LY_1
  6
CONTINUOUS
 62
     3
  5
A5C
  0
ARC
  8
LY_1
  6
CONTINUOUS
 62
     3
  5
47A
 10
381.946222
 20
325.457763
 30
0.0
 40
1.0
 50
225.0
 51
315.0
  0
ARC
  8
LY_1
  6
CONTINUOUS
 62
     3
  5
47B
 10
379.117794
 20
328.28619
 30
0.0
 40
1.0
 50
135.0
 51
225.0
  0
ARC
  8
LY_1
  6
CONTINUOUS
 62
     3
  5
47C
 10
377.703581
 20
329.700404
 30
0.0
 40
1.0
 50
225.0
 51
315.0
  0
ARC
  8
LY_1
  6
CONTINUOUS
 62
     3
  5
47D
 10
368.511193
 20
338.892792
 30
0.0
 40
1.0
 50
135.0
 51
225.0
  0
ARC
  8
LY_1
  6
CONTINUOUS
 62
     3
  5
47E
 10
367.096979
 20
340.307005
 30
0.0
 40
1.0
 50
225.0
 51
315.0
  0
ARC
  8
LY_1
  6
CONTINUOUS
 62
     3
  5
47F
 10
364.268552
 20
343.135432
 30
0.0
 40
1.0
 50
135.0
 51
225.0
  0
LINE
  8
LY_1
  6
CONTINUOUS
 62
     3
  5
480
 10
380.532008
 20
331.114617
 30
0.0
 11
378.410688
 21
328.993297
 31
0.0
  0
LINE
  8
LY_1
  6
CONTINUOUS
 62
     3
  5
481
 10
369.925406
 20
341.721219
 30
0.0
 11
367.804086
 21
339.599899
 31
0.0
  0
LINE
  8
LY_1
  6
CONTINUOUS
 62
     3
  5
482
 10
384.774649
 20
326.871977
 30
0.0
 11
382.653328
 21
324.750656
 31
0.0
  0
LINE
  8
LY_1
  6
CONTINUOUS
 62
     3
  5
483
 10
377.23861
 20
359.641024
 30
0.0
 11
367.450533
 21
349.852947
 31
0.0
  0
LINE
  8
LY_1
  6
CONTINUOUS
 62
     3
  5
484
 10
365.682766
 20
345.96386
 30
0.0
 11
363.561445
 21
343.842539
 31
0.0
  0
LINE
  8
LY_1
  6
CONTINUOUS
 62
     3
  5
485
 10
369.571853
 20
347.731627
 30
0.0
 11
366.743426
 21
344.903199
 31
0.0
  0
LINE
  8
LY_1
  6
CONTINUOUS
 62
     3
  5
486
 10
386.542416
 20
330.761064
 30
0.0
 11
383.713988
 21
327.932637
 31
0.0
  0
LINE
  8
LY_1
  6
CONTINUOUS
 62
     3
  5
487
 10
363.561445
 20
342.428326
 30
0.0
 11
381.239115
 21
324.750656
 31
0.0
  0
LINE
  8
LY_1
  6
CONTINUOUS
 62
     3
  5
488
 10
384.774649
 20
326.871977
 30
0.0
 11
365.682766
 21
345.96386
 31
0.0
  0
LINE
  8
LY_1
  6
CONTINUOUS
 62
     3
  5
489
 10
221.857708
 20
335.049062
 30
0.0
 11
244.053951
 21
335.049062
 31
0.0
  0
ARC
  8
LY_1
  6
CONTINUOUS
 62
     3
  5
48A
 10
221.857708
 20
333.049062
 30
0.0
 40
2.0
 50
90.0
 51
150.0
  0
ARC
  8
LY_1
  6
CONTINUOUS
 62
     3
  5
48B
 10
244.053951
 20
342.049062
 30
0.0
 40
7.0
 50
270.0
 51
0.0
  0
ARC
  8
LY_1
  6
CONTINUOUS
 62
     3
  5
48C
 10
244.053951
 20
409.982733
 30
0.0
 40
7.0
 50
0.0
 51
90.0
  0
LINE
  8
LY_1
  6
CONTINUOUS
 62
     3
  5
48D
 10
189.153951
 20
335.049062
 30
0.0
 11
191.053951
 21
335.049062
 31
0.0
  0
LINE
  8
LY_1
  6
CONTINUOUS
 62
     3
  5
48E
 10
189.153951
 20
416.982733
 30
0.0
 11
244.053951
 21
416.982733
 31
0.0
  0
ARC
  8
LY_1
  6
CONTINUOUS
 62
     3
  5
48F
 10
393.993213
 20
300.854409
 30
0.0
 40
3.0
 50
273.366461
 51
356.531771
  0
ARC
  8
LY_1
  6
CONTINUOUS
 62
     3
  5
490
 10
435.66016
 20
300.854409
 30
0.0
 40
3.0
 50
183.468229
 51
266.633539
  0
LINE
  8
LY_1
  6
CONTINUOUS
 62
     3
  5
491
 10
189.153951
 20
384.015898
 30
0.0
 11
189.153951
 21
416.982733
 31
0.0
  0
LINE
  8
LY_1
  6
CONTINUOUS
 62
     3
  5
492
 10
191.053951
 20
324.203191
 30
0.0
 11
191.053951
 21
416.982733
 31
0.0
  0
LINE
  8
LY_1
  6
CONTINUOUS
 62
     3
  5
493
 10
191.053951
 20
368.015898
 30
0.0
 11
77.053951
 21
367.743914
 31
0.0
  0
LINE
  8
LY_1
  6
CONTINUOUS
 62
     3
  5
494
 10
191.053951
 20
384.015898
 30
0.0
 11
77.053951
 21
384.287882
 31
0.0
  0
LINE
  8
LY_1
  6
CONTINUOUS
 62
     3
  5
495
 10
366.826687
 20
384.015898
 30
0.0
 11
351.244748
 21
384.287882
 31
0.0
  0
LINE
  8
LY_1
  6
CONTINUOUS
 62
     3
  5
496
 10
366.826687
 20
368.015898
 30
0.0
 11
351.087294
 21
368.29063
 31
0.0
  0
LINE
  8
LY_1
  6
CONTINUOUS
 62
     3
  5
497
 10
462.826687
 20
368.015898
 30
0.0
 11
478.408626
 21
367.743914
 31
0.0
  0
LINE
  8
LY_1
  6
CONTINUOUS
 62
     3
  5
498
 10
462.826687
 20
384.015898
 30
0.0
 11
478.408626
 21
384.287882
 31
0.0
  0
LINE
  8
LY_1
  6
CONTINUOUS
 62
     3
  5
499
 10
412.826687
 20
331.015898
 30
0.0
 11
416.826687
 21
331.015898
 31
0.0
  0
LINE
  8
LY_1
  6
CONTINUOUS
 62
     3
  5
49A
 10
420.826687
 20
331.015898
 30
0.0
 11
429.885458
 21
331.015898
 31
0.0
  0
LINE
  8
LY_1
  6
CONTINUOUS
 62
     3
  5
49B
 10
417.826687
 20
306.015898
 30
0.0
 11
419.826687
 21
306.015898
 31
0.0
  0
ARC
  8
LY_1
  6
CONTINUOUS
 62
     3
  5
49C
 10
419.826687
 20
307.015898
 30
0.0
 40
1.0
 50
270.0
 51
0.0
  0
ARC
  8
LY_1
  6
CONTINUOUS
 62
     3
  5
49D
 10
417.826687
 20
307.015898
 30
0.0
 40
1.0
 50
180.0
 51
270.0
  0
LINE
  8
LY_1
  6
CONTINUOUS
 62
     3
  5
49E
 10
409.826687
 20
306.015898
 30
0.0
 11
411.826687
 21
306.015898
 31
0.0
  0
ARC
  8
LY_1
  6
CONTINUOUS
 62
     3
  5
49F
 10
411.826687
 20
307.015898
 30
0.0
 40
1.0
 50
270.0
 51
0.0
  0
ARC
  8
LY_1
  6
CONTINUOUS
 62
     3
  5
4A0
 10
409.826687
 20
307.015898
 30
0.0
 40
1.0
 50
180.0
 51
270.0
  0
ARC
  8
LY_1
  6
CONTINUOUS
 62
     3
  5
4A1
 10
429.885458
 20
330.015898
 30
0.0
 40
1.0
 50
3.468229
 51
90.0
  0
ARC
  8
LY_1
  6
CONTINUOUS
 62
     3
  5
4A2
 10
399.767916
 20
330.015898
 30
0.0
 40
1.0
 50
90.0
 51
176.531771
  0
LINE
  8
LY_1
  6
CONTINUOUS
 62
     3
  5
4A3
 10
430.883627
 20
330.076393
 30
0.0
 11
432.665655
 21
300.672924
 31
0.0
  0
LINE
  8
LY_1
  6
CONTINUOUS
 62
     3
  5
4A4
 10
398.769747
 20
330.076393
 30
0.0
 11
396.987719
 21
300.672924
 31
0.0
  0
LINE
  8
LY_1
  6
CONTINUOUS
 62
     3
  5
4A5
 10
399.767916
 20
331.015898
 30
0.0
 11
408.826687
 21
331.015898
 31
0.0
  0
LINE
  8
LY_1
  6
CONTINUOUS
 62
     3
  5
4A6
 10
444.826687
 20
286.015898
 30
0.0
 11
466.826687
 21
286.015898
 31
0.0
  0
ARC
  8
LY_1
  6
CONTINUOUS
 62
     3
  5
4A7
 10
442.826687
 20
289.015898
 30
0.0
 40
2.0
 50
0.0
 51
90.0
  0
ARC
  8
LY_1
  6
CONTINUOUS
 62
     3
  5
4A8
 10
386.826687
 20
289.015898
 30
0.0
 40
2.0
 50
90.0
 51
180.0
  0
LINE
  8
LY_1
  6
CONTINUOUS
 62
     3
  5
4A9
 10
444.826687
 20
286.015898
 30
0.0
 11
444.826687
 21
289.015898
 31
0.0
  0
LINE
  8
LY_1
  6
CONTINUOUS
 62
     3
  5
4AA
 10
384.826687
 20
286.015898
 30
0.0
 11
384.826687
 21
289.015898
 31
0.0
  0
LINE
  8
LY_1
  6
CONTINUOUS
 62
     3
  5
4AB
 10
386.826687
 20
291.015898
 30
0.0
 11
442.826687
 21
291.015898
 31
0.0
  0
ARC
  8
LY_1
  6
CONTINUOUS
 62
     3
  5
4AC
 10
464.826687
 20
294.130088
 30
0.0
 40
2.0
 50
360.0
 51
86.633539
  0
ARC
  8
LY_1
  6
CONTINUOUS
 62
     3
  5
4AD
 10
364.826687
 20
294.130088
 30
0.0
 40
2.0
 50
93.366461
 51
180.0
  0
LINE
  8
LY_1
  6
CONTINUOUS
 62
     3
  5
4AE
 10
394.169379
 20
297.859586
 30
0.0
 11
364.709243
 21
296.126636
 31
0.0
  0
LINE
  8
LY_1
  6
CONTINUOUS
 62
     3
  5
4AF
 10
435.483994
 20
297.859586
 30
0.0
 11
464.944131
 21
296.126636
 31
0.0
  0
LINE
  8
LY_1
  6
CONTINUOUS
 62
     3
  5
4B0
 10
466.826687
 20
286.015898
 30
0.0
 11
466.826687
 21
294.130088
 31
0.0
  0
LINE
  8
LY_1
  6
CONTINUOUS
 62
     3
  5
4B1
 10
362.826687
 20
286.015898
 30
0.0
 11
362.826687
 21
294.130088
 31
0.0
  0
LINE
  8
LY_1
  6
CONTINUOUS
 62
     3
  5
4B2
 10
362.826687
 20
286.015898
 30
0.0
 11
384.826687
 21
286.015898
 31
0.0
  0
LINE
  8
LY_1
  6
CONTINUOUS
 62
     3
  5
4B3
 10
201.053951
 20
314.515898
 30
0.0
 11
206.683116
 21
317.765898
 31
0.0
  0
LINE
  8
LY_1
  6
CONTINUOUS
 62
     3
  5
4B4
 10
195.424786
 20
317.765898
 30
0.0
 11
201.053951
 21
314.515898
 31
0.0
  0
LINE
  8
LY_1
  6
CONTINUOUS
 62
     3
  5
4B5
 10
195.424786
 20
324.265898
 30
0.0
 11
195.424786
 21
317.765898
 31
0.0
  0
LINE
  8
LY_1
  6
CONTINUOUS
 62
     3
  5
4B6
 10
199.038539
 20
326.352299
 30
0.0
 11
195.424786
 21
324.265898
 31
0.0
  0
ARC
  8
LY_1
  6
CONTINUOUS
 62
     3
  5
4B7
 10
201.053951
 20
321.015898
 30
0.0
 40
6.5
 50
118.409406
 51
16.923143
  0
LINE
  8
LY_1
  6
CONTINUOUS
 62
     3
  5
4B8
 10
171.053951
 20
296.015898
 30
0.0
 11
194.053951
 21
328.431285
 31
0.0
  0
LINE
  8
LY_1
  6
CONTINUOUS
 62
     3
  5
4B9
 10
172.47303
 20
298.015898
 30
0.0
 11
211.053951
 21
298.015898
 31
0.0
  0
LINE
  8
LY_1
  6
CONTINUOUS
 62
     3
  5
4BA
 10
171.053951
 20
296.015898
 30
0.0
 11
211.053951
 21
296.015898
 31
0.0
  0
LINE
  8
LY_1
  6
CONTINUOUS
 62
     3
  5
4BB
 10
171.053951
 20
296.015898
 30
0.0
 11
171.053951
 21
286.015898
 31
0.0
  0
LINE
  8
LY_1
  6
CONTINUOUS
 62
     3
  5
4BC
 10
211.053951
 20
320.331755
 30
0.0
 11
211.053951
 21
286.015898
 31
0.0
  0
LINE
  8
LY_1
  6
CONTINUOUS
 62
     3
  5
4BD
 10
171.053951
 20
286.015898
 30
0.0
 11
211.053951
 21
286.015898
 31
0.0
  0
ARC
  8
LY_1
  6
CONTINUOUS
 62
     3
  5
4BE
 10
414.826687
 20
498.036245
 30
0.0
 40
180.0
 50
275.336017
 51
285.879218
  0
CIRCLE
  8
LY_1
  6
CONTINUOUS
 62
     3
  5
4BF
 10
370.826687
 20
376.015898
 30
0.0
 40
1.5
  0
CIRCLE
  8
LY_1
  6
CONTINUOUS
 62
     3
  5
4C0
 10
458.826687
 20
376.015898
 30
0.0
 40
1.5
  0
LINE
  8
LY_1
  6
CONTINUOUS
 62
     3
  5
4C1
 10
462.826687
 20
368.015898
 30
0.0
 11
455.193991
 21
368.840887
 31
0.0
  0
LINE
  8
LY_1
  6
CONTINUOUS
 62
     3
  5
4C2
 10
462.826687
 20
371.015898
 30
0.0
 11
455.520667
 21
371.015898
 31
0.0
  0
LINE
  8
LY_1
  6
CONTINUOUS
 62
     3
  5
4C3
 10
462.826687
 20
371.015898
 30
0.0
 11
455.4142
 21
370.21471
 31
0.0
  0
LINE
  8
LY_1
  6
CONTINUOUS
 62
     3
  5
4C4
 10
462.826687
 20
384.015898
 30
0.0
 11
455.193991
 21
383.190909
 31
0.0
  0
LINE
  8
LY_1
  6
CONTINUOUS
 62
     3
  5
4C5
 10
462.826687
 20
381.015898
 30
0.0
 11
455.520667
 21
381.015898
 31
0.0
  0
LINE
  8
LY_1
  6
CONTINUOUS
 62
     3
  5
4C6
 10
462.826687
 20
381.015898
 30
0.0
 11
455.4142
 21
381.817085
 31
0.0
  0
LINE
  8
LY_1
  6
CONTINUOUS
 62
     3
  5
4C7
 10
366.826687
 20
368.015898
 30
0.0
 11
374.459383
 21
368.840887
 31
0.0
  0
LINE
  8
LY_1
  6
CONTINUOUS
 62
     3
  5
4C8
 10
366.826687
 20
384.015898
 30
0.0
 11
374.459383
 21
383.190909
 31
0.0
  0
LINE
  8
LY_1
  6
CONTINUOUS
 62
     3
  5
4C9
 10
366.826687
 20
371.015898
 30
0.0
 11
374.132707
 21
371.015898
 31
0.0
  0
LINE
  8
LY_1
  6
CONTINUOUS
 62
     3
  5
4CA
 10
366.826687
 20
371.015898
 30
0.0
 11
374.239174
 21
370.21471
 31
0.0
  0
LINE
  8
LY_1
  6
CONTINUOUS
 62
     3
  5
4CB
 10
366.826687
 20
381.015898
 30
0.0
 11
374.132707
 21
381.015898
 31
0.0
  0
LINE
  8
LY_1
  6
CONTINUOUS
 62
     3
  5
4CC
 10
366.826687
 20
381.015898
 30
0.0
 11
374.239174
 21
381.817085
 31
0.0
  0
LINE
  8
LY_1
  6
CONTINUOUS
 62
     3
  5
4CD
 10
455.038625
 20
384.015898
 30
0.0
 11
462.826687
 21
384.015898
 31
0.0
  0
LINE
  8
LY_1
  6
CONTINUOUS
 62
     3
  5
4CE
 10
455.038625
 20
368.015898
 30
0.0
 11
462.826687
 21
368.015898
 31
0.0
  0
LINE
  8
LY_1
  6
CONTINUOUS
 62
     3
  5
4CF
 10
366.826687
 20
368.015898
 30
0.0
 11
374.614748
 21
368.015898
 31
0.0
  0
LINE
  8
LY_1
  6
CONTINUOUS
 62
     3
  5
4D0
 10
366.826687
 20
384.015898
 30
0.0
 11
374.614748
 21
384.015898
 31
0.0
  0
LINE
  8
LY_1
  6
CONTINUOUS
 62
     3
  5
4D1
 10
462.826687
 20
368.015898
 30
0.0
 11
462.826687
 21
384.015898
 31
0.0
  0
LINE
  8
LY_1
  6
CONTINUOUS
 62
     3
  5
4D2
 10
366.826687
 20
368.015898
 30
0.0
 11
366.826687
 21
384.015898
 31
0.0
  0
ARC
  8
LY_1
  6
CONTINUOUS
 62
     3
  5
4D3
 10
474.942165
 20
376.015898
 30
0.0
 40
7.0
 50
343.933599
 51
16.066401
  0
ARC
  8
LY_1
  6
CONTINUOUS
 62
     3
  5
4D4
 10
462.161278
 20
331.637819
 30
0.0
 40
7.0
 50
285.879218
 51
343.933599
  0
ARC
  8
LY_1
  6
CONTINUOUS
 62
     3
  5
4D5
 10
354.711209
 20
376.015898
 30
0.0
 40
7.0
 50
163.933599
 51
196.066401
  0
ARC
  8
LY_1
  6
CONTINUOUS
 62
     3
  5
4D6
 10
367.492095
 20
420.393977
 30
0.0
 40
7.0
 50
105.879218
 51
163.933599
  0
ARC
  8
LY_1
  6
CONTINUOUS
 62
     3
  5
4D7
 10
462.161278
 20
420.393977
 30
0.0
 40
7.0
 50
16.066401
 51
74.120782
  0
ARC
  8
LY_1
  6
CONTINUOUS
 62
     3
  5
4D8
 10
414.826687
 20
498.036245
 30
0.0
 40
180.0
 50
254.809575
 51
264.663983
  0
ARC
  8
LY_1
  6
CONTINUOUS
 62
     3
  5
4D9
 10
414.826687
 20
253.99555
 30
0.0
 40
180.0
 50
74.120782
 51
105.879218
  0
LINE
  8
LY_1
  6
CONTINUOUS
 62
     3
  5
4DA
 10
481.668756
 20
374.07864
 30
0.0
 11
468.88787
 21
329.70056
 31
0.0
  0
LINE
  8
LY_1
  6
CONTINUOUS
 62
     3
  5
4DB
 10
468.88787
 20
422.331235
 30
0.0
 11
481.668756
 21
377.953156
 31
0.0
  0
LINE
  8
LY_1
  6
CONTINUOUS
 62
     3
  5
4DC
 10
347.984617
 20
374.07864
 30
0.0
 11
360.765504
 21
329.70056
 31
0.0
  0
LINE
  8
LY_1
  6
CONTINUOUS
 62
     3
  5
4DD
 10
347.984617
 20
377.953156
 30
0.0
 11
360.765504
 21
422.331235
 31
0.0
  0
LINE
  8
LY_1
  6
CONTINUOUS
 62
     3
  5
4DE
 10
408.826687
 20
331.515898
 30
0.0
 11
407.299122
 21
335.712849
 31
0.0
  0
LINE
  8
LY_1
  6
CONTINUOUS
 62
     3
  5
4DF
 10
420.826687
 20
331.515898
 30
0.0
 11
422.354252
 21
335.712849
 31
0.0
  0
ARC
  8
LY_1
  6
CONTINUOUS
 62
     3
  5
4E0
 10
419.826687
 20
312.015898
 30
0.0
 40
1.0
 50
270.0
 51
0.0
  0
ARC
  8
LY_1
  6
CONTINUOUS
 62
     3
  5
4E1
 10
417.826687
 20
312.015898
 30
0.0
 40
1.0
 50
180.0
 51
270.0
  0
ARC
  8
LY_1
  6
CONTINUOUS
 62
     3
  5
4E2
 10
411.826687
 20
312.015898
 30
0.0
 40
1.0
 50
270.0
 51
0.0
  0
ARC
  8
LY_1
  6
CONTINUOUS
 62
     3
  5
4E3
 10
409.826687
 20
312.015898
 30
0.0
 40
1.0
 50
180.0
 51
270.0
  0
LINE
  8
LY_1
  6
CONTINUOUS
 62
     3
  5
4E4
 10
417.826687
 20
311.015898
 30
0.0
 11
419.826687
 21
311.015898
 31
0.0
  0
ARC
  8
LY_1
  6
CONTINUOUS
 62
     3
  5
4E5
 10
414.826687
 20
333.015898
 30
0.0
 40
2.0
 50
0.0
 51
180.0
  0
LINE
  8
LY_1
  6
CONTINUOUS
 62
     3
  5
4E6
 10
409.826687
 20
311.015898
 30
0.0
 11
411.826687
 21
311.015898
 31
0.0
  0
LINE
  8
LY_1
  6
CONTINUOUS
 62
     3
  5
4E7
 10
408.826687
 20
331.515898
 30
0.0
 11
408.826687
 21
307.015898
 31
0.0
  0
LINE
  8
LY_1
  6
CONTINUOUS
 62
     3
  5
4E8
 10
420.826687
 20
331.515898
 30
0.0
 11
420.826687
 21
307.015898
 31
0.0
  0
LINE
  8
LY_1
  6
CONTINUOUS
 62
     3
  5
4E9
 10
412.826687
 20
333.015898
 30
0.0
 11
412.826687
 21
307.015898
 31
0.0
  0
LINE
  8
LY_1
  6
CONTINUOUS
 62
     3
  5
4EA
 10
416.826687
 20
333.015898
 30
0.0
 11
416.826687
 21
307.015898
 31
0.0
  0
LINE
  8
LY_1
  6
CONTINUOUS
 62
     3
  5
4EB
 10
221.053951
 20
349.034423
 30
0.0
 11
221.053951
 21
339.246345
 31
0.0
  0
POLYLINE
  8
LY_1
  6
CONTINUOUS
 62
     3
  5
4EC
 66
     1
 10
0.0
 20
0.0
 30
0.0
  0
VERTEX
  8
LY_1
  6
CONTINUOUS
 62
     3
  5
A5D
 10
221.053951
 20
349.034423
 30
0.0
  0
VERTEX
  8
LY_1
  6
CONTINUOUS
 62
     3
  5
A5E
 10
220.925624
 20
350.418862
 30
0.0
  0
VERTEX
  8
LY_1
  6
CONTINUOUS
 62
     3
  5
A5F
 10
220.542838
 20
351.779613
 30
0.0
  0
VERTEX
  8
LY_1
  6
CONTINUOUS
 62
     3
  5
A60
 10
219.912144
 20
353.093393
 30
0.0
  0
VERTEX
  8
LY_1
  6
CONTINUOUS
 62
     3
  5
A61
 10
219.044332
 20
354.337724
 30
0.0
  0
VERTEX
  8
LY_1
  6
CONTINUOUS
 62
     3
  5
A62
 10
217.954251
 20
355.491313
 30
0.0
  0
VERTEX
  8
LY_1
  6
CONTINUOUS
 62
     3
  5
A63
 10
216.660553
 20
356.534423
 30
0.0
  0
VERTEX
  8
LY_1
  6
CONTINUOUS
 62
     3
  5
A64
 10
215.185372
 20
357.449206
 30
0.0
  0
VERTEX
  8
LY_1
  6
CONTINUOUS
 62
     3
  5
A65
 10
213.553951
 20
358.220009
 30
0.0
  0
VERTEX
  8
LY_1
  6
CONTINUOUS
 62
     3
  5
A66
 10
211.794202
 20
358.833645
 30
0.0
  0
VERTEX
  8
LY_1
  6
CONTINUOUS
 62
     3
  5
A67
 10
209.936237
 20
359.279613
 30
0.0
  0
VERTEX
  8
LY_1
  6
CONTINUOUS
 62
     3
  5
A68
 10
208.011844
 20
359.550283
 30
0.0
  0
VERTEX
  8
LY_1
  6
CONTINUOUS
 62
     3
  5
A69
 10
206.053951
 20
359.641024
 30
0.0
  0
VERTEX
  8
LY_1
  6
CONTINUOUS
 62
     3
  5
A6A
 10
204.096058
 20
359.550283
 30
0.0
  0
VERTEX
  8
LY_1
  6
CONTINUOUS
 62
     3
  5
A6B
 10
202.171665
 20
359.279613
 30
0.0
  0
VERTEX
  8
LY_1
  6
CONTINUOUS
 62
     3
  5
A6C
 10
200.313699
 20
358.833645
 30
0.0
  0
VERTEX
  8
LY_1
  6
CONTINUOUS
 62
     3
  5
A6D
 10
198.553951
 20
358.220009
 30
0.0
  0
VERTEX
  8
LY_1
  6
CONTINUOUS
 62
     3
  5
A6E
 10
196.922529
 20
357.449206
 30
0.0
  0
VERTEX
  8
LY_1
  6
CONTINUOUS
 62
     3
  5
A6F
 10
195.447349
 20
356.534423
 30
0.0
  0
VERTEX
  8
LY_1
  6
CONTINUOUS
 62
     3
  5
A70
 10
194.153651
 20
355.491313
 30
0.0
  0
VERTEX
  8
LY_1
  6
CONTINUOUS
 62
     3
  5
A71
 10
193.06357
 20
354.337724
 30
0.0
  0
VERTEX
  8
LY_1
  6
CONTINUOUS
 62
     3
  5
A72
 10
192.195758
 20
353.093393
 30
0.0
  0
VERTEX
  8
LY_1
  6
CONTINUOUS
 62
     3
  5
A73
 10
191.565063
 20
351.779613
 30
0.0
  0
VERTEX
  8
LY_1
  6
CONTINUOUS
 62
     3
  5
A74
 10
191.182278
 20
350.418862
 30
0.0
  0
VERTEX
  8
LY_1
  6
CONTINUOUS
 62
     3
  5
A75
 10
191.053951
 20
349.034423
 30
0.0
  0
VERTEX
  8
LY_1
  6
CONTINUOUS
 62
     3
  5
A76
 10
191.053951
 20
349.034423
 30
0.0
  0
SEQEND
  8
LY_1
  6
CONTINUOUS
 62
     3
  5
A77
  0
POLYLINE
  8
LY_1
  6
CONTINUOUS
 62
     3
  5
4ED
 66
     1
 10
0.0
 20
0.0
 30
0.0
  0
VERTEX
  8
LY_1
  6
CONTINUOUS
 62
     3
  5
A78
 10
218.053951
 20
332.882384
 30
0.0
  0
VERTEX
  8
LY_1
  6
CONTINUOUS
 62
     3
  5
A79
 10
219.137566
 20
334.058908
 30
0.0
  0
VERTEX
  8
LY_1
  6
CONTINUOUS
 62
     3
  5
A7A
 10
219.99192
 20
335.326331
 30
0.0
  0
VERTEX
  8
LY_1
  6
CONTINUOUS
 62
     3
  5
A7B
 10
220.60204
 20
336.662444
 30
0.0
  0
VERTEX
  8
LY_1
  6
CONTINUOUS
 62
     3
  5
A7C
 10
220.957237
 20
338.043834
 30
0.0
  0
VERTEX
  8
LY_1
  6
CONTINUOUS
 62
     3
  5
A7D
 10
221.051285
 20
339.446296
 30
0.0
  0
VERTEX
  8
LY_1
  6
CONTINUOUS
 62
     3
  5
A7E
 10
220.882538
 20
340.845253
 30
0.0
  0
VERTEX
  8
LY_1
  6
CONTINUOUS
 62
     3
  5
A7F
 10
220.453951
 20
342.216194
 30
0.0
  0
VERTEX
  8
LY_1
  6
CONTINUOUS
 62
     3
  5
A80
 10
219.773035
 20
343.535094
 30
0.0
  0
VERTEX
  8
LY_1
  6
CONTINUOUS
 62
     3
  5
A81
 10
218.851722
 20
344.778843
 30
0.0
  0
VERTEX
  8
LY_1
  6
CONTINUOUS
 62
     3
  5
A82
 10
217.706155
 20
345.925647
 30
0.0
  0
VERTEX
  8
LY_1
  6
CONTINUOUS
 62
     3
  5
A83
 10
216.356408
 20
346.95541
 30
0.0
  0
VERTEX
  8
LY_1
  6
CONTINUOUS
 62
     3
  5
A84
 10
214.826133
 20
347.850089
 30
0.0
  0
VERTEX
  8
LY_1
  6
CONTINUOUS
 62
     3
  5
A85
 10
213.142145
 20
348.594005
 30
0.0
  0
VERTEX
  8
LY_1
  6
CONTINUOUS
 62
     3
  5
A86
 10
211.333951
 20
349.174124
 30
0.0
  0
VERTEX
  8
LY_1
  6
CONTINUOUS
 62
     3
  5
A87
 10
209.433236
 20
349.58028
 30
0.0
  0
VERTEX
  8
LY_1
  6
CONTINUOUS
 62
     3
  5
A88
 10
207.473307
 20
349.805356
 30
0.0
  0
VERTEX
  8
LY_1
  6
CONTINUOUS
 62
     3
  5
A89
 10
205.488506
 20
349.845408
 30
0.0
  0
VERTEX
  8
LY_1
  6
CONTINUOUS
 62
     3
  5
A8A
 10
203.513614
 20
349.699734
 30
0.0
  0
VERTEX
  8
LY_1
  6
CONTINUOUS
 62
     3
  5
A8B
 10
201.583236
 20
349.370887
 30
0.0
  0
VERTEX
  8
LY_1
  6
CONTINUOUS
 62
     3
  5
A8C
 10
199.731197
 20
348.864629
 30
0.0
  0
VERTEX
  8
LY_1
  6
CONTINUOUS
 62
     3
  5
A8D
 10
197.989951
 20
348.189832
 30
0.0
  0
VERTEX
  8
LY_1
  6
CONTINUOUS
 62
     3
  5
A8E
 10
196.390009
 20
347.358319
 30
0.0
  0
VERTEX
  8
LY_1
  6
CONTINUOUS
 62
     3
  5
A8F
 10
194.959407
 20
346.384661
 30
0.0
  0
VERTEX
  8
LY_1
  6
CONTINUOUS
 62
     3
  5
A90
 10
193.723213
 20
345.285919
 30
0.0
  0
VERTEX
  8
LY_1
  6
CONTINUOUS
 62
     3
  5
A91
 10
192.703089
 20
344.081347
 30
0.0
  0
VERTEX
  8
LY_1
  6
CONTINUOUS
 62
     3
  5
A92
 10
191.91691
 20
342.792052
 30
0.0
  0
VERTEX
  8
LY_1
  6
CONTINUOUS
 62
     3
  5
A93
 10
191.378452
 20
341.440626
 30
0.0
  0
VERTEX
  8
LY_1
  6
CONTINUOUS
 62
     3
  5
A94
 10
191.097151
 20
340.05075
 30
0.0
  0
VERTEX
  8
LY_1
  6
CONTINUOUS
 62
     3
  5
A95
 10
191.077935
 20
338.646778
 30
0.0
  0
VERTEX
  8
LY_1
  6
CONTINUOUS
 62
     3
  5
A96
 10
191.321142
 20
337.253313
 30
0.0
  0
VERTEX
  8
LY_1
  6
CONTINUOUS
 62
     3
  5
A97
 10
191.82251
 20
335.894771
 30
0.0
  0
VERTEX
  8
LY_1
  6
CONTINUOUS
 62
     3
  5
A98
 10
192.573253
 20
334.594958
 30
0.0
  0
VERTEX
  8
LY_1
  6
CONTINUOUS
 62
     3
  5
A99
 10
193.25618
 20
333.713848
 30
0.0
  0
VERTEX
  8
LY_1
  6
CONTINUOUS
 62
     3
  5
A9A
 10
194.053951
 20
332.882384
 30
0.0
  0
SEQEND
  8
LY_1
  6
CONTINUOUS
 62
     3
  5
A9B
  0
LINE
  8
LY_1
  6
CONTINUOUS
 62
     3
  5
4EE
 10
398.451813
 20
338.427821
 30
0.0
 11
388.663736
 21
328.639743
 31
0.0
  0
LINE
  8
LY_1
  6
CONTINUOUS
 62
     3
  5
4EF
 10
388.663736
 20
328.639743
 30
0.0
 11
367.450533
 21
349.852947
 31
0.0
  0
ARC
  8
LY_1
  6
CONTINUOUS
 62
     3
  5
4F0
 10
414.826687
 20
356.015898
 30
0.0
 40
1.0
 50
1.432544
 51
178.567456
  0
ARC
  8
LY_1
  6
CONTINUOUS
 62
     3
  5
4F1
 10
414.826687
 20
376.015898
 30
0.0
 40
20.0
 50
272.865087
 51
267.134913
  0
CIRCLE
  8
LY_1
  6
CONTINUOUS
 62
     3
  5
4F2
 10
414.826687
 20
376.015898
 30
0.0
 40
41.0
  0
LINE
  8
LY_1
  6
CONTINUOUS
 62
     3
  5
4F3
 10
189.153951
 20
335.049062
 30
0.0
 11
189.153951
 21
368.015898
 31
0.0
  0
LINE
  8
LY_1
  6
CONTINUOUS
 62
     3
  5
4F4
 10
195.153951
 20
371.015898
 30
0.0
 11
241.053951
 21
370.21471
 31
0.0
  0
LINE
  8
LY_1
  6
CONTINUOUS
 62
     3
  5
4F5
 10
195.153951
 20
381.015898
 30
0.0
 11
241.053951
 21
381.817085
 31
0.0
  0
LINE
  8
LY_1
  6
CONTINUOUS
 62
     3
  5
4F6
 10
195.153951
 20
371.015898
 30
0.0
 11
195.153951
 21
381.015898
 31
0.0
  0
LINE
  8
LY_1
  6
CONTINUOUS
 62
     3
  5
4F7
 10
191.053951
 20
368.015898
 30
0.0
 11
241.053951
 21
368.015898
 31
0.0
  0
LINE
  8
LY_1
  6
CONTINUOUS
 62
     3
  5
4F8
 10
191.053951
 20
384.015898
 30
0.0
 11
241.053951
 21
384.015898
 31
0.0
  0
LINE
  8
LY_1
  6
CONTINUOUS
 62
     3
  5
4F9
 10
251.053951
 20
342.049062
 30
0.0
 11
251.053951
 21
409.982733
 31
0.0
  0
ARC
  8
LY_1
  6
CONTINUOUS
 62
     3
  5
4FA
 10
75.553951
 20
319.415898
 30
0.0
 40
1.5
 50
180.0
 51
0.0
  0
ARC
  8
LY_1
  6
CONTINUOUS
 62
     3
  5
4FB
 10
75.553951
 20
432.615898
 30
0.0
 40
1.5
 50
0.0
 51
180.0
  0
ARC
  8
LY_1
  6
CONTINUOUS
 62
     3
  5
4FC
 10
146.4954
 20
164.245394
 30
0.0
 40
170.0
 50
91.0
 51
114.109331
  0
LINE
  8
LY_1
  6
CONTINUOUS
 62
     3
  5
4FD
 10
143.528491
 20
334.219502
 30
0.0
 11
191.053951
 21
335.049062
 31
0.0
  0
ARC
  8
LY_1
  6
CONTINUOUS
 62
     3
  5
4FE
 10
146.4954
 20
587.786401
 30
0.0
 40
170.0
 50
245.890669
 51
269.0
  0
LINE
  8
LY_1
  6
CONTINUOUS
 62
     3
  5
4FF
 10
143.528491
 20
417.812293
 30
0.0
 11
189.153951
 21
417.015898
 31
0.0
  0
LINE
  8
LY_1
  6
CONTINUOUS
 62
     3
  5
500
 10
77.053951
 20
319.415898
 30
0.0
 11
77.053951
 21
432.615898
 31
0.0
  0
LINE
  8
LY_1
  6
CONTINUOUS
 62
     3
  5
501
 10
74.053951
 20
319.415898
 30
0.0
 11
74.053951
 21
432.615898
 31
0.0
  0
ENDSEC
  0
EOF
