  0
SECTION
  2
HEADER
  9
$ACADVER
  1
AC1009
  9
$DWGCODEPAGE
  3
dos932
  9
$INSBASE
 10
0.0
 20
0.0
 30
0.0
  9
$EXTMIN
 10
-314.671467
 20
-218.71132
 30
0.0
  9
$EXTMAX
 10
423.340717
 20
826.28868
 30
0.0
  9
$LIMMIN
 10
-314.671467
 20
-218.71132
  9
$LIMMAX
 10
423.340717
 20
826.28868
  9
$ORTHOMODE
 70
     0
  9
$REGENMODE
 70
     1
  9
$FILLMODE
 70
     1
  9
$QTEXTMODE
 70
     0
  9
$MIRRTEXT
 70
     1
  9
$DRAGMODE
 70
     2
  9
$LTSCALE
 40
1.0
  9
$OSMODE
 70
     0
  9
$ATTMODE
 70
     1
  9
$TEXTSIZE
 40
4.1656
  9
$TRACEWID
 40
0.05
  9
$TEXTSTYLE
  7
MX_NOTE_STANDARD
  9
$CLAYER
  8
LY_1
  9
$CELTYPE
  6
CONTINUOUS
  9
$CECOLOR
 62
   256
  9
$DIMSCALE
 40
1.0
  9
$DIMASZ
 40
2.5
  9
$DIMEXO
 40
0.5
  9
$DIMDLI
 40
3.75
  9
$DIMRND
 40
0.0
  9
$DIMDLE
 40
0.0
  9
$DIMEXE
 40
1.0
  9
$DIMTP
 40
0.0
  9
$DIMTM
 40
0.0
  9
$DIMTXT
 40
2.5
  9
$DIMCEN
 40
2.5
  9
$DIMTSZ
 40
0.0
  9
$DIMTOL
 70
     0
  9
$DIMLIM
 70
     0
  9
$DIMTIH
 70
     0
  9
$DIMTOH
 70
     0
  9
$DIMSE1
 70
     0
  9
$DIMSE2
 70
     0
  9
$DIMTAD
 70
     1
  9
$DIMZIN
 70
     8
  9
$DIMBLK
  1

  9
$DIMASO
 70
     1
  9
$DIMSHO
 70
     1
  9
$DIMPOST
  1

  9
$DIMAPOST
  1

  9
$DIMALT
 70
     0
  9
$DIMALTD
 70
     4
  9
$DIMALTF
 40
0.03937
  9
$DIMLFAC
 40
1.0
  9
$DIMTOFL
 70
     1
  9
$DIMTVP
 40
0.0
  9
$DIMTIX
 70
     0
  9
$DIMSOXD
 70
     0
  9
$DIMSAH
 70
     0
  9
$DIMBLK1
  1

  9
$DIMBLK2
  1

  9
$DIMSTYLE
  2
MXDIMSTYLE
  9
$DIMCLRD
 70
     0
  9
$DIMCLRE
 70
     0
  9
$DIMCLRT
 70
     0
  9
$DIMTFAC
 40
1.0
  9
$DIMGAP
 40
1.0
  9
$LUNITS
 70
     2
  9
$LUPREC
 70
     4
  9
$AXISMODE
 70
     0
  9
$AXISUNIT
 10
0.0
 20
0.0
  9
$SKETCHINC
 40
0.1
  9
$FILLETRAD
 40
0.0
  9
$AUNITS
 70
     0
  9
$AUPREC
 70
     0
  9
$MENU
  1
acad
  9
$ELEVATION
 40
0.0
  9
$PELEVATION
 40
0.0
  9
$THICKNESS
 40
0.0
  9
$LIMCHECK
 70
     0
  9
$BLIPMODE
 70
     1
  9
$CHAMFERA
 40
0.0
  9
$CHAMFERB
 40
0.0
  9
$SKPOLY
 70
     0
  9
$TDCREATE
 40
2453858.567592592
  9
$TDUPDATE
 40
2453858.567592592
  9
$TDINDWG
 40
0.0000000000
  9
$TDUSRTIMER
 40
0.0000000000
  9
$USRTIMER
 70
     1
  9
$ANGBASE
 50
0.0
  9
$ANGDIR
 70
     0
  9
$PDMODE
 70
     0
  9
$PDSIZE
 40
0.0
  9
$PLINEWID
 40
0.0
  9
$COORDS
 70
     1
  9
$SPLFRAME
 70
     0
  9
$SPLINETYPE
 70
     6
  9
$SPLINESEGS
 70
     8
  9
$ATTDIA
 70
     0
  9
$ATTREQ
 70
     1
  9
$HANDLING
 70
     1
  9
$HANDSEED
  5
154
  9
$SURFTAB1
 70
     6
  9
$SURFTAB2
 70
     6
  9
$SURFTYPE
 70
     6
  9
$SURFU
 70
     6
  9
$SURFV
 70
     6
  9
$UCSNAME
  2

  9
$UCSORG
 10
0.0
 20
0.0
 30
0.0
  9
$UCSXDIR
 10
1.0
 20
0.0
 30
0.0
  9
$UCSYDIR
 10
0.0
 20
1.0
 30
0.0
  9
$PUCSNAME
  2

  9
$PUCSORG
 10
0.0
 20
0.0
 30
0.0
  9
$PUCSXDIR
 10
1.0
 20
0.0
 30
0.0
  9
$PUCSYDIR
 10
0.0
 20
1.0
 30
0.0
  9
$USERI1
 70
     0
  9
$USERI2
 70
     0
  9
$USERI3
 70
     0
  9
$USERI4
 70
     0
  9
$USERI5
 70
     0
  9
$USERR1
 40
0.0
  9
$USERR2
 40
0.0
  9
$USERR3
 40
0.0
  9
$USERR4
 40
0.0
  9
$USERR5
 40
0.0
  9
$WORLDVIEW
 70
     1
  9
$SHADEDGE
 70
     3
  9
$SHADEDIF
 70
    70
  9
$TILEMODE
 70
     1
  9
$MAXACTVP
 70
    16
  9
$PINSBASE
 10
0.0
 20
0.0
 30
0.0
  9
$PLIMCHECK
 70
     0
  9
$PEXTMIN
 10
1.000000E+20
 20
1.000000E+20
 30
1.000000E+20
  9
$PEXTMAX
 10
-1.000000E+20
 20
-1.000000E+20
 30
-1.000000E+20
  9
$PLIMMIN
 10
0.0
 20
0.0
  9
$PLIMMAX
 10
12.0
 20
9.0
  9
$UNITMODE
 70
     0
  9
$VISRETAIN
 70
     0
  9
$PLINEGEN
 70
     1
  9
$PSLTSCALE
 70
     0
  9
$TREEDEPTH
 70
  3020
  9
$DWGCODEPAGE
  3
dos932
  0
ENDSEC
  0
SECTION
  2
TABLES
  0
TABLE
  2
VPORT
 70
     1
  0
VPORT
  2
*ACTIVE
 70
     0
 10
0.0
 20
0.0
 11
1.0
 21
1.0
 12
54.334625
 22
303.78868
 13
0.0
 23
0.0
 14
1.0
 24
1.0
 15
0.0
 25
0.0
 16
0.0
 26
0.0
 36
1.0
 17
0.0
 27
0.0
 37
0.0
 40
1055.45
 41
1.732051
 42
50.0
 43
0.0
 44
0.0
 50
0.0
 51
0.0
 71
     0
 72
   100
 73
     1
 74
     1
 75
     0
 76
     0
 77
     0
 78
     0
  0
ENDTAB
  0
TABLE
  2
LTYPE
 70
     2
  0
LTYPE
  2
CONTINUOUS
 70
    64
  3
Solid line
 72
    65
 73
     0
 40
0.0
  0
LTYPE
  2
PHANTOM
 70
    64
  3
Phantom ______  __  __  ______  __  __  ______
 72
    65
 73
     6
 40
63.5
 49
31.75
 49
-6.35
 49
6.35
 49
-6.35
 49
6.35
 49
-6.35
  0
ENDTAB
  0
TABLE
  2
LAYER
 70
     3
  0
LAYER
  2
0
 70
     0
 62
     7
  6
CONTINUOUS
  0
LAYER
  2
LY_1
 70
     0
 62
     7
  6
CONTINUOUS
  0
LAYER
  2
DEFPOINTS
 70
     0
 62
     7
  6
CONTINUOUS
  0
ENDTAB
  0
TABLE
  2
STYLE
 70
     1
  0
STYLE
  2
MX_NOTE_STANDARD
 70
     0
 40
0.0
 41
1.0
 50
0.0
 71
     0
 42
4.1656
  3
txt.shx
  4
extfont.shx
  0
ENDTAB
  0
TABLE
  2
VIEW
 70
     0
  0
ENDTAB
  0
TABLE
  2
UCS
 70
     0
  0
ENDTAB
  0
TABLE
  2
APPID
 70
     1
  0
APPID
  2
ACAD
 70
     0
  0
ENDTAB
  0
TABLE
  2
DIMSTYLE
 70
     1
  0
DIMSTYLE
  2
MXDIMSTYLE
 70
     0
  3

  4

  5

  6

  7

 40
1.0
 41
2.5
 42
0.5
 43
3.75
 44
1.0
 45
0.0
 46
0.0
 47
0.0
 48
0.0
 71
     0
 72
     0
 73
     0
 74
     0
 75
     0
 76
     0
 77
     1
 78
     8
140
2.5
141
2.5
142
0.0
143
0.03937
144
1.0
145
0.0
146
1.0
147
1.0
170
     0
171
     4
172
     1
173
     0
174
     0
175
     0
176
     0
177
     0
178
     0
  0
ENDTAB
  0
ENDSEC
  0
SECTION
  2
BLOCKS
  0
ENDSEC
  0
SECTION
  2
ENTITIES
  0
LINE
  8
LY_1
  6
PHANTOM
 62
    25
  5
20
 10
-206.233569
 20
397.120065
 30
0.0
 11
-213.539032
 21
392.004725
 31
0.0
  0
LINE
  8
LY_1
  6
PHANTOM
 62
    25
  5
21
 10
-81.931017
 20
100.224041
 30
0.0
 11
-82.912729
 21
99.536639
 31
0.0
  0
LINE
  8
LY_1
  6
PHANTOM
 62
    25
  5
22
 10
-73.690907
 20
354.421457
 30
0.0
 11
-128.754245
 21
433.060053
 31
0.0
  0
LINE
  8
LY_1
  6
PHANTOM
 62
    25
  5
23
 10
-162.159328
 20
292.475202
 30
0.0
 11
-217.222666
 21
371.113798
 31
0.0
  0
ARC
  8
LY_1
  6
PHANTOM
 62
    25
  5
24
 10
-171.781815
 20
267.425845
 30
0.0
 40
135.25
 50
25.060519
 51
35.0
  0
ARC
  8
LY_1
  6
PHANTOM
 62
    25
  5
25
 10
-51.075851
 20
323.867256
 30
0.0
 40
2.0
 50
305.0
 51
25.060519
  0
LINE
  8
LY_1
  6
PHANTOM
 62
    25
  5
26
 10
-60.608607
 20
347.514716
 30
0.0
 11
-69.595147
 21
357.289339
 31
0.0
  0
LINE
  8
LY_1
  6
PHANTOM
 62
    25
  5
27
 10
-60.991501
 20
345.002058
 30
0.0
 11
-60.608607
 21
347.514716
 31
0.0
  0
LINE
  8
LY_1
  6
PHANTOM
 62
    25
  5
28
 10
-73.690907
 20
354.421457
 30
0.0
 11
-69.595147
 21
357.289339
 31
0.0
  0
LINE
  8
LY_1
  6
PHANTOM
 62
    25
  5
29
 10
-50.74785
 20
321.655375
 30
0.0
 11
-49.928698
 21
322.228952
 31
0.0
  0
LINE
  8
LY_1
  6
PHANTOM
 62
    25
  5
2A
 10
-157.651442
 20
277.320039
 30
0.0
 11
-160.143525
 21
277.819616
 31
0.0
  0
LINE
  8
LY_1
  6
PHANTOM
 62
    25
  5
2B
 10
-160.143525
 20
277.819616
 30
0.0
 11
-166.255088
 21
289.60732
 31
0.0
  0
ARC
  8
LY_1
  6
PHANTOM
 62
    25
  5
2C
 10
-141.182576
 20
260.773848
 30
0.0
 40
2.0
 50
224.939481
 51
305.0
  0
ARC
  8
LY_1
  6
PHANTOM
 62
    25
  5
2D
 10
-46.861128
 20
354.896252
 30
0.0
 40
135.25
 50
215.0
 51
224.939481
  0
LINE
  8
LY_1
  6
PHANTOM
 62
    25
  5
2E
 10
-162.159328
 20
292.475202
 30
0.0
 11
-166.255088
 21
289.60732
 31
0.0
  0
LINE
  8
LY_1
  6
PHANTOM
 62
    25
  5
2F
 10
-139.216271
 20
259.70912
 30
0.0
 11
-140.035423
 21
259.135544
 31
0.0
  0
ARC
  8
LY_1
  6
PHANTOM
 62
    25
  5
30
 10
-167.766009
 20
430.159214
 30
0.0
 40
2.0
 50
62.216112
 51
125.0
  0
ARC
  8
LY_1
  6
PHANTOM
 62
    25
  5
31
 10
-201.15396
 20
406.780719
 30
0.0
 40
2.0
 50
125.0
 51
187.783888
  0
ARC
  8
LY_1
  6
PHANTOM
 62
    25
  5
32
 10
-161.539246
 20
438.181564
 30
0.0
 40
8.0
 50
242.216112
 51
305.0
  0
ARC
  8
LY_1
  6
PHANTOM
 62
    25
  5
33
 10
-210.822181
 20
403.673281
 30
0.0
 40
8.0
 50
305.0
 51
7.783888
  0
LINE
  8
LY_1
  6
PHANTOM
 62
    25
  5
34
 10
-166.833733
 20
431.928638
 30
0.0
 11
-165.268349
 21
431.103867
 31
0.0
  0
LINE
  8
LY_1
  6
PHANTOM
 62
    25
  5
35
 10
-202.895893
 20
404.756777
 30
0.0
 11
-203.135531
 21
406.509845
 31
0.0
  0
LINE
  8
LY_1
  6
PHANTOM
 62
    25
  5
36
 10
-168.913162
 20
431.797518
 30
0.0
 11
-202.301112
 21
408.419023
 31
0.0
  0
ARC
  8
LY_1
  6
PHANTOM
 62
    25
  5
37
 10
-141.041526
 20
424.456407
 30
0.0
 40
15.0
 50
35.0
 51
125.0
  0
ARC
  8
LY_1
  6
PHANTOM
 62
    25
  5
38
 10
-204.935385
 20
379.717445
 30
0.0
 40
15.0
 50
125.0
 51
215.0
  0
LINE
  8
LY_1
  6
PHANTOM
 62
    25
  5
39
 10
-43.864933
 20
311.825551
 30
0.0
 11
-50.74785
 21
321.655375
 31
0.0
  0
LINE
  8
LY_1
  6
PHANTOM
 62
    25
  5
3A
 10
-132.333353
 20
249.879295
 30
0.0
 11
-139.216271
 21
259.70912
 31
0.0
  0
LINE
  8
LY_1
  6
PHANTOM
 62
    25
  5
3B
 10
-149.645172
 20
436.743687
 30
0.0
 11
-156.950635
 21
431.628347
 31
0.0
  0
ARC
  8
LY_1
  6
PHANTOM
 62
    25
  5
3C
 10
82.085439
 20
211.71247
 30
0.0
 40
2.75
 50
305.0
 51
125.0
  0
ARC
  8
LY_1
  6
PHANTOM
 62
    25
  5
3D
 10
271.084727
 20
558.41572
 30
0.0
 40
400.0
 50
218.059206
 51
228.200999
  0
ARC
  8
LY_1
  6
PHANTOM
 62
    25
  5
3E
 10
172.533787
 20
445.332954
 30
0.0
 40
250.0
 50
227.74525
 51
248.159159
  0
ARC
  8
LY_1
  6
PHANTOM
 62
    25
  5
3F
 10
-331.801996
 20
92.193237
 30
0.0
 40
250.0
 50
1.840841
 51
22.25475
  0
ARC
  8
LY_1
  6
PHANTOM
 62
    25
  5
40
 10
-81.335394
 20
97.283971
 30
0.0
 40
2.75
 50
125.0
 51
305.0
  0
LINE
  8
LY_1
  6
PHANTOM
 62
    25
  5
41
 10
80.508104
 20
213.965138
 30
0.0
 11
79.526391
 21
213.277735
 31
0.0
  0
ARC
  8
LY_1
  6
PHANTOM
 62
    25
  5
42
 10
-471.771444
 20
38.26223
 30
0.0
 40
400.0
 50
21.799001
 51
31.940794
  0
LINE
  8
LY_1
  6
PHANTOM
 62
    25
  5
43
 10
83.662774
 20
209.459802
 30
0.0
 11
-79.758059
 21
95.031303
 31
0.0
  0
LINE
  8
LY_1
  6
PHANTOM
 62
   130
  5
44
 10
-128.560508
 20
95.031303
 30
0.0
 11
-291.98134
 21
209.459802
 31
0.0
  0
ARC
  8
LY_1
  6
PHANTOM
 62
   130
  5
45
 10
-479.403293
 20
558.41572
 30
0.0
 40
400.0
 50
311.799001
 51
321.940794
  0
LINE
  8
LY_1
  6
PHANTOM
 62
   130
  5
46
 10
-125.405837
 20
99.536639
 30
0.0
 11
-126.38755
 21
100.224041
 31
0.0
  0
ARC
  8
LY_1
  6
PHANTOM
 62
   130
  5
47
 10
-290.404005
 20
211.71247
 30
0.0
 40
2.75
 50
55.0
 51
235.0
  0
ARC
  8
LY_1
  6
PHANTOM
 62
   130
  5
48
 10
-380.852353
 20
445.332954
 30
0.0
 40
250.0
 50
291.840841
 51
312.25475
  0
ARC
  8
LY_1
  6
PHANTOM
 62
   130
  5
49
 10
123.483429
 20
92.193237
 30
0.0
 40
250.0
 50
157.74525
 51
178.159159
  0
ARC
  8
LY_1
  6
PHANTOM
 62
   130
  5
4A
 10
263.452878
 20
38.26223
 30
0.0
 40
400.0
 50
148.059206
 51
158.200999
  0
ARC
  8
LY_1
  6
PHANTOM
 62
   130
  5
4B
 10
-126.983172
 20
97.283971
 30
0.0
 40
2.75
 50
235.0
 51
55.0
  0
LINE
  8
LY_1
  6
PHANTOM
 62
   130
  5
4C
 10
5.220465
 20
392.004725
 30
0.0
 11
-2.084997
 21
397.120065
 31
0.0
  0
LINE
  8
LY_1
  6
PHANTOM
 62
   130
  5
4D
 10
-164.453634
 20
311.825551
 30
0.0
 11
-157.570717
 21
321.655375
 31
0.0
  0
LINE
  8
LY_1
  6
PHANTOM
 62
   130
  5
4E
 10
-75.985213
 20
249.879295
 30
0.0
 11
-69.102296
 21
259.70912
 31
0.0
  0
ARC
  8
LY_1
  6
PHANTOM
 62
   130
  5
4F
 10
-67.277041
 20
424.456407
 30
0.0
 40
15.0
 50
55.0
 51
145.0
  0
ARC
  8
LY_1
  6
PHANTOM
 62
   130
  5
50
 10
-3.383181
 20
379.717445
 30
0.0
 40
15.0
 50
325.0
 51
55.0
  0
LINE
  8
LY_1
  6
PHANTOM
 62
   130
  5
51
 10
-6.017454
 20
408.419023
 30
0.0
 11
-39.405404
 21
431.797518
 31
0.0
  0
LINE
  8
LY_1
  6
PHANTOM
 62
   130
  5
52
 10
-43.050217
 20
431.103867
 30
0.0
 11
-41.484833
 21
431.928638
 31
0.0
  0
LINE
  8
LY_1
  6
PHANTOM
 62
   130
  5
53
 10
-5.183035
 20
406.509845
 30
0.0
 11
-5.422673
 21
404.756777
 31
0.0
  0
ARC
  8
LY_1
  6
PHANTOM
 62
   130
  5
54
 10
-46.77932
 20
438.181564
 30
0.0
 40
8.0
 50
235.0
 51
297.783888
  0
ARC
  8
LY_1
  6
PHANTOM
 62
   130
  5
55
 10
2.503614
 20
403.673281
 30
0.0
 40
8.0
 50
172.216112
 51
235.0
  0
ARC
  8
LY_1
  6
PHANTOM
 62
   130
  5
56
 10
-40.552557
 20
430.159214
 30
0.0
 40
2.0
 50
55.0
 51
117.783888
  0
ARC
  8
LY_1
  6
PHANTOM
 62
   130
  5
57
 10
-7.164607
 20
406.780719
 30
0.0
 40
2.0
 50
352.216112
 51
55.0
  0
LINE
  8
LY_1
  6
PHANTOM
 62
   130
  5
58
 10
-157.570717
 20
321.655375
 30
0.0
 11
-158.389869
 21
322.228952
 31
0.0
  0
LINE
  8
LY_1
  6
PHANTOM
 62
   130
  5
59
 10
-134.627659
 20
354.421457
 30
0.0
 11
-138.723419
 21
357.289339
 31
0.0
  0
ARC
  8
LY_1
  6
PHANTOM
 62
   130
  5
5A
 10
-36.536752
 20
267.425845
 30
0.0
 40
135.25
 50
145.0
 51
154.939481
  0
ARC
  8
LY_1
  6
PHANTOM
 62
   130
  5
5B
 10
-157.242716
 20
323.867256
 30
0.0
 40
2.0
 50
154.939481
 51
235.0
  0
LINE
  8
LY_1
  6
PHANTOM
 62
   130
  5
5C
 10
-147.70996
 20
347.514716
 30
0.0
 11
-138.723419
 21
357.289339
 31
0.0
  0
LINE
  8
LY_1
  6
PHANTOM
 62
   130
  5
5D
 10
-147.327066
 20
345.002058
 30
0.0
 11
-147.70996
 21
347.514716
 31
0.0
  0
LINE
  8
LY_1
  6
PHANTOM
 62
   130
  5
5E
 10
-69.102296
 20
259.70912
 30
0.0
 11
-68.283144
 21
259.135544
 31
0.0
  0
LINE
  8
LY_1
  6
PHANTOM
 62
   130
  5
5F
 10
-46.159238
 20
292.475202
 30
0.0
 11
-42.063478
 21
289.60732
 31
0.0
  0
LINE
  8
LY_1
  6
PHANTOM
 62
   130
  5
60
 10
-50.667125
 20
277.320039
 30
0.0
 11
-48.175041
 21
277.819616
 31
0.0
  0
LINE
  8
LY_1
  6
PHANTOM
 62
   130
  5
61
 10
-48.175041
 20
277.819616
 30
0.0
 11
-42.063478
 21
289.60732
 31
0.0
  0
ARC
  8
LY_1
  6
PHANTOM
 62
   130
  5
62
 10
-67.135991
 20
260.773848
 30
0.0
 40
2.0
 50
235.0
 51
315.060519
  0
ARC
  8
LY_1
  6
PHANTOM
 62
   130
  5
63
 10
-161.457439
 20
354.896252
 30
0.0
 40
135.25
 50
315.060519
 51
325.0
  0
LINE
  8
LY_1
  6
PHANTOM
 62
   130
  5
64
 10
-134.627659
 20
354.421457
 30
0.0
 11
-79.564321
 21
433.060053
 31
0.0
  0
LINE
  8
LY_1
  6
PHANTOM
 62
   130
  5
65
 10
-46.159238
 20
292.475202
 30
0.0
 11
8.9041
 21
371.113798
 31
0.0
  0
LINE
  8
LY_1
  6
PHANTOM
 62
   130
  5
66
 10
-287.844957
 20
213.277735
 30
0.0
 11
-288.82667
 21
213.965138
 31
0.0
  0
LINE
  8
LY_1
  6
PHANTOM
 62
   130
  5
67
 10
-51.367932
 20
431.628347
 30
0.0
 11
-58.673394
 21
436.743687
 31
0.0
  0
ARC
  8
LY_1
  6
PHANTOM
 62
   130
  5
68
 10
-104.159283
 20
303.78868
 30
0.0
 40
210.512184
 50
333.692995
 51
206.307005
  0
LINE
  8
LY_1
  6
CONTINUOUS
 62
    31
  5
69
 10
-90.159283
 20
-170.21132
 30
0.0
 11
15.840717
 21
-170.21132
 31
0.0
  0
LINE
  8
LY_1
  6
CONTINUOUS
 62
    31
  5
6A
 10
-90.159283
 20
-62.21132
 30
0.0
 11
15.840717
 21
-62.21132
 31
0.0
  0
LINE
  8
LY_1
  6
CONTINUOUS
 62
    21
  5
6B
 10
-118.159283
 20
663.78868
 30
0.0
 11
-90.159283
 21
663.78868
 31
0.0
  0
LINE
  8
LY_1
  6
CONTINUOUS
 62
    21
  5
6C
 10
-118.159283
 20
663.78868
 30
0.0
 11
-118.159283
 21
666.28868
 31
0.0
  0
LINE
  8
LY_1
  6
CONTINUOUS
 62
    21
  5
6D
 10
-90.159283
 20
663.78868
 30
0.0
 11
-90.159283
 21
666.28868
 31
0.0
  0
LINE
  8
LY_1
  6
CONTINUOUS
 62
    31
  5
6E
 10
-113.974238
 20
656.78868
 30
0.0
 11
-113.974238
 21
663.78868
 31
0.0
  0
LINE
  8
LY_1
  6
CONTINUOUS
 62
    31
  5
6F
 10
-94.344329
 20
656.78868
 30
0.0
 11
-94.344329
 21
663.78868
 31
0.0
  0
LINE
  8
LY_1
  6
CONTINUOUS
 62
    31
  5
70
 10
-109.06676
 20
661.78868
 30
0.0
 11
-99.251806
 21
663.78868
 31
0.0
  0
ARC
  8
LY_1
  6
CONTINUOUS
 62
    31
  5
71
 10
-97.251806
 20
656.78868
 30
0.0
 40
2.0
 50
180.0
 51
270.0
  0
ARC
  8
LY_1
  6
CONTINUOUS
 62
    31
  5
72
 10
-101.251806
 20
656.78868
 30
0.0
 40
2.0
 50
270.0
 51
0.0
  0
ARC
  8
LY_1
  6
CONTINUOUS
 62
    31
  5
73
 10
-107.06676
 20
656.78868
 30
0.0
 40
2.0
 50
180.0
 51
270.0
  0
ARC
  8
LY_1
  6
CONTINUOUS
 62
    31
  5
74
 10
-111.06676
 20
656.78868
 30
0.0
 40
2.0
 50
270.0
 51
0.0
  0
ARC
  8
LY_1
  6
CONTINUOUS
 62
    31
  5
75
 10
-96.344329
 20
656.78868
 30
0.0
 40
2.0
 50
270.0
 51
0.0
  0
ARC
  8
LY_1
  6
CONTINUOUS
 62
    31
  5
76
 10
-111.974238
 20
656.78868
 30
0.0
 40
2.0
 50
180.0
 51
270.0
  0
LINE
  8
LY_1
  6
CONTINUOUS
 62
    31
  5
77
 10
-96.344329
 20
654.78868
 30
0.0
 11
-111.974238
 21
654.78868
 31
0.0
  0
LINE
  8
LY_1
  6
CONTINUOUS
 62
    31
  5
78
 10
-94.344329
 20
661.78868
 30
0.0
 11
-113.974238
 21
661.78868
 31
0.0
  0
LINE
  8
LY_1
  6
CONTINUOUS
 62
    31
  5
79
 10
-99.251806
 20
656.78868
 30
0.0
 11
-99.251806
 21
661.78868
 31
0.0
  0
LINE
  8
LY_1
  6
CONTINUOUS
 62
    31
  5
7A
 10
-109.06676
 20
656.78868
 30
0.0
 11
-109.06676
 21
661.78868
 31
0.0
  0
LINE
  8
LY_1
  6
CONTINUOUS
 62
    31
  5
7B
 10
-118.159283
 20
666.28868
 30
0.0
 11
-90.159283
 21
666.28868
 31
0.0
  0
LINE
  8
LY_1
  6
CONTINUOUS
 62
    31
  5
7C
 10
-90.159283
 20
666.28868
 30
0.0
 11
-88.159283
 21
669.78868
 31
0.0
  0
LINE
  8
LY_1
  6
CONTINUOUS
 62
    31
  5
7D
 10
-120.159283
 20
669.78868
 30
0.0
 11
-118.159283
 21
666.28868
 31
0.0
  0
LINE
  8
LY_1
  6
CONTINUOUS
 62
    31
  5
7E
 10
-118.159283
 20
781.28868
 30
0.0
 11
-90.159283
 21
781.28868
 31
0.0
  0
LINE
  8
LY_1
  6
CONTINUOUS
 62
    31
  5
7F
 10
-109.06676
 20
790.78868
 30
0.0
 11
-109.06676
 21
785.78868
 31
0.0
  0
LINE
  8
LY_1
  6
CONTINUOUS
 62
    31
  5
80
 10
-99.251806
 20
790.78868
 30
0.0
 11
-99.251806
 21
785.78868
 31
0.0
  0
LINE
  8
LY_1
  6
CONTINUOUS
 62
    31
  5
81
 10
-94.344329
 20
785.78868
 30
0.0
 11
-113.974238
 21
785.78868
 31
0.0
  0
LINE
  8
LY_1
  6
CONTINUOUS
 62
    31
  5
82
 10
-96.344329
 20
792.78868
 30
0.0
 11
-111.974238
 21
792.78868
 31
0.0
  0
ARC
  8
LY_1
  6
CONTINUOUS
 62
    31
  5
83
 10
-111.974238
 20
790.78868
 30
0.0
 40
2.0
 50
90.0
 51
180.0
  0
ARC
  8
LY_1
  6
CONTINUOUS
 62
    31
  5
84
 10
-96.344329
 20
790.78868
 30
0.0
 40
2.0
 50
360.0
 51
90.0
  0
ARC
  8
LY_1
  6
CONTINUOUS
 62
    31
  5
85
 10
-111.06676
 20
790.78868
 30
0.0
 40
2.0
 50
360.0
 51
90.0
  0
ARC
  8
LY_1
  6
CONTINUOUS
 62
    31
  5
86
 10
-107.06676
 20
790.78868
 30
0.0
 40
2.0
 50
90.0
 51
180.0
  0
ARC
  8
LY_1
  6
CONTINUOUS
 62
    31
  5
87
 10
-101.251806
 20
790.78868
 30
0.0
 40
2.0
 50
360.0
 51
90.0
  0
ARC
  8
LY_1
  6
CONTINUOUS
 62
    31
  5
88
 10
-97.251806
 20
790.78868
 30
0.0
 40
2.0
 50
90.0
 51
180.0
  0
LINE
  8
LY_1
  6
CONTINUOUS
 62
    31
  5
89
 10
-109.06676
 20
785.78868
 30
0.0
 11
-99.251806
 21
783.78868
 31
0.0
  0
LINE
  8
LY_1
  6
CONTINUOUS
 62
    31
  5
8A
 10
-94.344329
 20
790.78868
 30
0.0
 11
-94.344329
 21
783.78868
 31
0.0
  0
LINE
  8
LY_1
  6
CONTINUOUS
 62
    31
  5
8B
 10
-113.974238
 20
790.78868
 30
0.0
 11
-113.974238
 21
783.78868
 31
0.0
  0
LINE
  8
LY_1
  6
CONTINUOUS
 62
    31
  5
8C
 10
-90.159283
 20
781.28868
 30
0.0
 11
-88.159283
 21
777.78868
 31
0.0
  0
LINE
  8
LY_1
  6
CONTINUOUS
 62
    31
  5
8D
 10
-120.159283
 20
777.78868
 30
0.0
 11
-118.159283
 21
781.28868
 31
0.0
  0
LINE
  8
LY_1
  6
CONTINUOUS
 62
    31
  5
8E
 10
-88.159283
 20
777.78868
 30
0.0
 11
-120.159283
 21
777.78868
 31
0.0
  0
LINE
  8
LY_1
  6
CONTINUOUS
 62
    31
  5
8F
 10
-88.159283
 20
775.363868
 30
0.0
 11
-88.159283
 21
777.78868
 31
0.0
  0
LINE
  8
LY_1
  6
CONTINUOUS
 62
    31
  5
90
 10
-90.159283
 20
-124.21132
 30
0.0
 11
-80.159283
 21
-124.21132
 31
0.0
  0
LINE
  8
LY_1
  6
CONTINUOUS
 62
    31
  5
91
 10
-90.159283
 20
-108.21132
 30
0.0
 11
-80.159283
 21
-108.21132
 31
0.0
  0
LINE
  8
LY_1
  6
CONTINUOUS
 62
    21
  5
92
 10
-90.159283
 20
783.78868
 30
0.0
 11
-90.159283
 21
781.28868
 31
0.0
  0
LINE
  8
LY_1
  6
CONTINUOUS
 62
    21
  5
93
 10
-118.159283
 20
783.78868
 30
0.0
 11
-118.159283
 21
781.28868
 31
0.0
  0
LINE
  8
LY_1
  6
CONTINUOUS
 62
    21
  5
94
 10
-118.159283
 20
783.78868
 30
0.0
 11
-90.159283
 21
783.78868
 31
0.0
  0
LINE
  8
LY_1
  6
CONTINUOUS
 62
    31
  5
95
 10
-132.159283
 20
777.78868
 30
0.0
 11
-132.159283
 21
669.78868
 31
0.0
  0
LINE
  8
LY_1
  6
CONTINUOUS
 62
    31
  5
96
 10
-289.159283
 20
823.53868
 30
0.0
 11
-289.159283
 21
624.03868
 31
0.0
  0
ARC
  8
LY_1
  6
CONTINUOUS
 62
    31
  5
97
 10
-110.812145
 20
270.358712
 30
0.0
 40
400.0
 50
93.059206
 51
103.200999
  0
LINE
  8
LY_1
  6
CONTINUOUS
 62
    31
  5
98
 10
-283.659283
 20
823.53868
 30
0.0
 11
-283.659283
 21
624.03868
 31
0.0
  0
ARC
  8
LY_1
  6
CONTINUOUS
 62
    31
  5
99
 10
-286.409283
 20
624.03868
 30
0.0
 40
2.75
 50
180.0
 51
0.0
  0
ARC
  8
LY_1
  6
CONTINUOUS
 62
    31
  5
9A
 10
-146.917627
 20
415.948526
 30
0.0
 40
250.0
 50
102.74525
 51
123.159159
  0
ARC
  8
LY_1
  6
CONTINUOUS
 62
    31
  5
9B
 10
-146.917627
 20
1031.628834
 30
0.0
 40
250.0
 50
236.840841
 51
257.25475
  0
ARC
  8
LY_1
  6
CONTINUOUS
 62
    31
  5
9C
 10
-110.812145
 20
1177.218649
 30
0.0
 40
400.0
 50
256.799001
 51
266.940794
  0
ARC
  8
LY_1
  6
CONTINUOUS
 62
    31
  5
9D
 10
-286.409283
 20
823.53868
 30
0.0
 40
2.75
 50
0.0
 51
180.0
  0
LINE
  8
LY_1
  6
CONTINUOUS
 62
    31
  5
9E
 10
-269.159283
 20
813.553211
 30
0.0
 11
-269.159283
 21
634.02415
 31
0.0
  0
LINE
  8
LY_1
  6
CONTINUOUS
 62
    31
  5
9F
 10
30.840717
 20
762.78868
 30
0.0
 11
30.840717
 21
684.78868
 31
0.0
  0
LINE
  8
LY_1
  6
CONTINUOUS
 62
    31
  5
A0
 10
-132.159283
 20
669.78868
 30
0.0
 11
15.840717
 21
669.78868
 31
0.0
  0
LINE
  8
LY_1
  6
CONTINUOUS
 62
    31
  5
A1
 10
-132.159283
 20
777.78868
 30
0.0
 11
15.840717
 21
777.78868
 31
0.0
  0
ARC
  8
LY_1
  6
CONTINUOUS
 62
    31
  5
A2
 10
15.840717
 20
684.78868
 30
0.0
 40
15.0
 50
270.0
 51
0.0
  0
ARC
  8
LY_1
  6
CONTINUOUS
 62
    31
  5
A3
 10
15.840717
 20
762.78868
 30
0.0
 40
15.0
 50
0.0
 51
90.0
  0
LINE
  8
LY_1
  6
CONTINUOUS
 62
    31
  5
A4
 10
37.840717
 20
744.168261
 30
0.0
 11
37.840717
 21
703.4091
 31
0.0
  0
LINE
  8
LY_1
  6
CONTINUOUS
 62
    31
  5
A5
 10
35.181933
 20
700.821306
 30
0.0
 11
36.755413
 21
701.630524
 31
0.0
  0
LINE
  8
LY_1
  6
CONTINUOUS
 62
    31
  5
A6
 10
36.755413
 20
745.946837
 30
0.0
 11
35.181933
 21
746.756055
 31
0.0
  0
ARC
  8
LY_1
  6
CONTINUOUS
 62
    31
  5
A7
 10
38.840717
 20
693.707003
 30
0.0
 40
8.0
 50
117.216112
 51
180.0
  0
ARC
  8
LY_1
  6
CONTINUOUS
 62
    31
  5
A8
 10
38.840717
 20
753.870357
 30
0.0
 40
8.0
 50
180.0
 51
242.783888
  0
ARC
  8
LY_1
  6
CONTINUOUS
 62
    31
  5
A9
 10
35.840717
 20
703.4091
 30
0.0
 40
2.0
 50
297.216112
 51
0.0
  0
ARC
  8
LY_1
  6
CONTINUOUS
 62
    31
  5
AA
 10
35.840717
 20
744.168261
 30
0.0
 40
2.0
 50
0.0
 51
62.783888
  0
LINE
  8
LY_1
  6
CONTINUOUS
 62
    31
  5
AB
 10
-130.159283
 20
777.78868
 30
0.0
 11
-130.159283
 21
669.78868
 31
0.0
  0
LINE
  8
LY_1
  6
CONTINUOUS
 62
    31
  5
AC
 10
-88.159283
 20
777.78868
 30
0.0
 11
-88.159283
 21
731.78868
 31
0.0
  0
LINE
  8
LY_1
  6
CONTINUOUS
 62
    31
  5
AD
 10
-120.159283
 20
715.78868
 30
0.0
 11
-80.159283
 21
715.78868
 31
0.0
  0
LINE
  8
LY_1
  6
CONTINUOUS
 62
    31
  5
AE
 10
-120.159283
 20
731.78868
 30
0.0
 11
-80.159283
 21
731.78868
 31
0.0
  0
LINE
  8
LY_1
  6
CONTINUOUS
 62
    31
  5
AF
 10
-80.159283
 20
731.78868
 30
0.0
 11
-80.159283
 21
715.78868
 31
0.0
  0
LINE
  8
LY_1
  6
CONTINUOUS
 62
    31
  5
B0
 10
-93.320653
 20
731.78868
 30
0.0
 11
-93.320653
 21
715.78868
 31
0.0
  0
LINE
  8
LY_1
  6
CONTINUOUS
 62
    31
  5
B1
 10
-100.159283
 20
731.78868
 30
0.0
 11
-100.159283
 21
715.78868
 31
0.0
  0
LINE
  8
LY_1
  6
CONTINUOUS
 62
    31
  5
B2
 10
-120.159283
 20
731.78868
 30
0.0
 11
-120.159283
 21
715.78868
 31
0.0
  0
LINE
  8
LY_1
  6
CONTINUOUS
 62
    31
  5
B3
 10
-88.159283
 20
715.78868
 30
0.0
 11
-88.159283
 21
669.78868
 31
0.0
  0
LINE
  8
LY_1
  6
CONTINUOUS
 62
    31
  5
B4
 10
-88.159283
 20
-108.21132
 30
0.0
 11
-88.159283
 21
-62.21132
 31
0.0
  0
LINE
  8
LY_1
  6
CONTINUOUS
 62
    31
  5
B5
 10
-120.159283
 20
-124.21132
 30
0.0
 11
-120.159283
 21
-108.21132
 31
0.0
  0
LINE
  8
LY_1
  6
CONTINUOUS
 62
    31
  5
B6
 10
-80.159283
 20
-124.21132
 30
0.0
 11
-80.159283
 21
-108.21132
 31
0.0
  0
LINE
  8
LY_1
  6
CONTINUOUS
 62
    31
  5
B7
 10
-120.159283
 20
-124.21132
 30
0.0
 11
-118.159283
 21
-124.21132
 31
0.0
  0
LINE
  8
LY_1
  6
CONTINUOUS
 62
    31
  5
B8
 10
-120.159283
 20
-108.21132
 30
0.0
 11
-118.159283
 21
-108.21132
 31
0.0
  0
LINE
  8
LY_1
  6
CONTINUOUS
 62
    31
  5
B9
 10
-88.159283
 20
-170.21132
 30
0.0
 11
-88.159283
 21
-124.21132
 31
0.0
  0
LINE
  8
LY_1
  6
CONTINUOUS
 62
    31
  5
BA
 10
-130.159283
 20
-170.21132
 30
0.0
 11
-130.159283
 21
-62.21132
 31
0.0
  0
ARC
  8
LY_1
  6
CONTINUOUS
 62
    31
  5
BB
 10
35.840717
 20
-136.5909
 30
0.0
 40
2.0
 50
297.216112
 51
0.0
  0
ARC
  8
LY_1
  6
CONTINUOUS
 62
    31
  5
BC
 10
35.840717
 20
-95.831739
 30
0.0
 40
2.0
 50
0.0
 51
62.783888
  0
ARC
  8
LY_1
  6
CONTINUOUS
 62
    31
  5
BD
 10
38.840717
 20
-146.292997
 30
0.0
 40
8.0
 50
117.216112
 51
180.0
  0
ARC
  8
LY_1
  6
CONTINUOUS
 62
    31
  5
BE
 10
38.840717
 20
-86.129643
 30
0.0
 40
8.0
 50
180.0
 51
242.783888
  0
LINE
  8
LY_1
  6
CONTINUOUS
 62
    31
  5
BF
 10
36.755413
 20
-138.369476
 30
0.0
 11
35.181933
 21
-139.178694
 31
0.0
  0
LINE
  8
LY_1
  6
CONTINUOUS
 62
    31
  5
C0
 10
35.181933
 20
-93.243945
 30
0.0
 11
36.755413
 21
-94.053163
 31
0.0
  0
LINE
  8
LY_1
  6
CONTINUOUS
 62
    31
  5
C1
 10
37.840717
 20
-136.5909
 30
0.0
 11
37.840717
 21
-95.831739
 31
0.0
  0
ARC
  8
LY_1
  6
CONTINUOUS
 62
    31
  5
C2
 10
15.840717
 20
-155.21132
 30
0.0
 40
15.0
 50
270.0
 51
0.0
  0
ARC
  8
LY_1
  6
CONTINUOUS
 62
    31
  5
C3
 10
15.840717
 20
-77.21132
 30
0.0
 40
15.0
 50
0.0
 51
90.0
  0
LINE
  8
LY_1
  6
CONTINUOUS
 62
    31
  5
C4
 10
-132.159283
 20
-170.21132
 30
0.0
 11
-118.159283
 21
-170.21132
 31
0.0
  0
LINE
  8
LY_1
  6
CONTINUOUS
 62
    31
  5
C5
 10
-132.159283
 20
-62.21132
 30
0.0
 11
-118.159283
 21
-62.21132
 31
0.0
  0
LINE
  8
LY_1
  6
CONTINUOUS
 62
    31
  5
C6
 10
30.840717
 20
-155.21132
 30
0.0
 11
30.840717
 21
-77.21132
 31
0.0
  0
LINE
  8
LY_1
  6
CONTINUOUS
 62
    31
  5
C7
 10
-269.159283
 20
-205.97585
 30
0.0
 11
-269.159283
 21
-26.446789
 31
0.0
  0
ARC
  8
LY_1
  6
CONTINUOUS
 62
    31
  5
C8
 10
-286.409283
 20
-215.96132
 30
0.0
 40
2.75
 50
180.0
 51
0.0
  0
ARC
  8
LY_1
  6
CONTINUOUS
 62
    31
  5
C9
 10
-110.812145
 20
-569.641288
 30
0.0
 40
400.0
 50
93.059206
 51
103.200999
  0
ARC
  8
LY_1
  6
CONTINUOUS
 62
    31
  5
CA
 10
-146.917627
 20
-424.051474
 30
0.0
 40
250.0
 50
102.74525
 51
123.159159
  0
ARC
  8
LY_1
  6
CONTINUOUS
 62
    31
  5
CB
 10
-146.917627
 20
191.628834
 30
0.0
 40
250.0
 50
236.840841
 51
257.25475
  0
ARC
  8
LY_1
  6
CONTINUOUS
 62
    31
  5
CC
 10
-286.409283
 20
-16.46132
 30
0.0
 40
2.75
 50
0.0
 51
180.0
  0
LINE
  8
LY_1
  6
CONTINUOUS
 62
    31
  5
CD
 10
-283.659283
 20
-215.96132
 30
0.0
 11
-283.659283
 21
-16.46132
 31
0.0
  0
ARC
  8
LY_1
  6
CONTINUOUS
 62
    31
  5
CE
 10
-110.812145
 20
337.218649
 30
0.0
 40
400.0
 50
256.799001
 51
266.940794
  0
LINE
  8
LY_1
  6
CONTINUOUS
 62
    31
  5
CF
 10
-289.159283
 20
-215.96132
 30
0.0
 11
-289.159283
 21
-16.46132
 31
0.0
  0
LINE
  8
LY_1
  6
CONTINUOUS
 62
    31
  5
D0
 10
-132.159283
 20
-170.21132
 30
0.0
 11
-132.159283
 21
-62.21132
 31
0.0
  0
ARC
  8
LY_1
  6
CONTINUOUS
 62
    31
  5
D1
 10
320.840717
 20
303.78868
 30
0.0
 40
102.5
 50
305.82884
 51
234.17116
  0
ARC
  8
LY_1
  6
CONTINUOUS
 62
    31
  5
D2
 10
320.840717
 20
303.78868
 30
0.0
 40
98.55155
 50
307.504117
 51
232.495883
  0
ARC
  8
LY_1
  6
CONTINUOUS
 62
    31
  5
D3
 10
265.340717
 20
148.28868
 30
0.0
 40
2.0
 50
180.0
 51
270.0
  0
ARC
  8
LY_1
  6
CONTINUOUS
 62
    31
  5
D4
 10
265.340717
 20
148.28868
 30
0.0
 40
4.5
 50
180.0
 51
270.0
  0
LINE
  8
LY_1
  6
CONTINUOUS
 62
    31
  5
D5
 10
263.340717
 20
148.28868
 30
0.0
 11
263.340717
 21
317.78868
 31
0.0
  0
LINE
  8
LY_1
  6
CONTINUOUS
 62
    31
  5
D6
 10
260.840717
 20
148.28868
 30
0.0
 11
260.840717
 21
317.78868
 31
0.0
  0
ARC
  8
LY_1
  6
CONTINUOUS
 62
    31
  5
D7
 10
376.340717
 20
148.28868
 30
0.0
 40
4.5
 50
270.0
 51
0.0
  0
ARC
  8
LY_1
  6
CONTINUOUS
 62
    31
  5
D8
 10
376.340717
 20
148.28868
 30
0.0
 40
2.0
 50
270.0
 51
0.0
  0
LINE
  8
LY_1
  6
CONTINUOUS
 62
    31
  5
D9
 10
265.340717
 20
146.28868
 30
0.0
 11
376.340717
 21
146.28868
 31
0.0
  0
LINE
  8
LY_1
  6
CONTINUOUS
 62
    31
  5
DA
 10
-90.159283
 20
143.78868
 30
0.0
 11
-90.159283
 21
357.78868
 31
0.0
  0
LINE
  8
LY_1
  6
CONTINUOUS
 62
    31
  5
DB
 10
378.340717
 20
148.28868
 30
0.0
 11
378.340717
 21
317.78868
 31
0.0
  0
LINE
  8
LY_1
  6
CONTINUOUS
 62
    31
  5
DC
 10
380.840717
 20
148.28868
 30
0.0
 11
380.840717
 21
317.78868
 31
0.0
  0
LINE
  8
LY_1
  6
CONTINUOUS
 62
    31
  5
DD
 10
265.340717
 20
143.78868
 30
0.0
 11
376.340717
 21
143.78868
 31
0.0
  0
LINE
  8
LY_1
  6
CONTINUOUS
 62
    31
  5
DE
 10
299.497297
 20
243.452469
 30
0.0
 11
309.156555
 21
240.864278
 31
0.0
  0
LINE
  8
LY_1
  6
CONTINUOUS
 62
    21
  5
DF
 10
-118.159283
 20
-176.21132
 30
0.0
 11
-90.159283
 21
-176.21132
 31
0.0
  0
CIRCLE
  8
LY_1
  6
CONTINUOUS
 62
    21
  5
E0
 10
-104.159283
 20
-154.21132
 30
0.0
 40
5.5
  0
LINE
  8
LY_1
  6
CONTINUOUS
 62
    21
  5
E1
 10
-118.159283
 20
-56.21132
 30
0.0
 11
-90.159283
 21
-56.21132
 31
0.0
  0
CIRCLE
  8
LY_1
  6
CONTINUOUS
 62
    21
  5
E2
 10
-104.159283
 20
-78.21132
 30
0.0
 40
5.5
  0
CIRCLE
  8
LY_1
  6
CONTINUOUS
 62
    21
  5
E3
 10
-104.159283
 20
-116.21132
 30
0.0
 40
5.5
  0
LINE
  8
LY_1
  6
CONTINUOUS
 62
    21
  5
E4
 10
-118.159283
 20
-176.21132
 30
0.0
 11
-118.159283
 21
-56.21132
 31
0.0
  0
LINE
  8
LY_1
  6
CONTINUOUS
 62
    21
  5
E5
 10
-90.159283
 20
-176.21132
 30
0.0
 11
-90.159283
 21
-56.21132
 31
0.0
  0
LINE
  8
LY_1
  6
CONTINUOUS
 62
    31
  5
E6
 10
-132.159283
 20
249.78868
 30
0.0
 11
-132.159283
 21
357.78868
 31
0.0
  0
LINE
  8
LY_1
  6
CONTINUOUS
 62
    31
  5
E7
 10
-289.159283
 20
204.03868
 30
0.0
 11
-289.159283
 21
403.53868
 31
0.0
  0
ARC
  8
LY_1
  6
CONTINUOUS
 62
    31
  5
E8
 10
-110.812145
 20
757.218649
 30
0.0
 40
400.0
 50
256.799001
 51
266.940794
  0
LINE
  8
LY_1
  6
CONTINUOUS
 62
    31
  5
E9
 10
-283.659283
 20
204.03868
 30
0.0
 11
-283.659283
 21
403.53868
 31
0.0
  0
ARC
  8
LY_1
  6
CONTINUOUS
 62
    31
  5
EA
 10
-286.409283
 20
403.53868
 30
0.0
 40
2.75
 50
0.0
 51
180.0
  0
ARC
  8
LY_1
  6
CONTINUOUS
 62
    31
  5
EB
 10
-146.917627
 20
611.628834
 30
0.0
 40
250.0
 50
236.840841
 51
257.25475
  0
ARC
  8
LY_1
  6
CONTINUOUS
 62
    31
  5
EC
 10
-146.917627
 20
-4.051474
 30
0.0
 40
250.0
 50
102.74525
 51
123.159159
  0
ARC
  8
LY_1
  6
CONTINUOUS
 62
    31
  5
ED
 10
-110.812145
 20
-149.641288
 30
0.0
 40
400.0
 50
93.059206
 51
103.200999
  0
ARC
  8
LY_1
  6
CONTINUOUS
 62
    31
  5
EE
 10
-286.409283
 20
204.03868
 30
0.0
 40
2.75
 50
180.0
 51
0.0
  0
LINE
  8
LY_1
  6
CONTINUOUS
 62
    31
  5
EF
 10
-269.159283
 20
214.02415
 30
0.0
 11
-269.159283
 21
393.553211
 31
0.0
  0
LINE
  8
LY_1
  6
CONTINUOUS
 62
    31
  5
F0
 10
30.840717
 20
264.78868
 30
0.0
 11
30.840717
 21
342.78868
 31
0.0
  0
LINE
  8
LY_1
  6
CONTINUOUS
 62
    31
  5
F1
 10
-132.159283
 20
357.78868
 30
0.0
 11
15.840717
 21
357.78868
 31
0.0
  0
LINE
  8
LY_1
  6
CONTINUOUS
 62
    31
  5
F2
 10
-132.159283
 20
249.78868
 30
0.0
 11
15.840717
 21
249.78868
 31
0.0
  0
ARC
  8
LY_1
  6
CONTINUOUS
 62
    31
  5
F3
 10
15.840717
 20
342.78868
 30
0.0
 40
15.0
 50
0.0
 51
90.0
  0
ARC
  8
LY_1
  6
CONTINUOUS
 62
    31
  5
F4
 10
15.840717
 20
264.78868
 30
0.0
 40
15.0
 50
270.0
 51
0.0
  0
ARC
  8
LY_1
  6
CONTINUOUS
 62
    31
  5
F5
 10
-107.659283
 20
303.78868
 30
0.0
 40
16.0
 50
90.0
 51
270.0
  0
LINE
  8
LY_1
  6
CONTINUOUS
 62
    31
  5
F6
 10
-107.659283
 20
319.78868
 30
0.0
 11
-90.159283
 21
319.78868
 31
0.0
  0
CIRCLE
  8
LY_1
  6
CONTINUOUS
 62
    31
  5
F7
 10
320.840717
 20
303.78868
 30
0.0
 40
54.0
  0
LINE
  8
LY_1
  6
CONTINUOUS
 62
    31
  5
F8
 10
372.415905
 20
319.78868
 30
0.0
 11
374.840717
 21
319.78868
 31
0.0
  0
LINE
  8
LY_1
  6
CONTINUOUS
 62
    31
  5
F9
 10
372.415905
 20
287.78868
 30
0.0
 11
374.840717
 21
287.78868
 31
0.0
  0
LINE
  8
LY_1
  6
CONTINUOUS
 62
    31
  5
FA
 10
374.840717
 20
287.78868
 30
0.0
 11
374.840717
 21
319.78868
 31
0.0
  0
LINE
  8
LY_1
  6
CONTINUOUS
 62
    31
  5
FB
 10
374.840717
 20
319.78868
 30
0.0
 11
378.340717
 21
317.78868
 31
0.0
  0
LINE
  8
LY_1
  6
CONTINUOUS
 62
    31
  5
FC
 10
378.340717
 20
289.78868
 30
0.0
 11
374.840717
 21
287.78868
 31
0.0
  0
LINE
  8
LY_1
  6
CONTINUOUS
 62
    31
  5
FD
 10
269.265529
 20
319.78868
 30
0.0
 11
266.840717
 21
319.78868
 31
0.0
  0
LINE
  8
LY_1
  6
CONTINUOUS
 62
    31
  5
FE
 10
266.840717
 20
287.78868
 30
0.0
 11
266.840717
 21
319.78868
 31
0.0
  0
LINE
  8
LY_1
  6
CONTINUOUS
 62
    31
  5
FF
 10
266.840717
 20
319.78868
 30
0.0
 11
263.340717
 21
317.78868
 31
0.0
  0
LINE
  8
LY_1
  6
CONTINUOUS
 62
    31
  5
100
 10
269.265529
 20
287.78868
 30
0.0
 11
266.840717
 21
287.78868
 31
0.0
  0
LINE
  8
LY_1
  6
CONTINUOUS
 62
    31
  5
101
 10
263.340717
 20
289.78868
 30
0.0
 11
266.840717
 21
287.78868
 31
0.0
  0
CIRCLE
  8
LY_1
  6
CONTINUOUS
 62
    31
  5
102
 10
320.840717
 20
303.78868
 30
0.0
 40
25.2
  0
CIRCLE
  8
LY_1
  6
CONTINUOUS
 62
    31
  5
103
 10
320.840717
 20
303.78868
 30
0.0
 40
21.6
  0
LINE
  8
LY_1
  6
CONTINUOUS
 62
    31
  5
104
 10
37.840717
 20
283.4091
 30
0.0
 11
37.840717
 21
324.168261
 31
0.0
  0
LINE
  8
LY_1
  6
CONTINUOUS
 62
    31
  5
105
 10
35.181933
 20
326.756055
 30
0.0
 11
36.755413
 21
325.946837
 31
0.0
  0
LINE
  8
LY_1
  6
CONTINUOUS
 62
    31
  5
106
 10
36.755413
 20
281.630524
 30
0.0
 11
35.181933
 21
280.821306
 31
0.0
  0
ARC
  8
LY_1
  6
CONTINUOUS
 62
    31
  5
107
 10
38.840717
 20
333.870357
 30
0.0
 40
8.0
 50
180.0
 51
242.783888
  0
ARC
  8
LY_1
  6
CONTINUOUS
 62
    31
  5
108
 10
38.840717
 20
273.707003
 30
0.0
 40
8.0
 50
117.216112
 51
180.0
  0
ARC
  8
LY_1
  6
CONTINUOUS
 62
    31
  5
109
 10
35.840717
 20
324.168261
 30
0.0
 40
2.0
 50
0.0
 51
62.783888
  0
ARC
  8
LY_1
  6
CONTINUOUS
 62
    31
  5
10A
 10
35.840717
 20
283.4091
 30
0.0
 40
2.0
 50
297.216112
 51
0.0
  0
LINE
  8
LY_1
  6
CONTINUOUS
 62
    31
  5
10B
 10
-130.159283
 20
249.78868
 30
0.0
 11
-130.159283
 21
357.78868
 31
0.0
  0
LINE
  8
LY_1
  6
CONTINUOUS
 62
    31
  5
10C
 10
-88.159283
 20
249.78868
 30
0.0
 11
-88.159283
 21
357.78868
 31
0.0
  0
LINE
  8
LY_1
  6
CONTINUOUS
 62
    31
  5
10D
 10
380.840717
 20
289.78868
 30
0.0
 11
380.840717
 21
317.78868
 31
0.0
  0
LINE
  8
LY_1
  6
CONTINUOUS
 62
    31
  5
10E
 10
380.840717
 20
317.78868
 30
0.0
 11
378.340717
 21
317.78868
 31
0.0
  0
LINE
  8
LY_1
  6
CONTINUOUS
 62
    31
  5
10F
 10
260.840717
 20
317.78868
 30
0.0
 11
263.340717
 21
317.78868
 31
0.0
  0
LINE
  8
LY_1
  6
CONTINUOUS
 62
    31
  5
110
 10
-100.159283
 20
357.78868
 30
0.0
 11
-100.159283
 21
362.696227
 31
0.0
  0
LINE
  8
LY_1
  6
CONTINUOUS
 62
    31
  5
111
 10
-120.159283
 20
357.78868
 30
0.0
 11
-120.159283
 21
358.78868
 31
0.0
  0
LINE
  8
LY_1
  6
CONTINUOUS
 62
    31
  5
112
 10
-80.159283
 20
357.78868
 30
0.0
 11
-80.159283
 21
362.78868
 31
0.0
  0
ARC
  8
LY_1
  6
CONTINUOUS
 62
    31
  5
113
 10
-95.159283
 20
227.53868
 30
0.0
 40
135.25
 50
90.0
 51
99.939481
  0
ARC
  8
LY_1
  6
CONTINUOUS
 62
    31
  5
114
 10
-118.159283
 20
358.78868
 30
0.0
 40
2.0
 50
99.939481
 51
180.0
  0
LINE
  8
LY_1
  6
CONTINUOUS
 62
    31
  5
115
 10
-93.320653
 20
364.54353
 30
0.0
 11
-80.159283
 21
362.78868
 31
0.0
  0
LINE
  8
LY_1
  6
CONTINUOUS
 62
    31
  5
116
 10
-95.159283
 20
362.78868
 30
0.0
 11
-93.320653
 21
364.54353
 31
0.0
  0
LINE
  8
LY_1
  6
CONTINUOUS
 62
    31
  5
117
 10
312.840717
 20
364.54353
 30
0.0
 11
328.840717
 21
364.54353
 31
0.0
  0
LINE
  8
LY_1
  6
CONTINUOUS
 62
    31
  5
118
 10
312.840717
 20
362.78868
 30
0.0
 11
328.840717
 21
362.78868
 31
0.0
  0
LINE
  8
LY_1
  6
CONTINUOUS
 62
    31
  5
119
 10
312.840717
 20
357.1928
 30
0.0
 11
312.840717
 21
364.54353
 31
0.0
  0
LINE
  8
LY_1
  6
CONTINUOUS
 62
    31
  5
11A
 10
328.840717
 20
357.1928
 30
0.0
 11
328.840717
 21
364.54353
 31
0.0
  0
LINE
  8
LY_1
  6
CONTINUOUS
 62
    31
  5
11B
 10
312.840717
 20
250.384561
 30
0.0
 11
312.840717
 21
243.033831
 31
0.0
  0
LINE
  8
LY_1
  6
CONTINUOUS
 62
    31
  5
11C
 10
328.840717
 20
250.384561
 30
0.0
 11
328.840717
 21
243.033831
 31
0.0
  0
LINE
  8
LY_1
  6
CONTINUOUS
 62
    31
  5
11D
 10
312.840717
 20
244.78868
 30
0.0
 11
328.840717
 21
244.78868
 31
0.0
  0
LINE
  8
LY_1
  6
CONTINUOUS
 62
    31
  5
11E
 10
312.840717
 20
243.033831
 30
0.0
 11
328.840717
 21
243.033831
 31
0.0
  0
LINE
  8
LY_1
  6
CONTINUOUS
 62
    31
  5
11F
 10
311.754158
 20
250.558666
 30
0.0
 11
309.156555
 21
240.864278
 31
0.0
  0
LINE
  8
LY_1
  6
CONTINUOUS
 62
    31
  5
120
 10
302.0949
 20
253.146856
 30
0.0
 11
299.497297
 21
243.452469
 31
0.0
  0
LINE
  8
LY_1
  6
CONTINUOUS
 62
    31
  5
121
 10
308.190629
 20
241.123097
 30
0.0
 11
304.558896
 21
227.569286
 31
0.0
  0
LINE
  8
LY_1
  6
CONTINUOUS
 62
    31
  5
122
 10
300.463223
 20
243.19365
 30
0.0
 11
296.83149
 21
229.639838
 31
0.0
  0
ARC
  8
LY_1
  6
CONTINUOUS
 62
    31
  5
123
 10
320.840717
 20
303.78868
 30
0.0
 40
102.5
 50
235.876705
 51
304.123295
  0
ARC
  8
LY_1
  6
CONTINUOUS
 62
    31
  5
124
 10
320.840717
 20
303.78868
 30
0.0
 40
98.55155
 50
234.306365
 51
305.693635
  0
CIRCLE
  8
LY_1
  6
CONTINUOUS
 62
    31
  5
125
 10
-104.159283
 20
303.78868
 30
0.0
 40
8.5
  0
LINE
  8
LY_1
  6
CONTINUOUS
 62
    31
  5
126
 10
-95.659283
 20
298.881203
 30
0.0
 11
-95.659283
 21
308.696158
 31
0.0
  0
LINE
  8
LY_1
  6
CONTINUOUS
 62
    31
  5
127
 10
-95.659283
 20
308.696158
 30
0.0
 11
-104.159283
 21
313.603635
 31
0.0
  0
LINE
  8
LY_1
  6
CONTINUOUS
 62
    31
  5
128
 10
-104.159283
 20
313.603635
 30
0.0
 11
-112.659283
 21
308.696158
 31
0.0
  0
LINE
  8
LY_1
  6
CONTINUOUS
 62
    31
  5
129
 10
-112.659283
 20
308.696158
 30
0.0
 11
-112.659283
 21
298.881203
 31
0.0
  0
LINE
  8
LY_1
  6
CONTINUOUS
 62
    31
  5
12A
 10
-112.659283
 20
298.881203
 30
0.0
 11
-104.159283
 21
293.973726
 31
0.0
  0
LINE
  8
LY_1
  6
CONTINUOUS
 62
    31
  5
12B
 10
-104.159283
 20
293.973726
 30
0.0
 11
-95.659283
 21
298.881203
 31
0.0
  0
LINE
  8
LY_1
  6
CONTINUOUS
 62
    31
  5
12C
 10
253.840717
 20
313.603635
 30
0.0
 11
260.840717
 21
313.603635
 31
0.0
  0
LINE
  8
LY_1
  6
CONTINUOUS
 62
    31
  5
12D
 10
253.840717
 20
308.696158
 30
0.0
 11
258.840717
 21
308.696158
 31
0.0
  0
LINE
  8
LY_1
  6
CONTINUOUS
 62
    31
  5
12E
 10
253.840717
 20
298.881203
 30
0.0
 11
258.840717
 21
298.881203
 31
0.0
  0
LINE
  8
LY_1
  6
CONTINUOUS
 62
    31
  5
12F
 10
253.840717
 20
293.973726
 30
0.0
 11
260.840717
 21
293.973726
 31
0.0
  0
LINE
  8
LY_1
  6
CONTINUOUS
 62
    31
  5
130
 10
258.840717
 20
293.973726
 30
0.0
 11
258.840717
 21
313.603635
 31
0.0
  0
LINE
  8
LY_1
  6
CONTINUOUS
 62
    31
  5
131
 10
251.840717
 20
295.973726
 30
0.0
 11
251.840717
 21
311.603635
 31
0.0
  0
ARC
  8
LY_1
  6
CONTINUOUS
 62
    31
  5
132
 10
253.840717
 20
311.603635
 30
0.0
 40
2.0
 50
90.0
 51
180.0
  0
ARC
  8
LY_1
  6
CONTINUOUS
 62
    31
  5
133
 10
253.840717
 20
295.973726
 30
0.0
 40
2.0
 50
180.0
 51
270.0
  0
ARC
  8
LY_1
  6
CONTINUOUS
 62
    31
  5
134
 10
253.840717
 20
310.696158
 30
0.0
 40
2.0
 50
180.0
 51
270.0
  0
ARC
  8
LY_1
  6
CONTINUOUS
 62
    31
  5
135
 10
253.840717
 20
306.696158
 30
0.0
 40
2.0
 50
90.0
 51
180.0
  0
ARC
  8
LY_1
  6
CONTINUOUS
 62
    31
  5
136
 10
253.840717
 20
300.881203
 30
0.0
 40
2.0
 50
180.0
 51
270.0
  0
ARC
  8
LY_1
  6
CONTINUOUS
 62
    31
  5
137
 10
253.840717
 20
296.881203
 30
0.0
 40
2.0
 50
90.0
 51
180.0
  0
LINE
  8
LY_1
  6
CONTINUOUS
 62
    31
  5
138
 10
258.840717
 20
308.696158
 30
0.0
 11
260.840717
 21
298.881203
 31
0.0
  0
LINE
  8
LY_1
  6
CONTINUOUS
 62
    31
  5
139
 10
387.840717
 20
313.603635
 30
0.0
 11
380.840717
 21
313.603635
 31
0.0
  0
LINE
  8
LY_1
  6
CONTINUOUS
 62
    31
  5
13A
 10
387.840717
 20
293.973726
 30
0.0
 11
380.840717
 21
293.973726
 31
0.0
  0
LINE
  8
LY_1
  6
CONTINUOUS
 62
    31
  5
13B
 10
382.840717
 20
308.696158
 30
0.0
 11
380.840717
 21
298.881203
 31
0.0
  0
ARC
  8
LY_1
  6
CONTINUOUS
 62
    31
  5
13C
 10
387.840717
 20
296.881203
 30
0.0
 40
2.0
 50
360.0
 51
90.0
  0
ARC
  8
LY_1
  6
CONTINUOUS
 62
    31
  5
13D
 10
387.840717
 20
300.881203
 30
0.0
 40
2.0
 50
270.0
 51
360.0
  0
ARC
  8
LY_1
  6
CONTINUOUS
 62
    31
  5
13E
 10
387.840717
 20
306.696158
 30
0.0
 40
2.0
 50
360.0
 51
90.0
  0
ARC
  8
LY_1
  6
CONTINUOUS
 62
    31
  5
13F
 10
387.840717
 20
310.696158
 30
0.0
 40
2.0
 50
270.0
 51
360.0
  0
ARC
  8
LY_1
  6
CONTINUOUS
 62
    31
  5
140
 10
387.840717
 20
295.973726
 30
0.0
 40
2.0
 50
270.0
 51
360.0
  0
ARC
  8
LY_1
  6
CONTINUOUS
 62
    31
  5
141
 10
387.840717
 20
311.603635
 30
0.0
 40
2.0
 50
360.0
 51
90.0
  0
LINE
  8
LY_1
  6
CONTINUOUS
 62
    31
  5
142
 10
389.840717
 20
295.973726
 30
0.0
 11
389.840717
 21
311.603635
 31
0.0
  0
LINE
  8
LY_1
  6
CONTINUOUS
 62
    31
  5
143
 10
382.840717
 20
293.973726
 30
0.0
 11
382.840717
 21
313.603635
 31
0.0
  0
LINE
  8
LY_1
  6
CONTINUOUS
 62
    31
  5
144
 10
387.840717
 20
298.881203
 30
0.0
 11
382.840717
 21
298.881203
 31
0.0
  0
LINE
  8
LY_1
  6
CONTINUOUS
 62
    31
  5
145
 10
387.840717
 20
308.696158
 30
0.0
 11
382.840717
 21
308.696158
 31
0.0
  0
ARC
  8
LY_1
  6
CONTINUOUS
 62
    31
  5
146
 10
-104.159283
 20
297.78868
 30
0.0
 40
20.0
 50
45.572996
 51
134.427004
  0
LINE
  8
LY_1
  6
CONTINUOUS
 62
    31
  5
147
 10
-118.159283
 20
143.78868
 30
0.0
 11
-90.159283
 21
143.78868
 31
0.0
  0
LINE
  8
LY_1
  6
CONTINUOUS
 62
    31
  5
148
 10
-100.159283
 20
249.78868
 30
0.0
 11
-100.159283
 21
244.881133
 31
0.0
  0
LINE
  8
LY_1
  6
CONTINUOUS
 62
    31
  5
149
 10
-120.159283
 20
249.78868
 30
0.0
 11
-120.159283
 21
248.78868
 31
0.0
  0
LINE
  8
LY_1
  6
CONTINUOUS
 62
    31
  5
14A
 10
-80.159283
 20
249.78868
 30
0.0
 11
-80.159283
 21
244.78868
 31
0.0
  0
LINE
  8
LY_1
  6
CONTINUOUS
 62
    31
  5
14B
 10
-95.159283
 20
244.78868
 30
0.0
 11
-93.320653
 21
243.033831
 31
0.0
  0
LINE
  8
LY_1
  6
CONTINUOUS
 62
    31
  5
14C
 10
-93.320653
 20
243.033831
 30
0.0
 11
-80.159283
 21
244.78868
 31
0.0
  0
ARC
  8
LY_1
  6
CONTINUOUS
 62
    31
  5
14D
 10
-118.159283
 20
248.78868
 30
0.0
 40
2.0
 50
180.0
 51
260.060519
  0
ARC
  8
LY_1
  6
CONTINUOUS
 62
    31
  5
14E
 10
-95.159283
 20
380.03868
 30
0.0
 40
135.25
 50
260.060519
 51
270.0
  0
LINE
  8
LY_1
  6
CONTINUOUS
 62
    31
  5
14F
 10
-107.659283
 20
287.78868
 30
0.0
 11
-90.159283
 21
287.78868
 31
0.0
  0
LINE
  8
LY_1
  6
CONTINUOUS
 62
    31
  5
150
 10
-118.159283
 20
143.78868
 30
0.0
 11
-118.159283
 21
312.071537
 31
0.0
  0
LINE
  8
LY_1
  6
CONTINUOUS
 62
    31
  5
151
 10
260.840717
 20
289.78868
 30
0.0
 11
260.840717
 21
317.78868
 31
0.0
  0
ENDSEC
  0
EOF
