  0
SECTION
  2
HEADER
  9
$ACADVER
  1
AC1009
  9
$DWGCODEPAGE
  3
dos932
  9
$INSBASE
 10
0.0
 20
0.0
 30
0.0
  9
$EXTMIN
 10
-24.742916379766335
 20
-24.900000000000091
 30
0.0
  9
$EXTMAX
 10
186.81041433213969
 20
24.900000000000091
 30
0.0
  9
$LIMMIN
 10
-24.742916379766335
 20
-24.900000000000091
  9
$LIMMAX
 10
186.81041433213969
 20
24.900000000000091
  9
$ORTHOMODE
 70
               0
  9
$REGENMODE
 70
               1
  9
$FILLMODE
 70
               1
  9
$QTEXTMODE
 70
               0
  9
$MIRRTEXT
 70
               1
  9
$DRAGMODE
 70
               2
  9
$LTSCALE
 40
1.0
  9
$OSMODE
 70
               0
  9
$ATTMODE
 70
               1
  9
$TEXTSIZE
 40
4.1655998229980469
  9
$TRACEWID
 40
0.05
  9
$TEXTSTYLE
  7
MX_NOTE_STANDARD
  9
$CLAYER
  8
LY_1
  9
$CELTYPE
  6
CONTINUOUS
  9
$CECOLOR
 62
             256
  9
$DIMSCALE
 40
1.0
  9
$DIMASZ
 40
2.5
  9
$DIMEXO
 40
0.5
  9
$DIMDLI
 40
3.75
  9
$DIMRND
 40
0.0
  9
$DIMDLE
 40
0.0
  9
$DIMEXE
 40
1.0
  9
$DIMTP
 40
0.0
  9
$DIMTM
 40
0.0
  9
$DIMTXT
 40
2.5
  9
$DIMCEN
 40
2.5
  9
$DIMTSZ
 40
0.0
  9
$DIMTOL
 70
               0
  9
$DIMLIM
 70
               0
  9
$DIMTIH
 70
               0
  9
$DIMTOH
 70
               0
  9
$DIMSE1
 70
               0
  9
$DIMSE2
 70
               0
  9
$DIMTAD
 70
               1
  9
$DIMZIN
 70
               8
  9
$DIMBLK
  1

  9
$DIMASO
 70
               1
  9
$DIMSHO
 70
               1
  9
$DIMPOST
  1

  9
$DIMAPOST
  1

  9
$DIMALT
 70
               0
  9
$DIMALTD
 70
               4
  9
$DIMALTF
 40
0.03937007874016
  9
$DIMLFAC
 40
1.0
  9
$DIMTOFL
 70
               1
  9
$DIMTVP
 40
0.0
  9
$DIMTIX
 70
               0
  9
$DIMSOXD
 70
               0
  9
$DIMSAH
 70
               0
  9
$DIMBLK1
  1

  9
$DIMBLK2
  1

  9
$DIMSTYLE
  2
MXDIMSTYLE
  9
$DIMCLRD
 70
               0
  9
$DIMCLRE
 70
               0
  9
$DIMCLRT
 70
               0
  9
$DIMTFAC
 40
1.0
  9
$DIMGAP
 40
1.0
  9
$LUNITS
 70
               2
  9
$LUPREC
 70
               4
  9
$AXISMODE
 70
               0
  9
$AXISUNIT
 10
0.0
 20
0.0
  9
$SKETCHINC
 40
0.1
  9
$FILLETRAD
 40
0.0
  9
$AUNITS
 70
               0
  9
$AUPREC
 70
               0
  9
$MENU
  1
acad
  9
$ELEVATION
 40
0.0
  9
$PELEVATION
 40
0.0
  9
$THICKNESS
 40
0.0
  9
$LIMCHECK
 70
               0
  9
$BLIPMODE
 70
               1
  9
$CHAMFERA
 40
0.0
  9
$CHAMFERB
 40
0.0
  9
$SKPOLY
 70
               0
  9
$TDCREATE
 40
2454211.482754630
  9
$TDUPDATE
 40
2454211.482754630
  9
$TDINDWG
 40
0.0000000000
  9
$TDUSRTIMER
 40
0.0000000000
  9
$USRTIMER
 70
               1
  9
$ANGBASE
 50
0.0
  9
$ANGDIR
 70
               0
  9
$PDMODE
 70
               0
  9
$PDSIZE
 40
0.0
  9
$PLINEWID
 40
0.0
  9
$COORDS
 70
               1
  9
$SPLFRAME
 70
               0
  9
$SPLINETYPE
 70
               6
  9
$SPLINESEGS
 70
               8
  9
$ATTDIA
 70
               0
  9
$ATTREQ
 70
               1
  9
$HANDLING
 70
               1
  9
$HANDSEED
  5
9D6
  9
$SURFTAB1
 70
               6
  9
$SURFTAB2
 70
               6
  9
$SURFTYPE
 70
               6
  9
$SURFU
 70
               6
  9
$SURFV
 70
               6
  9
$UCSNAME
  2

  9
$UCSORG
 10
0.0
 20
0.0
 30
0.0
  9
$UCSXDIR
 10
1.0
 20
0.0
 30
0.0
  9
$UCSYDIR
 10
0.0
 20
1.0
 30
0.0
  9
$PUCSNAME
  2

  9
$PUCSORG
 10
0.0
 20
0.0
 30
0.0
  9
$PUCSXDIR
 10
1.0
 20
0.0
 30
0.0
  9
$PUCSYDIR
 10
0.0
 20
1.0
 30
0.0
  9
$USERI1
 70
               0
  9
$USERI2
 70
               0
  9
$USERI3
 70
               0
  9
$USERI4
 70
               0
  9
$USERI5
 70
               0
  9
$USERR1
 40
0.0
  9
$USERR2
 40
0.0
  9
$USERR3
 40
0.0
  9
$USERR4
 40
0.0
  9
$USERR5
 40
0.0
  9
$WORLDVIEW
 70
               1
  9
$SHADEDGE
 70
               3
  9
$SHADEDIF
 70
              70
  9
$TILEMODE
 70
               1
  9
$MAXACTVP
 70
              16
  9
$PINSBASE
 10
0.0
 20
0.0
 30
0.0
  9
$PLIMCHECK
 70
               0
  9
$PEXTMIN
 10
1.0000000000000000E+20
 20
1.0000000000000000E+20
 30
1.0000000000000000E+20
  9
$PEXTMAX
 10
-1.0000000000000000E+20
 20
-1.0000000000000000E+20
 30
-1.0000000000000000E+20
  9
$PLIMMIN
 10
0.0
 20
0.0
  9
$PLIMMAX
 10
12.0
 20
9.0
  9
$UNITMODE
 70
               0
  9
$VISRETAIN
 70
               0
  9
$PLINEGEN
 70
               1
  9
$PSLTSCALE
 70
               0
  9
$TREEDEPTH
 70
            3020
  9
$DWGCODEPAGE
  3
dos932
  0
ENDSEC
  0
SECTION
  2
TABLES
  0
TABLE
  2
VPORT
 70
               1
  0
VPORT
  2
*ACTIVE
 70
               0
 10
0.0
 20
0.0
 11
1.0
 21
1.0
 12
81.033748976186672
 22
0.0
 13
0.0
 23
0.0
 14
1.0
 24
1.0
 15
0.0
 25
0.0
 16
0.0
 26
0.0
 36
1.0
 17
0.0
 27
0.0
 37
0.0
 40
50.298000000000187
 41
1.7320508075688772
 42
50.0
 43
0.0
 44
0.0
 50
0.0
 51
0.0
 71
               0
 72
             100
 73
               1
 74
               1
 75
               0
 76
               0
 77
               0
 78
               0
  0
ENDTAB
  0
TABLE
  2
LTYPE
 70
               2
  0
LTYPE
  2
CONTINUOUS
 70
              64
  3
Solid line
 72
              65
 73
               0
 40
0.0
  0
LTYPE
  2
DASHED
 70
              64
  3
Dashed __ __ __ __ __ __ __ __ __ __ __ __ __ _
 72
              65
 73
               2
 40
19.049999999999997
 49
12.699999999999999
 49
-6.3499999999999996
  0
ENDTAB
  0
TABLE
  2
LAYER
 70
               3
  0
LAYER
  2
0
 70
               0
 62
               7
  6
CONTINUOUS
  0
LAYER
  2
LY_1
 70
               0
 62
               7
  6
CONTINUOUS
  0
LAYER
  2
DEFPOINTS
 70
               0
 62
               7
  6
CONTINUOUS
  0
ENDTAB
  0
TABLE
  2
STYLE
 70
               1
  0
STYLE
  2
MX_NOTE_STANDARD
 70
               0
 40
0.0
 41
1.0
 50
0.0
 71
               0
 42
4.1655998229980469
  3
txt.shx
  4
extfont.shx
  0
ENDTAB
  0
TABLE
  2
VIEW
 70
               0
  0
ENDTAB
  0
TABLE
  2
UCS
 70
               0
  0
ENDTAB
  0
TABLE
  2
APPID
 70
               1
  0
APPID
  2
ACAD
 70
               0
  0
ENDTAB
  0
TABLE
  2
DIMSTYLE
 70
               1
  0
DIMSTYLE
  2
MXDIMSTYLE
 70
               0
  3

  4

  5

  6

  7

 40
1.0
 41
2.5
 42
0.5
 43
3.75
 44
1.0
 45
0.0
 46
0.0
 47
0.0
 48
0.0
 71
               0
 72
               0
 73
               0
 74
               0
 75
               0
 76
               0
 77
               1
 78
               8
140
2.5
141
2.5
142
0.0
143
0.03937007874016
144
1.0
145
0.0
146
1.0
147
1.0
170
               0
171
               4
172
               1
173
               0
174
               0
175
               0
176
               0
177
               0
178
               0
  0
ENDTAB
  0
ENDSEC
  0
SECTION
  2
BLOCKS
  0
BLOCK
  8
0
  5
20
  2
MS_1
 70
               0
 10
0.0
 20
0.0
 30
0.0
  3
MS_1
  0
CIRCLE
  8
0
  6
CONTINUOUS
 62
               3
  5
21
 10
278.71855418890698
 20
233.14939656765105
 30
0.0
 40
0.2000000029802322
  0
POINT
  8
0
  6
CONTINUOUS
 62
              80
  5
22
 10
276.21855418890698
 20
233.14940038234832
 30
0.0
  0
CIRCLE
  8
0
  6
CONTINUOUS
 62
               3
  5
23
 10
273.71855418890698
 20
233.14939656765105
 30
0.0
 40
0.2000000029802322
  0
LINE
  8
0
  6
CONTINUOUS
 62
              80
  5
24
 10
284.46855418890698
 20
231.6338554909909
 30
0.0
 11
287.96855418890698
 21
231.6338554909909
 31
0.0
  0
LINE
  8
0
  6
CONTINUOUS
 62
              80
  5
25
 10
286.21852976541192
 20
234.66492218808779
 30
0.0
 11
287.96852978896897
 21
231.63383328844296
 31
0.0
  0
LINE
  8
0
  6
CONTINUOUS
 62
              80
  5
26
 10
286.21852888977958
 20
234.66496501914807
 30
0.0
 11
284.46852886622253
 21
231.63387611950319
 31
0.0
  0
LINE
  8
0
  6
CONTINUOUS
 62
              80
  5
27
 10
269.0
 20
230.64940038234832
 30
0.0
 11
397.0
 21
230.64940038234832
 31
0.0
  0
CIRCLE
  8
0
  6
CONTINUOUS
 62
               3
  5
28
 10
279.0
 20
238.21542116732616
 30
0.0
 40
0.2000000029802322
  0
POINT
  8
0
  6
CONTINUOUS
 62
              80
  5
29
 10
276.5
 20
238.21542498202342
 30
0.0
  0
CIRCLE
  8
0
  6
CONTINUOUS
 62
               3
  5
2A
 10
274.0
 20
238.21542116732616
 30
0.0
 40
0.2000000029802322
  0
LINE
  8
0
  6
CONTINUOUS
 62
              80
  5
2B
 10
284.75
 20
236.699880090666
 30
0.0
 11
288.25
 21
236.699880090666
 31
0.0
  0
LINE
  8
0
  6
CONTINUOUS
 62
              80
  5
2C
 10
286.49997557650494
 20
239.73094678776289
 30
0.0
 11
288.24997560006199
 21
236.69985788811806
 31
0.0
  0
LINE
  8
0
  6
CONTINUOUS
 62
              80
  5
2D
 10
286.4999747008726
 20
239.73098961882317
 30
0.0
 11
284.74997467731555
 21
236.69990071917829
 31
0.0
  0
LINE
  8
0
  6
CONTINUOUS
 62
              80
  5
2E
 10
269.0
 20
235.71542498202342
 30
0.0
 11
397.0
 21
235.71542498202342
 31
0.0
  0
LINE
  8
0
  6
CONTINUOUS
 62
              80
  5
2F
 10
286.49997557650494
 20
244.51552557634494
 30
0.0
 11
288.24997560006199
 21
241.48443667670011
 31
0.0
  0
LINE
  8
0
  6
CONTINUOUS
 62
              80
  5
30
 10
284.75
 20
241.48445887924805
 30
0.0
 11
288.25
 21
241.48445887924805
 31
0.0
  0
LINE
  8
0
  6
CONTINUOUS
 62
              80
  5
31
 10
286.4999747008726
 20
244.51556840740523
 30
0.0
 11
284.74997467731555
 21
241.48447950776034
 31
0.0
  0
CIRCLE
  8
0
  6
CONTINUOUS
 62
               3
  5
32
 10
274.0
 20
242.99999995590821
 30
0.0
 40
0.2000000029802322
  0
POINT
  8
0
  6
CONTINUOUS
 62
              80
  5
33
 10
276.5
 20
243.00000377060547
 30
0.0
  0
CIRCLE
  8
0
  6
CONTINUOUS
 62
               3
  5
34
 10
279.0
 20
242.99999995590821
 30
0.0
 40
0.2000000029802322
  0
LINE
  8
0
  6
CONTINUOUS
 62
              80
  5
35
 10
269.0
 20
240.50000377060547
 30
0.0
 11
397.0
 21
240.50000377060547
 31
0.0
  0
LINE
  8
0
  6
CONTINUOUS
 62
              80
  5
36
 10
286.49997557650494
 20
249.51552177634494
 30
0.0
 11
288.24997560006199
 21
246.48443287670011
 31
0.0
  0
LINE
  8
0
  6
CONTINUOUS
 62
              80
  5
37
 10
284.75
 20
246.48445507924805
 30
0.0
 11
288.25
 21
246.48445507924805
 31
0.0
  0
LINE
  8
0
  6
CONTINUOUS
 62
              80
  5
38
 10
286.4999747008726
 20
249.51556460740522
 30
0.0
 11
284.74997467731555
 21
246.48447570776034
 31
0.0
  0
CIRCLE
  8
0
  6
CONTINUOUS
 62
               3
  5
39
 10
274.0
 20
247.99999615590821
 30
0.0
 40
0.2000000029802322
  0
POINT
  8
0
  6
CONTINUOUS
 62
              80
  5
3A
 10
276.5
 20
247.99999997060547
 30
0.0
  0
CIRCLE
  8
0
  6
CONTINUOUS
 62
               3
  5
3B
 10
279.0
 20
247.99999615590821
 30
0.0
 40
0.2000000029802322
  0
LINE
  8
0
  6
CONTINUOUS
 62
              80
  5
3C
 10
269.0
 20
245.49999997060547
 30
0.0
 11
397.0
 21
245.49999997060547
 31
0.0
  0
LINE
  8
0
  6
CONTINUOUS
 62
              80
  5
3D
 10
286.49997557650494
 20
254.51551797634494
 30
0.0
 11
288.24997560006199
 21
251.48442907670011
 31
0.0
  0
LINE
  8
0
  6
CONTINUOUS
 62
              80
  5
3E
 10
284.75
 20
251.48445127924805
 30
0.0
 11
288.25
 21
251.48445127924805
 31
0.0
  0
LINE
  8
0
  6
CONTINUOUS
 62
              80
  5
3F
 10
286.4999747008726
 20
254.51556080740522
 30
0.0
 11
284.74997467731555
 21
251.48447190776034
 31
0.0
  0
CIRCLE
  8
0
  6
CONTINUOUS
 62
               3
  5
40
 10
274.0
 20
252.9999923559082
 30
0.0
 40
0.2000000029802322
  0
POINT
  8
0
  6
CONTINUOUS
 62
              80
  5
41
 10
276.5
 20
252.99999617060547
 30
0.0
  0
CIRCLE
  8
0
  6
CONTINUOUS
 62
               3
  5
42
 10
279.0
 20
252.9999923559082
 30
0.0
 40
0.2000000029802322
  0
LINE
  8
0
  6
CONTINUOUS
 62
              80
  5
43
 10
269.0
 20
250.49999617060547
 30
0.0
 11
397.0
 21
250.49999617060547
 31
0.0
  0
LINE
  8
0
  6
CONTINUOUS
 62
              80
  5
44
 10
286.49997557650494
 20
259.51551417634494
 30
0.0
 11
288.24997560006199
 21
256.48442527670011
 31
0.0
  0
LINE
  8
0
  6
CONTINUOUS
 62
              80
  5
45
 10
284.75
 20
256.48444747924805
 30
0.0
 11
288.25
 21
256.48444747924805
 31
0.0
  0
LINE
  8
0
  6
CONTINUOUS
 62
              80
  5
46
 10
286.4999747008726
 20
259.51555700740522
 30
0.0
 11
284.74997467731555
 21
256.48446810776034
 31
0.0
  0
CIRCLE
  8
0
  6
CONTINUOUS
 62
               3
  5
47
 10
274.0
 20
257.9999885559082
 30
0.0
 40
0.2000000029802322
  0
POINT
  8
0
  6
CONTINUOUS
 62
              80
  5
48
 10
276.5
 20
257.99999237060547
 30
0.0
  0
CIRCLE
  8
0
  6
CONTINUOUS
 62
               3
  5
49
 10
279.0
 20
257.9999885559082
 30
0.0
 40
0.2000000029802322
  0
LINE
  8
0
  6
CONTINUOUS
 62
              80
  5
4A
 10
269.0
 20
255.49999237060547
 30
0.0
 11
397.0
 21
255.49999237060547
 31
0.0
  0
POINT
  8
0
  6
CONTINUOUS
 62
              80
  5
4B
 10
343.0
 20
93.0
 30
0.0
  0
POINT
  8
0
  6
CONTINUOUS
 62
              80
  5
4C
 10
317.0
 20
93.0
 30
0.0
  0
POINT
  8
0
  6
CONTINUOUS
 62
              80
  5
4D
 10
308.0
 20
93.0
 30
0.0
  0
POINT
  8
0
  6
CONTINUOUS
 62
              80
  5
4E
 10
245.0
 20
93.0
 30
0.0
  0
POINT
  8
0
  6
CONTINUOUS
 62
              80
  5
4F
 10
343.0
 20
87.0
 30
0.0
  0
POINT
  8
0
  6
CONTINUOUS
 62
              80
  5
50
 10
317.0
 20
87.0
 30
0.0
  0
POINT
  8
0
  6
CONTINUOUS
 62
              80
  5
51
 10
308.0
 20
87.0
 30
0.0
  0
POINT
  8
0
  6
CONTINUOUS
 62
              80
  5
52
 10
245.0
 20
87.0
 30
0.0
  0
POINT
  8
0
  6
CONTINUOUS
 62
              80
  5
53
 10
343.0
 20
81.0
 30
0.0
  0
POINT
  8
0
  6
CONTINUOUS
 62
              80
  5
54
 10
317.0
 20
81.0
 30
0.0
  0
POINT
  8
0
  6
CONTINUOUS
 62
              80
  5
55
 10
308.0
 20
81.0
 30
0.0
  0
POINT
  8
0
  6
CONTINUOUS
 62
              80
  5
56
 10
245.0
 20
81.0
 30
0.0
  0
POINT
  8
0
  6
CONTINUOUS
 62
              80
  5
57
 10
343.0
 20
75.0
 30
0.0
  0
POINT
  8
0
  6
CONTINUOUS
 62
              80
  5
58
 10
317.0
 20
75.0
 30
0.0
  0
POINT
  8
0
  6
CONTINUOUS
 62
              80
  5
59
 10
308.0
 20
75.0
 30
0.0
  0
POINT
  8
0
  6
CONTINUOUS
 62
              80
  5
5A
 10
245.0
 20
75.0
 30
0.0
  0
POINT
  8
0
  6
CONTINUOUS
 62
              80
  5
5B
 10
343.0
 20
69.0
 30
0.0
  0
POINT
  8
0
  6
CONTINUOUS
 62
              80
  5
5C
 10
317.0
 20
69.0
 30
0.0
  0
POINT
  8
0
  6
CONTINUOUS
 62
              80
  5
5D
 10
308.0
 20
69.0
 30
0.0
  0
POINT
  8
0
  6
CONTINUOUS
 62
              80
  5
5E
 10
245.0
 20
69.0
 30
0.0
  0
TEXT
  8
0
  6
CONTINUOUS
 62
               3
  5
5F
 10
236.60000507183005
 20
91.5
 30
0.0
 40
3.0
  1
6
 41
1.0500100482927037
  7
MX_NOTE_STANDARD
 11
236.60000507183005
 21
93.0
 31
0.0
 73
               2
  0
TEXT
  8
0
  6
CONTINUOUS
 62
               3
  5
60
 10
236.60000507183005
 20
85.5
 30
0.0
 40
3.0
  1
5
 41
1.0500100482927037
  7
MX_NOTE_STANDARD
 11
236.60000507183005
 21
87.0
 31
0.0
 73
               2
  0
TEXT
  8
0
  6
CONTINUOUS
 62
               3
  5
61
 10
236.60000507183005
 20
79.5
 30
0.0
 40
3.0
  1
4
 41
1.0500100482927037
  7
MX_NOTE_STANDARD
 11
236.60000507183005
 21
81.0
 31
0.0
 73
               2
  0
TEXT
  8
0
  6
CONTINUOUS
 62
               3
  5
62
 10
236.60000507183005
 20
73.5
 30
0.0
 40
3.0
  1
3
 41
1.0500100482927037
  7
MX_NOTE_STANDARD
 11
236.60000507183005
 21
75.0
 31
0.0
 73
               2
  0
TEXT
  8
0
  6
CONTINUOUS
 62
               3
  5
63
 10
236.60000507183005
 20
67.5
 30
0.0
 40
3.0
  1
2
 41
1.0500100482927037
  7
MX_NOTE_STANDARD
 11
236.60000507183005
 21
69.0
 31
0.0
 73
               2
  0
LINE
  8
0
  6
CONTINUOUS
 62
              80
  5
64
 10
233.0
 20
96.0
 30
0.0
 11
397.0
 21
96.0
 31
0.0
  0
LINE
  8
0
  6
CONTINUOUS
 62
              80
  5
65
 10
233.0
 20
90.0
 30
0.0
 11
397.0
 21
90.0
 31
0.0
  0
LINE
  8
0
  6
CONTINUOUS
 62
              80
  5
66
 10
233.0
 20
84.0
 30
0.0
 11
397.0
 21
84.0
 31
0.0
  0
LINE
  8
0
  6
CONTINUOUS
 62
              80
  5
67
 10
233.0
 20
78.0
 30
0.0
 11
397.0
 21
78.0
 31
0.0
  0
TEXT
  8
0
  6
CONTINUOUS
 62
               3
  5
68
 10
302.82328286725613
 20
57.770111083984375
 30
0.0
 40
2.0
  1
Ｃｏ．Ｎｏ．
 41
0.7812499689559154
  7
MX_NOTE_STANDARD
 11
302.82328286725613
 21
58.770111083984375
 31
0.0
 73
               2
  0
TEXT
  8
0
  6
CONTINUOUS
 62
               3
  5
69
 10
318.33164468366238
 20
55.55462646484375
 30
0.0
 40
2.0
  1
ＭＴＲＬ
 41
0.7812499689559154
  7
MX_NOTE_STANDARD
 11
318.33164468366238
 21
56.55462646484375
 31
0.0
 73
               2
  0
TEXT
  8
0
  6
CONTINUOUS
 62
               3
  5
6A
 10
350.91739907819363
 20
55.55462646484375
 30
0.0
 40
2.0
  1
ＮＯＴＥ　Ａ　ＲＥＭＡＲＫ
 41
0.7812499689559154
  7
MX_NOTE_STANDARD
 11
350.91739907819363
 21
56.55462646484375
 31
0.0
 73
               2
  0
TEXT
  8
0
  6
CONTINUOUS
 62
               3
  5
6B
 10
236.8625075604337
 20
61.5
 30
0.0
 40
3.0
  1
1
 41
1.57501502549995
  7
MX_NOTE_STANDARD
 11
236.8625075604337
 21
63.0
 31
0.0
 73
               2
  0
POINT
  8
0
  6
CONTINUOUS
 62
              80
  5
6C
 10
308.0
 20
63.0
 30
0.0
  0
POINT
  8
0
  6
CONTINUOUS
 62
              80
  5
6D
 10
245.0
 20
63.0
 30
0.0
  0
POINT
  8
0
  6
CONTINUOUS
 62
              80
  5
6E
 10
317.0
 20
63.0
 30
0.0
  0
POINT
  8
0
  6
CONTINUOUS
 62
              80
  5
6F
 10
343.0
 20
63.0
 30
0.0
  0
TEXT
  8
0
  6
CONTINUOUS
 62
               3
  5
70
 10
381.31860350010294
 20
55.331558227539063
 30
0.0
 40
3.0
  1
備考
 41
0.7812499689559154
  7
MX_NOTE_STANDARD
 11
381.31860350010294
 21
56.831558227539062
 31
0.0
 73
               2
  0
TEXT
  8
0
  6
CONTINUOUS
 62
               3
  5
71
 10
329.90130613682169
 20
55.05462646484375
 30
0.0
 40
3.0
  1
材質
 41
0.7812499689559154
  7
MX_NOTE_STANDARD
 11
329.90130613682169
 21
56.55462646484375
 31
0.0
 73
               2
  0
TEXT
  8
0
  6
CONTINUOUS
 62
               3
  5
72
 10
305.53106687900919
 20
53.946884155273437
 30
0.0
 40
3.0
  1
数量
 41
0.7812499689559154
  7
MX_NOTE_STANDARD
 11
305.53106687900919
 21
55.446884155273438
 31
0.0
 73
               2
  0
TEXT
  8
0
  6
CONTINUOUS
 62
               3
  5
73
 10
281.89978025791544
 20
55.05462646484375
 30
0.0
 40
3.0
  1
品名
 41
0.7812499689559154
  7
MX_NOTE_STANDARD
 11
281.89978025791544
 21
56.55462646484375
 31
0.0
 73
               2
  0
TEXT
  8
0
  6
CONTINUOUS
 62
               3
  5
74
 10
255.93289659188758
 20
55.277694702148438
 30
0.0
 40
2.0
  1
ＮAＭＥ　ＯＦ　ＰＡＲＴＳ
 41
0.7913960744908788
  7
MX_NOTE_STANDARD
 11
255.93289659188758
 21
56.277694702148438
 31
0.0
 73
               2
  0
TEXT
  8
0
  6
CONTINUOUS
 62
               3
  5
75
 10
234.45211790439984
 20
55.331558227539063
 30
0.0
 40
3.0
  1
ＮＯ．
 41
0.7812499689559154
  7
MX_NOTE_STANDARD
 11
234.45211790439984
 21
56.831558227539062
 31
0.0
 73
               2
  0
LINE
  8
0
  6
CONTINUOUS
 62
               3
  5
76
 10
233.0
 20
96.0
 30
0.0
 11
233.0
 21
53.0
 31
0.0
  0
LINE
  8
0
  6
CONTINUOUS
 62
              80
  5
77
 10
233.0
 20
72.0
 30
0.0
 11
397.0
 21
72.0
 31
0.0
  0
LINE
  8
0
  6
CONTINUOUS
 62
              80
  5
78
 10
233.0
 20
66.0
 30
0.0
 11
397.0
 21
66.0
 31
0.0
  0
LINE
  8
0
  6
CONTINUOUS
 62
              80
  5
79
 10
340.0
 20
96.0
 30
0.0
 11
340.0
 21
53.0
 31
0.0
  0
LINE
  8
0
  6
CONTINUOUS
 62
              80
  5
7A
 10
314.0
 20
96.0
 30
0.0
 11
314.0
 21
53.0
 31
0.0
  0
LINE
  8
0
  6
CONTINUOUS
 62
              80
  5
7B
 10
302.0
 20
96.0
 30
0.0
 11
302.0
 21
53.0
 31
0.0
  0
LINE
  8
0
  6
CONTINUOUS
 62
              80
  5
7C
 10
242.0
 20
96.0
 30
0.0
 11
242.0
 21
53.0
 31
0.0
  0
LINE
  8
0
  6
CONTINUOUS
 62
               3
  5
7D
 10
233.0
 20
60.0
 30
0.0
 11
397.0
 21
60.0
 31
0.0
  0
LINE
  8
0
  6
CONTINUOUS
 62
               3
  5
7E
 10
23.0
 20
280.49998474121094
 30
0.0
 11
23.0
 21
16.5
 31
0.0
  0
LINE
  8
0
  6
CONTINUOUS
 62
               3
  5
7F
 10
23.0
 20
16.5
 30
0.0
 11
397.0
 21
16.5
 31
0.0
  0
LINE
  8
0
  6
CONTINUOUS
 62
               3
  5
80
 10
233.0
 20
37.5
 30
0.0
 11
397.0
 21
37.5
 31
0.0
  0
LINE
  8
0
  6
CONTINUOUS
 62
               3
  5
81
 10
271.0
 20
37.5
 30
0.0
 11
271.0
 21
16.5
 31
0.0
  0
LINE
  8
0
  6
CONTINUOUS
 62
               3
  5
82
 10
290.0
 20
37.5
 30
0.0
 11
290.0
 21
16.5
 31
0.0
  0
LINE
  8
0
  6
CONTINUOUS
 62
               3
  5
83
 10
309.0
 20
37.5
 30
0.0
 11
309.0
 21
16.5
 31
0.0
  0
LINE
  8
0
  6
CONTINUOUS
 62
               3
  5
84
 10
23.0
 20
280.49998474121094
 30
0.0
 11
397.0
 21
280.49998474121094
 31
0.0
  0
LINE
  8
0
  6
CONTINUOUS
 62
              80
  5
85
 10
387.0
 20
280.49998474121094
 30
0.0
 11
387.0
 21
230.64940038234832
 31
0.0
  0
LINE
  8
0
  6
CONTINUOUS
 62
              80
  5
86
 10
294.0
 20
280.49998474121094
 30
0.0
 11
294.0
 21
230.64940038234832
 31
0.0
  0
LINE
  8
0
  6
CONTINUOUS
 62
              80
  5
87
 10
284.0
 20
280.49998474121094
 30
0.0
 11
284.0
 21
230.64940038234832
 31
0.0
  0
LINE
  8
0
  6
CONTINUOUS
 62
               3
  5
88
 10
269.0
 20
280.49998474121094
 30
0.0
 11
269.0
 21
230.64940038234832
 31
0.0
  0
LINE
  8
0
  6
CONTINUOUS
 62
               3
  5
89
 10
397.0
 20
280.49998474121094
 30
0.0
 11
397.0
 21
16.5
 31
0.0
  0
LINE
  8
0
  6
CONTINUOUS
 62
               3
  5
8A
 10
397.0
 20
236.4999885559082
 30
0.0
 11
401.0
 21
236.4999885559082
 31
0.0
  0
LINE
  8
0
  6
CONTINUOUS
 62
               3
  5
8B
 10
397.0
 20
192.4999942779541
 30
0.0
 11
401.0
 21
192.4999942779541
 31
0.0
  0
LINE
  8
0
  6
CONTINUOUS
 62
               3
  5
8C
 10
397.0
 20
148.49999618530273
 30
0.0
 11
401.0
 21
148.49999618530273
 31
0.0
  0
LINE
  8
0
  6
CONTINUOUS
 62
               3
  5
8D
 10
397.0
 20
104.49999237060547
 30
0.0
 11
401.0
 21
104.49999237060547
 31
0.0
  0
LINE
  8
0
  6
CONTINUOUS
 62
               3
  5
8E
 10
397.0
 20
60.5
 30
0.0
 11
401.0
 21
60.5
 31
0.0
  0
LINE
  8
0
  6
CONTINUOUS
 62
               3
  5
8F
 10
23.0
 20
236.4999885559082
 30
0.0
 11
19.0
 21
236.4999885559082
 31
0.0
  0
LINE
  8
0
  6
CONTINUOUS
 62
               3
  5
90
 10
23.0
 20
192.4999942779541
 30
0.0
 11
19.0
 21
192.4999942779541
 31
0.0
  0
LINE
  8
0
  6
CONTINUOUS
 62
               3
  5
91
 10
23.0
 20
148.49999618530273
 30
0.0
 11
19.0
 21
148.49999618530273
 31
0.0
  0
LINE
  8
0
  6
CONTINUOUS
 62
               3
  5
92
 10
23.0
 20
104.49999237060547
 30
0.0
 11
19.0
 21
104.49999237060547
 31
0.0
  0
LINE
  8
0
  6
CONTINUOUS
 62
               3
  5
93
 10
0.0
 20
296.99999237060547
 30
0.0
 11
0.0
 21
0.0
 31
0.0
  0
LINE
  8
0
  6
CONTINUOUS
 62
               3
  5
94
 10
420.0
 20
296.99999237060547
 30
0.0
 11
420.0
 21
0.0
 31
0.0
  0
LINE
  8
0
  6
CONTINUOUS
 62
               3
  5
95
 10
0.0
 20
0.0
 30
0.0
 11
420.0
 21
0.0
 31
0.0
  0
LINE
  8
0
  6
CONTINUOUS
 62
               3
  5
96
 10
269.0
 20
275.49998474121094
 30
0.0
 11
397.0
 21
275.49998474121094
 31
0.0
  0
LINE
  8
0
  6
CONTINUOUS
 62
              80
  5
97
 10
269.0
 20
270.49998474121094
 30
0.0
 11
397.0
 21
270.49998474121094
 31
0.0
  0
LINE
  8
0
  6
CONTINUOUS
 62
              80
  5
98
 10
269.0
 20
265.49998474121094
 30
0.0
 11
397.0
 21
265.49998474121094
 31
0.0
  0
LINE
  8
0
  6
CONTINUOUS
 62
              80
  5
99
 10
269.0
 20
260.4999885559082
 30
0.0
 11
397.0
 21
260.4999885559082
 31
0.0
  0
LINE
  8
0
  6
CONTINUOUS
 62
              80
  5
9A
 10
286.49996335755259
 20
274.51553139088207
 30
0.0
 11
288.24996338110964
 21
271.48444249123725
 31
0.0
  0
LINE
  8
0
  6
CONTINUOUS
 62
              80
  5
9B
 10
284.75
 20
271.48444366455078
 30
0.0
 11
288.25
 21
271.48444366455078
 31
0.0
  0
LINE
  8
0
  6
CONTINUOUS
 62
              80
  5
9C
 10
286.49997166103572
 20
274.51554779294429
 30
0.0
 11
284.74997163747867
 21
271.4844588932994
 31
0.0
  0
LINE
  8
0
  6
CONTINUOUS
 62
              80
  5
9D
 10
286.49996946702879
 20
269.51552087626504
 30
0.0
 11
288.24996949058584
 21
266.48443197662021
 31
0.0
  0
LINE
  8
0
  6
CONTINUOUS
 62
              80
  5
9E
 10
284.75
 20
266.48444366455078
 30
0.0
 11
288.25
 21
266.48444366455078
 31
0.0
  0
LINE
  8
0
  6
CONTINUOUS
 62
              80
  5
9F
 10
286.4999808103488
 20
269.51556370732499
 30
0.0
 11
284.74998078679175
 21
266.48447480768016
 31
0.0
  0
LINE
  8
0
  6
CONTINUOUS
 62
              80
  5
A0
 10
286.49997557650494
 20
264.51551036164767
 30
0.0
 11
288.24997560006199
 21
261.48442146200284
 31
0.0
  0
LINE
  8
0
  6
CONTINUOUS
 62
              80
  5
A1
 10
284.75
 20
261.48444366455078
 30
0.0
 11
288.25
 21
261.48444366455078
 31
0.0
  0
LINE
  8
0
  6
CONTINUOUS
 62
              80
  5
A2
 10
286.4999747008726
 20
264.51555319270796
 30
0.0
 11
284.74997467731555
 21
261.48446429306307
 31
0.0
  0
LINE
  8
0
  6
CONTINUOUS
 62
               3
  5
A3
 10
23.0
 20
60.5
 30
0.0
 11
19.0
 21
60.5
 31
0.0
  0
LINE
  8
0
  6
CONTINUOUS
 62
               3
  5
A4
 10
233.0
 20
53.0
 30
0.0
 11
233.0
 21
16.5
 31
0.0
  0
LINE
  8
0
  6
CONTINUOUS
 62
               3
  5
A5
 10
210.0
 20
280.49998474121094
 30
0.0
 11
210.0
 21
284.49998474121094
 31
0.0
  0
LINE
  8
0
  6
CONTINUOUS
 62
               3
  5
A6
 10
116.5
 20
280.49998474121094
 30
0.0
 11
116.5
 21
284.49998474121094
 31
0.0
  0
LINE
  8
0
  6
CONTINUOUS
 62
               3
  5
A7
 10
69.75
 20
280.49998474121094
 30
0.0
 11
69.75
 21
284.49998474121094
 31
0.0
  0
LINE
  8
0
  6
CONTINUOUS
 62
               3
  5
A8
 10
163.25
 20
280.49998474121094
 30
0.0
 11
163.25
 21
284.49998474121094
 31
0.0
  0
LINE
  8
0
  6
CONTINUOUS
 62
               3
  5
A9
 10
303.5
 20
280.49998474121094
 30
0.0
 11
303.5
 21
284.49998474121094
 31
0.0
  0
LINE
  8
0
  6
CONTINUOUS
 62
               3
  5
AA
 10
256.75
 20
280.49998474121094
 30
0.0
 11
256.75
 21
284.49998474121094
 31
0.0
  0
LINE
  8
0
  6
CONTINUOUS
 62
               3
  5
AB
 10
350.25
 20
280.49998474121094
 30
0.0
 11
350.25
 21
284.49998474121094
 31
0.0
  0
LINE
  8
0
  6
CONTINUOUS
 62
               3
  5
AC
 10
69.75
 20
16.5
 30
0.0
 11
69.75
 21
12.5
 31
0.0
  0
LINE
  8
0
  6
CONTINUOUS
 62
               3
  5
AD
 10
116.5
 20
16.5
 30
0.0
 11
116.5
 21
12.5
 31
0.0
  0
LINE
  8
0
  6
CONTINUOUS
 62
               3
  5
AE
 10
210.0
 20
16.5
 30
0.0
 11
210.0
 21
12.5
 31
0.0
  0
LINE
  8
0
  6
CONTINUOUS
 62
               3
  5
AF
 10
163.25
 20
16.5
 30
0.0
 11
163.25
 21
12.5
 31
0.0
  0
LINE
  8
0
  6
CONTINUOUS
 62
               3
  5
B0
 10
350.25
 20
16.5
 30
0.0
 11
350.25
 21
12.5
 31
0.0
  0
LINE
  8
0
  6
CONTINUOUS
 62
               3
  5
B1
 10
303.5
 20
16.5
 30
0.0
 11
303.5
 21
12.5
 31
0.0
  0
LINE
  8
0
  6
CONTINUOUS
 62
               3
  5
B2
 10
256.75
 20
16.5
 30
0.0
 11
256.75
 21
12.5
 31
0.0
  0
LINE
  8
0
  6
CONTINUOUS
 62
              80
  5
B3
 10
319.846435546875
 20
27.41070556640625
 30
0.0
 11
325.5250244140625
 21
27.41070556640625
 31
0.0
  0
LINE
  8
0
  6
CONTINUOUS
 62
              80
  5
B4
 10
319.846435546875
 20
27.41070556640625
 30
0.0
 11
319.846435546875
 21
26.9464111328125
 31
0.0
  0
LINE
  8
0
  6
CONTINUOUS
 62
              80
  5
B5
 10
319.846435546875
 20
26.9464111328125
 30
0.0
 11
324.13217163085937
 21
26.9464111328125
 31
0.0
  0
LINE
  8
0
  6
CONTINUOUS
 62
              80
  5
B6
 10
324.13217163085937
 20
26.9464111328125
 30
0.0
 11
324.13217163085937
 21
26.2142333984375
 31
0.0
  0
LINE
  8
0
  6
CONTINUOUS
 62
              80
  5
B7
 10
325.5250244140625
 20
27.41070556640625
 30
0.0
 11
325.5250244140625
 21
26.0
 31
0.0
  0
LINE
  8
0
  6
CONTINUOUS
 62
              80
  5
B8
 10
322.81072998046875
 20
25.23211669921875
 30
0.0
 11
324.75717163085937
 21
25.23211669921875
 31
0.0
  0
LINE
  8
0
  6
CONTINUOUS
 62
              80
  5
B9
 10
322.81072998046875
 20
25.767822265625
 30
0.0
 11
323.68572998046875
 21
25.767822265625
 31
0.0
  0
LINE
  8
0
  6
CONTINUOUS
 62
              80
  5
BA
 10
322.81072998046875
 20
26.4107666015625
 30
0.0
 11
322.81072998046875
 21
25.767822265625
 31
0.0
  0
LINE
  8
0
  6
CONTINUOUS
 62
              80
  5
BB
 10
321.34646606445312
 20
26.4107666015625
 30
0.0
 11
322.81072998046875
 21
26.4107666015625
 31
0.0
  0
LINE
  8
0
  6
CONTINUOUS
 62
              80
  5
BC
 10
321.34646606445312
 20
26.4107666015625
 30
0.0
 11
321.34646606445312
 21
24.42852783203125
 31
0.0
  0
LINE
  8
0
  6
CONTINUOUS
 62
              80
  5
BD
 10
319.846435546875
 20
24.05352783203125
 30
0.0
 11
320.97146606445312
 21
24.05352783203125
 31
0.0
  0
LINE
  8
0
  6
CONTINUOUS
 62
              80
  5
BE
 10
319.846435546875
 20
24.05352783203125
 30
0.0
 11
319.846435546875
 21
23.5892333984375
 31
0.0
  0
LINE
  8
0
  6
CONTINUOUS
 62
              80
  5
BF
 10
319.846435546875
 20
23.5892333984375
 30
0.0
 11
322.25717163085937
 21
23.5892333984375
 31
0.0
  0
LINE
  8
0
  6
CONTINUOUS
 62
              80
  5
C0
 10
322.81072998046875
 20
25.23211669921875
 30
0.0
 11
322.81072998046875
 21
24.142822265625
 31
0.0
  0
LINE
  8
0
  6
CONTINUOUS
 62
              80
  5
C1
 10
326.00521850585937
 20
27.1966552734375
 30
0.0
 11
331.5804443359375
 21
27.1966552734375
 31
0.0
  0
LINE
  8
0
  6
CONTINUOUS
 62
              80
  5
C2
 10
327.40499877929687
 20
26.73199462890625
 30
0.0
 11
330.18075561523437
 21
26.73199462890625
 31
0.0
  0
LINE
  8
0
  6
CONTINUOUS
 62
              80
  5
C3
 10
330.18076099998956
 20
26.732009324203155
 30
0.0
 11
329.83501443291379
 21
24.195466969631333
 31
0.0
  0
LINE
  8
0
  6
CONTINUOUS
 62
              80
  5
C4
 10
327.40501694047759
 20
26.731975601820665
 30
0.0
 11
327.75076478417168
 21
24.195495065939859
 31
0.0
  0
LINE
  8
0
  6
CONTINUOUS
 62
              80
  5
C5
 10
327.75076293945313
 20
24.19549560546875
 30
0.0
 11
329.83502197265625
 21
24.19549560546875
 31
0.0
  0
LINE
  8
0
  6
CONTINUOUS
 62
              80
  5
C6
 10
326.00520046246135
 20
27.196644581615814
 30
0.0
 11
326.5827011258894
 21
23.732117293589866
 31
0.0
  0
LINE
  8
0
  6
CONTINUOUS
 62
              80
  5
C7
 10
326.58270263671875
 20
23.73211669921875
 30
0.0
 11
331.0030517578125
 21
23.73211669921875
 31
0.0
  0
LINE
  8
0
  6
CONTINUOUS
 62
              80
  5
C8
 10
331.580439188301
 20
27.196657599574706
 30
0.0
 11
331.00304261221487
 21
23.732113174372117
 31
0.0
  0
LINE
  8
0
  6
CONTINUOUS
 62
              80
  5
C9
 10
332.13238525390625
 20
25.76800537109375
 30
0.0
 11
335.810791015625
 21
25.76800537109375
 31
0.0
  0
LINE
  8
0
  6
CONTINUOUS
 62
              80
  5
CA
 10
332.13238525390625
 20
25.76800537109375
 30
0.0
 11
332.13238525390625
 21
25.01776123046875
 31
0.0
  0
LINE
  8
0
  6
CONTINUOUS
 62
              80
  5
CB
 10
332.13238525390625
 20
25.01776123046875
 30
0.0
 11
335.810791015625
 21
25.01776123046875
 31
0.0
  0
LINE
  8
0
  6
CONTINUOUS
 62
              80
  5
CC
 10
335.810791015625
 20
25.76800537109375
 30
0.0
 11
335.810791015625
 21
25.01776123046875
 31
0.0
  0
LINE
  8
0
  6
CONTINUOUS
 62
              80
  5
CD
 10
338.48931884765625
 20
27.35711669921875
 30
0.0
 11
338.48931884765625
 21
26.01776123046875
 31
0.0
  0
LINE
  8
0
  6
CONTINUOUS
 62
              80
  5
CE
 10
339.66787719726562
 20
27.35711669921875
 30
0.0
 11
339.66787719726562
 21
26.01776123046875
 31
0.0
  0
LINE
  8
0
  6
CONTINUOUS
 62
              80
  5
CF
 10
341.95370483398437
 20
26.85711669921875
 30
0.0
 11
341.95370483398437
 21
26.01776123046875
 31
0.0
  0
LINE
  8
0
  6
CONTINUOUS
 62
              80
  5
D0
 10
341.2034912109375
 20
26.01776123046875
 30
0.0
 11
341.95370483398437
 21
26.01776123046875
 31
0.0
  0
LINE
  8
0
  6
CONTINUOUS
 62
              80
  5
D1
 10
341.2034912109375
 20
26.85711669921875
 30
0.0
 11
341.2034912109375
 21
26.01776123046875
 31
0.0
  0
LINE
  8
0
  6
CONTINUOUS
 62
              80
  5
D2
 10
338.48931884765625
 20
26.01776123046875
 30
0.0
 11
339.66787719726562
 21
26.01776123046875
 31
0.0
  0
LINE
  8
0
  6
CONTINUOUS
 62
              80
  5
D3
 10
336.20364379882812
 20
26.85711669921875
 30
0.0
 11
336.20364379882812
 21
26.01776123046875
 31
0.0
  0
LINE
  8
0
  6
CONTINUOUS
 62
              80
  5
D4
 10
336.95370483398438
 20
26.85711669921875
 30
0.0
 11
336.95370483398438
 21
26.01776123046875
 31
0.0
  0
LINE
  8
0
  6
CONTINUOUS
 62
              80
  5
D5
 10
336.20364379882812
 20
26.01776123046875
 30
0.0
 11
336.95370483398438
 21
26.01776123046875
 31
0.0
  0
LINE
  8
0
  6
CONTINUOUS
 62
              80
  5
D6
 10
340.30142211914062
 20
26.017822265625
 30
0.0
 11
340.5699462890625
 21
26.017822265625
 31
0.0
  0
LINE
  8
0
  6
CONTINUOUS
 62
              80
  5
D7
 10
340.30142211914062
 20
26.05340576171875
 30
0.0
 11
340.48092651367187
 21
26.05340576171875
 31
0.0
  0
LINE
  8
0
  6
CONTINUOUS
 62
              80
  5
D8
 10
337.2965087890625
 20
25.5643310546875
 30
0.0
 11
337.2965087890625
 21
24.3642578125
 31
0.0
  0
LINE
  8
0
  6
CONTINUOUS
 62
              80
  5
D9
 10
336.56072998046875
 20
25.5643310546875
 30
0.0
 11
336.56072998046875
 21
24.3642578125
 31
0.0
  0
LINE
  8
0
  6
CONTINUOUS
 62
              80
  5
DA
 10
339.66787719726562
 20
25.5643310546875
 30
0.0
 11
339.66787719726562
 21
23.872802734375
 31
0.0
  0
LINE
  8
0
  6
CONTINUOUS
 62
              80
  5
DB
 10
340.86068725585938
 20
25.5643310546875
 30
0.0
 11
340.86068725585938
 21
24.3642578125
 31
0.0
  0
LINE
  8
0
  6
CONTINUOUS
 62
              80
  5
DC
 10
341.59652709960937
 20
25.5643310546875
 30
0.0
 11
341.59652709960937
 21
24.3642578125
 31
0.0
  0
LINE
  8
0
  6
CONTINUOUS
 62
              80
  5
DD
 10
338.48931884765625
 20
25.5643310546875
 30
0.0
 11
338.48931884765625
 21
23.8427734375
 31
0.0
  0
LINE
  8
0
  6
CONTINUOUS
 62
              80
  5
DE
 10
340.98919677734375
 20
23.982177734375
 30
0.0
 11
340.98919677734375
 21
23.642822265625
 31
0.0
  0
LINE
  8
0
  6
CONTINUOUS
 62
              80
  5
DF
 10
340.98919677734375
 20
23.982177734375
 30
0.0
 11
341.66793823242187
 21
23.982177734375
 31
0.0
  0
LINE
  8
0
  6
CONTINUOUS
 62
              80
  5
E0
 10
341.66793823242187
 20
23.982177734375
 30
0.0
 11
341.66793823242187
 21
23.8427734375
 31
0.0
  0
LINE
  8
0
  6
CONTINUOUS
 62
              80
  5
E1
 10
342.48931884765625
 20
27.41070556640625
 30
0.0
 11
348.16787719726562
 21
27.41070556640625
 31
0.0
  0
LINE
  8
0
  6
CONTINUOUS
 62
              80
  5
E2
 10
342.48931884765625
 20
27.41070556640625
 30
0.0
 11
342.48931884765625
 21
26.9464111328125
 31
0.0
  0
LINE
  8
0
  6
CONTINUOUS
 62
              80
  5
E3
 10
342.48931884765625
 20
26.9464111328125
 30
0.0
 11
346.53179931640625
 21
26.9464111328125
 31
0.0
  0
LINE
  8
0
  6
CONTINUOUS
 62
              80
  5
E4
 10
348.16787719726562
 20
27.41070556640625
 30
0.0
 11
348.16787719726562
 21
26.908447265625
 31
0.0
  0
LINE
  8
0
  6
CONTINUOUS
 62
              80
  5
E5
 10
345.95358276367187
 20
25.92547607421875
 30
0.0
 11
345.95358276367187
 21
25.625
 31
0.0
  0
LINE
  8
0
  6
CONTINUOUS
 62
              80
  5
E6
 10
344.84646606445312
 20
26.13916015625
 30
0.0
 11
344.84646606445312
 21
25.625
 31
0.0
  0
LINE
  8
0
  6
CONTINUOUS
 62
              80
  5
E7
 10
342.48931884765625
 20
25.625
 30
0.0
 11
344.84646606445312
 21
25.625
 31
0.0
  0
LINE
  8
0
  6
CONTINUOUS
 62
              80
  5
E8
 10
345.95358276367187
 20
25.625
 30
0.0
 11
348.16787719726562
 21
25.625
 31
0.0
  0
LINE
  8
0
  6
CONTINUOUS
 62
              80
  5
E9
 10
348.16787719726562
 20
25.625
 30
0.0
 11
348.16787719726562
 21
25.16058349609375
 31
0.0
  0
LINE
  8
0
  6
CONTINUOUS
 62
              80
  5
EA
 10
345.95358276367187
 20
25.16058349609375
 30
0.0
 11
348.16787719726562
 21
25.16058349609375
 31
0.0
  0
LINE
  8
0
  6
CONTINUOUS
 62
              80
  5
EB
 10
345.95358276367187
 20
25.16058349609375
 30
0.0
 11
345.95358276367187
 21
23.78570556640625
 31
0.0
  0
LINE
  8
0
  6
CONTINUOUS
 62
              80
  5
EC
 10
343.68572998046875
 20
23.5892333984375
 30
0.0
 11
345.75717163085937
 21
23.5892333984375
 31
0.0
  0
LINE
  8
0
  6
CONTINUOUS
 62
              80
  5
ED
 10
343.48931884765625
 20
24.3392333984375
 30
0.0
 11
343.48931884765625
 21
23.78570556640625
 31
0.0
  0
LINE
  8
0
  6
CONTINUOUS
 62
              80
  5
EE
 10
343.48931884765625
 20
24.3392333984375
 30
0.0
 11
344.31072998046875
 21
24.3392333984375
 31
0.0
  0
LINE
  8
0
  6
CONTINUOUS
 62
              80
  5
EF
 10
344.54287719726562
 20
24.05352783203125
 30
0.0
 11
344.84646606445312
 21
24.05352783203125
 31
0.0
  0
LINE
  8
0
  6
CONTINUOUS
 62
              80
  5
F0
 10
344.84646606445312
 20
25.16058349609375
 30
0.0
 11
344.84646606445312
 21
24.05352783203125
 31
0.0
  0
LINE
  8
0
  6
CONTINUOUS
 62
              80
  5
F1
 10
342.48931884765625
 20
25.16058349609375
 30
0.0
 11
344.84646606445312
 21
25.16058349609375
 31
0.0
  0
LINE
  8
0
  6
CONTINUOUS
 62
              80
  5
F2
 10
342.48931884765625
 20
25.625
 30
0.0
 11
342.48931884765625
 21
25.16058349609375
 31
0.0
  0
LINE
  8
0
  6
CONTINUOUS
 62
              80
  5
F3
 10
354.38229370117187
 20
27.41070556640625
 30
0.0
 11
348.70361328125
 21
27.41070556640625
 31
0.0
  0
LINE
  8
0
  6
CONTINUOUS
 62
              80
  5
F4
 10
348.70361328125
 20
27.41070556640625
 30
0.0
 11
348.70361328125
 21
26.9464111328125
 31
0.0
  0
LINE
  8
0
  6
CONTINUOUS
 62
              80
  5
F5
 10
348.70361328125
 20
26.9464111328125
 30
0.0
 11
350.98919677734375
 21
26.9464111328125
 31
0.0
  0
LINE
  8
0
  6
CONTINUOUS
 62
              80
  5
F6
 10
350.98919677734375
 20
26.9464111328125
 30
0.0
 11
350.98919677734375
 21
24.05364990234375
 31
0.0
  0
LINE
  8
0
  6
CONTINUOUS
 62
              80
  5
F7
 10
352.16802978515625
 20
26.9464111328125
 30
0.0
 11
352.16802978515625
 21
24.05364990234375
 31
0.0
  0
LINE
  8
0
  6
CONTINUOUS
 62
              80
  5
F8
 10
352.16802978515625
 20
26.9464111328125
 30
0.0
 11
354.38229370117187
 21
26.9464111328125
 31
0.0
  0
LINE
  8
0
  6
CONTINUOUS
 62
              80
  5
F9
 10
354.38229370117187
 20
27.41070556640625
 30
0.0
 11
354.38229370117187
 21
26.9464111328125
 31
0.0
  0
LINE
  8
0
  6
CONTINUOUS
 62
              80
  5
FA
 10
352.16802978515625
 20
24.05364990234375
 30
0.0
 11
354.38229370117187
 21
24.05364990234375
 31
0.0
  0
LINE
  8
0
  6
CONTINUOUS
 62
              80
  5
FB
 10
354.38229370117187
 20
24.05364990234375
 30
0.0
 11
354.38229370117187
 21
23.5892333984375
 31
0.0
  0
LINE
  8
0
  6
CONTINUOUS
 62
              80
  5
FC
 10
348.70361328125
 20
23.5892333984375
 30
0.0
 11
354.38229370117187
 21
23.5892333984375
 31
0.0
  0
LINE
  8
0
  6
CONTINUOUS
 62
              80
  5
FD
 10
348.70361328125
 20
24.05364990234375
 30
0.0
 11
350.98919677734375
 21
24.05364990234375
 31
0.0
  0
LINE
  8
0
  6
CONTINUOUS
 62
              80
  5
FE
 10
348.70361328125
 20
24.05364990234375
 30
0.0
 11
348.70361328125
 21
23.5892333984375
 31
0.0
  0
LINE
  8
0
  6
CONTINUOUS
 62
              80
  5
FF
 10
355.62530517578125
 20
27.3392333984375
 30
0.0
 11
356.15841674804688
 21
27.3392333984375
 31
0.0
  0
LINE
  8
0
  6
CONTINUOUS
 62
              80
  5
100
 10
356.70358276367188
 20
27.3392333984375
 30
0.0
 11
356.70358276367188
 21
26.78564453125
 31
0.0
  0
LINE
  8
0
  6
CONTINUOUS
 62
              80
  5
101
 10
356.70358276367188
 20
27.3392333984375
 30
0.0
 11
357.31072998046875
 21
27.3392333984375
 31
0.0
  0
LINE
  8
0
  6
CONTINUOUS
 62
              80
  5
102
 10
357.31072998046875
 20
27.3392333984375
 30
0.0
 11
357.31072998046875
 21
26.78564453125
 31
0.0
  0
LINE
  8
0
  6
CONTINUOUS
 62
              80
  5
103
 10
358.2750244140625
 20
27.3392333984375
 30
0.0
 11
358.2750244140625
 21
26.78564453125
 31
0.0
  0
LINE
  8
0
  6
CONTINUOUS
 62
              80
  5
104
 10
358.2750244140625
 20
27.3392333984375
 30
0.0
 11
358.88217163085937
 21
27.3392333984375
 31
0.0
  0
LINE
  8
0
  6
CONTINUOUS
 62
              80
  5
105
 10
358.88217163085937
 20
27.3392333984375
 30
0.0
 11
358.88217163085937
 21
26.78564453125
 31
0.0
  0
LINE
  8
0
  6
CONTINUOUS
 62
              80
  5
106
 10
359.42733764648437
 20
27.3392333984375
 30
0.0
 11
359.96044921875
 21
27.3392333984375
 31
0.0
  0
LINE
  8
0
  6
CONTINUOUS
 62
              80
  5
107
 10
356.6573600938836
 20
26.785648669885219
 30
0.0
 11
357.01448406096881
 21
26.071400735714846
 31
0.0
  0
LINE
  8
0
  6
CONTINUOUS
 62
              80
  5
108
 10
355.99987367532862
 20
26.785648669885134
 30
0.0
 11
356.35699764241377
 21
26.071400735714761
 31
0.0
  0
LINE
  8
0
  6
CONTINUOUS
 62
              80
  5
109
 10
358.92840160621364
 20
26.785655493822674
 30
0.0
 11
358.57129128700427
 21
26.071434855403965
 31
0.0
  0
LINE
  8
0
  6
CONTINUOUS
 62
              80
  5
10A
 10
359.58590849658253
 20
26.785679377605447
 30
0.0
 11
359.22877088162147
 21
26.071404147683381
 31
0.0
  0
LINE
  8
0
  6
CONTINUOUS
 62
              80
  5
10B
 10
358.38217163085937
 20
26.0714111328125
 30
0.0
 11
358.38217163085937
 21
23.5892333984375
 31
0.0
  0
LINE
  8
0
  6
CONTINUOUS
 62
              80
  5
10C
 10
357.2750244140625
 20
23.5892333984375
 30
0.0
 11
358.38217163085937
 21
23.5892333984375
 31
0.0
  0
LINE
  8
0
  6
CONTINUOUS
 62
              80
  5
10D
 10
357.2750244140625
 20
23.5892333984375
 30
0.0
 11
357.2750244140625
 21
26.0714111328125
 31
0.0
  0
LINE
  8
0
  6
CONTINUOUS
 62
              80
  5
10E
 10
354.91787719726562
 20
23.9525146484375
 30
0.0
 11
354.91787719726562
 21
23.5892333984375
 31
0.0
  0
LINE
  8
0
  6
CONTINUOUS
 62
              80
  5
10F
 10
355.456787109375
 20
23.5892333984375
 30
0.0
 11
354.91787719726562
 21
23.5892333984375
 31
0.0
  0
LINE
  8
0
  6
CONTINUOUS
 62
              80
  5
110
 10
361.70358276367187
 20
27.41070556640625
 30
0.0
 11
361.70358276367187
 21
26.76708984375
 31
0.0
  0
LINE
  8
0
  6
CONTINUOUS
 62
              80
  5
111
 10
361.70358276367187
 20
27.41070556640625
 30
0.0
 11
362.45358276367188
 21
27.41070556640625
 31
0.0
  0
LINE
  8
0
  6
CONTINUOUS
 62
              80
  5
112
 10
362.45358276367188
 20
27.41070556640625
 30
0.0
 11
362.45358276367188
 21
26.76708984375
 31
0.0
  0
LINE
  8
0
  6
CONTINUOUS
 62
              80
  5
113
 10
362.45358276367188
 20
26.4471435546875
 30
0.0
 11
362.45358276367188
 21
25.8272705078125
 31
0.0
  0
LINE
  8
0
  6
CONTINUOUS
 62
              80
  5
114
 10
362.45358276367188
 20
25.05609130859375
 30
0.0
 11
362.45358276367188
 21
23.5892333984375
 31
0.0
  0
LINE
  8
0
  6
CONTINUOUS
 62
              80
  5
115
 10
361.06072998046875
 20
24.902099609375
 30
0.0
 11
361.06072998046875
 21
24.22503662109375
 31
0.0
  0
LINE
  8
0
  6
CONTINUOUS
 62
              80
  5
116
 10
361.70358276367187
 20
24.96160888671875
 30
0.0
 11
361.70358276367187
 21
23.5892333984375
 31
0.0
  0
LINE
  8
0
  6
CONTINUOUS
 62
              80
  5
117
 10
361.70358276367187
 20
23.5892333984375
 30
0.0
 11
362.45358276367188
 21
23.5892333984375
 31
0.0
  0
LINE
  8
0
  6
CONTINUOUS
 62
              80
  5
118
 10
363.48931884765625
 20
27.41070556640625
 30
0.0
 11
363.48931884765625
 21
26.4471435546875
 31
0.0
  0
LINE
  8
0
  6
CONTINUOUS
 62
              80
  5
119
 10
363.48931884765625
 20
27.41070556640625
 30
0.0
 11
364.23931884765625
 21
27.41070556640625
 31
0.0
  0
LINE
  8
0
  6
CONTINUOUS
 62
              80
  5
11A
 10
364.23931884765625
 20
27.41070556640625
 30
0.0
 11
364.23931884765625
 21
26.76708984375
 31
0.0
  0
LINE
  8
0
  6
CONTINUOUS
 62
              80
  5
11B
 10
364.63217163085937
 20
27.41070556640625
 30
0.0
 11
365.31076049804687
 21
27.41070556640625
 31
0.0
  0
LINE
  8
0
  6
CONTINUOUS
 62
              80
  5
11C
 10
365.31076049804687
 20
27.41070556640625
 30
0.0
 11
365.31076049804687
 21
26.76708984375
 31
0.0
  0
LINE
  8
0
  6
CONTINUOUS
 62
              80
  5
11D
 10
362.97979107704981
 20
23.968560770707015
 30
0.0
 11
363.59988609801144
 21
23.743071675750826
 31
0.0
  0
LINE
  8
0
  6
CONTINUOUS
 62
              80
  5
11E
 10
364.63217163085937
 20
23.5892333984375
 30
0.0
 11
364.63217163085937
 21
24.6436767578125
 31
0.0
  0
LINE
  8
0
  6
CONTINUOUS
 62
              80
  5
11F
 10
364.63217163085937
 20
23.5892333984375
 30
0.0
 11
365.31076049804687
 21
23.5892333984375
 31
0.0
  0
LINE
  8
0
  6
CONTINUOUS
 62
              80
  5
120
 10
367.20361328125
 20
26.55352783203125
 30
0.0
 11
370.5211181640625
 21
26.55352783203125
 31
0.0
  0
LINE
  8
0
  6
CONTINUOUS
 62
              80
  5
121
 10
367.20361328125
 20
26.55352783203125
 30
0.0
 11
367.20361328125
 21
26.0892333984375
 31
0.0
  0
LINE
  8
0
  6
CONTINUOUS
 62
              80
  5
122
 10
370.67694091796875
 20
26.0892333984375
 30
0.0
 11
367.20361328125
 21
26.0892333984375
 31
0.0
  0
LINE
  8
0
  6
CONTINUOUS
 62
              80
  5
123
 10
370.299560546875
 20
27.3392333984375
 30
0.0
 11
371.11407470703125
 21
27.3392333984375
 31
0.0
  0
LINE
  8
0
  6
CONTINUOUS
 62
              80
  5
124
 10
371.35321044921875
 20
26.55352783203125
 30
0.0
 11
372.75360107421875
 21
26.55352783203125
 31
0.0
  0
LINE
  8
0
  6
CONTINUOUS
 62
              80
  5
125
 10
372.75360107421875
 20
26.0892333984375
 30
0.0
 11
372.75360107421875
 21
26.55352783203125
 31
0.0
  0
LINE
  8
0
  6
CONTINUOUS
 62
              80
  5
126
 10
372.75360107421875
 20
26.0892333984375
 30
0.0
 11
371.55801391601562
 21
26.0892333984375
 31
0.0
  0
LINE
  8
0
  6
CONTINUOUS
 62
              80
  5
127
 10
371.80615234375
 20
23.80352783203125
 30
0.0
 11
372.87091064453125
 21
23.80352783203125
 31
0.0
  0
LINE
  8
0
  6
CONTINUOUS
 62
              80
  5
128
 10
367.20361328125
 20
25.41070556640625
 30
0.0
 11
370.09646606445313
 21
25.41070556640625
 31
0.0
  0
LINE
  8
0
  6
CONTINUOUS
 62
              80
  5
129
 10
367.20361328125
 20
25.41070556640625
 30
0.0
 11
367.20361328125
 21
25.0892333984375
 31
0.0
  0
LINE
  8
0
  6
CONTINUOUS
 62
              80
  5
12A
 10
368.13217163085937
 20
25.0892333984375
 30
0.0
 11
367.20361328125
 21
25.0892333984375
 31
0.0
  0
LINE
  8
0
  6
CONTINUOUS
 62
              80
  5
12B
 10
368.13217163085937
 20
25.0892333984375
 30
0.0
 11
368.13217163085937
 21
24.05902099609375
 31
0.0
  0
LINE
  8
0
  6
CONTINUOUS
 62
              80
  5
12C
 10
369.0250244140625
 20
25.0892333984375
 30
0.0
 11
369.0250244140625
 21
24.1168212890625
 31
0.0
  0
LINE
  8
0
  6
CONTINUOUS
 62
              80
  5
12D
 10
370.09646606445313
 20
25.0892333984375
 30
0.0
 11
369.0250244140625
 21
25.0892333984375
 31
0.0
  0
LINE
  8
0
  6
CONTINUOUS
 62
              80
  5
12E
 10
370.09646606445313
 20
25.41070556640625
 30
0.0
 11
370.09646606445313
 21
25.0892333984375
 31
0.0
  0
LINE
  8
0
  6
CONTINUOUS
 62
              80
  5
12F
 10
370.09646606445313
 20
24.251953125
 30
0.0
 11
370.09646606445313
 21
23.9281005859375
 31
0.0
  0
LINE
  8
0
  6
CONTINUOUS
 62
              80
  5
130
 10
367.20361328125
 20
23.98919677734375
 30
0.0
 11
367.20361328125
 21
23.52276611328125
 31
0.0
  0
LINE
  8
0
  6
CONTINUOUS
 62
              80
  5
131
 10
379.3035888671875
 20
26.625
 30
0.0
 11
379.3035888671875
 21
26.30352783203125
 31
0.0
  0
LINE
  8
0
  6
CONTINUOUS
 62
              80
  5
132
 10
378.83932495117187
 20
25.90606689453125
 30
0.0
 11
378.83932495117187
 21
26.5064697265625
 31
0.0
  0
LINE
  8
0
  6
CONTINUOUS
 62
              80
  5
133
 10
373.289306640625
 20
25.906005859375
 30
0.0
 11
373.289306640625
 21
26.5064697265625
 31
0.0
  0
LINE
  8
0
  6
CONTINUOUS
 62
              80
  5
134
 10
374.43215942382812
 20
26.05352783203125
 30
0.0
 11
377.68215942382812
 21
26.05352783203125
 31
0.0
  0
LINE
  8
0
  6
CONTINUOUS
 62
              80
  5
135
 10
374.43215942382812
 20
26.05352783203125
 30
0.0
 11
374.43215942382812
 21
25.73211669921875
 31
0.0
  0
LINE
  8
0
  6
CONTINUOUS
 62
              80
  5
136
 10
374.43215942382812
 20
25.73211669921875
 30
0.0
 11
377.68215942382812
 21
25.73211669921875
 31
0.0
  0
LINE
  8
0
  6
CONTINUOUS
 62
              80
  5
137
 10
377.68215942382812
 20
26.05352783203125
 30
0.0
 11
377.68215942382812
 21
25.73211669921875
 31
0.0
  0
LINE
  8
0
  6
CONTINUOUS
 62
              80
  5
138
 10
373.289306640625
 20
25.267822265625
 30
0.0
 11
378.83932495117187
 21
25.267822265625
 31
0.0
  0
LINE
  8
0
  6
CONTINUOUS
 62
              80
  5
139
 10
373.289306640625
 20
25.267822265625
 30
0.0
 11
373.289306640625
 21
24.875
 31
0.0
  0
LINE
  8
0
  6
CONTINUOUS
 62
              80
  5
13A
 10
373.289306640625
 20
24.875
 30
0.0
 11
374.34576416015625
 21
24.875
 31
0.0
  0
LINE
  8
0
  6
CONTINUOUS
 62
              80
  5
13B
 10
373.37841796875
 20
23.5892333984375
 30
0.0
 11
378.7491455078125
 21
23.5892333984375
 31
0.0
  0
LINE
  8
0
  6
CONTINUOUS
 62
              80
  5
13C
 10
374.83444213867187
 20
23.91070556640625
 30
0.0
 11
377.29238891601562
 21
23.91070556640625
 31
0.0
  0
LINE
  8
0
  6
CONTINUOUS
 62
              80
  5
13D
 10
375.35476684570313
 20
24.875
 30
0.0
 11
376.77206420898437
 21
24.875
 31
0.0
  0
LINE
  8
0
  6
CONTINUOUS
 62
              80
  5
13E
 10
377.77255249023437
 20
24.875
 30
0.0
 11
378.83932495117187
 21
24.875
 31
0.0
  0
LINE
  8
0
  6
CONTINUOUS
 62
              80
  5
13F
 10
378.83932495117187
 20
24.875
 30
0.0
 11
378.83932495117187
 21
25.267822265625
 31
0.0
  0
LINE
  8
0
  6
CONTINUOUS
 62
              80
  5
140
 10
379.3035888671875
 20
24.74334716796875
 30
0.0
 11
379.3035888671875
 21
24.152587890625
 31
0.0
  0
LINE
  8
0
  6
CONTINUOUS
 62
              80
  5
141
 10
380.38931274414062
 20
24.8046875
 30
0.0
 11
380.38931274414062
 21
23.5892333984375
 31
0.0
  0
LINE
  8
0
  6
CONTINUOUS
 62
              80
  5
142
 10
380.38931274414062
 20
23.5892333984375
 30
0.0
 11
381.28216552734375
 21
23.5892333984375
 31
0.0
  0
LINE
  8
0
  6
CONTINUOUS
 62
              80
  5
143
 10
381.28216552734375
 20
23.5892333984375
 30
0.0
 11
381.28216552734375
 21
26.30352783203125
 31
0.0
  0
LINE
  8
0
  6
CONTINUOUS
 62
              80
  5
144
 10
381.28216552734375
 20
26.30352783203125
 30
0.0
 11
381.9964599609375
 21
26.30352783203125
 31
0.0
  0
LINE
  8
0
  6
CONTINUOUS
 62
              80
  5
145
 10
381.9964599609375
 20
26.30352783203125
 30
0.0
 11
381.9964599609375
 21
26.625
 31
0.0
  0
LINE
  8
0
  6
CONTINUOUS
 62
              80
  5
146
 10
379.3035888671875
 20
26.625
 30
0.0
 11
381.9964599609375
 21
26.625
 31
0.0
  0
LINE
  8
0
  6
CONTINUOUS
 62
              80
  5
147
 10
379.3035888671875
 20
26.30352783203125
 30
0.0
 11
380.35159301757812
 21
26.30352783203125
 31
0.0
  0
LINE
  8
0
  6
CONTINUOUS
 62
              80
  5
148
 10
381.9964599609375
 20
27.0892333984375
 30
0.0
 11
379.3035888671875
 21
27.0892333984375
 31
0.0
  0
LINE
  8
0
  6
CONTINUOUS
 62
              80
  5
149
 10
379.3035888671875
 20
27.41070556640625
 30
0.0
 11
379.3035888671875
 21
27.0892333984375
 31
0.0
  0
LINE
  8
0
  6
CONTINUOUS
 62
              80
  5
14A
 10
379.3035888671875
 20
27.41070556640625
 30
0.0
 11
381.9964599609375
 21
27.41070556640625
 31
0.0
  0
LINE
  8
0
  6
CONTINUOUS
 62
              80
  5
14B
 10
381.9964599609375
 20
27.41070556640625
 30
0.0
 11
381.9964599609375
 21
27.0892333984375
 31
0.0
  0
LINE
  8
0
  6
CONTINUOUS
 62
              80
  5
14C
 10
382.46072387695312
 20
26.30352783203125
 30
0.0
 11
382.46072387695312
 21
26.625
 31
0.0
  0
LINE
  8
0
  6
CONTINUOUS
 62
              80
  5
14D
 10
382.46072387695312
 20
26.625
 30
0.0
 11
383.2464599609375
 21
26.625
 31
0.0
  0
LINE
  8
0
  6
CONTINUOUS
 62
              80
  5
14E
 10
383.2464599609375
 20
26.625
 30
0.0
 11
383.2464599609375
 21
27.41070556640625
 31
0.0
  0
LINE
  8
0
  6
CONTINUOUS
 62
              80
  5
14F
 10
383.2464599609375
 20
27.41070556640625
 30
0.0
 11
384.06787109375
 21
27.41070556640625
 31
0.0
  0
LINE
  8
0
  6
CONTINUOUS
 62
              80
  5
150
 10
384.06787109375
 20
27.41070556640625
 30
0.0
 11
384.06787109375
 21
26.625
 31
0.0
  0
LINE
  8
0
  6
CONTINUOUS
 62
              80
  5
151
 10
384.06787109375
 20
26.625
 30
0.0
 11
384.9964599609375
 21
26.625
 31
0.0
  0
LINE
  8
0
  6
CONTINUOUS
 62
              80
  5
152
 10
384.9964599609375
 20
26.30352783203125
 30
0.0
 11
384.9964599609375
 21
26.625
 31
0.0
  0
LINE
  8
0
  6
CONTINUOUS
 62
              80
  5
153
 10
384.9964599609375
 20
26.30352783203125
 30
0.0
 11
384.06787109375
 21
26.30352783203125
 31
0.0
  0
LINE
  8
0
  6
CONTINUOUS
 62
              80
  5
154
 10
384.06787109375
 20
26.30352783203125
 30
0.0
 11
384.06787109375
 21
23.91070556640625
 31
0.0
  0
LINE
  8
0
  6
CONTINUOUS
 62
              80
  5
155
 10
383.2464599609375
 20
26.30352783203125
 30
0.0
 11
382.46072387695312
 21
26.30352783203125
 31
0.0
  0
LINE
  8
0
  6
CONTINUOUS
 62
              80
  5
156
 10
383.2464599609375
 20
26.30352783203125
 30
0.0
 11
383.2464599609375
 21
23.91070556640625
 31
0.0
  0
LINE
  8
0
  6
CONTINUOUS
 62
              80
  5
157
 10
382.2464599609375
 20
23.91070556640625
 30
0.0
 11
383.2464599609375
 21
23.91070556640625
 31
0.0
  0
LINE
  8
0
  6
CONTINUOUS
 62
              80
  5
158
 10
382.2464599609375
 20
23.5892333984375
 30
0.0
 11
382.2464599609375
 21
23.91070556640625
 31
0.0
  0
LINE
  8
0
  6
CONTINUOUS
 62
              80
  5
159
 10
384.9964599609375
 20
23.5892333984375
 30
0.0
 11
382.2464599609375
 21
23.5892333984375
 31
0.0
  0
LINE
  8
0
  6
CONTINUOUS
 62
              80
  5
15A
 10
384.9964599609375
 20
23.91070556640625
 30
0.0
 11
384.9964599609375
 21
23.5892333984375
 31
0.0
  0
LINE
  8
0
  6
CONTINUOUS
 62
              80
  5
15B
 10
384.06787109375
 20
23.91070556640625
 30
0.0
 11
384.9964599609375
 21
23.91070556640625
 31
0.0
  0
LINE
  8
0
  6
CONTINUOUS
 62
              80
  5
15C
 10
344.31072998046875
 20
24.3392333984375
 30
0.0
 11
344.31072998046875
 21
24.28570556640625
 31
0.0
  0
LINE
  8
0
  6
CONTINUOUS
 62
              80
  5
15D
 10
355.62525489853715
 20
27.339227231132753
 30
0.0
 11
356.17042098433365
 21
26.7856350311651
 31
0.0
  0
LINE
  8
0
  6
CONTINUOUS
 62
              80
  5
15E
 10
359.96045762794506
 20
27.339237304569025
 30
0.0
 11
359.41528113874938
 21
26.785633934062815
 31
0.0
  0
LINE
  8
0
  6
CONTINUOUS
 62
              80
  5
15F
 10
337.58724975585937
 20
26.44647216796875
 30
0.0
 11
337.85577392578125
 21
26.44647216796875
 31
0.0
  0
LINE
  8
0
  6
CONTINUOUS
 62
              80
  5
160
 10
337.58724975585937
 20
26.48211669921875
 30
0.0
 11
337.76675415039062
 21
26.48211669921875
 31
0.0
  0
LINE
  8
0
  6
CONTINUOUS
 62
              80
  5
161
 10
337.58724975585937
 20
26.017822265625
 30
0.0
 11
337.85577392578125
 21
26.017822265625
 31
0.0
  0
LINE
  8
0
  6
CONTINUOUS
 62
              80
  5
162
 10
337.58724975585937
 20
26.05340576171875
 30
0.0
 11
337.76675415039062
 21
26.05340576171875
 31
0.0
  0
LINE
  8
0
  6
CONTINUOUS
 62
              80
  5
163
 10
340.30142211914062
 20
26.44647216796875
 30
0.0
 11
340.5699462890625
 21
26.44647216796875
 31
0.0
  0
LINE
  8
0
  6
CONTINUOUS
 62
              80
  5
164
 10
340.30142211914062
 20
26.48211669921875
 30
0.0
 11
340.48092651367187
 21
26.48211669921875
 31
0.0
  0
LINE
  8
0
  6
CONTINUOUS
 62
              80
  5
165
 10
336.48934936523437
 20
27.35711669921875
 30
0.0
 11
341.66787719726562
 21
27.35711669921875
 31
0.0
  0
LINE
  8
0
  6
CONTINUOUS
 62
              80
  5
166
 10
336.20364379882812
 20
26.85711669921875
 30
0.0
 11
341.95370483398437
 21
26.85711669921875
 31
0.0
  0
LINE
  8
0
  6
CONTINUOUS
 62
              80
  5
167
 10
336.56072998046875
 20
25.5643310546875
 30
0.0
 11
341.59652709960937
 21
25.5643310546875
 31
0.0
  0
LINE
  8
0
  6
CONTINUOUS
 62
              80
  5
168
 10
336.56072998046875
 20
24.9642333984375
 30
0.0
 11
341.59652709960937
 21
24.9642333984375
 31
0.0
  0
LINE
  8
0
  6
CONTINUOUS
 62
              80
  5
169
 10
336.56072998046875
 20
24.3642578125
 30
0.0
 11
338.48931884765625
 21
24.3642578125
 31
0.0
  0
LINE
  8
0
  6
CONTINUOUS
 62
              80
  5
16A
 10
339.66787719726562
 20
24.3642578125
 30
0.0
 11
341.59652709960937
 21
24.3642578125
 31
0.0
  0
LINE
  8
0
  6
CONTINUOUS
 62
              80
  5
16B
 10
338.68930053710937
 20
23.642822265625
 30
0.0
 11
341.46792602539062
 21
23.642822265625
 31
0.0
  0
LINE
  8
0
  6
CONTINUOUS
 62
              80
  5
16C
 10
354.91787719726562
 20
26.78564453125
 30
0.0
 11
360.59646606445312
 21
26.78564453125
 31
0.0
  0
LINE
  8
0
  6
CONTINUOUS
 62
              80
  5
16D
 10
354.91787719726562
 20
26.0714111328125
 30
0.0
 11
360.59646606445312
 21
26.0714111328125
 31
0.0
  0
LINE
  8
0
  6
CONTINUOUS
 62
              80
  5
16E
 10
360.59646606445312
 20
25.5714111328125
 30
0.0
 11
354.91787719726562
 21
25.5714111328125
 31
0.0
  0
LINE
  8
0
  6
CONTINUOUS
 62
              80
  5
16F
 10
360.59646606445312
 20
25.0714111328125
 30
0.0
 11
354.91787719726562
 21
25.0714111328125
 31
0.0
  0
LINE
  8
0
  6
CONTINUOUS
 62
              80
  5
170
 10
356.15840604388137
 20
27.339238788657212
 30
0.0
 11
356.70357212967781
 21
26.785646588689531
 31
0.0
  0
LINE
  8
0
  6
CONTINUOUS
 62
              80
  5
171
 10
359.42732822663908
 20
27.339227157096531
 30
0.0
 11
358.88215173744334
 21
26.785623786590321
 31
0.0
  0
LINE
  8
0
  6
CONTINUOUS
 62
              80
  5
172
 10
364.63217163085937
 20
25.98138427734375
 30
0.0
 11
364.63217163085937
 21
26.4471435546875
 31
0.0
  0
LINE
  8
0
  6
CONTINUOUS
 62
              80
  5
173
 10
366.66787719726562
 20
25.98138427734375
 30
0.0
 11
365.31076049804687
 21
25.98138427734375
 31
0.0
  0
LINE
  8
0
  6
CONTINUOUS
 62
              80
  5
174
 10
366.66787719726562
 20
25.66143798828125
 30
0.0
 11
365.31076049804687
 21
25.66143798828125
 31
0.0
  0
LINE
  8
0
  6
CONTINUOUS
 62
              80
  5
175
 10
363.48931884765625
 20
26.4471435546875
 30
0.0
 11
364.63217163085937
 21
26.4471435546875
 31
0.0
  0
LINE
  8
0
  6
CONTINUOUS
 62
              80
  5
176
 10
361.06072998046875
 20
26.4471435546875
 30
0.0
 11
361.6865234375
 21
26.4471435546875
 31
0.0
  0
LINE
  8
0
  6
CONTINUOUS
 62
              80
  5
177
 10
361.06072998046875
 20
26.76708984375
 30
0.0
 11
361.70358276367187
 21
26.76708984375
 31
0.0
  0
LINE
  8
0
  6
CONTINUOUS
 62
              80
  5
178
 10
363.48931884765625
 20
25.98138427734375
 30
0.0
 11
363.48931884765625
 21
25.66143798828125
 31
0.0
  0
LINE
  8
0
  6
CONTINUOUS
 62
              80
  5
179
 10
366.66787719726562
 20
25.98138427734375
 30
0.0
 11
366.66787719726562
 21
25.66143798828125
 31
0.0
  0
LINE
  8
0
  6
CONTINUOUS
 62
              80
  5
17A
 10
364.23931884765625
 20
26.76708984375
 30
0.0
 11
364.63217163085937
 21
26.76708984375
 31
0.0
  0
LINE
  8
0
  6
CONTINUOUS
 62
              80
  5
17B
 10
366.66787719726562
 20
26.76708984375
 30
0.0
 11
366.66787719726562
 21
26.4471435546875
 31
0.0
  0
LINE
  8
0
  6
CONTINUOUS
 62
              80
  5
17C
 10
361.06072998046875
 20
26.76708984375
 30
0.0
 11
361.06072998046875
 21
26.4471435546875
 31
0.0
  0
LINE
  8
0
  6
CONTINUOUS
 62
              80
  5
17D
 10
363.09646606445312
 20
26.76708984375
 30
0.0
 11
363.09646606445312
 21
26.4471435546875
 31
0.0
  0
LINE
  8
0
  6
CONTINUOUS
 62
              80
  5
17E
 10
362.45358276367188
 20
26.4471435546875
 30
0.0
 11
363.09646606445312
 21
26.4471435546875
 31
0.0
  0
LINE
  8
0
  6
CONTINUOUS
 62
              80
  5
17F
 10
362.45358276367188
 20
26.76708984375
 30
0.0
 11
363.09646606445312
 21
26.76708984375
 31
0.0
  0
LINE
  8
0
  6
CONTINUOUS
 62
              80
  5
180
 10
364.09259033203125
 20
25.66143798828125
 30
0.0
 11
363.48931884765625
 21
25.66143798828125
 31
0.0
  0
LINE
  8
0
  6
CONTINUOUS
 62
              80
  5
181
 10
365.31076049804687
 20
26.4471435546875
 30
0.0
 11
366.66787719726562
 21
26.4471435546875
 31
0.0
  0
LINE
  8
0
  6
CONTINUOUS
 62
              80
  5
182
 10
364.63217163085937
 20
25.98138427734375
 30
0.0
 11
363.48931884765625
 21
25.98138427734375
 31
0.0
  0
LINE
  8
0
  6
CONTINUOUS
 62
              80
  5
183
 10
365.31076049804687
 20
26.76708984375
 30
0.0
 11
366.66787719726562
 21
26.76708984375
 31
0.0
  0
LINE
  8
0
  6
CONTINUOUS
 62
              80
  5
184
 10
364.63217163085937
 20
26.76708984375
 30
0.0
 11
364.63217163085937
 21
27.41070556640625
 31
0.0
  0
LINE
  8
0
  6
CONTINUOUS
 62
              80
  5
185
 10
365.31076049804687
 20
26.4471435546875
 30
0.0
 11
365.31076049804687
 21
25.98138427734375
 31
0.0
  0
LINE
  8
0
  6
CONTINUOUS
 62
              80
  5
186
 10
365.31076049804687
 20
25.66143798828125
 30
0.0
 11
365.31076049804687
 21
23.5892333984375
 31
0.0
  0
LINE
  8
0
  6
CONTINUOUS
 62
               3
  5
187
 10
233.0
 20
53.0
 30
0.0
 11
397.0
 21
53.0
 31
0.0
  0
LINE
  8
0
  6
CONTINUOUS
 62
               3
  5
188
 10
233.0
 20
27.0
 30
0.0
 11
271.0
 21
27.0
 31
0.0
  0
LINE
  8
0
  6
CONTINUOUS
 62
              80
  5
189
 10
233.0
 20
33.5
 30
0.0
 11
271.0
 21
33.5
 31
0.0
  0
LINE
  8
0
  6
CONTINUOUS
 62
              80
  5
18A
 10
233.0
 20
23.0
 30
0.0
 11
271.0
 21
23.0
 31
0.0
  0
CIRCLE
  8
0
  6
CONTINUOUS
 62
               3
  5
18B
 10
274.0
 20
272.99998474121094
 30
0.0
 40
0.2000000029802322
  0
CIRCLE
  8
0
  6
CONTINUOUS
 62
               3
  5
18C
 10
279.0
 20
272.99998474121094
 30
0.0
 40
0.2000000029802322
  0
CIRCLE
  8
0
  6
CONTINUOUS
 62
               3
  5
18D
 10
274.0
 20
267.99998474121094
 30
0.0
 40
0.2000000029802322
  0
CIRCLE
  8
0
  6
CONTINUOUS
 62
               3
  5
18E
 10
279.0
 20
267.99998474121094
 30
0.0
 40
0.2000000029802322
  0
CIRCLE
  8
0
  6
CONTINUOUS
 62
               3
  5
18F
 10
274.0
 20
262.99998474121094
 30
0.0
 40
0.2000000029802322
  0
CIRCLE
  8
0
  6
CONTINUOUS
 62
               3
  5
190
 10
279.0
 20
262.99998474121094
 30
0.0
 40
0.2000000029802322
  0
ARC
  8
0
  6
CONTINUOUS
 62
              80
  5
191
 10
324.75717163085937
 20
26.0
 30
0.0
 40
0.7678571343421936
 50
269.99999749552182
 51
0.0
  0
ARC
  8
0
  6
CONTINUOUS
 62
              80
  5
192
 10
323.68572998046875
 20
26.2142333984375
 30
0.0
 40
0.4464285671710968
 50
269.99999749552182
 51
0.0
  0
ARC
  8
0
  6
CONTINUOUS
 62
              80
  5
193
 10
320.97146606445312
 20
24.42852783203125
 30
0.0
 40
0.375
 50
269.99999749552182
 51
0.0
  0
ARC
  8
0
  6
CONTINUOUS
 62
              80
  5
194
 10
322.25717163085937
 20
24.142822265625
 30
0.0
 40
0.5535714030265808
 50
269.99999749552182
 51
0.0
  0
ARC
  8
0
  6
CONTINUOUS
 62
              80
  5
195
 10
345.75717163085937
 20
23.78570556640625
 30
0.0
 40
0.1964285671710968
 50
269.99999749552182
 51
0.0
  0
ARC
  8
0
  6
CONTINUOUS
 62
              80
  5
196
 10
343.68572998046875
 20
23.78570556640625
 30
0.0
 40
0.1964285671710968
 50
179.99999134857799
 51
270.00000068324533
  0
ARC
  8
0
  6
CONTINUOUS
 62
              80
  5
197
 10
344.54287719726562
 20
24.28570556640625
 30
0.0
 40
0.2321428507566452
 50
179.99999134857799
 51
270.00000068324533
  0
CIRCLE
  8
0
  6
CONTINUOUS
 62
              80
  5
198
 10
360.18572998046875
 20
24.142822265625
 30
0.0
 40
0.375
  0
CIRCLE
  8
0
  6
CONTINUOUS
 62
              80
  5
199
 10
366.25717163085937
 20
24.35711669921875
 30
0.0
 40
0.375
  0
CIRCLE
  8
0
  6
CONTINUOUS
 62
              80
  5
19A
 10
371.98574829101562
 20
27.142822265625
 30
0.0
 40
0.375
  0
CIRCLE
  8
0
  6
CONTINUOUS
 62
              80
  5
19B
 10
382.15716552734375
 20
24.78570556640625
 30
0.0
 40
0.375
  0
ARC
  8
0
  6
CONTINUOUS
 62
              80
  5
19C
 10
339.89788818359375
 20
23.872802734375
 30
0.0
 40
0.2300000041723251
 50
179.99999499104447
 51
269.99999749552262
  0
ARC
  8
0
  6
CONTINUOUS
 62
              80
  5
19D
 10
338.68930053710937
 20
23.8427734375
 30
0.0
 40
0.2000000029802322
 50
179.99999499104447
 51
269.99999749552262
  0
ARC
  8
0
  6
CONTINUOUS
 62
              80
  5
19E
 10
341.46792602539062
 20
23.8427734375
 30
0.0
 40
0.2000000029802322
 50
269.99999749552182
 51
0.0
  0
POLYLINE
  8
0
  6
CONTINUOUS
 62
              80
  5
19F
 66
               1
 10
0.0
 20
0.0
 30
0.0
  0
VERTEX
  8
0
  6
CONTINUOUS
 62
              80
  5
493
 10
346.53179931640625
 20
26.9464111328125
 30
0.0
  0
VERTEX
  8
0
  6
CONTINUOUS
 62
              80
  5
494
 10
346.52337884983626
 20
26.93542260061443
 30
0.0
  0
VERTEX
  8
0
  6
CONTINUOUS
 62
              80
  5
495
 10
346.51482411169798
 20
26.924521596161373
 30
0.0
  0
VERTEX
  8
0
  6
CONTINUOUS
 62
              80
  5
496
 10
346.50613465114151
 20
26.913714385500732
 30
0.0
  0
VERTEX
  8
0
  6
CONTINUOUS
 62
              80
  5
497
 10
346.49731001731681
 20
26.903007234679919
 30
0.0
  0
VERTEX
  8
0
  6
CONTINUOUS
 62
              80
  5
498
 10
346.48834975937393
 20
26.892406409746343
 30
0.0
  0
VERTEX
  8
0
  6
CONTINUOUS
 62
              80
  5
499
 10
346.47925342646289
 20
26.881918176747416
 30
0.0
  0
VERTEX
  8
0
  6
CONTINUOUS
 62
              80
  5
49A
 10
346.47002056773374
 20
26.871548801730544
 30
0.0
  0
VERTEX
  8
0
  6
CONTINUOUS
 62
              80
  5
49B
 10
346.46065073233649
 20
26.861304550743135
 30
0.0
  0
VERTEX
  8
0
  6
CONTINUOUS
 62
              80
  5
49C
 10
346.45114346942114
 20
26.851191689832604
 30
0.0
  0
VERTEX
  8
0
  6
CONTINUOUS
 62
              80
  5
49D
 10
346.44149832813775
 20
26.841216485046353
 30
0.0
  0
VERTEX
  8
0
  6
CONTINUOUS
 62
              80
  5
49E
 10
346.43171485763628
 20
26.8313852024318
 30
0.0
  0
VERTEX
  8
0
  6
CONTINUOUS
 62
              80
  5
49F
 10
346.42179260706683
 20
26.821704108036347
 30
0.0
  0
VERTEX
  8
0
  6
CONTINUOUS
 62
              80
  5
4A0
 10
346.41173112557937
 20
26.812179467907406
 30
0.0
  0
VERTEX
  8
0
  6
CONTINUOUS
 62
              80
  5
4A1
 10
346.40152996232399
 20
26.802817548092385
 30
0.0
  0
VERTEX
  8
0
  6
CONTINUOUS
 62
              80
  5
4A2
 10
346.39118866645066
 20
26.793624614638698
 30
0.0
  0
VERTEX
  8
0
  6
CONTINUOUS
 62
              80
  5
4A3
 10
346.38070678710937
 20
26.78460693359375
 30
0.0
  0
VERTEX
  8
0
  6
CONTINUOUS
 62
              80
  5
4A4
 10
346.36802896241096
 20
26.774090821687668
 30
0.0
  0
VERTEX
  8
0
  6
CONTINUOUS
 62
              80
  5
4A5
 10
346.35516154950801
 20
26.763819683821389
 30
0.0
  0
VERTEX
  8
0
  6
CONTINUOUS
 62
              80
  5
4A6
 10
346.34211524712839
 20
26.753780124639611
 30
0.0
  0
VERTEX
  8
0
  6
CONTINUOUS
 62
              80
  5
4A7
 10
346.32890075399968
 20
26.743958748787044
 30
0.0
  0
VERTEX
  8
0
  6
CONTINUOUS
 62
              80
  5
4A8
 10
346.31552876884967
 20
26.734342160908387
 30
0.0
  0
VERTEX
  8
0
  6
CONTINUOUS
 62
              80
  5
4A9
 10
346.30200999040608
 20
26.72491696564834
 30
0.0
  0
VERTEX
  8
0
  6
CONTINUOUS
 62
              80
  5
4AA
 10
346.28835511739663
 20
26.715669767651615
 30
0.0
  0
VERTEX
  8
0
  6
CONTINUOUS
 62
              80
  5
4AB
 10
346.27457484854904
 20
26.706587171562905
 30
0.0
  0
VERTEX
  8
0
  6
CONTINUOUS
 62
              80
  5
4AC
 10
346.26067988259103
 20
26.697655782026917
 30
0.0
  0
VERTEX
  8
0
  6
CONTINUOUS
 62
              80
  5
4AD
 10
346.24668091825032
 20
26.688862203688355
 30
0.0
  0
VERTEX
  8
0
  6
CONTINUOUS
 62
              80
  5
4AE
 10
346.23258865425464
 20
26.68019304119192
 30
0.0
  0
VERTEX
  8
0
  6
CONTINUOUS
 62
              80
  5
4AF
 10
346.21841378933169
 20
26.671634899182312
 30
0.0
  0
VERTEX
  8
0
  6
CONTINUOUS
 62
              80
  5
4B0
 10
346.20416702220928
 20
26.663174382304241
 30
0.0
  0
VERTEX
  8
0
  6
CONTINUOUS
 62
              80
  5
4B1
 10
346.18985905161497
 20
26.654798095202406
 30
0.0
  0
VERTEX
  8
0
  6
CONTINUOUS
 62
              80
  5
4B2
 10
346.17550057627659
 20
26.646492642521505
 30
0.0
  0
VERTEX
  8
0
  6
CONTINUOUS
 62
              80
  5
4B3
 10
346.16110229492187
 20
26.63824462890625
 30
0.0
  0
VERTEX
  8
0
  6
CONTINUOUS
 62
              80
  5
4B4
 10
346.08392459944548
 20
26.595091794509898
 30
0.0
  0
VERTEX
  8
0
  6
CONTINUOUS
 62
              80
  5
4B5
 10
346.00593992001637
 20
26.553262552201083
 30
0.0
  0
VERTEX
  8
0
  6
CONTINUOUS
 62
              80
  5
4B6
 10
345.92717768448034
 20
26.512815024774099
 30
0.0
  0
VERTEX
  8
0
  6
CONTINUOUS
 62
              80
  5
4B7
 10
345.84766732068323
 20
26.473807335023228
 30
0.0
  0
VERTEX
  8
0
  6
CONTINUOUS
 62
              80
  5
4B8
 10
345.76743825647083
 20
26.436297605742766
 30
0.0
  0
VERTEX
  8
0
  6
CONTINUOUS
 62
              80
  5
4B9
 10
345.68651991968898
 20
26.400343959726996
 30
0.0
  0
VERTEX
  8
0
  6
CONTINUOUS
 62
              80
  5
4BA
 10
345.60494173818341
 20
26.366004519770215
 30
0.0
  0
VERTEX
  8
0
  6
CONTINUOUS
 62
              80
  5
4BB
 10
345.52273313979998
 20
26.333337408666708
 30
0.0
  0
VERTEX
  8
0
  6
CONTINUOUS
 62
              80
  5
4BC
 10
345.43992355238458
 20
26.302400749210769
 30
0.0
  0
VERTEX
  8
0
  6
CONTINUOUS
 62
              80
  5
4BD
 10
345.3565424037829
 20
26.273252664196679
 30
0.0
  0
VERTEX
  8
0
  6
CONTINUOUS
 62
              80
  5
4BE
 10
345.27261912184082
 20
26.245951276418737
 30
0.0
  0
VERTEX
  8
0
  6
CONTINUOUS
 62
              80
  5
4BF
 10
345.18818313440408
 20
26.220554708671227
 30
0.0
  0
VERTEX
  8
0
  6
CONTINUOUS
 62
              80
  5
4C0
 10
345.1032638693186
 20
26.197121083748442
 30
0.0
  0
VERTEX
  8
0
  6
CONTINUOUS
 62
              80
  5
4C1
 10
345.01789075443008
 20
26.175708524444666
 30
0.0
  0
VERTEX
  8
0
  6
CONTINUOUS
 62
              80
  5
4C2
 10
344.9320932175844
 20
26.156375153554194
 30
0.0
  0
VERTEX
  8
0
  6
CONTINUOUS
 62
              80
  5
4C3
 10
344.84590068662737
 20
26.139179093871313
 30
0.0
  0
SEQEND
  8
0
  6
CONTINUOUS
 62
              80
  5
4C4
  0
POLYLINE
  8
0
  6
CONTINUOUS
 62
              80
  5
1A0
 66
               1
 10
0.0
 20
0.0
 30
0.0
  0
VERTEX
  8
0
  6
CONTINUOUS
 62
              80
  5
4C5
 10
348.16696166992187
 20
26.908447265625
 30
0.0
  0
VERTEX
  8
0
  6
CONTINUOUS
 62
              80
  5
4C6
 10
348.09205694607999
 20
26.866400490875407
 30
0.0
  0
VERTEX
  8
0
  6
CONTINUOUS
 62
              80
  5
4C7
 10
348.0168165444685
 20
26.82499872648933
 30
0.0
  0
VERTEX
  8
0
  6
CONTINUOUS
 62
              80
  5
4C8
 10
347.94125461143187
 20
26.784211909136751
 30
0.0
  0
VERTEX
  8
0
  6
CONTINUOUS
 62
              80
  5
4C9
 10
347.86538529331449
 20
26.744009975487629
 30
0.0
  0
VERTEX
  8
0
  6
CONTINUOUS
 62
              80
  5
4CA
 10
347.78922273646083
 20
26.704362862211941
 30
0.0
  0
VERTEX
  8
0
  6
CONTINUOUS
 62
              80
  5
4CB
 10
347.71278108721532
 20
26.665240505979654
 30
0.0
  0
VERTEX
  8
0
  6
CONTINUOUS
 62
              80
  5
4CC
 10
347.63607449192239
 20
26.626612843460745
 30
0.0
  0
VERTEX
  8
0
  6
CONTINUOUS
 62
              80
  5
4CD
 10
347.55911709692646
 20
26.588449811325177
 30
0.0
  0
VERTEX
  8
0
  6
CONTINUOUS
 62
              80
  5
4CE
 10
347.48192304857201
 20
26.550721346242923
 30
0.0
  0
VERTEX
  8
0
  6
CONTINUOUS
 62
              80
  5
4CF
 10
347.40450649320348
 20
26.513397384883955
 30
0.0
  0
VERTEX
  8
0
  6
CONTINUOUS
 62
              80
  5
4D0
 10
347.32688157716524
 20
26.476447863918246
 30
0.0
  0
VERTEX
  8
0
  6
CONTINUOUS
 62
              80
  5
4D1
 10
347.24906244680182
 20
26.439842720015761
 30
0.0
  0
VERTEX
  8
0
  6
CONTINUOUS
 62
              80
  5
4D2
 10
347.17106324845753
 20
26.403551889846472
 30
0.0
  0
VERTEX
  8
0
  6
CONTINUOUS
 62
              80
  5
4D3
 10
347.09289812847692
 20
26.367545310080352
 30
0.0
  0
VERTEX
  8
0
  6
CONTINUOUS
 62
              80
  5
4D4
 10
347.01458123320441
 20
26.331792917387371
 30
0.0
  0
VERTEX
  8
0
  6
CONTINUOUS
 62
              80
  5
4D5
 10
346.93612670898437
 20
26.2962646484375
 30
0.0
  0
VERTEX
  8
0
  6
CONTINUOUS
 62
              80
  5
4D6
 10
346.87966772230266
 20
26.270867027109265
 30
0.0
  0
VERTEX
  8
0
  6
CONTINUOUS
 62
              80
  5
4D7
 10
346.82312736672122
 20
26.245627812916197
 30
0.0
  0
VERTEX
  8
0
  6
CONTINUOUS
 62
              80
  5
4D8
 10
346.76648976899833
 20
26.220605468049762
 30
0.0
  0
VERTEX
  8
0
  6
CONTINUOUS
 62
              80
  5
4D9
 10
346.70973905589193
 20
26.195858454701419
 30
0.0
  0
VERTEX
  8
0
  6
CONTINUOUS
 62
              80
  5
4DA
 10
346.65285935416034
 20
26.171445235062631
 30
0.0
  0
VERTEX
  8
0
  6
CONTINUOUS
 62
              80
  5
4DB
 10
346.59583479056158
 20
26.147424271324862
 30
0.0
  0
VERTEX
  8
0
  6
CONTINUOUS
 62
              80
  5
4DC
 10
346.53864949185385
 20
26.123854025679574
 30
0.0
  0
VERTEX
  8
0
  6
CONTINUOUS
 62
              80
  5
4DD
 10
346.48128758479521
 20
26.10079296031823
 30
0.0
  0
VERTEX
  8
0
  6
CONTINUOUS
 62
              80
  5
4DE
 10
346.42373319614387
 20
26.078299537432297
 30
0.0
  0
VERTEX
  8
0
  6
CONTINUOUS
 62
              80
  5
4DF
 10
346.36597045265796
 20
26.056432219213228
 30
0.0
  0
VERTEX
  8
0
  6
CONTINUOUS
 62
              80
  5
4E0
 10
346.30798348109562
 20
26.035249467852495
 30
0.0
  0
VERTEX
  8
0
  6
CONTINUOUS
 62
              80
  5
4E1
 10
346.24975640821492
 20
26.014809745541555
 30
0.0
  0
VERTEX
  8
0
  6
CONTINUOUS
 62
              80
  5
4E2
 10
346.19127336077406
 20
25.995171514471874
 30
0.0
  0
VERTEX
  8
0
  6
CONTINUOUS
 62
              80
  5
4E3
 10
346.13251846553118
 20
25.976393236834912
 30
0.0
  0
VERTEX
  8
0
  6
CONTINUOUS
 62
              80
  5
4E4
 10
346.0734758492444
 20
25.958533374822132
 30
0.0
  0
VERTEX
  8
0
  6
CONTINUOUS
 62
              80
  5
4E5
 10
346.01412963867187
 20
25.941650390625
 30
0.0
  0
VERTEX
  8
0
  6
CONTINUOUS
 62
              80
  5
4E6
 10
346.01035387043703
 20
25.94061347910565
 30
0.0
  0
VERTEX
  8
0
  6
CONTINUOUS
 62
              80
  5
4E7
 10
346.00657657092961
 20
25.939580405447487
 30
0.0
  0
VERTEX
  8
0
  6
CONTINUOUS
 62
              80
  5
4E8
 10
346.00279782795224
 20
25.938551090587225
 30
0.0
  0
VERTEX
  8
0
  6
CONTINUOUS
 62
              80
  5
4E9
 10
345.99901772930752
 20
25.937525455461582
 30
0.0
  0
VERTEX
  8
0
  6
CONTINUOUS
 62
              80
  5
4EA
 10
345.9952363627981
 20
25.936503421007274
 30
0.0
  0
VERTEX
  8
0
  6
CONTINUOUS
 62
              80
  5
4EB
 10
345.99145381622657
 20
25.935484908161015
 30
0.0
  0
VERTEX
  8
0
  6
CONTINUOUS
 62
              80
  5
4EC
 10
345.98767017739556
 20
25.934469837859524
 30
0.0
  0
VERTEX
  8
0
  6
CONTINUOUS
 62
              80
  5
4ED
 10
345.98388553410769
 20
25.933458131039515
 30
0.0
  0
VERTEX
  8
0
  6
CONTINUOUS
 62
              80
  5
4EE
 10
345.98009997416557
 20
25.932449708637705
 30
0.0
  0
VERTEX
  8
0
  6
CONTINUOUS
 62
              80
  5
4EF
 10
345.97631358537183
 20
25.93144449159081
 30
0.0
  0
VERTEX
  8
0
  6
CONTINUOUS
 62
              80
  5
4F0
 10
345.97252645552908
 20
25.930442400835545
 30
0.0
  0
VERTEX
  8
0
  6
CONTINUOUS
 62
              80
  5
4F1
 10
345.96873867243994
 20
25.929443357308628
 30
0.0
  0
VERTEX
  8
0
  6
CONTINUOUS
 62
              80
  5
4F2
 10
345.96495032390703
 20
25.928447281946774
 30
0.0
  0
VERTEX
  8
0
  6
CONTINUOUS
 62
              80
  5
4F3
 10
345.96116149773297
 20
25.927454095686699
 30
0.0
  0
VERTEX
  8
0
  6
CONTINUOUS
 62
              80
  5
4F4
 10
345.95737228172038
 20
25.926463719465119
 30
0.0
  0
VERTEX
  8
0
  6
CONTINUOUS
 62
              80
  5
4F5
 10
345.95358276367187
 20
25.92547607421875
 30
0.0
  0
SEQEND
  8
0
  6
CONTINUOUS
 62
              80
  5
4F6
  0
POLYLINE
  8
0
  6
CONTINUOUS
 62
              80
  5
1A1
 66
               1
 10
0.0
 20
0.0
 30
0.0
  0
VERTEX
  8
0
  6
CONTINUOUS
 62
              80
  5
4F7
 10
357.2750244140625
 20
24.56298828125
 30
0.0
  0
VERTEX
  8
0
  6
CONTINUOUS
 62
              80
  5
4F8
 10
357.26625905035752
 20
24.554252588040061
 30
0.0
  0
VERTEX
  8
0
  6
CONTINUOUS
 62
              80
  5
4F9
 10
357.25746175526922
 20
24.545547223834689
 30
0.0
  0
VERTEX
  8
0
  6
CONTINUOUS
 62
              80
  5
4FA
 10
357.24863210015167
 20
24.5368732110067
 30
0.0
  0
VERTEX
  8
0
  6
CONTINUOUS
 62
              80
  5
4FB
 10
357.2397696563591
 20
24.52823157192892
 30
0.0
  0
VERTEX
  8
0
  6
CONTINUOUS
 62
              80
  5
4FC
 10
357.23087399524559
 20
24.519623328974173
 30
0.0
  0
VERTEX
  8
0
  6
CONTINUOUS
 62
              80
  5
4FD
 10
357.22194468816542
 20
24.511049504515274
 30
0.0
  0
VERTEX
  8
0
  6
CONTINUOUS
 62
              80
  5
4FE
 10
357.21298130647267
 20
24.502511120925046
 30
0.0
  0
VERTEX
  8
0
  6
CONTINUOUS
 62
              80
  5
4FF
 10
357.20398342152151
 20
24.494009200576315
 30
0.0
  0
VERTEX
  8
0
  6
CONTINUOUS
 62
              80
  5
500
 10
357.19495060466613
 20
24.485544765841894
 30
0.0
  0
VERTEX
  8
0
  6
CONTINUOUS
 62
              80
  5
501
 10
357.18588242726065
 20
24.477118839094612
 30
0.0
  0
VERTEX
  8
0
  6
CONTINUOUS
 62
              80
  5
502
 10
357.17677846065925
 20
24.468732442707285
 30
0.0
  0
VERTEX
  8
0
  6
CONTINUOUS
 62
              80
  5
503
 10
357.16763827621617
 20
24.460386599052736
 30
0.0
  0
VERTEX
  8
0
  6
CONTINUOUS
 62
              80
  5
504
 10
357.15846144528541
 20
24.452082330503789
 30
0.0
  0
VERTEX
  8
0
  6
CONTINUOUS
 62
              80
  5
505
 10
357.14924753922128
 20
24.443820659433261
 30
0.0
  0
VERTEX
  8
0
  6
CONTINUOUS
 62
              80
  5
506
 10
357.13999612937789
 20
24.435602608213973
 30
0.0
  0
VERTEX
  8
0
  6
CONTINUOUS
 62
              80
  5
507
 10
357.13070678710937
 20
24.42742919921875
 30
0.0
  0
VERTEX
  8
0
  6
CONTINUOUS
 62
              80
  5
508
 10
357.07984476164523
 20
24.384040241160985
 30
0.0
  0
VERTEX
  8
0
  6
CONTINUOUS
 62
              80
  5
509
 10
357.02791140385744
 20
24.341948861373051
 30
0.0
  0
VERTEX
  8
0
  6
CONTINUOUS
 62
              80
  5
50A
 10
356.97496208133651
 20
24.301115170365239
 30
0.0
  0
VERTEX
  8
0
  6
CONTINUOUS
 62
              80
  5
50B
 10
356.92105216167317
 20
24.261499278647843
 30
0.0
  0
VERTEX
  8
0
  6
CONTINUOUS
 62
              80
  5
50C
 10
356.86623701245782
 20
24.223061296731153
 30
0.0
  0
VERTEX
  8
0
  6
CONTINUOUS
 62
              80
  5
50D
 10
356.81057200128106
 20
24.185761335125463
 30
0.0
  0
VERTEX
  8
0
  6
CONTINUOUS
 62
              80
  5
50E
 10
356.75411249573352
 20
24.14955950434106
 30
0.0
  0
VERTEX
  8
0
  6
CONTINUOUS
 62
              80
  5
50F
 10
356.69691386340577
 20
24.114415914888234
 30
0.0
  0
VERTEX
  8
0
  6
CONTINUOUS
 62
              80
  5
510
 10
356.6390314718883
 20
24.080290677277283
 30
0.0
  0
VERTEX
  8
0
  6
CONTINUOUS
 62
              80
  5
511
 10
356.58052068877168
 20
24.047143902018494
 30
0.0
  0
VERTEX
  8
0
  6
CONTINUOUS
 62
              80
  5
512
 10
356.52143688164659
 20
24.014935699622157
 30
0.0
  0
VERTEX
  8
0
  6
CONTINUOUS
 62
              80
  5
513
 10
356.46183541810348
 20
23.98362618059857
 30
0.0
  0
VERTEX
  8
0
  6
CONTINUOUS
 62
              80
  5
514
 10
356.40177166573289
 20
23.953175455458016
 30
0.0
  0
VERTEX
  8
0
  6
CONTINUOUS
 62
              80
  5
515
 10
356.34130099212553
 20
23.923543634710796
 30
0.0
  0
VERTEX
  8
0
  6
CONTINUOUS
 62
              80
  5
516
 10
356.28047876487187
 20
23.894690828867191
 30
0.0
  0
VERTEX
  8
0
  6
CONTINUOUS
 62
              80
  5
517
 10
356.2193603515625
 20
23.8665771484375
 30
0.0
  0
VERTEX
  8
0
  6
CONTINUOUS
 62
              80
  5
518
 10
356.17285316480854
 20
23.845734268740721
 30
0.0
  0
VERTEX
  8
0
  6
CONTINUOUS
 62
              80
  5
519
 10
356.12620573502358
 20
23.825303710949203
 30
0.0
  0
VERTEX
  8
0
  6
CONTINUOUS
 62
              80
  5
51A
 10
356.07941572316372
 20
23.805296163104092
 30
0.0
  0
VERTEX
  8
0
  6
CONTINUOUS
 62
              80
  5
51B
 10
356.03248079018493
 20
23.78572231324652
 30
0.0
  0
VERTEX
  8
0
  6
CONTINUOUS
 62
              80
  5
51C
 10
355.98539859704323
 20
23.766592849417634
 30
0.0
  0
VERTEX
  8
0
  6
CONTINUOUS
 62
              80
  5
51D
 10
355.93816680469479
 20
23.747918459658571
 30
0.0
  0
VERTEX
  8
0
  6
CONTINUOUS
 62
              80
  5
51E
 10
355.89078307409551
 20
23.729709832010467
 30
0.0
  0
VERTEX
  8
0
  6
CONTINUOUS
 62
              80
  5
51F
 10
355.84324506620146
 20
23.71197765451447
 30
0.0
  0
VERTEX
  8
0
  6
CONTINUOUS
 62
              80
  5
520
 10
355.79555044196871
 20
23.694732615211713
 30
0.0
  0
VERTEX
  8
0
  6
CONTINUOUS
 62
              80
  5
521
 10
355.74769686235328
 20
23.677985402143342
 30
0.0
  0
VERTEX
  8
0
  6
CONTINUOUS
 62
              80
  5
522
 10
355.69968198831123
 20
23.661746703350492
 30
0.0
  0
VERTEX
  8
0
  6
CONTINUOUS
 62
              80
  5
523
 10
355.65150348079862
 20
23.646027206874304
 30
0.0
  0
VERTEX
  8
0
  6
CONTINUOUS
 62
              80
  5
524
 10
355.60315900077137
 20
23.630837600755921
 30
0.0
  0
VERTEX
  8
0
  6
CONTINUOUS
 62
              80
  5
525
 10
355.55464620918565
 20
23.616188573036482
 30
0.0
  0
VERTEX
  8
0
  6
CONTINUOUS
 62
              80
  5
526
 10
355.50596276699741
 20
23.602090811757122
 30
0.0
  0
VERTEX
  8
0
  6
CONTINUOUS
 62
              80
  5
527
 10
355.45710633516279
 20
23.588555004958987
 30
0.0
  0
SEQEND
  8
0
  6
CONTINUOUS
 62
              80
  5
528
  0
POLYLINE
  8
0
  6
CONTINUOUS
 62
              80
  5
1A2
 66
               1
 10
0.0
 20
0.0
 30
0.0
  0
VERTEX
  8
0
  6
CONTINUOUS
 62
              80
  5
529
 10
361.70358276367187
 20
24.96160888671875
 30
0.0
  0
VERTEX
  8
0
  6
CONTINUOUS
 62
              80
  5
52A
 10
361.69394467243148
 20
24.949807028923487
 30
0.0
  0
VERTEX
  8
0
  6
CONTINUOUS
 62
              80
  5
52B
 10
361.68429470840374
 20
24.938015428422776
 30
0.0
  0
VERTEX
  8
0
  6
CONTINUOUS
 62
              80
  5
52C
 10
361.67463286184909
 20
24.926234043750664
 30
0.0
  0
VERTEX
  8
0
  6
CONTINUOUS
 62
              80
  5
52D
 10
361.6649591230281
 20
24.914462833441195
 30
0.0
  0
VERTEX
  8
0
  6
CONTINUOUS
 62
              80
  5
52E
 10
361.65527348220127
 20
24.902701756028414
 30
0.0
  0
VERTEX
  8
0
  6
CONTINUOUS
 62
              80
  5
52F
 10
361.64557592962922
 20
24.89095077004637
 30
0.0
  0
VERTEX
  8
0
  6
CONTINUOUS
 62
              80
  5
530
 10
361.63586645557234
 20
24.879209834029105
 30
0.0
  0
VERTEX
  8
0
  6
CONTINUOUS
 62
              80
  5
531
 10
361.62614505029131
 20
24.867478906510662
 30
0.0
  0
VERTEX
  8
0
  6
CONTINUOUS
 62
              80
  5
532
 10
361.61641170404653
 20
24.85575794602509
 30
0.0
  0
VERTEX
  8
0
  6
CONTINUOUS
 62
              80
  5
533
 10
361.6066664070986
 20
24.844046911106435
 30
0.0
  0
VERTEX
  8
0
  6
CONTINUOUS
 62
              80
  5
534
 10
361.59690914970804
 20
24.832345760288739
 30
0.0
  0
VERTEX
  8
0
  6
CONTINUOUS
 62
              80
  5
535
 10
361.58713992213541
 20
24.820654452106048
 30
0.0
  0
VERTEX
  8
0
  6
CONTINUOUS
 62
              80
  5
536
 10
361.57735871464121
 20
24.80897294509241
 30
0.0
  0
VERTEX
  8
0
  6
CONTINUOUS
 62
              80
  5
537
 10
361.56756551748589
 20
24.797301197781866
 30
0.0
  0
VERTEX
  8
0
  6
CONTINUOUS
 62
              80
  5
538
 10
361.55776032093013
 20
24.785639168708464
 30
0.0
  0
VERTEX
  8
0
  6
CONTINUOUS
 62
              80
  5
539
 10
361.54794311523437
 20
24.77398681640625
 30
0.0
  0
VERTEX
  8
0
  6
CONTINUOUS
 62
              80
  5
53A
 10
361.51836189300917
 20
24.739020980438355
 30
0.0
  0
VERTEX
  8
0
  6
CONTINUOUS
 62
              80
  5
53B
 10
361.48867247598093
 20
24.704144926592484
 30
0.0
  0
VERTEX
  8
0
  6
CONTINUOUS
 62
              80
  5
53C
 10
361.45887528044511
 20
24.669359100039717
 30
0.0
  0
VERTEX
  8
0
  6
CONTINUOUS
 62
              80
  5
53D
 10
361.42897072269727
 20
24.634663945951129
 30
0.0
  0
VERTEX
  8
0
  6
CONTINUOUS
 62
              80
  5
53E
 10
361.39895921903303
 20
24.600059909497798
 30
0.0
  0
VERTEX
  8
0
  6
CONTINUOUS
 62
              80
  5
53F
 10
361.36884118574778
 20
24.565547435850803
 30
0.0
  0
VERTEX
  8
0
  6
CONTINUOUS
 62
              80
  5
540
 10
361.33861703913715
 20
24.531126970181223
 30
0.0
  0
VERTEX
  8
0
  6
CONTINUOUS
 62
              80
  5
541
 10
361.30828719549669
 20
24.496798957660133
 30
0.0
  0
VERTEX
  8
0
  6
CONTINUOUS
 62
              80
  5
542
 10
361.27785207112186
 20
24.462563843458611
 30
0.0
  0
VERTEX
  8
0
  6
CONTINUOUS
 62
              80
  5
543
 10
361.24731208230821
 20
24.428422072747736
 30
0.0
  0
VERTEX
  8
0
  6
CONTINUOUS
 62
              80
  5
544
 10
361.21666764535132
 20
24.394374090698587
 30
0.0
  0
VERTEX
  8
0
  6
CONTINUOUS
 62
              80
  5
545
 10
361.18591917654669
 20
24.360420342482239
 30
0.0
  0
VERTEX
  8
0
  6
CONTINUOUS
 62
              80
  5
546
 10
361.15506709218988
 20
24.326561273269771
 30
0.0
  0
VERTEX
  8
0
  6
CONTINUOUS
 62
              80
  5
547
 10
361.1241118085764
 20
24.292797328232261
 30
0.0
  0
VERTEX
  8
0
  6
CONTINUOUS
 62
              80
  5
548
 10
361.09305374200181
 20
24.259128952540788
 30
0.0
  0
VERTEX
  8
0
  6
CONTINUOUS
 62
              80
  5
549
 10
361.06189330876163
 20
24.225556591366427
 30
0.0
  0
SEQEND
  8
0
  6
CONTINUOUS
 62
              80
  5
54A
  0
POLYLINE
  8
0
  6
CONTINUOUS
 62
              80
  5
1A3
 66
               1
 10
0.0
 20
0.0
 30
0.0
  0
VERTEX
  8
0
  6
CONTINUOUS
 62
              80
  5
54B
 10
362.45358276367188
 20
25.05609130859375
 30
0.0
  0
VERTEX
  8
0
  6
CONTINUOUS
 62
              80
  5
54C
 10
362.46276182987657
 20
25.047856339400408
 30
0.0
  0
VERTEX
  8
0
  6
CONTINUOUS
 62
              80
  5
54D
 10
362.47194546465448
 20
25.039626382560431
 30
0.0
  0
VERTEX
  8
0
  6
CONTINUOUS
 62
              80
  5
54E
 10
362.48113364410244
 20
25.031401426420089
 30
0.0
  0
VERTEX
  8
0
  6
CONTINUOUS
 62
              80
  5
54F
 10
362.49032634431751
 20
25.023181459325642
 30
0.0
  0
VERTEX
  8
0
  6
CONTINUOUS
 62
              80
  5
550
 10
362.49952354139651
 20
25.014966469623353
 30
0.0
  0
VERTEX
  8
0
  6
CONTINUOUS
 62
              80
  5
551
 10
362.50872521143651
 20
25.006756445659491
 30
0.0
  0
VERTEX
  8
0
  6
CONTINUOUS
 62
              80
  5
552
 10
362.51793133053434
 20
24.99855137578032
 30
0.0
  0
VERTEX
  8
0
  6
CONTINUOUS
 62
              80
  5
553
 10
362.52714187478705
 20
24.990351248332104
 30
0.0
  0
VERTEX
  8
0
  6
CONTINUOUS
 62
              80
  5
554
 10
362.53635682029147
 20
24.982156051661104
 30
0.0
  0
VERTEX
  8
0
  6
CONTINUOUS
 62
              80
  5
555
 10
362.54557614314461
 20
24.973965774113591
 30
0.0
  0
VERTEX
  8
0
  6
CONTINUOUS
 62
              80
  5
556
 10
362.55479981944347
 20
24.965780404035826
 30
0.0
  0
VERTEX
  8
0
  6
CONTINUOUS
 62
              80
  5
557
 10
362.56402782528488
 20
24.957599929774076
 30
0.0
  0
VERTEX
  8
0
  6
CONTINUOUS
 62
              80
  5
558
 10
362.5732601367659
 20
24.949424339674604
 30
0.0
  0
VERTEX
  8
0
  6
CONTINUOUS
 62
              80
  5
559
 10
362.5824967299834
 20
24.941253622083671
 30
0.0
  0
VERTEX
  8
0
  6
CONTINUOUS
 62
              80
  5
55A
 10
362.59173758103429
 20
24.933087765347551
 30
0.0
  0
VERTEX
  8
0
  6
CONTINUOUS
 62
              80
  5
55B
 10
362.60098266601562
 20
24.9249267578125
 30
0.0
  0
VERTEX
  8
0
  6
CONTINUOUS
 62
              80
  5
55C
 10
362.62744398995267
 20
24.901616444467425
 30
0.0
  0
VERTEX
  8
0
  6
CONTINUOUS
 62
              80
  5
55D
 10
362.65394119757082
 20
24.878346299672987
 30
0.0
  0
VERTEX
  8
0
  6
CONTINUOUS
 62
              80
  5
55E
 10
362.68047420027
 20
24.855116428777432
 30
0.0
  0
VERTEX
  8
0
  6
CONTINUOUS
 62
              80
  5
55F
 10
362.70704290945008
 20
24.831926937128998
 30
0.0
  0
VERTEX
  8
0
  6
CONTINUOUS
 62
              80
  5
560
 10
362.73364723651082
 20
24.808777930075927
 30
0.0
  0
VERTEX
  8
0
  6
CONTINUOUS
 62
              80
  5
561
 10
362.76028709285214
 20
24.785669512966457
 30
0.0
  0
VERTEX
  8
0
  6
CONTINUOUS
 62
              80
  5
562
 10
362.78696238987385
 20
24.762601791148839
 30
0.0
  0
VERTEX
  8
0
  6
CONTINUOUS
 62
              80
  5
563
 10
362.81367303897582
 20
24.739574869971307
 30
0.0
  0
VERTEX
  8
0
  6
CONTINUOUS
 62
              80
  5
564
 10
362.84041895155792
 20
24.716588854782103
 30
0.0
  0
VERTEX
  8
0
  6
CONTINUOUS
 62
              80
  5
565
 10
362.86720003901996
 20
24.693643850929472
 30
0.0
  0
VERTEX
  8
0
  6
CONTINUOUS
 62
              80
  5
566
 10
362.89401621276181
 20
24.670739963761655
 30
0.0
  0
VERTEX
  8
0
  6
CONTINUOUS
 62
              80
  5
567
 10
362.92086738418328
 20
24.647877298626891
 30
0.0
  0
VERTEX
  8
0
  6
CONTINUOUS
 62
              80
  5
568
 10
362.9477534646843
 20
24.625055960873425
 30
0.0
  0
VERTEX
  8
0
  6
CONTINUOUS
 62
              80
  5
569
 10
362.97467436566467
 20
24.602276055849497
 30
0.0
  0
VERTEX
  8
0
  6
CONTINUOUS
 62
              80
  5
56A
 10
363.00162999852421
 20
24.579537688903347
 30
0.0
  0
VERTEX
  8
0
  6
CONTINUOUS
 62
              80
  5
56B
 10
363.02862027466284
 20
24.55684096538322
 30
0.0
  0
SEQEND
  8
0
  6
CONTINUOUS
 62
              80
  5
56C
  0
POLYLINE
  8
0
  6
CONTINUOUS
 62
              80
  5
1A4
 66
               1
 10
0.0
 20
0.0
 30
0.0
  0
VERTEX
  8
0
  6
CONTINUOUS
 62
              80
  5
56D
 10
362.45358276367188
 20
25.8272705078125
 30
0.0
  0
VERTEX
  8
0
  6
CONTINUOUS
 62
              80
  5
56E
 10
362.45506940609539
 20
25.825334717413909
 30
0.0
  0
VERTEX
  8
0
  6
CONTINUOUS
 62
              80
  5
56F
 10
362.45655689569395
 20
25.823400052081315
 30
0.0
  0
VERTEX
  8
0
  6
CONTINUOUS
 62
              80
  5
570
 10
362.45804519105025
 20
25.821466429402925
 30
0.0
  0
VERTEX
  8
0
  6
CONTINUOUS
 62
              80
  5
571
 10
362.45953425074703
 20
25.819533766966938
 30
0.0
  0
VERTEX
  8
0
  6
CONTINUOUS
 62
              80
  5
572
 10
362.46102403336693
 20
25.817601982361566
 30
0.0
  0
VERTEX
  8
0
  6
CONTINUOUS
 62
              80
  5
573
 10
362.46251449749263
 20
25.815670993175015
 30
0.0
  0
VERTEX
  8
0
  6
CONTINUOUS
 62
              80
  5
574
 10
362.4640056017069
 20
25.81374071699549
 30
0.0
  0
VERTEX
  8
0
  6
CONTINUOUS
 62
              80
  5
575
 10
362.46549730459247
 20
25.811811071411199
 30
0.0
  0
VERTEX
  8
0
  6
CONTINUOUS
 62
              80
  5
576
 10
362.46698956473193
 20
25.809881974010345
 30
0.0
  0
VERTEX
  8
0
  6
CONTINUOUS
 62
              80
  5
577
 10
362.46848234070808
 20
25.80795334238114
 30
0.0
  0
VERTEX
  8
0
  6
CONTINUOUS
 62
              80
  5
578
 10
362.46997559110355
 20
25.806025094111785
 30
0.0
  0
VERTEX
  8
0
  6
CONTINUOUS
 62
              80
  5
579
 10
362.47146927450103
 20
25.804097146790486
 30
0.0
  0
VERTEX
  8
0
  6
CONTINUOUS
 62
              80
  5
57A
 10
362.47296334948334
 20
25.802169418005452
 30
0.0
  0
VERTEX
  8
0
  6
CONTINUOUS
 62
              80
  5
57B
 10
362.47445777463304
 20
25.800241825344891
 30
0.0
  0
VERTEX
  8
0
  6
CONTINUOUS
 62
              80
  5
57C
 10
362.47595250853288
 20
25.798314286397002
 30
0.0
  0
VERTEX
  8
0
  6
CONTINUOUS
 62
              80
  5
57D
 10
362.47744750976562
 20
25.79638671875
 30
0.0
  0
VERTEX
  8
0
  6
CONTINUOUS
 62
              80
  5
57E
 10
362.52363400218309
 20
25.737442385267023
 30
0.0
  0
VERTEX
  8
0
  6
CONTINUOUS
 62
              80
  5
57F
 10
362.57041516163838
 20
25.678934037162332
 30
0.0
  0
VERTEX
  8
0
  6
CONTINUOUS
 62
              80
  5
580
 10
362.61778314378262
 20
25.620868707192521
 30
0.0
  0
VERTEX
  8
0
  6
CONTINUOUS
 62
              80
  5
581
 10
362.66573010426697
 20
25.563253428114187
 30
0.0
  0
VERTEX
  8
0
  6
CONTINUOUS
 62
              80
  5
582
 10
362.7142481987425
 20
25.506095232683926
 30
0.0
  0
VERTEX
  8
0
  6
CONTINUOUS
 62
              80
  5
583
 10
362.76332958286037
 20
25.449401153658329
 30
0.0
  0
VERTEX
  8
0
  6
CONTINUOUS
 62
              80
  5
584
 10
362.81296641227169
 20
25.393178223793996
 30
0.0
  0
VERTEX
  8
0
  6
CONTINUOUS
 62
              80
  5
585
 10
362.86315084262753
 20
25.337433475847519
 30
0.0
  0
VERTEX
  8
0
  6
CONTINUOUS
 62
              80
  5
586
 10
362.91387502957906
 20
25.282173942575493
 30
0.0
  0
VERTEX
  8
0
  6
CONTINUOUS
 62
              80
  5
587
 10
362.96513112877733
 20
25.227406656734512
 30
0.0
  0
VERTEX
  8
0
  6
CONTINUOUS
 62
              80
  5
588
 10
363.01691129587357
 20
25.173138651081178
 30
0.0
  0
VERTEX
  8
0
  6
CONTINUOUS
 62
              80
  5
589
 10
363.06920768651884
 20
25.119376958372076
 30
0.0
  0
VERTEX
  8
0
  6
CONTINUOUS
 62
              80
  5
58A
 10
363.12201245636419
 20
25.066128611363808
 30
0.0
  0
VERTEX
  8
0
  6
CONTINUOUS
 62
              80
  5
58B
 10
363.17531776106085
 20
25.013400642812968
 30
0.0
  0
VERTEX
  8
0
  6
CONTINUOUS
 62
              80
  5
58C
 10
363.22911575625989
 20
24.96120008547615
 30
0.0
  0
VERTEX
  8
0
  6
CONTINUOUS
 62
              80
  5
58D
 10
363.2833985976124
 20
24.909533972109948
 30
0.0
  0
SEQEND
  8
0
  6
CONTINUOUS
 62
              80
  5
58E
  0
POLYLINE
  8
0
  6
CONTINUOUS
 62
              80
  5
1A5
 66
               1
 10
0.0
 20
0.0
 30
0.0
  0
VERTEX
  8
0
  6
CONTINUOUS
 62
              80
  5
58F
 10
364.63217163085937
 20
24.6436767578125
 30
0.0
  0
VERTEX
  8
0
  6
CONTINUOUS
 62
              80
  5
590
 10
364.62309199402961
 20
24.634385870344616
 30
0.0
  0
VERTEX
  8
0
  6
CONTINUOUS
 62
              80
  5
591
 10
364.61399867840987
 20
24.625109174114627
 30
0.0
  0
VERTEX
  8
0
  6
CONTINUOUS
 62
              80
  5
592
 10
364.60489163668836
 20
24.615846630898769
 30
0.0
  0
VERTEX
  8
0
  6
CONTINUOUS
 62
              80
  5
593
 10
364.5957708215534
 20
24.606598202473268
 30
0.0
  0
VERTEX
  8
0
  6
CONTINUOUS
 62
              80
  5
594
 10
364.58663618569312
 20
24.597363850614354
 30
0.0
  0
VERTEX
  8
0
  6
CONTINUOUS
 62
              80
  5
595
 10
364.57748768179573
 20
24.588143537098254
 30
0.0
  0
VERTEX
  8
0
  6
CONTINUOUS
 62
              80
  5
596
 10
364.56832526254942
 20
24.5789372237012
 30
0.0
  0
VERTEX
  8
0
  6
CONTINUOUS
 62
              80
  5
597
 10
364.55914888064251
 20
24.569744872199418
 30
0.0
  0
VERTEX
  8
0
  6
CONTINUOUS
 62
              80
  5
598
 10
364.54995848876308
 20
24.56056644436914
 30
0.0
  0
VERTEX
  8
0
  6
CONTINUOUS
 62
              80
  5
599
 10
364.54075403959939
 20
24.551401901986594
 30
0.0
  0
VERTEX
  8
0
  6
CONTINUOUS
 62
              80
  5
59A
 10
364.53153548583964
 20
24.542251206828006
 30
0.0
  0
VERTEX
  8
0
  6
CONTINUOUS
 62
              80
  5
59B
 10
364.52230278017203
 20
24.533114320669611
 30
0.0
  0
VERTEX
  8
0
  6
CONTINUOUS
 62
              80
  5
59C
 10
364.51305587528481
 20
24.523991205287633
 30
0.0
  0
VERTEX
  8
0
  6
CONTINUOUS
 62
              80
  5
59D
 10
364.50379472386618
 20
24.514881822458303
 30
0.0
  0
VERTEX
  8
0
  6
CONTINUOUS
 62
              80
  5
59E
 10
364.49451927860434
 20
24.505786133957848
 30
0.0
  0
VERTEX
  8
0
  6
CONTINUOUS
 62
              80
  5
59F
 10
364.4852294921875
 20
24.4967041015625
 30
0.0
  0
VERTEX
  8
0
  6
CONTINUOUS
 62
              80
  5
5A0
 10
364.43301143866324
 20
24.446166438735837
 30
0.0
  0
VERTEX
  8
0
  6
CONTINUOUS
 62
              80
  5
5A1
 10
364.38035183777481
 20
24.396066407536019
 30
0.0
  0
VERTEX
  8
0
  6
CONTINUOUS
 62
              80
  5
5A2
 10
364.3272568080738
 20
24.346408366244567
 30
0.0
  0
VERTEX
  8
0
  6
CONTINUOUS
 62
              80
  5
5A3
 10
364.27373246811175
 20
24.297196673143002
 30
0.0
  0
VERTEX
  8
0
  6
CONTINUOUS
 62
              80
  5
5A4
 10
364.21978493644036
 20
24.248435686512849
 30
0.0
  0
VERTEX
  8
0
  6
CONTINUOUS
 62
              80
  5
5A5
 10
364.16542033161119
 20
24.200129764635623
 30
0.0
  0
VERTEX
  8
0
  6
CONTINUOUS
 62
              80
  5
5A6
 10
364.11064477217576
 20
24.152283265792846
 30
0.0
  0
VERTEX
  8
0
  6
CONTINUOUS
 62
              80
  5
5A7
 10
364.05546437668573
 20
24.104900548266041
 30
0.0
  0
VERTEX
  8
0
  6
CONTINUOUS
 62
              80
  5
5A8
 10
363.99988526369265
 20
24.057985970336727
 30
0.0
  0
VERTEX
  8
0
  6
CONTINUOUS
 62
              80
  5
5A9
 10
363.94391355174815
 20
24.011543890286426
 30
0.0
  0
VERTEX
  8
0
  6
CONTINUOUS
 62
              80
  5
5AA
 10
363.88755535940385
 20
23.965578666396656
 30
0.0
  0
VERTEX
  8
0
  6
CONTINUOUS
 62
              80
  5
5AB
 10
363.83081680521127
 20
23.920094656948944
 30
0.0
  0
VERTEX
  8
0
  6
CONTINUOUS
 62
              80
  5
5AC
 10
363.77370400772207
 20
23.875096220224805
 30
0.0
  0
VERTEX
  8
0
  6
CONTINUOUS
 62
              80
  5
5AD
 10
363.7162230854878
 20
23.830587714505757
 30
0.0
  0
VERTEX
  8
0
  6
CONTINUOUS
 62
              80
  5
5AE
 10
363.65838015706004
 20
23.786573498073331
 30
0.0
  0
VERTEX
  8
0
  6
CONTINUOUS
 62
              80
  5
5AF
 10
363.60018134099045
 20
23.743057929209041
 30
0.0
  0
SEQEND
  8
0
  6
CONTINUOUS
 62
              80
  5
5B0
  0
POLYLINE
  8
0
  6
CONTINUOUS
 62
              80
  5
1A6
 66
               1
 10
0.0
 20
0.0
 30
0.0
  0
VERTEX
  8
0
  6
CONTINUOUS
 62
              80
  5
5B1
 10
373.28953780290999
 20
25.906122062157568
 30
0.0
  0
VERTEX
  8
0
  6
CONTINUOUS
 62
              80
  5
5B2
 10
373.46219272916738
 20
25.958883602305505
 30
0.0
  0
VERTEX
  8
0
  6
CONTINUOUS
 62
              80
  5
5B3
 10
373.63471801799204
 20
26.012051496541687
 30
0.0
  0
VERTEX
  8
0
  6
CONTINUOUS
 62
              80
  5
5B4
 10
373.80711422929562
 20
26.065625968331869
 30
0.0
  0
VERTEX
  8
0
  6
CONTINUOUS
 62
              80
  5
5B5
 10
373.97938192298983
 20
26.119607241141807
 30
0.0
  0
VERTEX
  8
0
  6
CONTINUOUS
 62
              80
  5
5B6
 10
374.15152165898638
 20
26.173995538437261
 30
0.0
  0
VERTEX
  8
0
  6
CONTINUOUS
 62
              80
  5
5B7
 10
374.32353399719688
 20
26.22879108368398
 30
0.0
  0
VERTEX
  8
0
  6
CONTINUOUS
 62
              80
  5
5B8
 10
374.49541949753308
 20
26.28399410034773
 30
0.0
  0
VERTEX
  8
0
  6
CONTINUOUS
 62
              80
  5
5B9
 10
374.66717871990659
 20
26.339604811894262
 30
0.0
  0
VERTEX
  8
0
  6
CONTINUOUS
 62
              80
  5
5BA
 10
374.83881222422912
 20
26.395623441789333
 30
0.0
  0
VERTEX
  8
0
  6
CONTINUOUS
 62
              80
  5
5BB
 10
375.01032057041238
 20
26.452050213498701
 30
0.0
  0
VERTEX
  8
0
  6
CONTINUOUS
 62
              80
  5
5BC
 10
375.18170431836802
 20
26.508885350488125
 30
0.0
  0
VERTEX
  8
0
  6
CONTINUOUS
 62
              80
  5
5BD
 10
375.3529640280077
 20
26.566129076223355
 30
0.0
  0
VERTEX
  8
0
  6
CONTINUOUS
 62
              80
  5
5BE
 10
375.52410025924308
 20
26.623781614170149
 30
0.0
  0
VERTEX
  8
0
  6
CONTINUOUS
 62
              80
  5
5BF
 10
375.69511357198598
 20
26.681843187794268
 30
0.0
  0
VERTEX
  8
0
  6
CONTINUOUS
 62
              80
  5
5C0
 10
375.86600452614789
 20
26.740314020561467
 30
0.0
  0
VERTEX
  8
0
  6
CONTINUOUS
 62
              80
  5
5C1
 10
376.03677368164062
 20
26.7991943359375
 30
0.0
  0
VERTEX
  8
0
  6
CONTINUOUS
 62
              80
  5
5C2
 10
376.03849480251483
 20
26.799789934636692
 30
0.0
  0
VERTEX
  8
0
  6
CONTINUOUS
 62
              80
  5
5C3
 10
376.04021567506425
 20
26.80038524892916
 30
0.0
  0
VERTEX
  8
0
  6
CONTINUOUS
 62
              80
  5
5C4
 10
376.04193633271825
 20
26.800980325304181
 30
0.0
  0
VERTEX
  8
0
  6
CONTINUOUS
 62
              80
  5
5C5
 10
376.04365680890623
 20
26.801575210251031
 30
0.0
  0
VERTEX
  8
0
  6
CONTINUOUS
 62
              80
  5
5C6
 10
376.04537713705759
 20
26.802169950258985
 30
0.0
  0
VERTEX
  8
0
  6
CONTINUOUS
 62
              80
  5
5C7
 10
376.04709735060169
 20
26.802764591817322
 30
0.0
  0
VERTEX
  8
0
  6
CONTINUOUS
 62
              80
  5
5C8
 10
376.04881748296793
 20
26.803359181415317
 30
0.0
  0
VERTEX
  8
0
  6
CONTINUOUS
 62
              80
  5
5C9
 10
376.05053756758571
 20
26.803953765542246
 30
0.0
  0
VERTEX
  8
0
  6
CONTINUOUS
 62
              80
  5
5CA
 10
376.0522576378844
 20
26.804548390687387
 30
0.0
  0
VERTEX
  8
0
  6
CONTINUOUS
 62
              80
  5
5CB
 10
376.05397772729339
 20
26.805143103340015
 30
0.0
  0
VERTEX
  8
0
  6
CONTINUOUS
 62
              80
  5
5CC
 10
376.05569786924207
 20
26.805737949989407
 30
0.0
  0
VERTEX
  8
0
  6
CONTINUOUS
 62
              80
  5
5CD
 10
376.05741809715983
 20
26.806332977124839
 30
0.0
  0
VERTEX
  8
0
  6
CONTINUOUS
 62
              80
  5
5CE
 10
376.05913844447605
 20
26.806928231235588
 30
0.0
  0
VERTEX
  8
0
  6
CONTINUOUS
 62
              80
  5
5CF
 10
376.06085894462012
 20
26.80752375881093
 30
0.0
  0
VERTEX
  8
0
  6
CONTINUOUS
 62
              80
  5
5D0
 10
376.06257963102144
 20
26.808119606340142
 30
0.0
  0
VERTEX
  8
0
  6
CONTINUOUS
 62
              80
  5
5D1
 10
376.06430053710938
 20
26.8087158203125
 30
0.0
  0
SEQEND
  8
0
  6
CONTINUOUS
 62
              80
  5
5D2
  0
POLYLINE
  8
0
  6
CONTINUOUS
 62
              80
  5
1A7
 66
               1
 10
0.0
 20
0.0
 30
0.0
  0
VERTEX
  8
0
  6
CONTINUOUS
 62
              80
  5
5D3
 10
376.06430053710938
 20
26.8087158203125
 30
0.0
  0
VERTEX
  8
0
  6
CONTINUOUS
 62
              80
  5
5D4
 10
376.06602111088262
 20
26.808119594150295
 30
0.0
  0
VERTEX
  8
0
  6
CONTINUOUS
 62
              80
  5
5D5
 10
376.06774166617498
 20
26.807523715339439
 30
0.0
  0
VERTEX
  8
0
  6
CONTINUOUS
 62
              80
  5
5D6
 10
376.06946220279491
 20
26.806928141830035
 30
0.0
  0
VERTEX
  8
0
  6
CONTINUOUS
 62
              80
  5
5D7
 10
376.07118272055112
 20
26.806332831572185
 30
0.0
  0
VERTEX
  8
0
  6
CONTINUOUS
 62
              80
  5
5D8
 10
376.07290321925217
 20
26.805737742515998
 30
0.0
  0
VERTEX
  8
0
  6
CONTINUOUS
 62
              80
  5
5D9
 10
376.0746236987066
 20
26.805142832611576
 30
0.0
  0
VERTEX
  8
0
  6
CONTINUOUS
 62
              80
  5
5DA
 10
376.07634415872309
 20
26.804548059809026
 30
0.0
  0
VERTEX
  8
0
  6
CONTINUOUS
 62
              80
  5
5DB
 10
376.07806459911012
 20
26.803953382058449
 30
0.0
  0
VERTEX
  8
0
  6
CONTINUOUS
 62
              80
  5
5DC
 10
376.07978501967631
 20
26.803358757309951
 30
0.0
  0
VERTEX
  8
0
  6
CONTINUOUS
 62
              80
  5
5DD
 10
376.08150542023031
 20
26.802764143513642
 30
0.0
  0
VERTEX
  8
0
  6
CONTINUOUS
 62
              80
  5
5DE
 10
376.08322580058064
 20
26.802169498619616
 30
0.0
  0
VERTEX
  8
0
  6
CONTINUOUS
 62
              80
  5
5DF
 10
376.08494616053588
 20
26.801574780577987
 30
0.0
  0
VERTEX
  8
0
  6
CONTINUOUS
 62
              80
  5
5E0
 10
376.08666649990471
 20
26.800979947338856
 30
0.0
  0
VERTEX
  8
0
  6
CONTINUOUS
 62
              80
  5
5E1
 10
376.08838681849562
 20
26.80038495685233
 30
0.0
  0
VERTEX
  8
0
  6
CONTINUOUS
 62
              80
  5
5E2
 10
376.09010711611722
 20
26.799789767068507
 30
0.0
  0
VERTEX
  8
0
  6
CONTINUOUS
 62
              80
  5
5E3
 10
376.09182739257812
 20
26.7991943359375
 30
0.0
  0
VERTEX
  8
0
  6
CONTINUOUS
 62
              80
  5
5E4
 10
376.26252181082612
 20
26.740325691108758
 30
0.0
  0
VERTEX
  8
0
  6
CONTINUOUS
 62
              80
  5
5E5
 10
376.43335896974122
 20
26.681861088204737
 30
0.0
  0
VERTEX
  8
0
  6
CONTINUOUS
 62
              80
  5
5E6
 10
376.60433742359885
 20
26.623801012886467
 30
0.0
  0
VERTEX
  8
0
  6
CONTINUOUS
 62
              80
  5
5E7
 10
376.77545572667464
 20
26.566145950814988
 30
0.0
  0
VERTEX
  8
0
  6
CONTINUOUS
 62
              80
  5
5E8
 10
376.94671243324387
 20
26.508896387651337
 30
0.0
  0
VERTEX
  8
0
  6
CONTINUOUS
 62
              80
  5
5E9
 10
377.11810609758214
 20
26.452052809056546
 30
0.0
  0
VERTEX
  8
0
  6
CONTINUOUS
 62
              80
  5
5EA
 10
377.28963527396485
 20
26.395615700691653
 30
0.0
  0
VERTEX
  8
0
  6
CONTINUOUS
 62
              80
  5
5EB
 10
377.46129851666745
 20
26.339585548217691
 30
0.0
  0
VERTEX
  8
0
  6
CONTINUOUS
 62
              80
  5
5EC
 10
377.63309437996554
 20
26.283962837295704
 30
0.0
  0
VERTEX
  8
0
  6
CONTINUOUS
 62
              80
  5
5ED
 10
377.8050214181344
 20
26.228748053586717
 30
0.0
  0
VERTEX
  8
0
  6
CONTINUOUS
 62
              80
  5
5EE
 10
377.97707818544961
 20
26.173941682751774
 30
0.0
  0
VERTEX
  8
0
  6
CONTINUOUS
 62
              80
  5
5EF
 10
378.14926323618664
 20
26.119544210451913
 30
0.0
  0
VERTEX
  8
0
  6
CONTINUOUS
 62
              80
  5
5F0
 10
378.32157512462095
 20
26.065556122348163
 30
0.0
  0
VERTEX
  8
0
  6
CONTINUOUS
 62
              80
  5
5F1
 10
378.494012405028
 20
26.01197790410156
 30
0.0
  0
VERTEX
  8
0
  6
CONTINUOUS
 62
              80
  5
5F2
 10
378.66657363168321
 20
25.958810041373145
 30
0.0
  0
VERTEX
  8
0
  6
CONTINUOUS
 62
              80
  5
5F3
 10
378.83925735886214
 20
25.906053019823954
 30
0.0
  0
SEQEND
  8
0
  6
CONTINUOUS
 62
              80
  5
5F4
  0
POLYLINE
  8
0
  6
CONTINUOUS
 62
              80
  5
1A8
 66
               1
 10
0.0
 20
0.0
 30
0.0
  0
VERTEX
  8
0
  6
CONTINUOUS
 62
              80
  5
5F5
 10
374.34576416015625
 20
24.875
 30
0.0
  0
VERTEX
  8
0
  6
CONTINUOUS
 62
              80
  5
5F6
 10
374.28532826973571
 20
24.79463440151385
 30
0.0
  0
VERTEX
  8
0
  6
CONTINUOUS
 62
              80
  5
5F7
 10
374.22489216070352
 20
24.714267886463272
 30
0.0
  0
VERTEX
  8
0
  6
CONTINUOUS
 62
              80
  5
5F8
 10
374.16445586074695
 20
24.633900570931488
 30
0.0
  0
VERTEX
  8
0
  6
CONTINUOUS
 62
              80
  5
5F9
 10
374.1040193975532
 20
24.553532571001721
 30
0.0
  0
VERTEX
  8
0
  6
CONTINUOUS
 62
              80
  5
5FA
 10
374.04358279880955
 20
24.473164002757201
 30
0.0
  0
VERTEX
  8
0
  6
CONTINUOUS
 62
              80
  5
5FB
 10
373.98314609220324
 20
24.392794982281153
 30
0.0
  0
VERTEX
  8
0
  6
CONTINUOUS
 62
              80
  5
5FC
 10
373.92270930542156
 20
24.3124256256568
 30
0.0
  0
VERTEX
  8
0
  6
CONTINUOUS
 62
              80
  5
5FD
 10
373.86227246615164
 20
24.232056048967369
 30
0.0
  0
VERTEX
  8
0
  6
CONTINUOUS
 62
              80
  5
5FE
 10
373.80183560208081
 20
24.15168636829608
 30
0.0
  0
VERTEX
  8
0
  6
CONTINUOUS
 62
              80
  5
5FF
 10
373.74139874089633
 20
24.071316699726165
 30
0.0
  0
VERTEX
  8
0
  6
CONTINUOUS
 62
              80
  5
600
 10
373.68096191028542
 20
23.990947159340841
 30
0.0
  0
VERTEX
  8
0
  6
CONTINUOUS
 62
              80
  5
601
 10
373.62052513793532
 20
23.910577863223342
 30
0.0
  0
VERTEX
  8
0
  6
CONTINUOUS
 62
              80
  5
602
 10
373.56008845153326
 20
23.830208927456887
 30
0.0
  0
VERTEX
  8
0
  6
CONTINUOUS
 62
              80
  5
603
 10
373.49965187876649
 20
23.749840468124702
 30
0.0
  0
VERTEX
  8
0
  6
CONTINUOUS
 62
              80
  5
604
 10
373.43921544732234
 20
23.669472601310012
 30
0.0
  0
VERTEX
  8
0
  6
CONTINUOUS
 62
              80
  5
605
 10
373.37877918488795
 20
23.589105443096045
 30
0.0
  0
SEQEND
  8
0
  6
CONTINUOUS
 62
              80
  5
606
  0
POLYLINE
  8
0
  6
CONTINUOUS
 62
              80
  5
1A9
 66
               1
 10
0.0
 20
0.0
 30
0.0
  0
VERTEX
  8
0
  6
CONTINUOUS
 62
              80
  5
607
 10
377.77255249023437
 20
24.875
 30
0.0
  0
VERTEX
  8
0
  6
CONTINUOUS
 62
              80
  5
608
 10
377.83356897352127
 20
24.79463440151385
 30
0.0
  0
VERTEX
  8
0
  6
CONTINUOUS
 62
              80
  5
609
 10
377.89458538059489
 20
24.714267886463272
 30
0.0
  0
VERTEX
  8
0
  6
CONTINUOUS
 62
              80
  5
60A
 10
377.95560172110771
 20
24.633900570931488
 30
0.0
  0
VERTEX
  8
0
  6
CONTINUOUS
 62
              80
  5
60B
 10
378.01661800471214
 20
24.553532571001721
 30
0.0
  0
VERTEX
  8
0
  6
CONTINUOUS
 62
              80
  5
60C
 10
378.07763424106071
 20
24.473164002757201
 30
0.0
  0
VERTEX
  8
0
  6
CONTINUOUS
 62
              80
  5
60D
 10
378.1386504398057
 20
24.392794982281153
 30
0.0
  0
VERTEX
  8
0
  6
CONTINUOUS
 62
              80
  5
60E
 10
378.19966661059971
 20
24.3124256256568
 30
0.0
  0
VERTEX
  8
0
  6
CONTINUOUS
 62
              80
  5
60F
 10
378.26068276309502
 20
24.232056048967369
 30
0.0
  0
VERTEX
  8
0
  6
CONTINUOUS
 62
              80
  5
610
 10
378.32169890694416
 20
24.15168636829608
 30
0.0
  0
VERTEX
  8
0
  6
CONTINUOUS
 62
              80
  5
611
 10
378.38271505179961
 20
24.071316699726165
 30
0.0
  0
VERTEX
  8
0
  6
CONTINUOUS
 62
              80
  5
612
 10
378.44373120731365
 20
23.990947159340841
 30
0.0
  0
VERTEX
  8
0
  6
CONTINUOUS
 62
              80
  5
613
 10
378.50474738313881
 20
23.910577863223342
 30
0.0
  0
VERTEX
  8
0
  6
CONTINUOUS
 62
              80
  5
614
 10
378.56576358892755
 20
23.830208927456887
 30
0.0
  0
VERTEX
  8
0
  6
CONTINUOUS
 62
              80
  5
615
 10
378.62677983433224
 20
23.749840468124702
 30
0.0
  0
VERTEX
  8
0
  6
CONTINUOUS
 62
              80
  5
616
 10
378.68779612900533
 20
23.669472601310012
 30
0.0
  0
VERTEX
  8
0
  6
CONTINUOUS
 62
              80
  5
617
 10
378.74881248259931
 20
23.589105443096045
 30
0.0
  0
SEQEND
  8
0
  6
CONTINUOUS
 62
              80
  5
618
  0
POLYLINE
  8
0
  6
CONTINUOUS
 62
              80
  5
1AA
 66
               1
 10
0.0
 20
0.0
 30
0.0
  0
VERTEX
  8
0
  6
CONTINUOUS
 62
              80
  5
619
 10
375.35476684570313
 20
24.875
 30
0.0
  0
VERTEX
  8
0
  6
CONTINUOUS
 62
              80
  5
61A
 10
375.32224707407295
 20
24.814732044062112
 30
0.0
  0
VERTEX
  8
0
  6
CONTINUOUS
 62
              80
  5
61B
 10
375.28972709341906
 20
24.754463909659535
 30
0.0
  0
VERTEX
  8
0
  6
CONTINUOUS
 62
              80
  5
61C
 10
375.25720693360199
 20
24.694195622287225
 30
0.0
  0
VERTEX
  8
0
  6
CONTINUOUS
 62
              80
  5
61D
 10
375.22468662448227
 20
24.633927207440138
 30
0.0
  0
VERTEX
  8
0
  6
CONTINUOUS
 62
              80
  5
61E
 10
375.19216619592044
 20
24.573658690613229
 30
0.0
  0
VERTEX
  8
0
  6
CONTINUOUS
 62
              80
  5
61F
 10
375.15964567777701
 20
24.513390097301453
 30
0.0
  0
VERTEX
  8
0
  6
CONTINUOUS
 62
              80
  5
620
 10
375.12712509991252
 20
24.453121452999767
 30
0.0
  0
VERTEX
  8
0
  6
CONTINUOUS
 62
              80
  5
621
 10
375.0946044921875
 20
24.392852783203125
 30
0.0
  0
VERTEX
  8
0
  6
CONTINUOUS
 62
              80
  5
622
 10
375.06208388446248
 20
24.332584113406483
 30
0.0
  0
VERTEX
  8
0
  6
CONTINUOUS
 62
              80
  5
623
 10
375.02956330659799
 20
24.272315469104797
 30
0.0
  0
VERTEX
  8
0
  6
CONTINUOUS
 62
              80
  5
624
 10
374.99704278845456
 20
24.212046875793021
 30
0.0
  0
VERTEX
  8
0
  6
CONTINUOUS
 62
              80
  5
625
 10
374.96452235989273
 20
24.151778358966112
 30
0.0
  0
VERTEX
  8
0
  6
CONTINUOUS
 62
              80
  5
626
 10
374.93200205077301
 20
24.091509944119025
 30
0.0
  0
VERTEX
  8
0
  6
CONTINUOUS
 62
              80
  5
627
 10
374.89948189095594
 20
24.031241656746715
 30
0.0
  0
VERTEX
  8
0
  6
CONTINUOUS
 62
              80
  5
628
 10
374.86696191030205
 20
23.970973522344138
 30
0.0
  0
VERTEX
  8
0
  6
CONTINUOUS
 62
              80
  5
629
 10
374.83444213867187
 20
23.91070556640625
 30
0.0
  0
SEQEND
  8
0
  6
CONTINUOUS
 62
              80
  5
62A
  0
POLYLINE
  8
0
  6
CONTINUOUS
 62
              80
  5
1AB
 66
               1
 10
0.0
 20
0.0
 30
0.0
  0
VERTEX
  8
0
  6
CONTINUOUS
 62
              80
  5
62B
 10
376.77206420898437
 20
24.875
 30
0.0
  0
VERTEX
  8
0
  6
CONTINUOUS
 62
              80
  5
62C
 10
376.80458398061455
 20
24.814732044062112
 30
0.0
  0
VERTEX
  8
0
  6
CONTINUOUS
 62
              80
  5
62D
 10
376.83710396126844
 20
24.754463909659535
 30
0.0
  0
VERTEX
  8
0
  6
CONTINUOUS
 62
              80
  5
62E
 10
376.86962412108551
 20
24.694195622287225
 30
0.0
  0
VERTEX
  8
0
  6
CONTINUOUS
 62
              80
  5
62F
 10
376.90214443020523
 20
24.633927207440138
 30
0.0
  0
VERTEX
  8
0
  6
CONTINUOUS
 62
              80
  5
630
 10
376.93466485876706
 20
24.573658690613229
 30
0.0
  0
VERTEX
  8
0
  6
CONTINUOUS
 62
              80
  5
631
 10
376.96718537691049
 20
24.513390097301453
 30
0.0
  0
VERTEX
  8
0
  6
CONTINUOUS
 62
              80
  5
632
 10
376.99970595477498
 20
24.453121452999767
 30
0.0
  0
VERTEX
  8
0
  6
CONTINUOUS
 62
              80
  5
633
 10
377.0322265625
 20
24.392852783203125
 30
0.0
  0
VERTEX
  8
0
  6
CONTINUOUS
 62
              80
  5
634
 10
377.06474717022502
 20
24.332584113406483
 30
0.0
  0
VERTEX
  8
0
  6
CONTINUOUS
 62
              80
  5
635
 10
377.09726774808951
 20
24.272315469104797
 30
0.0
  0
VERTEX
  8
0
  6
CONTINUOUS
 62
              80
  5
636
 10
377.12978826623294
 20
24.212046875793021
 30
0.0
  0
VERTEX
  8
0
  6
CONTINUOUS
 62
              80
  5
637
 10
377.16230869479477
 20
24.151778358966112
 30
0.0
  0
VERTEX
  8
0
  6
CONTINUOUS
 62
              80
  5
638
 10
377.19482900391449
 20
24.091509944119025
 30
0.0
  0
VERTEX
  8
0
  6
CONTINUOUS
 62
              80
  5
639
 10
377.22734916373156
 20
24.031241656746715
 30
0.0
  0
VERTEX
  8
0
  6
CONTINUOUS
 62
              80
  5
63A
 10
377.25986914438545
 20
23.970973522344138
 30
0.0
  0
VERTEX
  8
0
  6
CONTINUOUS
 62
              80
  5
63B
 10
377.29238891601562
 20
23.91070556640625
 30
0.0
  0
SEQEND
  8
0
  6
CONTINUOUS
 62
              80
  5
63C
  0
POLYLINE
  8
0
  6
CONTINUOUS
 62
              80
  5
1AC
 66
               1
 10
0.0
 20
0.0
 30
0.0
  0
VERTEX
  8
0
  6
CONTINUOUS
 62
              80
  5
63D
 10
380.38931274414062
 20
24.8046875
 30
0.0
  0
VERTEX
  8
0
  6
CONTINUOUS
 62
              80
  5
63E
 10
380.38090489176517
 20
24.799347478024419
 30
0.0
  0
VERTEX
  8
0
  6
CONTINUOUS
 62
              80
  5
63F
 10
380.37249455288986
 20
24.794011265680162
 30
0.0
  0
VERTEX
  8
0
  6
CONTINUOUS
 62
              80
  5
640
 10
380.3640817772922
 20
24.788678793722926
 30
0.0
  0
VERTEX
  8
0
  6
CONTINUOUS
 62
              80
  5
641
 10
380.35566661474974
 20
24.78334999290842
 30
0.0
  0
VERTEX
  8
0
  6
CONTINUOUS
 62
              80
  5
642
 10
380.34724911503997
 20
24.778024793992351
 30
0.0
  0
VERTEX
  8
0
  6
CONTINUOUS
 62
              80
  5
643
 10
380.3388293279404
 20
24.77270312773042
 30
0.0
  0
VERTEX
  8
0
  6
CONTINUOUS
 62
              80
  5
644
 10
380.33040730322858
 20
24.767384924878332
 30
0.0
  0
VERTEX
  8
0
  6
CONTINUOUS
 62
              80
  5
645
 10
380.32198309068207
 20
24.762070116191794
 30
0.0
  0
VERTEX
  8
0
  6
CONTINUOUS
 62
              80
  5
646
 10
380.3135567400783
 20
24.756758632426507
 30
0.0
  0
VERTEX
  8
0
  6
CONTINUOUS
 62
              80
  5
647
 10
380.30512830119488
 20
24.751450404338176
 30
0.0
  0
VERTEX
  8
0
  6
CONTINUOUS
 62
              80
  5
648
 10
380.29669782380932
 20
24.746145362682508
 30
0.0
  0
VERTEX
  8
0
  6
CONTINUOUS
 62
              80
  5
649
 10
380.28826535769912
 20
24.740843438215204
 30
0.0
  0
VERTEX
  8
0
  6
CONTINUOUS
 62
              80
  5
64A
 10
380.27983095264182
 20
24.735544561691974
 30
0.0
  0
VERTEX
  8
0
  6
CONTINUOUS
 62
              80
  5
64B
 10
380.27139465841492
 20
24.730248663868519
 30
0.0
  0
VERTEX
  8
0
  6
CONTINUOUS
 62
              80
  5
64C
 10
380.26295652479598
 20
24.724955675500542
 30
0.0
  0
VERTEX
  8
0
  6
CONTINUOUS
 62
              80
  5
64D
 10
380.2545166015625
 20
24.71966552734375
 30
0.0
  0
VERTEX
  8
0
  6
CONTINUOUS
 62
              80
  5
64E
 10
380.19580583610241
 20
24.682991562509958
 30
0.0
  0
VERTEX
  8
0
  6
CONTINUOUS
 62
              80
  5
64F
 10
380.13699278272446
 20
24.646478378164968
 30
0.0
  0
VERTEX
  8
0
  6
CONTINUOUS
 62
              80
  5
650
 10
380.07807807504275
 20
24.610126397584267
 30
0.0
  0
VERTEX
  8
0
  6
CONTINUOUS
 62
              80
  5
651
 10
380.01906234667138
 20
24.573936044043339
 30
0.0
  0
VERTEX
  8
0
  6
CONTINUOUS
 62
              80
  5
652
 10
379.95994623122454
 20
24.537907740817669
 30
0.0
  0
VERTEX
  8
0
  6
CONTINUOUS
 62
              80
  5
653
 10
379.90073036231627
 20
24.502041911182737
 30
0.0
  0
VERTEX
  8
0
  6
CONTINUOUS
 62
              80
  5
654
 10
379.84141537356066
 20
24.466338978414033
 30
0.0
  0
VERTEX
  8
0
  6
CONTINUOUS
 62
              80
  5
655
 10
379.78200189857188
 20
24.430799365787038
 30
0.0
  0
VERTEX
  8
0
  6
CONTINUOUS
 62
              80
  5
656
 10
379.722490570964
 20
24.395423496577241
 30
0.0
  0
VERTEX
  8
0
  6
CONTINUOUS
 62
              80
  5
657
 10
379.66288202435118
 20
24.360211794060117
 30
0.0
  0
VERTEX
  8
0
  6
CONTINUOUS
 62
              80
  5
658
 10
379.60317689234751
 20
24.325164681511158
 30
0.0
  0
VERTEX
  8
0
  6
CONTINUOUS
 62
              80
  5
659
 10
379.54337580856702
 20
24.290282582205847
 30
0.0
  0
VERTEX
  8
0
  6
CONTINUOUS
 62
              80
  5
65A
 10
379.48347940662393
 20
24.255565919419666
 30
0.0
  0
VERTEX
  8
0
  6
CONTINUOUS
 62
              80
  5
65B
 10
379.42348832013232
 20
24.221015116428099
 30
0.0
  0
VERTEX
  8
0
  6
CONTINUOUS
 62
              80
  5
65C
 10
379.36340318270629
 20
24.186630596506635
 30
0.0
  0
VERTEX
  8
0
  6
CONTINUOUS
 62
              80
  5
65D
 10
379.30322462795993
 20
24.152412782930753
 30
0.0
  0
SEQEND
  8
0
  6
CONTINUOUS
 62
              80
  5
65E
  0
POLYLINE
  8
0
  6
CONTINUOUS
 62
              80
  5
1AD
 66
               1
 10
0.0
 20
0.0
 30
0.0
  0
VERTEX
  8
0
  6
CONTINUOUS
 62
              80
  5
65F
 10
356.0823974609375
 20
25.0714111328125
 30
0.0
  0
VERTEX
  8
0
  6
CONTINUOUS
 62
              80
  5
660
 10
356.07601812942693
 20
25.058283447674444
 30
0.0
  0
VERTEX
  8
0
  6
CONTINUOUS
 62
              80
  5
661
 10
356.06953624609298
 20
25.045194389127083
 30
0.0
  0
VERTEX
  8
0
  6
CONTINUOUS
 62
              80
  5
662
 10
356.06294891487943
 20
25.032149014469937
 30
0.0
  0
VERTEX
  8
0
  6
CONTINUOUS
 62
              80
  5
663
 10
356.05625323973004
 20
25.019152381002524
 30
0.0
  0
VERTEX
  8
0
  6
CONTINUOUS
 62
              80
  5
664
 10
356.04944632458864
 20
25.006209546024369
 30
0.0
  0
VERTEX
  8
0
  6
CONTINUOUS
 62
              80
  5
665
 10
356.04252527339906
 20
24.993325566834994
 30
0.0
  0
VERTEX
  8
0
  6
CONTINUOUS
 62
              80
  5
666
 10
356.03548719010502
 20
24.980505500733916
 30
0.0
  0
VERTEX
  8
0
  6
CONTINUOUS
 62
              80
  5
667
 10
356.02832917865027
 20
24.96775440502066
 30
0.0
  0
VERTEX
  8
0
  6
CONTINUOUS
 62
              80
  5
668
 10
356.02104834297876
 20
24.955077336994748
 30
0.0
  0
VERTEX
  8
0
  6
CONTINUOUS
 62
              80
  5
669
 10
356.01364178703415
 20
24.942479353955697
 30
0.0
  0
VERTEX
  8
0
  6
CONTINUOUS
 62
              80
  5
66A
 10
356.00610661476026
 20
24.929965513203033
 30
0.0
  0
VERTEX
  8
0
  6
CONTINUOUS
 62
              80
  5
66B
 10
355.99843993010086
 20
24.917540872036277
 30
0.0
  0
VERTEX
  8
0
  6
CONTINUOUS
 62
              80
  5
66C
 10
355.99063883699978
 20
24.90521048775495
 30
0.0
  0
VERTEX
  8
0
  6
CONTINUOUS
 62
              80
  5
66D
 10
355.98270043940084
 20
24.892979417658569
 30
0.0
  0
VERTEX
  8
0
  6
CONTINUOUS
 62
              80
  5
66E
 10
355.97462184124777
 20
24.880852719046665
 30
0.0
  0
VERTEX
  8
0
  6
CONTINUOUS
 62
              80
  5
66F
 10
355.96640014648437
 20
24.86883544921875
 30
0.0
  0
VERTEX
  8
0
  6
CONTINUOUS
 62
              80
  5
670
 10
355.94403296946371
 20
24.837687144249543
 30
0.0
  0
VERTEX
  8
0
  6
CONTINUOUS
 62
              80
  5
671
 10
355.92071550775279
 20
24.807287405533089
 30
0.0
  0
VERTEX
  8
0
  6
CONTINUOUS
 62
              80
  5
672
 10
355.89651323866582
 20
24.777588560265745
 30
0.0
  0
VERTEX
  8
0
  6
CONTINUOUS
 62
              80
  5
673
 10
355.87149163951699
 20
24.748542935643858
 30
0.0
  0
VERTEX
  8
0
  6
CONTINUOUS
 62
              80
  5
674
 10
355.84571618762044
 20
24.720102858863786
 30
0.0
  0
VERTEX
  8
0
  6
CONTINUOUS
 62
              80
  5
675
 10
355.81925236029031
 20
24.692220657121887
 30
0.0
  0
VERTEX
  8
0
  6
CONTINUOUS
 62
              80
  5
676
 10
355.7921656348409
 20
24.664848657614506
 30
0.0
  0
VERTEX
  8
0
  6
CONTINUOUS
 62
              80
  5
677
 10
355.76452148858635
 20
24.637939187538006
 30
0.0
  0
VERTEX
  8
0
  6
CONTINUOUS
 62
              80
  5
678
 10
355.73638539884075
 20
24.611444574088733
 30
0.0
  0
VERTEX
  8
0
  6
CONTINUOUS
 62
              80
  5
679
 10
355.7078228429184
 20
24.585317144463044
 30
0.0
  0
VERTEX
  8
0
  6
CONTINUOUS
 62
              80
  5
67A
 10
355.67889929813344
 20
24.559509225857294
 30
0.0
  0
VERTEX
  8
0
  6
CONTINUOUS
 62
              80
  5
67B
 10
355.64968024180001
 20
24.533973145467836
 30
0.0
  0
VERTEX
  8
0
  6
CONTINUOUS
 62
              80
  5
67C
 10
355.62023115123236
 20
24.508661230491025
 30
0.0
  0
VERTEX
  8
0
  6
CONTINUOUS
 62
              80
  5
67D
 10
355.59061750374462
 20
24.483525808123211
 30
0.0
  0
VERTEX
  8
0
  6
CONTINUOUS
 62
              80
  5
67E
 10
355.560904776651
 20
24.458519205560751
 30
0.0
  0
VERTEX
  8
0
  6
CONTINUOUS
 62
              80
  5
67F
 10
355.53115844726562
 20
24.43359375
 30
0.0
  0
VERTEX
  8
0
  6
CONTINUOUS
 62
              80
  5
680
 10
355.49352807304462
 20
24.402100927427284
 30
0.0
  0
VERTEX
  8
0
  6
CONTINUOUS
 62
              80
  5
681
 10
355.45592331053967
 20
24.370686023829151
 30
0.0
  0
VERTEX
  8
0
  6
CONTINUOUS
 62
              80
  5
682
 10
355.41831868533166
 20
24.339373309864513
 30
0.0
  0
VERTEX
  8
0
  6
CONTINUOUS
 62
              80
  5
683
 10
355.38068872300141
 20
24.308187056192285
 30
0.0
  0
VERTEX
  8
0
  6
CONTINUOUS
 62
              80
  5
684
 10
355.34300794912991
 20
24.277151533471375
 30
0.0
  0
VERTEX
  8
0
  6
CONTINUOUS
 62
              80
  5
685
 10
355.30525088929801
 20
24.246291012360697
 30
0.0
  0
VERTEX
  8
0
  6
CONTINUOUS
 62
              80
  5
686
 10
355.26739206908655
 20
24.215629763519157
 30
0.0
  0
VERTEX
  8
0
  6
CONTINUOUS
 62
              80
  5
687
 10
355.22940601407652
 20
24.185192057605668
 30
0.0
  0
VERTEX
  8
0
  6
CONTINUOUS
 62
              80
  5
688
 10
355.19126724984875
 20
24.155002165279146
 30
0.0
  0
VERTEX
  8
0
  6
CONTINUOUS
 62
              80
  5
689
 10
355.15295030198416
 20
24.125084357198496
 30
0.0
  0
VERTEX
  8
0
  6
CONTINUOUS
 62
              80
  5
68A
 10
355.11442969606361
 20
24.095462904022632
 30
0.0
  0
VERTEX
  8
0
  6
CONTINUOUS
 62
              80
  5
68B
 10
355.075679957668
 20
24.066162076410468
 30
0.0
  0
VERTEX
  8
0
  6
CONTINUOUS
 62
              80
  5
68C
 10
355.03667561237825
 20
24.03720614502091
 30
0.0
  0
VERTEX
  8
0
  6
CONTINUOUS
 62
              80
  5
68D
 10
354.9973911857752
 20
24.008619380512869
 30
0.0
  0
VERTEX
  8
0
  6
CONTINUOUS
 62
              80
  5
68E
 10
354.95780120343983
 20
23.980426053545262
 30
0.0
  0
VERTEX
  8
0
  6
CONTINUOUS
 62
              80
  5
68F
 10
354.91788019095293
 20
23.952650434776995
 30
0.0
  0
SEQEND
  8
0
  6
CONTINUOUS
 62
              80
  5
690
  0
POLYLINE
  8
0
  6
CONTINUOUS
 62
              80
  5
1AE
 66
               1
 10
0.0
 20
0.0
 30
0.0
  0
VERTEX
  8
0
  6
CONTINUOUS
 62
              80
  5
691
 10
361.68658943839648
 20
26.447210240983168
 30
0.0
  0
VERTEX
  8
0
  6
CONTINUOUS
 62
              80
  5
692
 10
361.6787505804599
 20
26.398165300644475
 30
0.0
  0
VERTEX
  8
0
  6
CONTINUOUS
 62
              80
  5
693
 10
361.6702600528252
 20
26.349209599247288
 30
0.0
  0
VERTEX
  8
0
  6
CONTINUOUS
 62
              80
  5
694
 10
361.66111666345137
 20
26.300354612856427
 30
0.0
  0
VERTEX
  8
0
  6
CONTINUOUS
 62
              80
  5
695
 10
361.65131922029747
 20
26.251611817536709
 30
0.0
  0
VERTEX
  8
0
  6
CONTINUOUS
 62
              80
  5
696
 10
361.6408665313225
 20
26.202992689352957
 30
0.0
  0
VERTEX
  8
0
  6
CONTINUOUS
 62
              80
  5
697
 10
361.62975740448547
 20
26.154508704369988
 30
0.0
  0
VERTEX
  8
0
  6
CONTINUOUS
 62
              80
  5
698
 10
361.61799064774544
 20
26.106171338652622
 30
0.0
  0
VERTEX
  8
0
  6
CONTINUOUS
 62
              80
  5
699
 10
361.60556506906141
 20
26.05799206826568
 30
0.0
  0
VERTEX
  8
0
  6
CONTINUOUS
 62
              80
  5
69A
 10
361.59247947639244
 20
26.009982369273981
 30
0.0
  0
VERTEX
  8
0
  6
CONTINUOUS
 62
              80
  5
69B
 10
361.57873267769742
 20
25.962153717742343
 30
0.0
  0
VERTEX
  8
0
  6
CONTINUOUS
 62
              80
  5
69C
 10
361.56432348093551
 20
25.914517589735592
 30
0.0
  0
VERTEX
  8
0
  6
CONTINUOUS
 62
              80
  5
69D
 10
361.54925069406568
 20
25.867085461318538
 30
0.0
  0
VERTEX
  8
0
  6
CONTINUOUS
 62
              80
  5
69E
 10
361.53351312504697
 20
25.819868808556009
 30
0.0
  0
VERTEX
  8
0
  6
CONTINUOUS
 62
              80
  5
69F
 10
361.51710958183833
 20
25.772879107512821
 30
0.0
  0
VERTEX
  8
0
  6
CONTINUOUS
 62
              80
  5
6A0
 10
361.50003887239882
 20
25.726127834253795
 30
0.0
  0
VERTEX
  8
0
  6
CONTINUOUS
 62
              80
  5
6A1
 10
361.4822998046875
 20
25.67962646484375
 30
0.0
  0
VERTEX
  8
0
  6
CONTINUOUS
 62
              80
  5
6A2
 10
361.46172970284516
 20
25.62807578421112
 30
0.0
  0
VERTEX
  8
0
  6
CONTINUOUS
 62
              80
  5
6A3
 10
361.44033893920596
 20
25.57686048909753
 30
0.0
  0
VERTEX
  8
0
  6
CONTINUOUS
 62
              80
  5
6A4
 10
361.41813946691184
 20
25.525991104711299
 30
0.0
  0
VERTEX
  8
0
  6
CONTINUOUS
 62
              80
  5
6A5
 10
361.3951432391047
 20
25.475478156260735
 30
0.0
  0
VERTEX
  8
0
  6
CONTINUOUS
 62
              80
  5
6A6
 10
361.37136220892654
 20
25.42533216895416
 30
0.0
  0
VERTEX
  8
0
  6
CONTINUOUS
 62
              80
  5
6A7
 10
361.34680832951921
 20
25.375563667999884
 30
0.0
  0
VERTEX
  8
0
  6
CONTINUOUS
 62
              80
  5
6A8
 10
361.3214935540247
 20
25.326183178606232
 30
0.0
  0
VERTEX
  8
0
  6
CONTINUOUS
 62
              80
  5
6A9
 10
361.29542983558486
 20
25.277201225981507
 30
0.0
  0
VERTEX
  8
0
  6
CONTINUOUS
 62
              80
  5
6AA
 10
361.26862912734168
 20
25.228628335334037
 30
0.0
  0
VERTEX
  8
0
  6
CONTINUOUS
 62
              80
  5
6AB
 10
361.24110338243707
 20
25.180475031872124
 30
0.0
  0
VERTEX
  8
0
  6
CONTINUOUS
 62
              80
  5
6AC
 10
361.21286455401298
 20
25.132751840804094
 30
0.0
  0
VERTEX
  8
0
  6
CONTINUOUS
 62
              80
  5
6AD
 10
361.18392459521124
 20
25.08546928733826
 30
0.0
  0
VERTEX
  8
0
  6
CONTINUOUS
 62
              80
  5
6AE
 10
361.15429545917391
 20
25.038637896682935
 30
0.0
  0
VERTEX
  8
0
  6
CONTINUOUS
 62
              80
  5
6AF
 10
361.12398909904283
 20
24.992268194046435
 30
0.0
  0
VERTEX
  8
0
  6
CONTINUOUS
 62
              80
  5
6B0
 10
361.0930174679599
 20
24.946370704637079
 30
0.0
  0
VERTEX
  8
0
  6
CONTINUOUS
 62
              80
  5
6B1
 10
361.06139251906711
 20
24.900955953663178
 30
0.0
  0
SEQEND
  8
0
  6
CONTINUOUS
 62
              80
  5
6B2
  0
POLYLINE
  8
0
  6
CONTINUOUS
 62
              80
  5
1AF
 66
               1
 10
0.0
 20
0.0
 30
0.0
  0
VERTEX
  8
0
  6
CONTINUOUS
 62
              80
  5
6B3
 10
380.35159301757812
 20
26.3026123046875
 30
0.0
  0
VERTEX
  8
0
  6
CONTINUOUS
 62
              80
  5
6B4
 10
380.33167991217545
 20
26.235296537120536
 30
0.0
  0
VERTEX
  8
0
  6
CONTINUOUS
 62
              80
  5
6B5
 10
380.31023455892193
 20
26.168329259326462
 30
0.0
  0
VERTEX
  8
0
  6
CONTINUOUS
 62
              80
  5
6B6
 10
380.28726291124752
 20
26.101764342002344
 30
0.0
  0
VERTEX
  8
0
  6
CONTINUOUS
 62
              80
  5
6B7
 10
380.26277092258209
 20
26.035655655845247
 30
0.0
  0
VERTEX
  8
0
  6
CONTINUOUS
 62
              80
  5
6B8
 10
380.23676454635552
 20
25.970057071552233
 30
0.0
  0
VERTEX
  8
0
  6
CONTINUOUS
 62
              80
  5
6B9
 10
380.20924973599756
 20
25.905022459820366
 30
0.0
  0
VERTEX
  8
0
  6
CONTINUOUS
 62
              80
  5
6BA
 10
380.18023244493816
 20
25.840605691346706
 30
0.0
  0
VERTEX
  8
0
  6
CONTINUOUS
 62
              80
  5
6BB
 10
380.14971862660718
 20
25.776860636828324
 30
0.0
  0
VERTEX
  8
0
  6
CONTINUOUS
 62
              80
  5
6BC
 10
380.11771423443446
 20
25.713841166962276
 30
0.0
  0
VERTEX
  8
0
  6
CONTINUOUS
 62
              80
  5
6BD
 10
380.08422522184986
 20
25.651601152445632
 30
0.0
  0
VERTEX
  8
0
  6
CONTINUOUS
 62
              80
  5
6BE
 10
380.04925754228327
 20
25.59019446397545
 30
0.0
  0
VERTEX
  8
0
  6
CONTINUOUS
 62
              80
  5
6BF
 10
380.01281714916456
 20
25.529674972248799
 30
0.0
  0
VERTEX
  8
0
  6
CONTINUOUS
 62
              80
  5
6C0
 10
379.97490999592355
 20
25.47009654796274
 30
0.0
  0
VERTEX
  8
0
  6
CONTINUOUS
 62
              80
  5
6C1
 10
379.93554203599018
 20
25.411513061814336
 30
0.0
  0
VERTEX
  8
0
  6
CONTINUOUS
 62
              80
  5
6C2
 10
379.89471922279427
 20
25.353978384500653
 30
0.0
  0
VERTEX
  8
0
  6
CONTINUOUS
 62
              80
  5
6C3
 10
379.85244750976562
 20
25.29754638671875
 30
0.0
  0
VERTEX
  8
0
  6
CONTINUOUS
 62
              80
  5
6C4
 10
379.8225630941306
 20
25.259430514575797
 30
0.0
  0
VERTEX
  8
0
  6
CONTINUOUS
 62
              80
  5
6C5
 10
379.79201376193669
 20
25.221865458763205
 30
0.0
  0
VERTEX
  8
0
  6
CONTINUOUS
 62
              80
  5
6C6
 10
379.76081573103147
 20
25.184854804901988
 30
0.0
  0
VERTEX
  8
0
  6
CONTINUOUS
 62
              80
  5
6C7
 10
379.72898521926254
 20
25.148402138613164
 30
0.0
  0
VERTEX
  8
0
  6
CONTINUOUS
 62
              80
  5
6C8
 10
379.69653844447748
 20
25.112511045517749
 30
0.0
  0
VERTEX
  8
0
  6
CONTINUOUS
 62
              80
  5
6C9
 10
379.66349162452389
 20
25.077185111236759
 30
0.0
  0
VERTEX
  8
0
  6
CONTINUOUS
 62
              80
  5
6CA
 10
379.62986097724934
 20
25.042427921391209
 30
0.0
  0
VERTEX
  8
0
  6
CONTINUOUS
 62
              80
  5
6CB
 10
379.59566272050142
 20
25.008243061602116
 30
0.0
  0
VERTEX
  8
0
  6
CONTINUOUS
 62
              80
  5
6CC
 10
379.56091307212773
 20
24.974634117490496
 30
0.0
  0
VERTEX
  8
0
  6
CONTINUOUS
 62
              80
  5
6CD
 10
379.52562824997585
 20
24.941604674677365
 30
0.0
  0
VERTEX
  8
0
  6
CONTINUOUS
 62
              80
  5
6CE
 10
379.48982447189337
 20
24.909158318783739
 30
0.0
  0
VERTEX
  8
0
  6
CONTINUOUS
 62
              80
  5
6CF
 10
379.45351795572788
 20
24.877298635430634
 30
0.0
  0
VERTEX
  8
0
  6
CONTINUOUS
 62
              80
  5
6D0
 10
379.41672491932695
 20
24.846029210239067
 30
0.0
  0
VERTEX
  8
0
  6
CONTINUOUS
 62
              80
  5
6D1
 10
379.37946158053819
 20
24.815353628830053
 30
0.0
  0
VERTEX
  8
0
  6
CONTINUOUS
 62
              80
  5
6D2
 10
379.34174415720918
 20
24.785275476824609
 30
0.0
  0
VERTEX
  8
0
  6
CONTINUOUS
 62
              80
  5
6D3
 10
379.3035888671875
 20
24.75579833984375
 30
0.0
  0
SEQEND
  8
0
  6
CONTINUOUS
 62
              80
  5
6D4
  0
TEXT
  8
0
  6
CONTINUOUS
 62
               3
  5
1B0
 10
45.843756260624978
 20
282.24998474121094
 30
0.0
 40
2.5
  1
1
 41
1.57501502549995
  7
MX_NOTE_STANDARD
 11
45.843756260624978
 21
283.49998474121094
 31
0.0
 73
               2
  0
TEXT
  8
0
  6
CONTINUOUS
 62
               3
  5
1B1
 10
92.37500418678863
 20
282.24998474121094
 30
0.0
 40
2.5
  1
2
 41
1.0500100482927037
  7
MX_NOTE_STANDARD
 11
92.37500418678863
 21
283.49998474121094
 31
0.0
 73
               2
  0
TEXT
  8
0
  6
CONTINUOUS
 62
               3
  5
1B2
 10
139.12500418678863
 20
282.24998474121094
 30
0.0
 40
2.5
  1
3
 41
1.0500100482927037
  7
MX_NOTE_STANDARD
 11
139.12500418678863
 21
283.49998474121094
 31
0.0
 73
               2
  0
TEXT
  8
0
  6
CONTINUOUS
 62
               3
  5
1B3
 10
185.87500418678863
 20
282.24998474121094
 30
0.0
 40
2.5
  1
4
 41
1.0500100482927037
  7
MX_NOTE_STANDARD
 11
185.87500418678863
 21
283.49998474121094
 31
0.0
 73
               2
  0
TEXT
  8
0
  6
CONTINUOUS
 62
               3
  5
1B4
 10
19.500004186788626
 20
257.24998474121094
 30
0.0
 40
2.5
  1
A
 41
1.0500100482927037
  7
MX_NOTE_STANDARD
 11
19.500004186788626
 21
258.49998474121094
 31
0.0
 73
               2
  0
TEXT
  8
0
  6
CONTINUOUS
 62
               3
  5
1B5
 10
19.500004186788626
 20
213.24999046325684
 30
0.0
 40
2.5
  1
B
 41
1.0500100482927037
  7
MX_NOTE_STANDARD
 11
19.500004186788626
 21
214.49999046325684
 31
0.0
 73
               2
  0
TEXT
  8
0
  6
CONTINUOUS
 62
               3
  5
1B6
 10
19.500004186788626
 20
169.24999618530273
 30
0.0
 40
2.5
  1
C
 41
1.0500100482927037
  7
MX_NOTE_STANDARD
 11
19.500004186788626
 21
170.49999618530273
 31
0.0
 73
               2
  0
TEXT
  8
0
  6
CONTINUOUS
 62
               3
  5
1B7
 10
19.500004186788626
 20
125.25
 30
0.0
 40
2.5
  1
D
 41
1.0500100482927037
  7
MX_NOTE_STANDARD
 11
19.500004186788626
 21
126.5
 31
0.0
 73
               2
  0
TEXT
  8
0
  6
CONTINUOUS
 62
               3
  5
1B8
 10
19.500004186788626
 20
81.249992370605469
 30
0.0
 40
2.5
  1
E
 41
1.0500100482927037
  7
MX_NOTE_STANDARD
 11
19.500004186788626
 21
82.499992370605469
 31
0.0
 73
               2
  0
TEXT
  8
0
  6
CONTINUOUS
 62
               3
  5
1B9
 10
19.500004186788626
 20
37.25
 30
0.0
 40
2.5
  1
F
 41
1.0500100482927037
  7
MX_NOTE_STANDARD
 11
19.500004186788626
 21
38.5
 31
0.0
 73
               2
  0
TEXT
  8
0
  6
CONTINUOUS
 62
               3
  5
1BA
 10
399.0000041867886
 20
81.249992370605469
 30
0.0
 40
2.5
  1
E
 41
1.0500100482927037
  7
MX_NOTE_STANDARD
 11
399.0000041867886
 21
82.499992370605469
 31
0.0
 73
               2
  0
TEXT
  8
0
  6
CONTINUOUS
 62
               3
  5
1BB
 10
399.0000041867886
 20
257.24998474121094
 30
0.0
 40
2.5
  1
A
 41
1.0500100482927037
  7
MX_NOTE_STANDARD
 11
399.0000041867886
 21
258.49998474121094
 31
0.0
 73
               2
  0
TEXT
  8
0
  6
CONTINUOUS
 62
               3
  5
1BC
 10
399.0000041867886
 20
125.25
 30
0.0
 40
2.5
  1
D
 41
1.0500100482927037
  7
MX_NOTE_STANDARD
 11
399.0000041867886
 21
126.5
 31
0.0
 73
               2
  0
TEXT
  8
0
  6
CONTINUOUS
 62
               3
  5
1BD
 10
399.0000041867886
 20
213.24999046325684
 30
0.0
 40
2.5
  1
B
 41
1.0500100482927037
  7
MX_NOTE_STANDARD
 11
399.0000041867886
 21
214.49999046325684
 31
0.0
 73
               2
  0
TEXT
  8
0
  6
CONTINUOUS
 62
               3
  5
1BE
 10
399.0000041867886
 20
37.25
 30
0.0
 40
2.5
  1
F
 41
1.0500100482927037
  7
MX_NOTE_STANDARD
 11
399.0000041867886
 21
38.5
 31
0.0
 73
               2
  0
TEXT
  8
0
  6
CONTINUOUS
 62
               3
  5
1BF
 10
399.0000041867886
 20
169.24999618530273
 30
0.0
 40
2.5
  1
C
 41
1.0500100482927037
  7
MX_NOTE_STANDARD
 11
399.0000041867886
 21
170.49999618530273
 31
0.0
 73
               2
  0
TEXT
  8
0
  6
CONTINUOUS
 62
               3
  5
1C0
 10
272.36224427797174
 20
276.39998471736908
 30
0.0
 40
3.2000000476837158
  1
日　付
 41
0.7916665513896337
  7
MX_NOTE_STANDARD
 11
272.36224427797174
 21
277.99998474121094
 31
0.0
 73
               2
  0
TEXT
  8
0
  6
CONTINUOUS
 62
               3
  5
1C1
 10
286.38220277406549
 20
276.39998471736908
 30
0.0
 40
3.2000000476837158
  1
符号
 41
0.7916665513896337
  7
MX_NOTE_STANDARD
 11
286.38220277406549
 21
277.99998474121094
 31
0.0
 73
               2
  0
TEXT
  8
0
  6
CONTINUOUS
 62
               3
  5
1C2
 10
333.22222962953424
 20
276.39998471736908
 30
0.0
 40
3.2000000476837158
  1
訂　　正　　事　　項
 41
0.7916665513896337
  7
MX_NOTE_STANDARD
 11
333.22222962953424
 21
277.99998474121094
 31
0.0
 73
               2
  0
TEXT
  8
0
  6
CONTINUOUS
 62
               3
  5
1C3
 10
387.86224427797174
 20
276.39998471736908
 30
0.0
 40
3.2000000476837158
  1
訂正者
 41
0.7916665513896337
  7
MX_NOTE_STANDARD
 11
387.86224427797174
 21
277.99998474121094
 31
0.0
 73
               2
  0
TEXT
  8
0
  6
CONTINUOUS
 62
               3
  5
1C4
 10
271.61031250061188
 20
34.5
 30
0.0
 40
2.0
  1
CONFIRMED By
 41
0.8130811572549591
  7
MX_NOTE_STANDARD
 11
271.61031250061188
 21
35.5
 31
0.0
 73
               2
  0
TEXT
  8
0
  6
CONTINUOUS
 62
               3
  5
1C5
 10
290.61031250061188
 20
34.5
 30
0.0
 40
2.0
  1
SECTION HEAD
 41
0.8130811572549591
  7
MX_NOTE_STANDARD
 11
290.61031250061188
 21
35.5
 31
0.0
 73
               2
  0
TEXT
  8
0
  6
CONTINUOUS
 62
               3
  5
1C6
 10
276.62083338780536
 20
30.5
 30
0.0
 40
3.0
  1
確認者
 41
0.7916666087177088
  7
MX_NOTE_STANDARD
 11
276.62083338780536
 21
32.0
 31
0.0
 73
               2
  0
TEXT
  8
0
  6
CONTINUOUS
 62
               3
  5
1C7
 10
295.62083338780536
 20
30.5
 30
0.0
 40
3.0
  1
部門長
 41
0.7916666087177088
  7
MX_NOTE_STANDARD
 11
295.62083338780536
 21
32.0
 31
0.0
 73
               2
  0
TEXT
  8
0
  6
CONTINUOUS
 62
               3
  5
1C8
 10
313.12694821417796
 20
33.0
 30
0.0
 40
3.0
  1
ARROW ELECTRONICS IND. CO.,LTD.
 41
0.9980740082356727
  7
MX_NOTE_STANDARD
 11
313.12694821417796
 21
34.5
 31
0.0
 73
               2
  0
TEXT
  8
0
  6
CONTINUOUS
 62
               3
  5
1C9
 10
232.62500418678863
 20
282.24998474121094
 30
0.0
 40
2.5
  1
5
 41
1.0500100482927037
  7
MX_NOTE_STANDARD
 11
232.62500418678863
 21
283.49998474121094
 31
0.0
 73
               2
  0
TEXT
  8
0
  6
CONTINUOUS
 62
               3
  5
1CA
 10
279.3750041867886
 20
282.24998474121094
 30
0.0
 40
2.5
  1
6
 41
1.0500100482927037
  7
MX_NOTE_STANDARD
 11
279.3750041867886
 21
283.49998474121094
 31
0.0
 73
               2
  0
TEXT
  8
0
  6
CONTINUOUS
 62
               3
  5
1CB
 10
326.1250041867886
 20
282.24998474121094
 30
0.0
 40
2.5
  1
7
 41
1.0500100482927037
  7
MX_NOTE_STANDARD
 11
326.1250041867886
 21
283.49998474121094
 31
0.0
 73
               2
  0
TEXT
  8
0
  6
CONTINUOUS
 62
               3
  5
1CC
 10
372.8750041867886
 20
282.24998474121094
 30
0.0
 40
2.5
  1
8
 41
1.0500100482927037
  7
MX_NOTE_STANDARD
 11
372.8750041867886
 21
283.49998474121094
 31
0.0
 73
               2
  0
TEXT
  8
0
  6
CONTINUOUS
 62
               3
  5
1CD
 10
45.843756260624978
 20
12.25
 30
0.0
 40
2.5
  1
1
 41
1.57501502549995
  7
MX_NOTE_STANDARD
 11
45.843756260624978
 21
13.5
 31
0.0
 73
               2
  0
TEXT
  8
0
  6
CONTINUOUS
 62
               3
  5
1CE
 10
92.37500418678863
 20
12.25
 30
0.0
 40
2.5
  1
2
 41
1.0500100482927037
  7
MX_NOTE_STANDARD
 11
92.37500418678863
 21
13.5
 31
0.0
 73
               2
  0
TEXT
  8
0
  6
CONTINUOUS
 62
               3
  5
1CF
 10
139.12500418678863
 20
12.25
 30
0.0
 40
2.5
  1
3
 41
1.0500100482927037
  7
MX_NOTE_STANDARD
 11
139.12500418678863
 21
13.5
 31
0.0
 73
               2
  0
TEXT
  8
0
  6
CONTINUOUS
 62
               3
  5
1D0
 10
185.87500418678863
 20
12.25
 30
0.0
 40
2.5
  1
4
 41
1.0500100482927037
  7
MX_NOTE_STANDARD
 11
185.87500418678863
 21
13.5
 31
0.0
 73
               2
  0
TEXT
  8
0
  6
CONTINUOUS
 62
               3
  5
1D1
 10
232.62500418678863
 20
12.25
 30
0.0
 40
2.5
  1
5
 41
1.0500100482927037
  7
MX_NOTE_STANDARD
 11
232.62500418678863
 21
13.5
 31
0.0
 73
               2
  0
TEXT
  8
0
  6
CONTINUOUS
 62
               3
  5
1D2
 10
279.3750041867886
 20
12.25
 30
0.0
 40
2.5
  1
6
 41
1.0500100482927037
  7
MX_NOTE_STANDARD
 11
279.3750041867886
 21
13.5
 31
0.0
 73
               2
  0
TEXT
  8
0
  6
CONTINUOUS
 62
               3
  5
1D3
 10
326.1250041867886
 20
12.25
 30
0.0
 40
2.5
  1
7
 41
1.0500100482927037
  7
MX_NOTE_STANDARD
 11
326.1250041867886
 21
13.5
 31
0.0
 73
               2
  0
TEXT
  8
0
  6
CONTINUOUS
 62
               3
  5
1D4
 10
372.8750041867886
 20
12.25
 30
0.0
 40
2.5
  1
8
 41
1.0500100482927037
  7
MX_NOTE_STANDARD
 11
372.8750041867886
 21
13.5
 31
0.0
 73
               2
  0
TEXT
  8
0
  6
CONTINUOUS
 62
               3
  5
1D5
 10
235.54874997380108
 20
49.019766534617702
 30
0.0
 40
2.5
  1
TITLE　図名
 41
0.9193548205910443
  7
MX_NOTE_STANDARD
 11
235.54874997380108
 21
50.269766534617702
 31
0.0
 73
               2
  0
TEXT
  8
0
  6
CONTINUOUS
 62
               3
  5
1D6
 10
341.77612841936605
 20
48.737587524382221
 30
0.0
 40
2.5
  1
DRAWING.No.　図番
 41
1.0025125459987605
  7
MX_NOTE_STANDARD
 11
341.77612841936605
 21
49.987587524382221
 31
0.0
 73
               2
  0
TEXT
  8
0
  6
CONTINUOUS
 62
               3
  5
1D7
 10
285.41737370029711
 20
48.815311186631618
 30
0.0
 40
2.5
  1
TYPE　型式
 41
0.8749999835302958
  7
MX_NOTE_STANDARD
 11
285.41737370029711
 21
50.065311186631618
 31
0.0
 73
               2
  0
TEXT
  8
0
  6
CONTINUOUS
 62
               3
  5
1D8
 10
234.3753186373884
 20
34.5
 30
0.0
 40
2.0
  1
DESIGN DATE
 41
0.8179209259076534
  7
MX_NOTE_STANDARD
 11
234.3753186373884
 21
35.5
 31
0.0
 73
               2
  0
TEXT
  8
0
  6
CONTINUOUS
 62
               3
  5
1D9
 10
234.3753186373884
 20
24.0
 30
0.0
 40
2.0
  1
DESIGNED BY
 41
0.8179209259076534
  7
MX_NOTE_STANDARD
 11
234.3753186373884
 21
25.0
 31
0.0
 73
               2
  0
TEXT
  8
0
  6
CONTINUOUS
 62
               3
  5
1DA
 10
255.14236109800362
 20
23.75
 30
0.0
 40
2.5
  1
設計者
 41
0.7916666352086609
  7
MX_NOTE_STANDARD
 11
255.14236109800362
 21
25.0
 31
0.0
 73
               2
  0
TEXT
  8
0
  6
CONTINUOUS
 62
               3
  5
1DB
 10
255.14236109800362
 20
34.25
 30
0.0
 40
2.5
  1
設計日
 41
0.7916666352086609
  7
MX_NOTE_STANDARD
 11
255.14236109800362
 21
35.5
 31
0.0
 73
               2
  0
INSERT
  8
0
  6
BYBLOCK
 62
              80
  5
1FB
  2
*X1
 10
0.0
 20
0.0
 30
0.0
  0
SOLID
  8
0
  6
CONTINUOUS
 62
              80
  5
1FC
 10
336.32864379882812
 20
26.73211669921875
 30
0.0
 11
336.82870483398437
 21
26.73211669921875
 31
0.0
 12
336.32864379882812
 22
26.14276123046875
 32
0.0
 13
336.82870483398437
 23
26.14276123046875
 33
0.0
  0
SOLID
  8
0
  6
CONTINUOUS
 62
              80
  5
1FD
 10
338.61431884765625
 20
27.23211669921875
 30
0.0
 11
339.54287719726562
 21
27.23211669921875
 31
0.0
 12
338.61431884765625
 22
26.14276123046875
 32
0.0
 13
339.54287719726562
 23
26.14276123046875
 33
0.0
  0
SOLID
  8
0
  6
CONTINUOUS
 62
              80
  5
1FE
 10
341.3284912109375
 20
26.73211669921875
 30
0.0
 11
341.82870483398438
 21
26.73211669921875
 31
0.0
 12
341.3284912109375
 22
26.14276123046875
 32
0.0
 13
341.82870483398438
 23
26.14276123046875
 33
0.0
  0
SOLID
  8
0
  6
CONTINUOUS
 62
              80
  5
1FF
 10
336.68572998046875
 20
25.4393310546875
 30
0.0
 11
337.1715087890625
 21
25.4393310546875
 31
0.0
 12
336.68572998046875
 22
24.4892578125
 32
0.0
 13
337.1715087890625
 23
24.4892578125
 33
0.0
  0
INSERT
  8
0
  6
BYBLOCK
 62
              80
  5
208
  2
*X2
 10
0.0
 20
0.0
 30
0.0
  0
SOLID
  8
0
  6
CONTINUOUS
 62
              80
  5
209
 10
340.98568725585937
 20
25.4393310546875
 30
0.0
 11
341.47152709960937
 21
25.4393310546875
 31
0.0
 12
340.98568725585937
 22
24.4892578125
 32
0.0
 13
341.47152709960937
 23
24.4892578125
 33
0.0
  0
INSERT
  8
0
  6
BYBLOCK
 62
              80
  5
20E
  2
*X3
 10
0.0
 20
0.0
 30
0.0
  0
INSERT
  8
0
  6
BYBLOCK
 62
              80
  5
22E
  2
*X4
 10
0.0
 20
0.0
 30
0.0
  0
SOLID
  8
0
  6
CONTINUOUS
 62
              80
  5
22F
 10
332.25738525390625
 20
25.64300537109375
 30
0.0
 11
335.685791015625
 21
25.64300537109375
 31
0.0
 12
332.25738525390625
 22
25.14276123046875
 32
0.0
 13
335.685791015625
 23
25.14276123046875
 33
0.0
  0
INSERT
  8
0
  6
BYBLOCK
 62
              80
  5
255
  2
*X5
 10
0.0
 20
0.0
 30
0.0
  0
INSERT
  8
0
  6
BYBLOCK
 62
              80
  5
274
  2
*X6
 10
0.0
 20
0.0
 30
0.0
  0
SOLID
  8
0
  6
CONTINUOUS
 62
              80
  5
275
 10
355.923828125
 20
27.2142333984375
 30
0.0
 11
356.1060791015625
 21
27.2142333984375
 31
0.0
 12
356.2227783203125
 22
26.91064453125
 32
0.0
 13
356.40505981445312
 23
26.91064453125
 33
0.0
  0
SOLID
  8
0
  6
CONTINUOUS
 62
              80
  5
276
 10
356.82858276367187
 20
27.2142333984375
 30
0.0
 11
357.18572998046875
 21
27.2142333984375
 31
0.0
 12
356.82858276367187
 22
26.91064453125
 32
0.0
 13
357.18572998046875
 23
26.91064453125
 33
0.0
  0
SOLID
  8
0
  6
CONTINUOUS
 62
              80
  5
277
 10
358.4000244140625
 20
27.2142333984375
 30
0.0
 11
358.75717163085937
 21
27.2142333984375
 31
0.0
 12
358.4000244140625
 22
26.91064453125
 32
0.0
 13
358.75717163085937
 23
26.91064453125
 33
0.0
  0
SOLID
  8
0
  6
CONTINUOUS
 62
              80
  5
278
 10
359.47967529296875
 20
27.2142333984375
 30
0.0
 11
359.66192626953125
 21
27.2142333984375
 31
0.0
 12
359.18069458007812
 22
26.91064453125
 32
0.0
 13
359.36294555664062
 23
26.91064453125
 33
0.0
  0
SOLID
  8
0
  6
CONTINUOUS
 62
              80
  5
279
 10
356.2021484375
 20
26.66064453125
 30
0.0
 11
356.58010864257812
 21
26.66064453125
 31
0.0
 12
356.43426513671875
 22
26.1964111328125
 32
0.0
 13
356.81222534179687
 23
26.1964111328125
 33
0.0
  0
SOLID
  8
0
  6
CONTINUOUS
 62
              80
  5
27A
 10
359.00564575195312
 20
26.66064453125
 30
0.0
 11
359.38363647460937
 21
26.66064453125
 31
0.0
 12
358.77352905273437
 22
26.1964111328125
 32
0.0
 13
359.15151977539062
 23
26.1964111328125
 33
0.0
  0
INSERT
  8
0
  6
BYBLOCK
 62
              80
  5
280
  2
*X7
 10
0.0
 20
0.0
 30
0.0
  0
SOLID
  8
0
  6
CONTINUOUS
 62
              80
  5
281
 10
357.4000244140625
 20
25.9464111328125
 30
0.0
 11
358.25717163085937
 21
25.9464111328125
 31
0.0
 12
357.4000244140625
 22
23.7142333984375
 32
0.0
 13
358.25717163085937
 23
23.7142333984375
 33
0.0
  0
INSERT
  8
0
  6
BYBLOCK
 62
              80
  5
28B
  2
*X8
 10
0.0
 20
0.0
 30
0.0
  0
INSERT
  8
0
  6
BYBLOCK
 62
              80
  5
291
  2
*X9
 10
0.0
 20
0.0
 30
0.0
  0
INSERT
  8
0
  6
BYBLOCK
 62
              80
  5
2A4
  2
*X10
 10
0.0
 20
0.0
 30
0.0
  0
INSERT
  8
0
  6
BYBLOCK
 62
              80
  5
2BF
  2
*X11
 10
0.0
 20
0.0
 30
0.0
  0
INSERT
  8
0
  6
BYBLOCK
 62
              80
  5
2D9
  2
*X12
 10
0.0
 20
0.0
 30
0.0
  0
INSERT
  8
0
  6
BYBLOCK
 62
              80
  5
2DF
  2
*X13
 10
0.0
 20
0.0
 30
0.0
  0
INSERT
  8
0
  6
BYBLOCK
 62
              80
  5
2F0
  2
*X14
 10
0.0
 20
0.0
 30
0.0
  0
INSERT
  8
0
  6
BYBLOCK
 62
              80
  5
302
  2
*X15
 10
0.0
 20
0.0
 30
0.0
  0
SOLID
  8
0
  6
CONTINUOUS
 62
              80
  5
303
 10
374.55715942382812
 20
25.92852783203125
 30
0.0
 11
377.55715942382813
 21
25.92852783203125
 31
0.0
 12
374.55715942382812
 22
25.85711669921875
 32
0.0
 13
377.55715942382813
 23
25.85711669921875
 33
0.0
  0
INSERT
  8
0
  6
BYBLOCK
 62
              80
  5
320
  2
*X16
 10
0.0
 20
0.0
 30
0.0
  0
INSERT
  8
0
  6
BYBLOCK
 62
              80
  5
326
  2
*X17
 10
0.0
 20
0.0
 30
0.0
  0
INSERT
  8
0
  6
BYBLOCK
 62
              80
  5
339
  2
*X18
 10
0.0
 20
0.0
 30
0.0
  0
SOLID
  8
0
  6
CONTINUOUS
 62
              80
  5
33A
 10
379.4285888671875
 20
27.28570556640625
 30
0.0
 11
381.8714599609375
 21
27.28570556640625
 31
0.0
 12
379.4285888671875
 22
27.2142333984375
 32
0.0
 13
381.8714599609375
 23
27.2142333984375
 33
0.0
  0
INSERT
  8
0
  6
BYBLOCK
 62
              80
  5
34E
  2
*X19
 10
0.0
 20
0.0
 30
0.0
  0
POLYLINE
  8
0
  6
CONTINUOUS
 62
              80
  5
34F
 66
               1
 10
0.0
 20
0.0
 30
0.0
  0
VERTEX
  8
0
  6
CONTINUOUS
 62
              80
  5
6D5
 10
363.28363811328114
 20
24.91010972157569
 30
0.0
  0
VERTEX
  8
0
  6
CONTINUOUS
 62
              80
  5
6D6
 10
363.2682484652118
 20
24.887719028397115
 30
0.0
  0
VERTEX
  8
0
  6
CONTINUOUS
 62
              80
  5
6D7
 10
363.2527901455129
 20
24.865374436740954
 30
0.0
  0
VERTEX
  8
0
  6
CONTINUOUS
 62
              80
  5
6D8
 10
363.23726337746774
 20
24.843076173728772
 30
0.0
  0
VERTEX
  8
0
  6
CONTINUOUS
 62
              80
  5
6D9
 10
363.22166838448391
 20
24.820824466458756
 30
0.0
  0
VERTEX
  8
0
  6
CONTINUOUS
 62
              80
  5
6DA
 10
363.20600539009246
 20
24.798619542004431
 30
0.0
  0
VERTEX
  8
0
  6
CONTINUOUS
 62
              80
  5
6DB
 10
363.1902746179473
 20
24.776461627413369
 30
0.0
  0
VERTEX
  8
0
  6
CONTINUOUS
 62
              80
  5
6DC
 10
363.17447629182493
 20
24.754350949705941
 30
0.0
  0
VERTEX
  8
0
  6
CONTINUOUS
 62
              80
  5
6DD
 10
363.15861063562329
 20
24.732287735874046
 30
0.0
  0
VERTEX
  8
0
  6
CONTINUOUS
 62
              80
  5
6DE
 10
363.14267787336178
 20
24.710272212879872
 30
0.0
  0
VERTEX
  8
0
  6
CONTINUOUS
 62
              80
  5
6DF
 10
363.12667822917996
 20
24.688304607654686
 30
0.0
  0
VERTEX
  8
0
  6
CONTINUOUS
 62
              80
  5
6E0
 10
363.11061192733752
 20
24.666385147097579
 30
0.0
  0
VERTEX
  8
0
  6
CONTINUOUS
 62
              80
  5
6E1
 10
363.09447919221333
 20
24.644514058074272
 30
0.0
  0
VERTEX
  8
0
  6
CONTINUOUS
 62
              80
  5
6E2
 10
363.07828024830485
 20
24.622691567415924
 30
0.0
  0
VERTEX
  8
0
  6
CONTINUOUS
 62
              80
  5
6E3
 10
363.0620153202276
 20
24.600917901917935
 30
0.0
  0
VERTEX
  8
0
  6
CONTINUOUS
 62
              80
  5
6E4
 10
363.04568463271448
 20
24.579193288338747
 30
0.0
  0
VERTEX
  8
0
  6
CONTINUOUS
 62
              80
  5
6E5
 10
363.02928841061504
 20
24.557517953398701
 30
0.0
  0
SEQEND
  8
0
  6
CONTINUOUS
 62
              80
  5
6E6
  0
POLYLINE
  8
0
  6
CONTINUOUS
 62
              80
  5
350
 66
               1
 10
0.0
 20
0.0
 30
0.0
  0
VERTEX
  8
0
  6
CONTINUOUS
 62
              80
  5
6E7
 10
363.97146606445312
 20
25.5714111328125
 30
0.0
  0
VERTEX
  8
0
  6
CONTINUOUS
 62
              80
  5
6E8
 10
363.94487816348334
 20
25.523004435126168
 30
0.0
  0
VERTEX
  8
0
  6
CONTINUOUS
 62
              80
  5
6E9
 10
363.91800197093539
 20
25.47475344944856
 30
0.0
  0
VERTEX
  8
0
  6
CONTINUOUS
 62
              80
  5
6EA
 10
363.89083821302057
 20
25.426660179377716
 30
0.0
  0
VERTEX
  8
0
  6
CONTINUOUS
 62
              80
  5
6EB
 10
363.86338761595027
 20
25.378726628511679
 30
0.0
  0
VERTEX
  8
0
  6
CONTINUOUS
 62
              80
  5
6EC
 10
363.83565090593572
 20
25.330954800448488
 30
0.0
  0
VERTEX
  8
0
  6
CONTINUOUS
 62
              80
  5
6ED
 10
363.8076288091882
 20
25.28334669878619
 30
0.0
  0
VERTEX
  8
0
  6
CONTINUOUS
 62
              80
  5
6EE
 10
363.77932205191911
 20
25.235904327122821
 30
0.0
  0
VERTEX
  8
0
  6
CONTINUOUS
 62
              80
  5
6EF
 10
363.75073136033973
 20
25.188629689056427
 30
0.0
  0
VERTEX
  8
0
  6
CONTINUOUS
 62
              80
  5
6F0
 10
363.72185746066134
 20
25.141524788185045
 30
0.0
  0
VERTEX
  8
0
  6
CONTINUOUS
 62
              80
  5
6F1
 10
363.69270107909523
 20
25.094591628106716
 30
0.0
  0
VERTEX
  8
0
  6
CONTINUOUS
 62
              80
  5
6F2
 10
363.66326294185279
 20
25.04783221241949
 30
0.0
  0
VERTEX
  8
0
  6
CONTINUOUS
 62
              80
  5
6F3
 10
363.63354377514526
 20
25.001248544721399
 30
0.0
  0
VERTEX
  8
0
  6
CONTINUOUS
 62
              80
  5
6F4
 10
363.60354430518396
 20
24.954842628610486
 30
0.0
  0
VERTEX
  8
0
  6
CONTINUOUS
 62
              80
  5
6F5
 10
363.57326525818024
 20
24.908616467684798
 30
0.0
  0
VERTEX
  8
0
  6
CONTINUOUS
 62
              80
  5
6F6
 10
363.54270736034533
 20
24.862572065542373
 30
0.0
  0
VERTEX
  8
0
  6
CONTINUOUS
 62
              80
  5
6F7
 10
363.51187133789062
 20
24.81671142578125
 30
0.0
  0
VERTEX
  8
0
  6
CONTINUOUS
 62
              80
  5
6F8
 10
363.47236661595525
 20
24.758818454502034
 30
0.0
  0
VERTEX
  8
0
  6
CONTINUOUS
 62
              80
  5
6F9
 10
363.43241848004982
 20
24.701226674369536
 30
0.0
  0
VERTEX
  8
0
  6
CONTINUOUS
 62
              80
  5
6FA
 10
363.39203049562639
 20
24.643939587185741
 30
0.0
  0
VERTEX
  8
0
  6
CONTINUOUS
 62
              80
  5
6FB
 10
363.35120622813702
 20
24.586960694752634
 30
0.0
  0
VERTEX
  8
0
  6
CONTINUOUS
 62
              80
  5
6FC
 10
363.30994924303377
 20
24.530293498872197
 30
0.0
  0
VERTEX
  8
0
  6
CONTINUOUS
 62
              80
  5
6FD
 10
363.26826310576871
 20
24.473941501346417
 30
0.0
  0
VERTEX
  8
0
  6
CONTINUOUS
 62
              80
  5
6FE
 10
363.2261513817939
 20
24.417908203977277
 30
0.0
  0
VERTEX
  8
0
  6
CONTINUOUS
 62
              80
  5
6FF
 10
363.18361763656139
 20
24.362197108566761
 30
0.0
  0
VERTEX
  8
0
  6
CONTINUOUS
 62
              80
  5
700
 10
363.14066543552326
 20
24.306811716916854
 30
0.0
  0
VERTEX
  8
0
  6
CONTINUOUS
 62
              80
  5
701
 10
363.09729834413156
 20
24.251755530829541
 30
0.0
  0
VERTEX
  8
0
  6
CONTINUOUS
 62
              80
  5
702
 10
363.05351992783835
 20
24.197032052106806
 30
0.0
  0
VERTEX
  8
0
  6
CONTINUOUS
 62
              80
  5
703
 10
363.0093337520957
 20
24.142644782550633
 30
0.0
  0
VERTEX
  8
0
  6
CONTINUOUS
 62
              80
  5
704
 10
362.96474338235566
 20
24.088597223963006
 30
0.0
  0
VERTEX
  8
0
  6
CONTINUOUS
 62
              80
  5
705
 10
362.91975238407031
 20
24.034892878145911
 30
0.0
  0
VERTEX
  8
0
  6
CONTINUOUS
 62
              80
  5
706
 10
362.87436432269169
 20
23.981535246901331
 30
0.0
  0
VERTEX
  8
0
  6
CONTINUOUS
 62
              80
  5
707
 10
362.82858276367187
 20
23.92852783203125
 30
0.0
  0
SEQEND
  8
0
  6
CONTINUOUS
 62
              80
  5
708
  0
POLYLINE
  8
0
  6
CONTINUOUS
 62
              80
  5
351
 66
               1
 10
0.0
 20
0.0
 30
0.0
  0
VERTEX
  8
0
  6
CONTINUOUS
 62
              80
  5
709
 10
370.29976441496819
 20
27.338466926783585
 30
0.0
  0
VERTEX
  8
0
  6
CONTINUOUS
 62
              80
  5
70A
 10
370.31035522502657
 20
27.29635510360178
 30
0.0
  0
VERTEX
  8
0
  6
CONTINUOUS
 62
              80
  5
70B
 10
370.32108477228508
 20
27.254276033841347
 30
0.0
  0
VERTEX
  8
0
  6
CONTINUOUS
 62
              80
  5
70C
 10
370.33195229286918
 20
27.212230116442576
 30
0.0
  0
VERTEX
  8
0
  6
CONTINUOUS
 62
              80
  5
70D
 10
370.34295702274966
 20
27.170217750462754
 30
0.0
  0
VERTEX
  8
0
  6
CONTINUOUS
 62
              80
  5
70E
 10
370.35409819774293
 20
27.128239335072472
 30
0.0
  0
VERTEX
  8
0
  6
CONTINUOUS
 62
              80
  5
70F
 10
370.36537505351151
 20
27.086295269551954
 30
0.0
  0
VERTEX
  8
0
  6
CONTINUOUS
 62
              80
  5
710
 10
370.37678682556401
 20
27.044385953287485
 30
0.0
  0
VERTEX
  8
0
  6
CONTINUOUS
 62
              80
  5
711
 10
370.38833274925588
 20
27.002511785767886
 30
0.0
  0
VERTEX
  8
0
  6
CONTINUOUS
 62
              80
  5
712
 10
370.40001205978945
 20
26.960673166581042
 30
0.0
  0
VERTEX
  8
0
  6
CONTINUOUS
 62
              80
  5
713
 10
370.41182399221475
 20
26.918870495410474
 30
0.0
  0
VERTEX
  8
0
  6
CONTINUOUS
 62
              80
  5
714
 10
370.42376778142972
 20
26.877104172032002
 30
0.0
  0
VERTEX
  8
0
  6
CONTINUOUS
 62
              80
  5
715
 10
370.43584266218102
 20
26.835374596310462
 30
0.0
  0
VERTEX
  8
0
  6
CONTINUOUS
 62
              80
  5
716
 10
370.44804786906434
 20
26.793682168196451
 30
0.0
  0
VERTEX
  8
0
  6
CONTINUOUS
 62
              80
  5
717
 10
370.46038263652542
 20
26.752027287723148
 30
0.0
  0
VERTEX
  8
0
  6
CONTINUOUS
 62
              80
  5
718
 10
370.47284619886045
 20
26.71041035500323
 30
0.0
  0
VERTEX
  8
0
  6
CONTINUOUS
 62
              80
  5
719
 10
370.48543779021674
 20
26.668831770225776
 30
0.0
  0
VERTEX
  8
0
  6
CONTINUOUS
 62
              80
  5
71A
 10
370.48764279534294
 20
26.661597625696203
 30
0.0
  0
VERTEX
  8
0
  6
CONTINUOUS
 62
              80
  5
71B
 10
370.48985160800413
 20
26.65436488189177
 30
0.0
  0
VERTEX
  8
0
  6
CONTINUOUS
 62
              80
  5
71C
 10
370.49206424118654
 20
26.647133543045825
 30
0.0
  0
VERTEX
  8
0
  6
CONTINUOUS
 62
              80
  5
71D
 10
370.49428070787576
 20
26.639903613390686
 30
0.0
  0
VERTEX
  8
0
  6
CONTINUOUS
 62
              80
  5
71E
 10
370.49650102105664
 20
26.63267509715762
 30
0.0
  0
VERTEX
  8
0
  6
CONTINUOUS
 62
              80
  5
71F
 10
370.49872519371371
 20
26.625447998576863
 30
0.0
  0
VERTEX
  8
0
  6
CONTINUOUS
 62
              80
  5
720
 10
370.50095323883085
 20
26.618222321877603
 30
0.0
  0
VERTEX
  8
0
  6
CONTINUOUS
 62
              80
  5
721
 10
370.50318516939126
 20
26.610998071287963
 30
0.0
  0
VERTEX
  8
0
  6
CONTINUOUS
 62
              80
  5
722
 10
370.50542099837782
 20
26.603775251035
 30
0.0
  0
VERTEX
  8
0
  6
CONTINUOUS
 62
              80
  5
723
 10
370.50766073877253
 20
26.596553865344717
 30
0.0
  0
VERTEX
  8
0
  6
CONTINUOUS
 62
              80
  5
724
 10
370.50990440355707
 20
26.589333918442023
 30
0.0
  0
VERTEX
  8
0
  6
CONTINUOUS
 62
              80
  5
725
 10
370.51215200571255
 20
26.58211541455076
 30
0.0
  0
VERTEX
  8
0
  6
CONTINUOUS
 62
              80
  5
726
 10
370.51440355821944
 20
26.574898357893673
 30
0.0
  0
VERTEX
  8
0
  6
CONTINUOUS
 62
              80
  5
727
 10
370.51665907405777
 20
26.567682752692416
 30
0.0
  0
VERTEX
  8
0
  6
CONTINUOUS
 62
              80
  5
728
 10
370.51891856620693
 20
26.560468603167539
 30
0.0
  0
VERTEX
  8
0
  6
CONTINUOUS
 62
              80
  5
729
 10
370.52118204764594
 20
26.553255913538493
 30
0.0
  0
SEQEND
  8
0
  6
CONTINUOUS
 62
              80
  5
72A
  0
POLYLINE
  8
0
  6
CONTINUOUS
 62
              80
  5
352
 66
               1
 10
0.0
 20
0.0
 30
0.0
  0
VERTEX
  8
0
  6
CONTINUOUS
 62
              80
  5
72B
 10
370.18576049804687
 20
27.42852783203125
 30
0.0
  0
VERTEX
  8
0
  6
CONTINUOUS
 62
              80
  5
72C
 10
370.19775848291408
 20
27.379060554624438
 30
0.0
  0
VERTEX
  8
0
  6
CONTINUOUS
 62
              80
  5
72D
 10
370.20994798784562
 20
27.329638468189668
 30
0.0
  0
VERTEX
  8
0
  6
CONTINUOUS
 62
              80
  5
72E
 10
370.22232778739573
 20
27.280262194075974
 30
0.0
  0
VERTEX
  8
0
  6
CONTINUOUS
 62
              80
  5
72F
 10
370.23489665611879
 20
27.230932353632387
 30
0.0
  0
VERTEX
  8
0
  6
CONTINUOUS
 62
              80
  5
730
 10
370.2476533685691
 20
27.181649568207938
 30
0.0
  0
VERTEX
  8
0
  6
CONTINUOUS
 62
              80
  5
731
 10
370.26059669930106
 20
27.132414459151658
 30
0.0
  0
VERTEX
  8
0
  6
CONTINUOUS
 62
              80
  5
732
 10
370.27372542286895
 20
27.083227647812578
 30
0.0
  0
VERTEX
  8
0
  6
CONTINUOUS
 62
              80
  5
733
 10
370.28703831382717
 20
27.034089755539728
 30
0.0
  0
VERTEX
  8
0
  6
CONTINUOUS
 62
              80
  5
734
 10
370.30053414672994
 20
26.985001403682141
 30
0.0
  0
VERTEX
  8
0
  6
CONTINUOUS
 62
              80
  5
735
 10
370.31421169613168
 20
26.935963213588849
 30
0.0
  0
VERTEX
  8
0
  6
CONTINUOUS
 62
              80
  5
736
 10
370.32806973658666
 20
26.886975806608877
 30
0.0
  0
VERTEX
  8
0
  6
CONTINUOUS
 62
              80
  5
737
 10
370.34210704264927
 20
26.838039804091267
 30
0.0
  0
VERTEX
  8
0
  6
CONTINUOUS
 62
              80
  5
738
 10
370.35632238887382
 20
26.789155827385041
 30
0.0
  0
VERTEX
  8
0
  6
CONTINUOUS
 62
              80
  5
739
 10
370.37071454981464
 20
26.740324497839232
 30
0.0
  0
VERTEX
  8
0
  6
CONTINUOUS
 62
              80
  5
73A
 10
370.38528230002612
 20
26.691546436802877
 30
0.0
  0
VERTEX
  8
0
  6
CONTINUOUS
 62
              80
  5
73B
 10
370.4000244140625
 20
26.642822265625
 30
0.0
  0
SEQEND
  8
0
  6
CONTINUOUS
 62
              80
  5
73C
  0
POLYLINE
  8
0
  6
CONTINUOUS
 62
              80
  5
353
 66
               1
 10
0.0
 20
0.0
 30
0.0
  0
VERTEX
  8
0
  6
CONTINUOUS
 62
              80
  5
73D
 10
371.11428001150989
 20
27.338025054844511
 30
0.0
  0
VERTEX
  8
0
  6
CONTINUOUS
 62
              80
  5
73E
 10
371.12491346920763
 20
27.291903554774482
 30
0.0
  0
VERTEX
  8
0
  6
CONTINUOUS
 62
              80
  5
73F
 10
371.13590853568041
 20
27.245842376867301
 30
0.0
  0
VERTEX
  8
0
  6
CONTINUOUS
 62
              80
  5
740
 10
371.1472705690191
 20
27.19984835158273
 30
0.0
  0
VERTEX
  8
0
  6
CONTINUOUS
 62
              80
  5
741
 10
371.15900493533599
 20
27.153928316656813
 30
0.0
  0
VERTEX
  8
0
  6
CONTINUOUS
 62
              80
  5
742
 10
371.17111700872005
 20
27.108089117770987
 30
0.0
  0
VERTEX
  8
0
  6
CONTINUOUS
 62
              80
  5
743
 10
371.18361217115984
 20
27.062337609249479
 30
0.0
  0
VERTEX
  8
0
  6
CONTINUOUS
 62
              80
  5
744
 10
371.19649581243215
 20
27.016680654784565
 30
0.0
  0
VERTEX
  8
0
  6
CONTINUOUS
 62
              80
  5
745
 10
371.20977332995182
 20
26.971125128189307
 30
0.0
  0
VERTEX
  8
0
  6
CONTINUOUS
 62
              80
  5
746
 10
371.22345012858102
 20
26.92567791417699
 30
0.0
  0
VERTEX
  8
0
  6
CONTINUOUS
 62
              80
  5
747
 10
371.23753162039247
 20
26.880345909166241
 30
0.0
  0
VERTEX
  8
0
  6
CONTINUOUS
 62
              80
  5
748
 10
371.25202322438577
 20
26.835136022110447
 30
0.0
  0
VERTEX
  8
0
  6
CONTINUOUS
 62
              80
  5
749
 10
371.26693036615052
 20
26.790055175349771
 30
0.0
  0
VERTEX
  8
0
  6
CONTINUOUS
 62
              80
  5
74A
 10
371.28225847747427
 20
26.745110305483678
 30
0.0
  0
VERTEX
  8
0
  6
CONTINUOUS
 62
              80
  5
74B
 10
371.29801299589144
 20
26.700308364261421
 30
0.0
  0
VERTEX
  8
0
  6
CONTINUOUS
 62
              80
  5
74C
 10
371.31419936416864
 20
26.655656319487562
 30
0.0
  0
VERTEX
  8
0
  6
CONTINUOUS
 62
              80
  5
74D
 10
371.33082302972383
 20
26.611161155939055
 30
0.0
  0
VERTEX
  8
0
  6
CONTINUOUS
 62
              80
  5
74E
 10
371.33218980392229
 20
26.607561635385615
 30
0.0
  0
VERTEX
  8
0
  6
CONTINUOUS
 62
              80
  5
74F
 10
371.33355933813101
 20
26.603963556674369
 30
0.0
  0
VERTEX
  8
0
  6
CONTINUOUS
 62
              80
  5
750
 10
371.33493161987002
 20
26.60036691506776
 30
0.0
  0
VERTEX
  8
0
  6
CONTINUOUS
 62
              80
  5
751
 10
371.33630663666281
 20
26.596771705825883
 30
0.0
  0
VERTEX
  8
0
  6
CONTINUOUS
 62
              80
  5
752
 10
371.33768437603686
 20
26.593177924206529
 30
0.0
  0
VERTEX
  8
0
  6
CONTINUOUS
 62
              80
  5
753
 10
371.33906482552288
 20
26.589585565465214
 30
0.0
  0
VERTEX
  8
0
  6
CONTINUOUS
 62
              80
  5
754
 10
371.34044797265528
 20
26.585994624855218
 30
0.0
  0
VERTEX
  8
0
  6
CONTINUOUS
 62
              80
  5
755
 10
371.34183380497234
 20
26.582405097627625
 30
0.0
  0
VERTEX
  8
0
  6
CONTINUOUS
 62
              80
  5
756
 10
371.34322231001568
 20
26.578816979031355
 30
0.0
  0
VERTEX
  8
0
  6
CONTINUOUS
 62
              80
  5
757
 10
371.34461347533062
 20
26.575230264313198
 30
0.0
  0
VERTEX
  8
0
  6
CONTINUOUS
 62
              80
  5
758
 10
371.34600728846613
 20
26.571644948717857
 30
0.0
  0
VERTEX
  8
0
  6
CONTINUOUS
 62
              80
  5
759
 10
371.34740373697468
 20
26.568061027487971
 30
0.0
  0
VERTEX
  8
0
  6
CONTINUOUS
 62
              80
  5
75A
 10
371.34880280841259
 20
26.564478495864172
 30
0.0
  0
VERTEX
  8
0
  6
CONTINUOUS
 62
              80
  5
75B
 10
371.35020449033959
 20
26.560897349085092
 30
0.0
  0
VERTEX
  8
0
  6
CONTINUOUS
 62
              80
  5
75C
 10
371.35160877031899
 20
26.557317582387416
 30
0.0
  0
VERTEX
  8
0
  6
CONTINUOUS
 62
              80
  5
75D
 10
371.35301563591798
 20
26.553739191005917
 30
0.0
  0
SEQEND
  8
0
  6
CONTINUOUS
 62
              80
  5
75E
  0
POLYLINE
  8
0
  6
CONTINUOUS
 62
              80
  5
354
 66
               1
 10
0.0
 20
0.0
 30
0.0
  0
VERTEX
  8
0
  6
CONTINUOUS
 62
              80
  5
75F
 10
371.18576049804687
 20
27.42852783203125
 30
0.0
  0
VERTEX
  8
0
  6
CONTINUOUS
 62
              80
  5
760
 10
371.19668462188764
 20
27.37855423636044
 30
0.0
  0
VERTEX
  8
0
  6
CONTINUOUS
 62
              80
  5
761
 10
371.20802558790086
 20
27.32865388170039
 30
0.0
  0
VERTEX
  8
0
  6
CONTINUOUS
 62
              80
  5
762
 10
371.21979007305163
 20
27.278835844913658
 30
0.0
  0
VERTEX
  8
0
  6
CONTINUOUS
 62
              80
  5
763
 10
371.2319847543049
 20
27.229109202862812
 30
0.0
  0
VERTEX
  8
0
  6
CONTINUOUS
 62
              80
  5
764
 10
371.24461630862578
 20
27.17948303241042
 30
0.0
  0
VERTEX
  8
0
  6
CONTINUOUS
 62
              80
  5
765
 10
371.2576914129794
 20
27.129966410419037
 30
0.0
  0
VERTEX
  8
0
  6
CONTINUOUS
 62
              80
  5
766
 10
371.27121674433073
 20
27.080568413751234
 30
0.0
  0
VERTEX
  8
0
  6
CONTINUOUS
 62
              80
  5
767
 10
371.2851989796448
 20
27.031298119269568
 30
0.0
  0
VERTEX
  8
0
  6
CONTINUOUS
 62
              80
  5
768
 10
371.29964479588676
 20
26.982164603836612
 30
0.0
  0
VERTEX
  8
0
  6
CONTINUOUS
 62
              80
  5
769
 10
371.31456087002164
 20
26.933176944314919
 30
0.0
  0
VERTEX
  8
0
  6
CONTINUOUS
 62
              80
  5
76A
 10
371.32995387901445
 20
26.884344217567062
 30
0.0
  0
VERTEX
  8
0
  6
CONTINUOUS
 62
              80
  5
76B
 10
371.3458304998303
 20
26.835675500455601
 30
0.0
  0
VERTEX
  8
0
  6
CONTINUOUS
 62
              80
  5
76C
 10
371.3621974094342
 20
26.787179869843101
 30
0.0
  0
VERTEX
  8
0
  6
CONTINUOUS
 62
              80
  5
76D
 10
371.37906128479125
 20
26.738866402592127
 30
0.0
  0
VERTEX
  8
0
  6
CONTINUOUS
 62
              80
  5
76E
 10
371.39642880286652
 20
26.690744175565236
 30
0.0
  0
VERTEX
  8
0
  6
CONTINUOUS
 62
              80
  5
76F
 10
371.414306640625
 20
26.642822265625
 30
0.0
  0
SEQEND
  8
0
  6
CONTINUOUS
 62
              80
  5
770
  0
POLYLINE
  8
0
  6
CONTINUOUS
 62
              80
  5
355
 66
               1
 10
0.0
 20
0.0
 30
0.0
  0
VERTEX
  8
0
  6
CONTINUOUS
 62
              80
  5
771
 10
371.55771429467723
 20
26.089226541418626
 30
0.0
  0
VERTEX
  8
0
  6
CONTINUOUS
 62
              80
  5
772
 10
371.56156366144461
 20
26.081171563506487
 30
0.0
  0
VERTEX
  8
0
  6
CONTINUOUS
 62
              80
  5
773
 10
371.56541811378821
 20
26.073120548745724
 30
0.0
  0
VERTEX
  8
0
  6
CONTINUOUS
 62
              80
  5
774
 10
371.56927749745103
 20
26.065073435727506
 30
0.0
  0
VERTEX
  8
0
  6
CONTINUOUS
 62
              80
  5
775
 10
371.57314165825863
 20
26.05703016308135
 30
0.0
  0
VERTEX
  8
0
  6
CONTINUOUS
 62
              80
  5
776
 10
371.57701044211859
 20
26.048990669475931
 30
0.0
  0
VERTEX
  8
0
  6
CONTINUOUS
 62
              80
  5
777
 10
371.58088369501985
 20
26.040954893619844
 30
0.0
  0
VERTEX
  8
0
  6
CONTINUOUS
 62
              80
  5
778
 10
371.58476126303287
 20
26.032922774262346
 30
0.0
  0
VERTEX
  8
0
  6
CONTINUOUS
 62
              80
  5
779
 10
371.58864299230856
 20
26.024894250194105
 30
0.0
  0
VERTEX
  8
0
  6
CONTINUOUS
 62
              80
  5
77A
 10
371.5925287290782
 20
26.016869260247876
 30
0.0
  0
VERTEX
  8
0
  6
CONTINUOUS
 62
              80
  5
77B
 10
371.59641831965297
 20
26.008847743299199
 30
0.0
  0
VERTEX
  8
0
  6
CONTINUOUS
 62
              80
  5
77C
 10
371.6003116104236
 20
26.000829638267042
 30
0.0
  0
VERTEX
  8
0
  6
CONTINUOUS
 62
              80
  5
77D
 10
371.60420844785989
 20
25.992814884114438
 30
0.0
  0
VERTEX
  8
0
  6
CONTINUOUS
 62
              80
  5
77E
 10
371.60810867851035
 20
25.984803419849094
 30
0.0
  0
VERTEX
  8
0
  6
CONTINUOUS
 62
              80
  5
77F
 10
371.61201214900194
 20
25.976795184523997
 30
0.0
  0
VERTEX
  8
0
  6
CONTINUOUS
 62
              80
  5
780
 10
371.61591870603968
 20
25.968790117237951
 30
0.0
  0
VERTEX
  8
0
  6
CONTINUOUS
 62
              80
  5
781
 10
371.61982819640616
 20
25.960788157136154
 30
0.0
  0
VERTEX
  8
0
  6
CONTINUOUS
 62
              80
  5
782
 10
371.68884004799457
 20
25.820975135226163
 30
0.0
  0
VERTEX
  8
0
  6
CONTINUOUS
 62
              80
  5
783
 10
371.75896522496657
 20
25.681665074358285
 30
0.0
  0
VERTEX
  8
0
  6
CONTINUOUS
 62
              80
  5
784
 10
371.83022774283074
 20
25.542892011143667
 30
0.0
  0
VERTEX
  8
0
  6
CONTINUOUS
 62
              80
  5
785
 10
371.90265163066624
 20
25.404689998832534
 30
0.0
  0
VERTEX
  8
0
  6
CONTINUOUS
 62
              80
  5
786
 10
371.97626093048927
 20
25.2670931090701
 30
0.0
  0
VERTEX
  8
0
  6
CONTINUOUS
 62
              80
  5
787
 10
372.0510796965043
 20
25.130135433704606
 30
0.0
  0
VERTEX
  8
0
  6
CONTINUOUS
 62
              80
  5
788
 10
372.12713199422853
 20
24.993851086642902
 30
0.0
  0
VERTEX
  8
0
  6
CONTINUOUS
 62
              80
  5
789
 10
372.2044418994796
 20
24.858274205747723
 30
0.0
  0
VERTEX
  8
0
  6
CONTINUOUS
 62
              80
  5
78A
 10
372.28303349721511
 20
24.723438954769371
 30
0.0
  0
VERTEX
  8
0
  6
CONTINUOUS
 62
              80
  5
78B
 10
372.36293088021318
 20
24.589379525303013
 30
0.0
  0
VERTEX
  8
0
  6
CONTINUOUS
 62
              80
  5
78C
 10
372.44415814758287
 20
24.456130138761072
 30
0.0
  0
VERTEX
  8
0
  6
CONTINUOUS
 62
              80
  5
78D
 10
372.52673940309563
 20
24.32372504834839
 30
0.0
  0
VERTEX
  8
0
  6
CONTINUOUS
 62
              80
  5
78E
 10
372.61069875332652
 20
24.192198541026126
 30
0.0
  0
VERTEX
  8
0
  6
CONTINUOUS
 62
              80
  5
78F
 10
372.69606030559726
 20
24.061584939448057
 30
0.0
  0
VERTEX
  8
0
  6
CONTINUOUS
 62
              80
  5
790
 10
372.78284816571363
 20
23.931918603851265
 30
0.0
  0
VERTEX
  8
0
  6
CONTINUOUS
 62
              80
  5
791
 10
372.87108643549067
 20
23.803233933880822
 30
0.0
  0
SEQEND
  8
0
  6
CONTINUOUS
 62
              80
  5
792
  0
POLYLINE
  8
0
  6
CONTINUOUS
 62
              80
  5
356
 66
               1
 10
0.0
 20
0.0
 30
0.0
  0
VERTEX
  8
0
  6
CONTINUOUS
 62
              80
  5
793
 10
371.70004272460937
 20
26.0
 30
0.0
  0
VERTEX
  8
0
  6
CONTINUOUS
 62
              80
  5
794
 10
371.77352947572945
 20
25.851221432036255
 30
0.0
  0
VERTEX
  8
0
  6
CONTINUOUS
 62
              80
  5
795
 10
371.84827421372756
 20
25.703038536477834
 30
0.0
  0
VERTEX
  8
0
  6
CONTINUOUS
 62
              80
  5
796
 10
371.9243056672276
 20
25.5554927593912
 30
0.0
  0
VERTEX
  8
0
  6
CONTINUOUS
 62
              80
  5
797
 10
372.00165256485343
 20
25.408625546842813
 30
0.0
  0
VERTEX
  8
0
  6
CONTINUOUS
 62
              80
  5
798
 10
372.08034363522893
 20
25.262478344899137
 30
0.0
  0
VERTEX
  8
0
  6
CONTINUOUS
 62
              80
  5
799
 10
372.16040760697797
 20
25.117092599626631
 30
0.0
  0
VERTEX
  8
0
  6
CONTINUOUS
 62
              80
  5
79A
 10
372.24187320872443
 20
24.972509757091757
 30
0.0
  0
VERTEX
  8
0
  6
CONTINUOUS
 62
              80
  5
79B
 10
372.32476916909218
 20
24.828771263360977
 30
0.0
  0
VERTEX
  8
0
  6
CONTINUOUS
 62
              80
  5
79C
 10
372.4091242167051
 20
24.685918564500753
 30
0.0
  0
VERTEX
  8
0
  6
CONTINUOUS
 62
              80
  5
79D
 10
372.49496708018705
 20
24.543993106577545
 30
0.0
  0
VERTEX
  8
0
  6
CONTINUOUS
 62
              80
  5
79E
 10
372.58232648816193
 20
24.403036335657816
 30
0.0
  0
VERTEX
  8
0
  6
CONTINUOUS
 62
              80
  5
79F
 10
372.67123116925359
 20
24.263089697808027
 30
0.0
  0
VERTEX
  8
0
  6
CONTINUOUS
 62
              80
  5
7A0
 10
372.76170985208591
 20
24.12419463909464
 30
0.0
  0
VERTEX
  8
0
  6
CONTINUOUS
 62
              80
  5
7A1
 10
372.85379126528278
 20
23.986392605584115
 30
0.0
  0
VERTEX
  8
0
  6
CONTINUOUS
 62
              80
  5
7A2
 10
372.94750413746806
 20
23.849725043342914
 30
0.0
  0
VERTEX
  8
0
  6
CONTINUOUS
 62
              80
  5
7A3
 10
373.04287719726562
 20
23.7142333984375
 30
0.0
  0
SEQEND
  8
0
  6
CONTINUOUS
 62
              80
  5
7A4
  0
POLYLINE
  8
0
  6
CONTINUOUS
 62
              80
  5
357
 66
               1
 10
0.0
 20
0.0
 30
0.0
  0
VERTEX
  8
0
  6
CONTINUOUS
 62
              80
  5
7A5
 10
370.67697320339164
 20
26.089193799176755
 30
0.0
  0
VERTEX
  8
0
  6
CONTINUOUS
 62
              80
  5
7A6
 10
370.67828891781392
 20
26.085531129678913
 30
0.0
  0
VERTEX
  8
0
  6
CONTINUOUS
 62
              80
  5
7A7
 10
370.67960591982575
 20
26.081868921390235
 30
0.0
  0
VERTEX
  8
0
  6
CONTINUOUS
 62
              80
  5
7A8
 10
370.68092421120002
 20
26.078207174875935
 30
0.0
  0
VERTEX
  8
0
  6
CONTINUOUS
 62
              80
  5
7A9
 10
370.68224379370923
 20
26.074545890701124
 30
0.0
  0
VERTEX
  8
0
  6
CONTINUOUS
 62
              80
  5
7AA
 10
370.68356466912633
 20
26.070885069430794
 30
0.0
  0
VERTEX
  8
0
  6
CONTINUOUS
 62
              80
  5
7AB
 10
370.68488683922385
 20
26.067224711629834
 30
0.0
  0
VERTEX
  8
0
  6
CONTINUOUS
 62
              80
  5
7AC
 10
370.68621030577458
 20
26.063564817863032
 30
0.0
  0
VERTEX
  8
0
  6
CONTINUOUS
 62
              80
  5
7AD
 10
370.68753507055112
 20
26.059905388695054
 30
0.0
  0
VERTEX
  8
0
  6
CONTINUOUS
 62
              80
  5
7AE
 10
370.68886113532636
 20
26.056246424690467
 30
0.0
  0
VERTEX
  8
0
  6
CONTINUOUS
 62
              80
  5
7AF
 10
370.69018850187274
 20
26.052587926413725
 30
0.0
  0
VERTEX
  8
0
  6
CONTINUOUS
 62
              80
  5
7B0
 10
370.69151717196308
 20
26.048929894429179
 30
0.0
  0
VERTEX
  8
0
  6
CONTINUOUS
 62
              80
  5
7B1
 10
370.69284714737
 20
26.045272329301056
 30
0.0
  0
VERTEX
  8
0
  6
CONTINUOUS
 62
              80
  5
7B2
 10
370.69417842986616
 20
26.041615231593489
 30
0.0
  0
VERTEX
  8
0
  6
CONTINUOUS
 62
              80
  5
7B3
 10
370.69551102122426
 20
26.037958601870489
 30
0.0
  0
VERTEX
  8
0
  6
CONTINUOUS
 62
              80
  5
7B4
 10
370.69684492321687
 20
26.034302440695971
 30
0.0
  0
VERTEX
  8
0
  6
CONTINUOUS
 62
              80
  5
7B5
 10
370.69818013761665
 20
26.030646748633721
 30
0.0
  0
VERTEX
  8
0
  6
CONTINUOUS
 62
              80
  5
7B6
 10
370.75263212497214
 20
25.884893728283643
 30
0.0
  0
VERTEX
  8
0
  6
CONTINUOUS
 62
              80
  5
7B7
 10
370.80918800224282
 20
25.739852763536749
 30
0.0
  0
VERTEX
  8
0
  6
CONTINUOUS
 62
              80
  5
7B8
 10
370.8678202129916
 20
25.595557188660376
 30
0.0
  0
VERTEX
  8
0
  6
CONTINUOUS
 62
              80
  5
7B9
 10
370.92850116966486
 20
25.452040343177572
 30
0.0
  0
VERTEX
  8
0
  6
CONTINUOUS
 62
              80
  5
7BA
 10
370.99120325405312
 20
25.309335570325754
 30
0.0
  0
VERTEX
  8
0
  6
CONTINUOUS
 62
              80
  5
7BB
 10
371.05589881776802
 20
25.167476215613789
 30
0.0
  0
VERTEX
  8
0
  6
CONTINUOUS
 62
              80
  5
7BC
 10
371.12256018272672
 20
25.026495625470535
 30
0.0
  0
VERTEX
  8
0
  6
CONTINUOUS
 62
              80
  5
7BD
 10
371.19115964163899
 20
24.886427145977692
 30
0.0
  0
VERTEX
  8
0
  6
CONTINUOUS
 62
              80
  5
7BE
 10
371.26166945849036
 20
24.74730412167963
 30
0.0
  0
VERTEX
  8
0
  6
CONTINUOUS
 62
              80
  5
7BF
 10
371.33406186901721
 20
24.609159894463048
 30
0.0
  0
VERTEX
  8
0
  6
CONTINUOUS
 62
              80
  5
7C0
 10
371.40830908116965
 20
24.47202780249901
 30
0.0
  0
VERTEX
  8
0
  6
CONTINUOUS
 62
              80
  5
7C1
 10
371.48438327555897
 20
24.335941179240226
 30
0.0
  0
VERTEX
  8
0
  6
CONTINUOUS
 62
              80
  5
7C2
 10
371.56225660588734
 20
24.200933352466343
 30
0.0
  0
VERTEX
  8
0
  6
CONTINUOUS
 62
              80
  5
7C3
 10
371.64190119935733
 20
24.067037643370149
 30
0.0
  0
VERTEX
  8
0
  6
CONTINUOUS
 62
              80
  5
7C4
 10
371.72328915706038
 20
23.93428736567774
 30
0.0
  0
VERTEX
  8
0
  6
CONTINUOUS
 62
              80
  5
7C5
 10
371.80639255434295
 20
23.80271582479568
 30
0.0
  0
SEQEND
  8
0
  6
CONTINUOUS
 62
              80
  5
7C6
  0
POLYLINE
  8
0
  6
CONTINUOUS
 62
              80
  5
358
 66
               1
 10
0.0
 20
0.0
 30
0.0
  0
VERTEX
  8
0
  6
CONTINUOUS
 62
              80
  5
7C7
 10
370.61431884765625
 20
26.0
 30
0.0
  0
VERTEX
  8
0
  6
CONTINUOUS
 62
              80
  5
7C8
 10
370.67028803762514
 20
25.850248223228846
 30
0.0
  0
VERTEX
  8
0
  6
CONTINUOUS
 62
              80
  5
7C9
 10
370.72845591697842
 20
25.701252416241914
 30
0.0
  0
VERTEX
  8
0
  6
CONTINUOUS
 62
              80
  5
7CA
 10
370.78879302681889
 20
25.553047481633257
 30
0.0
  0
VERTEX
  8
0
  6
CONTINUOUS
 62
              80
  5
7CB
 10
370.85126990824938
 20
25.405668321996927
 30
0.0
  0
VERTEX
  8
0
  6
CONTINUOUS
 62
              80
  5
7CC
 10
370.91585710237268
 20
25.259149839926977
 30
0.0
  0
VERTEX
  8
0
  6
CONTINUOUS
 62
              80
  5
7CD
 10
370.98252515029162
 20
25.113526938017458
 30
0.0
  0
VERTEX
  8
0
  6
CONTINUOUS
 62
              80
  5
7CE
 10
371.051244593109
 20
24.968834518862423
 30
0.0
  0
VERTEX
  8
0
  6
CONTINUOUS
 62
              80
  5
7CF
 10
371.12198597192764
 20
24.825107485055923
 30
0.0
  0
VERTEX
  8
0
  6
CONTINUOUS
 62
              80
  5
7D0
 10
371.19471982785035
 20
24.682380739192013
 30
0.0
  0
VERTEX
  8
0
  6
CONTINUOUS
 62
              80
  5
7D1
 10
371.26941670197994
 20
24.540689183864743
 30
0.0
  0
VERTEX
  8
0
  6
CONTINUOUS
 62
              80
  5
7D2
 10
371.34604713541921
 20
24.400067721668165
 30
0.0
  0
VERTEX
  8
0
  6
CONTINUOUS
 62
              80
  5
7D3
 10
371.42458166927099
 20
24.260551255196333
 30
0.0
  0
VERTEX
  8
0
  6
CONTINUOUS
 62
              80
  5
7D4
 10
371.50499084463809
 20
24.122174687043298
 30
0.0
  0
VERTEX
  8
0
  6
CONTINUOUS
 62
              80
  5
7D5
 10
371.58724520262331
 20
23.984972919803113
 30
0.0
  0
VERTEX
  8
0
  6
CONTINUOUS
 62
              80
  5
7D6
 10
371.67131528432947
 20
23.848980856069829
 30
0.0
  0
VERTEX
  8
0
  6
CONTINUOUS
 62
              80
  5
7D7
 10
371.75717163085937
 20
23.7142333984375
 30
0.0
  0
SEQEND
  8
0
  6
CONTINUOUS
 62
              80
  5
7D8
  0
POLYLINE
  8
0
  6
CONTINUOUS
 62
              80
  5
359
 66
               1
 10
0.0
 20
0.0
 30
0.0
  0
VERTEX
  8
0
  6
CONTINUOUS
 62
              80
  5
7D9
 10
370.09632075624046
 20
24.251916095765726
 30
0.0
  0
VERTEX
  8
0
  6
CONTINUOUS
 62
              80
  5
7DA
 10
370.03580570420849
 20
24.242218611708928
 30
0.0
  0
VERTEX
  8
0
  6
CONTINUOUS
 62
              80
  5
7DB
 10
369.97524172266282
 20
24.232714706859934
 30
0.0
  0
VERTEX
  8
0
  6
CONTINUOUS
 62
              80
  5
7DC
 10
369.9146293134271
 20
24.22341388967445
 30
0.0
  0
VERTEX
  8
0
  6
CONTINUOUS
 62
              80
  5
7DD
 10
369.85396897754572
 20
24.214325674866817
 30
0.0
  0
VERTEX
  8
0
  6
CONTINUOUS
 62
              80
  5
7DE
 10
369.7932612155895
 20
24.205459583493468
 30
0.0
  0
VERTEX
  8
0
  6
CONTINUOUS
 62
              80
  5
7DF
 10
369.73250652797674
 20
24.19682514303426
 30
0.0
  0
VERTEX
  8
0
  6
CONTINUOUS
 62
              80
  5
7E0
 10
369.67170541531061
 20
24.188431887470692
 30
0.0
  0
VERTEX
  8
0
  6
CONTINUOUS
 62
              80
  5
7E1
 10
369.61085837873298
 20
24.180289357359911
 30
0.0
  0
VERTEX
  8
0
  6
CONTINUOUS
 62
              80
  5
7E2
 10
369.54996592029443
 20
24.172407099903378
 30
0.0
  0
VERTEX
  8
0
  6
CONTINUOUS
 62
              80
  5
7E3
 10
369.4890285433417
 20
24.164794669008916
 30
0.0
  0
VERTEX
  8
0
  6
CONTINUOUS
 62
              80
  5
7E4
 10
369.42804675292211
 20
24.157461625344983
 30
0.0
  0
VERTEX
  8
0
  6
CONTINUOUS
 62
              80
  5
7E5
 10
369.36702105620486
 20
24.150417536385664
 30
0.0
  0
VERTEX
  8
0
  6
CONTINUOUS
 62
              80
  5
7E6
 10
369.30595196291932
 20
24.143671976445152
 30
0.0
  0
VERTEX
  8
0
  6
CONTINUOUS
 62
              80
  5
7E7
 10
369.24483998581155
 20
24.137234526700102
 30
0.0
  0
VERTEX
  8
0
  6
CONTINUOUS
 62
              80
  5
7E8
 10
369.18368564111643
 20
24.131114775198419
 30
0.0
  0
VERTEX
  8
0
  6
CONTINUOUS
 62
              80
  5
7E9
 10
369.12248944904695
 20
24.125322316852827
 30
0.0
  0
VERTEX
  8
0
  6
CONTINUOUS
 62
              80
  5
7EA
 10
369.11634960169886
 20
24.124759795689211
 30
0.0
  0
VERTEX
  8
0
  6
CONTINUOUS
 62
              80
  5
7EB
 10
369.11020988111932
 20
24.124200683458287
 30
0.0
  0
VERTEX
  8
0
  6
CONTINUOUS
 62
              80
  5
7EC
 10
369.10407028968388
 20
24.123644951629622
 30
0.0
  0
VERTEX
  8
0
  6
CONTINUOUS
 62
              80
  5
7ED
 10
369.0979308297658
 20
24.123092571678047
 30
0.0
  0
VERTEX
  8
0
  6
CONTINUOUS
 62
              80
  5
7EE
 10
369.09179150373535
 20
24.122543515083677
 30
0.0
  0
VERTEX
  8
0
  6
CONTINUOUS
 62
              80
  5
7EF
 10
369.08565231396017
 20
24.12199775333189
 30
0.0
  0
VERTEX
  8
0
  6
CONTINUOUS
 62
              80
  5
7F0
 10
369.07951326280528
 20
24.121455257913368
 30
0.0
  0
VERTEX
  8
0
  6
CONTINUOUS
 62
              80
  5
7F1
 10
369.07337435263321
 20
24.12091600032409
 30
0.0
  0
VERTEX
  8
0
  6
CONTINUOUS
 62
              80
  5
7F2
 10
369.0672355858037
 20
24.12037995206536
 30
0.0
  0
VERTEX
  8
0
  6
CONTINUOUS
 62
              80
  5
7F3
 10
369.06109696467416
 20
24.11984708464378
 30
0.0
  0
VERTEX
  8
0
  6
CONTINUOUS
 62
              80
  5
7F4
 10
369.05495849159945
 20
24.119317369571309
 30
0.0
  0
VERTEX
  8
0
  6
CONTINUOUS
 62
              80
  5
7F5
 10
369.0488201689322
 20
24.118790778365224
 30
0.0
  0
VERTEX
  8
0
  6
CONTINUOUS
 62
              80
  5
7F6
 10
369.04268199902231
 20
24.118267282548164
 30
0.0
  0
VERTEX
  8
0
  6
CONTINUOUS
 62
              80
  5
7F7
 10
369.0365439842177
 20
24.117746853648121
 30
0.0
  0
VERTEX
  8
0
  6
CONTINUOUS
 62
              80
  5
7F8
 10
369.03040612686374
 20
24.117229463198449
 30
0.0
  0
VERTEX
  8
0
  6
CONTINUOUS
 62
              80
  5
7F9
 10
369.02426842930367
 20
24.116715082737873
 30
0.0
  0
SEQEND
  8
0
  6
CONTINUOUS
 62
              80
  5
7FA
  0
POLYLINE
  8
0
  6
CONTINUOUS
 62
              80
  5
35A
 66
               1
 10
0.0
 20
0.0
 30
0.0
  0
VERTEX
  8
0
  6
CONTINUOUS
 62
              80
  5
7FB
 10
370.18576049804687
 20
24.35711669921875
 30
0.0
  0
VERTEX
  8
0
  6
CONTINUOUS
 62
              80
  5
7FC
 10
370.11910498669562
 20
24.34608761203334
 30
0.0
  0
VERTEX
  8
0
  6
CONTINUOUS
 62
              80
  5
7FD
 10
370.05240477888998
 20
24.335278887505019
 30
0.0
  0
VERTEX
  8
0
  6
CONTINUOUS
 62
              80
  5
7FE
 10
369.98566060696163
 20
24.324703273089746
 30
0.0
  0
VERTEX
  8
0
  6
CONTINUOUS
 62
              80
  5
7FF
 10
369.9188732032423
 20
24.314373516243474
 30
0.0
  0
VERTEX
  8
0
  6
CONTINUOUS
 62
              80
  5
800
 10
369.85204330006371
 20
24.304302364422156
 30
0.0
  0
VERTEX
  8
0
  6
CONTINUOUS
 62
              80
  5
801
 10
369.78517162975754
 20
24.294502565081746
 30
0.0
  0
VERTEX
  8
0
  6
CONTINUOUS
 62
              80
  5
802
 10
369.71825892465557
 20
24.284986865678199
 30
0.0
  0
VERTEX
  8
0
  6
CONTINUOUS
 62
              80
  5
803
 10
369.65130591708942
 20
24.27576801366747
 30
0.0
  0
VERTEX
  8
0
  6
CONTINUOUS
 62
              80
  5
804
 10
369.58431333939086
 20
24.26685875650551
 30
0.0
  0
VERTEX
  8
0
  6
CONTINUOUS
 62
              80
  5
805
 10
369.51728192389157
 20
24.258271841648273
 30
0.0
  0
VERTEX
  8
0
  6
CONTINUOUS
 62
              80
  5
806
 10
369.45021240292328
 20
24.250020016551716
 30
0.0
  0
VERTEX
  8
0
  6
CONTINUOUS
 62
              80
  5
807
 10
369.38310550881766
 20
24.242116028671791
 30
0.0
  0
VERTEX
  8
0
  6
CONTINUOUS
 62
              80
  5
808
 10
369.31596197390644
 20
24.234572625464455
 30
0.0
  0
VERTEX
  8
0
  6
CONTINUOUS
 62
              80
  5
809
 10
369.24878253052134
 20
24.227402554385655
 30
0.0
  0
VERTEX
  8
0
  6
CONTINUOUS
 62
              80
  5
80A
 10
369.18156791099403
 20
24.220618562891353
 30
0.0
  0
VERTEX
  8
0
  6
CONTINUOUS
 62
              80
  5
80B
 10
369.11431884765625
 20
24.2142333984375
 30
0.0
  0
SEQEND
  8
0
  6
CONTINUOUS
 62
              80
  5
80C
  0
POLYLINE
  8
0
  6
CONTINUOUS
 62
              80
  5
35B
 66
               1
 10
0.0
 20
0.0
 30
0.0
  0
VERTEX
  8
0
  6
CONTINUOUS
 62
              80
  5
80D
 10
368.13213956500039
 20
24.059021881141362
 30
0.0
  0
VERTEX
  8
0
  6
CONTINUOUS
 62
              80
  5
80E
 10
368.12692003548881
 20
24.058697660607294
 30
0.0
  0
VERTEX
  8
0
  6
CONTINUOUS
 62
              80
  5
80F
 10
368.12170087012242
 20
24.058372608026293
 30
0.0
  0
VERTEX
  8
0
  6
CONTINUOUS
 62
              80
  5
810
 10
368.11648207031863
 20
24.058046705995949
 30
0.0
  0
VERTEX
  8
0
  6
CONTINUOUS
 62
              80
  5
811
 10
368.11126363749452
 20
24.057719937116861
 30
0.0
  0
VERTEX
  8
0
  6
CONTINUOUS
 62
              80
  5
812
 10
368.10604557306692
 20
24.057392283992652
 30
0.0
  0
VERTEX
  8
0
  6
CONTINUOUS
 62
              80
  5
813
 10
368.10082787845255
 20
24.057063729229942
 30
0.0
  0
VERTEX
  8
0
  6
CONTINUOUS
 62
              80
  5
814
 10
368.09561055506776
 20
24.056734255438382
 30
0.0
  0
VERTEX
  8
0
  6
CONTINUOUS
 62
              80
  5
815
 10
368.09039360432882
 20
24.056403845230619
 30
0.0
  0
VERTEX
  8
0
  6
CONTINUOUS
 62
              80
  5
816
 10
368.08517702765147
 20
24.056072481222341
 30
0.0
  0
VERTEX
  8
0
  6
CONTINUOUS
 62
              80
  5
817
 10
368.07996082645144
 20
24.055740146032214
 30
0.0
  0
VERTEX
  8
0
  6
CONTINUOUS
 62
              80
  5
818
 10
368.07474500214397
 20
24.055406822281945
 30
0.0
  0
VERTEX
  8
0
  6
CONTINUOUS
 62
              80
  5
819
 10
368.06952955614406
 20
24.055072492596231
 30
0.0
  0
VERTEX
  8
0
  6
CONTINUOUS
 62
              80
  5
81A
 10
368.06431448986649
 20
24.054737139602796
 30
0.0
  0
VERTEX
  8
0
  6
CONTINUOUS
 62
              80
  5
81B
 10
368.0590998047258
 20
24.054400745932366
 30
0.0
  0
VERTEX
  8
0
  6
CONTINUOUS
 62
              80
  5
81C
 10
368.05388550213593
 20
24.054063294218675
 30
0.0
  0
VERTEX
  8
0
  6
CONTINUOUS
 62
              80
  5
81D
 10
368.04867158351078
 20
24.053724767098476
 30
0.0
  0
VERTEX
  8
0
  6
CONTINUOUS
 62
              80
  5
81E
 10
367.99588167691832
 20
24.050235819991986
 30
0.0
  0
VERTEX
  8
0
  6
CONTINUOUS
 62
              80
  5
81F
 10
367.94308810177228
 20
24.04663986831164
 30
0.0
  0
VERTEX
  8
0
  6
CONTINUOUS
 62
              80
  5
820
 10
367.8902902591953
 20
24.042944118160065
 30
0.0
  0
VERTEX
  8
0
  6
CONTINUOUS
 62
              80
  5
821
 10
367.83748755087396
 20
24.039155780728784
 30
0.0
  0
VERTEX
  8
0
  6
CONTINUOUS
 62
              80
  5
822
 10
367.78467937892117
 20
24.035282072298486
 30
0.0
  0
VERTEX
  8
0
  6
CONTINUOUS
 62
              80
  5
823
 10
367.73186514574974
 20
24.031330214237656
 30
0.0
  0
VERTEX
  8
0
  6
CONTINUOUS
 62
              80
  5
824
 10
367.67904425395585
 20
24.027307433000018
 30
0.0
  0
VERTEX
  8
0
  6
CONTINUOUS
 62
              80
  5
825
 10
367.62621610621278
 20
24.023220960121115
 30
0.0
  0
VERTEX
  8
0
  6
CONTINUOUS
 62
              80
  5
826
 10
367.57338010517589
 20
24.019078032214299
 30
0.0
  0
VERTEX
  8
0
  6
CONTINUOUS
 62
              80
  5
827
 10
367.52053565339736
 20
24.014885890966454
 30
0.0
  0
VERTEX
  8
0
  6
CONTINUOUS
 62
              80
  5
828
 10
367.4676821532517
 20
24.010651783133657
 30
0.0
  0
VERTEX
  8
0
  6
CONTINUOUS
 62
              80
  5
829
 10
367.41481900687182
 20
24.006382960537049
 30
0.0
  0
VERTEX
  8
0
  6
CONTINUOUS
 62
              80
  5
82A
 10
367.36194561609523
 20
24.002086680059001
 30
0.0
  0
VERTEX
  8
0
  6
CONTINUOUS
 62
              80
  5
82B
 10
367.30906138242096
 20
23.997770203639845
 30
0.0
  0
VERTEX
  8
0
  6
CONTINUOUS
 62
              80
  5
82C
 10
367.25616570697701
 20
23.993440798275227
 30
0.0
  0
VERTEX
  8
0
  6
CONTINUOUS
 62
              80
  5
82D
 10
367.20325799049778
 20
23.989105736014196
 30
0.0
  0
SEQEND
  8
0
  6
CONTINUOUS
 62
              80
  5
82E
  0
POLYLINE
  8
0
  6
CONTINUOUS
 62
              80
  5
35C
 66
               1
 10
0.0
 20
0.0
 30
0.0
  0
VERTEX
  8
0
  6
CONTINUOUS
 62
              80
  5
82F
 10
368.04287719726562
 20
24.142822265625
 30
0.0
  0
VERTEX
  8
0
  6
CONTINUOUS
 62
              80
  5
830
 10
367.98479297291487
 20
24.138977633132527
 30
0.0
  0
VERTEX
  8
0
  6
CONTINUOUS
 62
              80
  5
831
 10
367.92671901546419
 20
24.135005757430918
 30
0.0
  0
VERTEX
  8
0
  6
CONTINUOUS
 62
              80
  5
832
 10
367.8686545342207
 20
24.130916231684751
 30
0.0
  0
VERTEX
  8
0
  6
CONTINUOUS
 62
              80
  5
833
 10
367.81059873849154
 20
24.126718649058603
 30
0.0
  0
VERTEX
  8
0
  6
CONTINUOUS
 62
              80
  5
834
 10
367.75255083758384
 20
24.122422602717052
 30
0.0
  0
VERTEX
  8
0
  6
CONTINUOUS
 62
              80
  5
835
 10
367.69451004080474
 20
24.118037685824675
 30
0.0
  0
VERTEX
  8
0
  6
CONTINUOUS
 62
              80
  5
836
 10
367.63647555746138
 20
24.113573491546049
 30
0.0
  0
VERTEX
  8
0
  6
CONTINUOUS
 62
              80
  5
837
 10
367.57844659686089
 20
24.109039613045752
 30
0.0
  0
VERTEX
  8
0
  6
CONTINUOUS
 62
              80
  5
838
 10
367.52042236831039
 20
24.104445643488361
 30
0.0
  0
VERTEX
  8
0
  6
CONTINUOUS
 62
              80
  5
839
 10
367.46240208111703
 20
24.099801176038454
 30
0.0
  0
VERTEX
  8
0
  6
CONTINUOUS
 62
              80
  5
83A
 10
367.40438494458795
 20
24.095115803860608
 30
0.0
  0
VERTEX
  8
0
  6
CONTINUOUS
 62
              80
  5
83B
 10
367.34637016803026
 20
24.0903991201194
 30
0.0
  0
VERTEX
  8
0
  6
CONTINUOUS
 62
              80
  5
83C
 10
367.28835696075112
 20
24.085660717979408
 30
0.0
  0
VERTEX
  8
0
  6
CONTINUOUS
 62
              80
  5
83D
 10
367.23034453205764
 20
24.080910190605209
 30
0.0
  0
VERTEX
  8
0
  6
CONTINUOUS
 62
              80
  5
83E
 10
367.17233209125698
 20
24.076157131161381
 30
0.0
  0
VERTEX
  8
0
  6
CONTINUOUS
 62
              80
  5
83F
 10
367.11431884765625
 20
24.0714111328125
 30
0.0
  0
SEQEND
  8
0
  6
CONTINUOUS
 62
              80
  5
840
  0
POLYLINE
  8
0
  6
CONTINUOUS
 62
              80
  5
35D
 66
               1
 10
0.0
 20
0.0
 30
0.0
  0
VERTEX
  8
0
  6
CONTINUOUS
 62
              80
  5
841
 10
367.20294104299768
 20
23.522699994307445
 30
0.0
  0
VERTEX
  8
0
  6
CONTINUOUS
 62
              80
  5
842
 10
367.25493954704444
 20
23.525706198015659
 30
0.0
  0
VERTEX
  8
0
  6
CONTINUOUS
 62
              80
  5
843
 10
367.30693054129671
 20
23.528864975354956
 30
0.0
  0
VERTEX
  8
0
  6
CONTINUOUS
 62
              80
  5
844
 10
367.3589135910475
 20
23.53217581254227
 30
0.0
  0
VERTEX
  8
0
  6
CONTINUOUS
 62
              80
  5
845
 10
367.41088826150815
 20
23.535638195742081
 30
0.0
  0
VERTEX
  8
0
  6
CONTINUOUS
 62
              80
  5
846
 10
367.46285411780968
 20
23.539251611065939
 30
0.0
  0
VERTEX
  8
0
  6
CONTINUOUS
 62
              80
  5
847
 10
367.51481072500422
 20
23.543015544572018
 30
0.0
  0
VERTEX
  8
0
  6
CONTINUOUS
 62
              80
  5
848
 10
367.5667576480663
 20
23.54692948226467
 30
0.0
  0
VERTEX
  8
0
  6
CONTINUOUS
 62
              80
  5
849
 10
367.61869445189433
 20
23.550992910094017
 30
0.0
  0
VERTEX
  8
0
  6
CONTINUOUS
 62
              80
  5
84A
 10
367.67062070131175
 20
23.555205313955575
 30
0.0
  0
VERTEX
  8
0
  6
CONTINUOUS
 62
              80
  5
84B
 10
367.72253596106867
 20
23.559566179689877
 30
0.0
  0
VERTEX
  8
0
  6
CONTINUOUS
 62
              80
  5
84C
 10
367.77443979584285
 20
23.564074993082116
 30
0.0
  0
VERTEX
  8
0
  6
CONTINUOUS
 62
              80
  5
84D
 10
367.8263317702415
 20
23.56873123986184
 30
0.0
  0
VERTEX
  8
0
  6
CONTINUOUS
 62
              80
  5
84E
 10
367.87821144880212
 20
23.573534405702631
 30
0.0
  0
VERTEX
  8
0
  6
CONTINUOUS
 62
              80
  5
84F
 10
367.93007839599392
 20
23.578483976221818
 30
0.0
  0
VERTEX
  8
0
  6
CONTINUOUS
 62
              80
  5
850
 10
367.98193217621952
 20
23.583579436980216
 30
0.0
  0
VERTEX
  8
0
  6
CONTINUOUS
 62
              80
  5
851
 10
368.03377235381561
 20
23.588820273481861
 30
0.0
  0
VERTEX
  8
0
  6
CONTINUOUS
 62
              80
  5
852
 10
368.10065400061382
 20
23.595798721049935
 30
0.0
  0
VERTEX
  8
0
  6
CONTINUOUS
 62
              80
  5
853
 10
368.16750691386409
 20
23.603020745619716
 30
0.0
  0
VERTEX
  8
0
  6
CONTINUOUS
 62
              80
  5
854
 10
368.23432980533408
 20
23.610488491266338
 30
0.0
  0
VERTEX
  8
0
  6
CONTINUOUS
 62
              80
  5
855
 10
368.30112138729191
 20
23.61820410172917
 30
0.0
  0
VERTEX
  8
0
  6
CONTINUOUS
 62
              80
  5
856
 10
368.36788037252398
 20
23.626169720417341
 30
0.0
  0
VERTEX
  8
0
  6
CONTINUOUS
 62
              80
  5
857
 10
368.43460547435285
 20
23.634387490415687
 30
0.0
  0
VERTEX
  8
0
  6
CONTINUOUS
 62
              80
  5
858
 10
368.50129540665603
 20
23.642859554491224
 30
0.0
  0
VERTEX
  8
0
  6
CONTINUOUS
 62
              80
  5
859
 10
368.56794888388407
 20
23.651588055100099
 30
0.0
  0
VERTEX
  8
0
  6
CONTINUOUS
 62
              80
  5
85A
 10
368.63456462107922
 20
23.66057513439506
 30
0.0
  0
VERTEX
  8
0
  6
CONTINUOUS
 62
              80
  5
85B
 10
368.70114133389421
 20
23.669822934233459
 30
0.0
  0
VERTEX
  8
0
  6
CONTINUOUS
 62
              80
  5
85C
 10
368.76767773861116
 20
23.679333596185785
 30
0.0
  0
VERTEX
  8
0
  6
CONTINUOUS
 62
              80
  5
85D
 10
368.83417255216011
 20
23.68910926154479
 30
0.0
  0
VERTEX
  8
0
  6
CONTINUOUS
 62
              80
  5
85E
 10
368.9006244921386
 20
23.699152071335138
 30
0.0
  0
VERTEX
  8
0
  6
CONTINUOUS
 62
              80
  5
85F
 10
368.96703227683025
 20
23.709464166323666
 30
0.0
  0
VERTEX
  8
0
  6
CONTINUOUS
 62
              80
  5
860
 10
369.03339462522433
 20
23.720047687030242
 30
0.0
  0
VERTEX
  8
0
  6
CONTINUOUS
 62
              80
  5
861
 10
369.09971025703459
 20
23.730904773739219
 30
0.0
  0
VERTEX
  8
0
  6
CONTINUOUS
 62
              80
  5
862
 10
369.16239907976842
 20
23.741428259735649
 30
0.0
  0
VERTEX
  8
0
  6
CONTINUOUS
 62
              80
  5
863
 10
369.22504830610268
 20
23.752197629259065
 30
0.0
  0
VERTEX
  8
0
  6
CONTINUOUS
 62
              80
  5
864
 10
369.28765689189964
 20
23.763211978453914
 30
0.0
  0
VERTEX
  8
0
  6
CONTINUOUS
 62
              80
  5
865
 10
369.35022379288358
 20
23.774470403287935
 30
0.0
  0
VERTEX
  8
0
  6
CONTINUOUS
 62
              80
  5
866
 10
369.41274796464455
 20
23.785971999551798
 30
0.0
  0
VERTEX
  8
0
  6
CONTINUOUS
 62
              80
  5
867
 10
369.47522836264221
 20
23.797715862858769
 30
0.0
  0
VERTEX
  8
0
  6
CONTINUOUS
 62
              80
  5
868
 10
369.53766394220929
 20
23.809701088644488
 30
0.0
  0
VERTEX
  8
0
  6
CONTINUOUS
 62
              80
  5
869
 10
369.60005365855557
 20
23.821926772166716
 30
0.0
  0
VERTEX
  8
0
  6
CONTINUOUS
 62
              80
  5
86A
 10
369.66239646677093
 20
23.834392008505215
 30
0.0
  0
VERTEX
  8
0
  6
CONTINUOUS
 62
              80
  5
86B
 10
369.72469132182914
 20
23.847095892561605
 30
0.0
  0
VERTEX
  8
0
  6
CONTINUOUS
 62
              80
  5
86C
 10
369.78693717859113
 20
23.860037519059262
 30
0.0
  0
VERTEX
  8
0
  6
CONTINUOUS
 62
              80
  5
86D
 10
369.84913299180863
 20
23.873215982543329
 30
0.0
  0
VERTEX
  8
0
  6
CONTINUOUS
 62
              80
  5
86E
 10
369.91127771612707
 20
23.886630377380655
 30
0.0
  0
VERTEX
  8
0
  6
CONTINUOUS
 62
              80
  5
86F
 10
369.97337030608912
 20
23.900279797759897
 30
0.0
  0
VERTEX
  8
0
  6
CONTINUOUS
 62
              80
  5
870
 10
370.03540971613785
 20
23.914163337691516
 30
0.0
  0
VERTEX
  8
0
  6
CONTINUOUS
 62
              80
  5
871
 10
370.0973949006198
 20
23.928280091007942
 30
0.0
  0
SEQEND
  8
0
  6
CONTINUOUS
 62
              80
  5
872
  0
POLYLINE
  8
0
  6
CONTINUOUS
 62
              80
  5
35E
 66
               1
 10
0.0
 20
0.0
 30
0.0
  0
VERTEX
  8
0
  6
CONTINUOUS
 62
              80
  5
873
 10
367.11431884765625
 20
23.42852783203125
 30
0.0
  0
VERTEX
  8
0
  6
CONTINUOUS
 62
              80
  5
874
 10
367.17244580619342
 20
23.431590262501217
 30
0.0
  0
VERTEX
  8
0
  6
CONTINUOUS
 62
              80
  5
875
 10
367.2305632744023
 20
23.434843314563668
 30
0.0
  0
VERTEX
  8
0
  6
CONTINUOUS
 62
              80
  5
876
 10
367.28867065559081
 20
23.438286271592442
 30
0.0
  0
VERTEX
  8
0
  6
CONTINUOUS
 62
              80
  5
877
 10
367.34676735306681
 20
23.441918416961386
 30
0.0
  0
VERTEX
  8
0
  6
CONTINUOUS
 62
              80
  5
878
 10
367.40485277013812
 20
23.445739034044333
 30
0.0
  0
VERTEX
  8
0
  6
CONTINUOUS
 62
              80
  5
879
 10
367.46292631011266
 20
23.449747406215131
 30
0.0
  0
VERTEX
  8
0
  6
CONTINUOUS
 62
              80
  5
87A
 10
367.52098737629831
 20
23.453942816847622
 30
0.0
  0
VERTEX
  8
0
  6
CONTINUOUS
 62
              80
  5
87B
 10
367.57903537200292
 20
23.458324549315645
 30
0.0
  0
VERTEX
  8
0
  6
CONTINUOUS
 62
              80
  5
87C
 10
367.63706970053431
 20
23.462891886993042
 30
0.0
  0
VERTEX
  8
0
  6
CONTINUOUS
 62
              80
  5
87D
 10
367.69508976520035
 20
23.467644113253655
 30
0.0
  0
VERTEX
  8
0
  6
CONTINUOUS
 62
              80
  5
87E
 10
367.75309496930902
 20
23.472580511471328
 30
0.0
  0
VERTEX
  8
0
  6
CONTINUOUS
 62
              80
  5
87F
 10
367.81108471616801
 20
23.477700365019896
 30
0.0
  0
VERTEX
  8
0
  6
CONTINUOUS
 62
              80
  5
880
 10
367.86905840908537
 20
23.483002957273207
 30
0.0
  0
VERTEX
  8
0
  6
CONTINUOUS
 62
              80
  5
881
 10
367.92701545136879
 20
23.488487571605098
 30
0.0
  0
VERTEX
  8
0
  6
CONTINUOUS
 62
              80
  5
882
 10
367.98495524632625
 20
23.494153491389419
 30
0.0
  0
VERTEX
  8
0
  6
CONTINUOUS
 62
              80
  5
883
 10
368.04287719726562
 20
23.5
 30
0.0
  0
VERTEX
  8
0
  6
CONTINUOUS
 62
              80
  5
884
 10
368.11008121705186
 20
23.507012084972917
 30
0.0
  0
VERTEX
  8
0
  6
CONTINUOUS
 62
              80
  5
885
 10
368.17725940036172
 20
23.514269248940757
 30
0.0
  0
VERTEX
  8
0
  6
CONTINUOUS
 62
              80
  5
886
 10
368.24441045739331
 20
23.521773669451139
 30
0.0
  0
VERTEX
  8
0
  6
CONTINUOUS
 62
              80
  5
887
 10
368.31153309834491
 20
23.529527524051684
 30
0.0
  0
VERTEX
  8
0
  6
CONTINUOUS
 62
              80
  5
888
 10
368.37862603341466
 20
23.537532990290014
 30
0.0
  0
VERTEX
  8
0
  6
CONTINUOUS
 62
              80
  5
889
 10
368.44568797280067
 20
23.545792245713749
 30
0.0
  0
VERTEX
  8
0
  6
CONTINUOUS
 62
              80
  5
88A
 10
368.51271762670115
 20
23.554307467870508
 30
0.0
  0
VERTEX
  8
0
  6
CONTINUOUS
 62
              80
  5
88B
 10
368.5797137053143
 20
23.563080834307915
 30
0.0
  0
VERTEX
  8
0
  6
CONTINUOUS
 62
              80
  5
88C
 10
368.6466749188383
 20
23.572114522573592
 30
0.0
  0
VERTEX
  8
0
  6
CONTINUOUS
 62
              80
  5
88D
 10
368.71359997747129
 20
23.58141071021516
 30
0.0
  0
VERTEX
  8
0
  6
CONTINUOUS
 62
              80
  5
88E
 10
368.78048759141149
 20
23.590971574780234
 30
0.0
  0
VERTEX
  8
0
  6
CONTINUOUS
 62
              80
  5
88F
 10
368.84733647085704
 20
23.60079929381644
 30
0.0
  0
VERTEX
  8
0
  6
CONTINUOUS
 62
              80
  5
890
 10
368.91414532600612
 20
23.610896044871399
 30
0.0
  0
VERTEX
  8
0
  6
CONTINUOUS
 62
              80
  5
891
 10
368.98091286705687
 20
23.621264005492733
 30
0.0
  0
VERTEX
  8
0
  6
CONTINUOUS
 62
              80
  5
892
 10
369.04763780420751
 20
23.63190535322806
 30
0.0
  0
VERTEX
  8
0
  6
CONTINUOUS
 62
              80
  5
893
 10
369.11431884765625
 20
23.642822265625
 30
0.0
  0
VERTEX
  8
0
  6
CONTINUOUS
 62
              80
  5
894
 10
369.18167873669881
 20
23.654139198661142
 30
0.0
  0
VERTEX
  8
0
  6
CONTINUOUS
 62
              80
  5
895
 10
369.24899190384895
 20
23.665738206182141
 30
0.0
  0
VERTEX
  8
0
  6
CONTINUOUS
 62
              80
  5
896
 10
369.31625708134379
 20
23.677618171343056
 30
0.0
  0
VERTEX
  8
0
  6
CONTINUOUS
 62
              80
  5
897
 10
369.3834730014205
 20
23.689777977298945
 30
0.0
  0
VERTEX
  8
0
  6
CONTINUOUS
 62
              80
  5
898
 10
369.45063839631621
 20
23.702216507204867
 30
0.0
  0
VERTEX
  8
0
  6
CONTINUOUS
 62
              80
  5
899
 10
369.51775199826807
 20
23.714932644215878
 30
0.0
  0
VERTEX
  8
0
  6
CONTINUOUS
 62
              80
  5
89A
 10
369.58481253951322
 20
23.727925271487038
 30
0.0
  0
VERTEX
  8
0
  6
CONTINUOUS
 62
              80
  5
89B
 10
369.65181875228882
 20
23.741193272173405
 30
0.0
  0
VERTEX
  8
0
  6
CONTINUOUS
 62
              80
  5
89C
 10
369.718769368832
 20
23.754735529430036
 30
0.0
  0
VERTEX
  8
0
  6
CONTINUOUS
 62
              80
  5
89D
 10
369.78566312137991
 20
23.76855092641199
 30
0.0
  0
VERTEX
  8
0
  6
CONTINUOUS
 62
              80
  5
89E
 10
369.8524987421697
 20
23.782638346274325
 30
0.0
  0
VERTEX
  8
0
  6
CONTINUOUS
 62
              80
  5
89F
 10
369.91927496343851
 20
23.796996672172099
 30
0.0
  0
VERTEX
  8
0
  6
CONTINUOUS
 62
              80
  5
8A0
 10
369.98599051742349
 20
23.811624787260371
 30
0.0
  0
VERTEX
  8
0
  6
CONTINUOUS
 62
              80
  5
8A1
 10
370.05264413636178
 20
23.826521574694198
 30
0.0
  0
VERTEX
  8
0
  6
CONTINUOUS
 62
              80
  5
8A2
 10
370.11923455249052
 20
23.841685917628638
 30
0.0
  0
VERTEX
  8
0
  6
CONTINUOUS
 62
              80
  5
8A3
 10
370.18576049804687
 20
23.85711669921875
 30
0.0
  0
SEQEND
  8
0
  6
CONTINUOUS
 62
              80
  5
8A4
  0
POLYLINE
  8
0
  6
CONTINUOUS
 62
              80
  5
35F
 66
               1
 10
0.0
 20
0.0
 30
0.0
  0
VERTEX
  8
0
  6
CONTINUOUS
 62
              80
  5
8A5
 10
376.06498260734145
 20
27.406360680824058
 30
0.0
  0
VERTEX
  8
0
  6
CONTINUOUS
 62
              80
  5
8A6
 10
375.89145608626711
 20
27.350104837495714
 30
0.0
  0
VERTEX
  8
0
  6
CONTINUOUS
 62
              80
  5
8A7
 10
375.71793006221498
 20
27.293848653230256
 30
0.0
  0
VERTEX
  8
0
  6
CONTINUOUS
 62
              80
  5
8A8
 10
375.54440446075233
 20
27.237592174626929
 30
0.0
  0
VERTEX
  8
0
  6
CONTINUOUS
 62
              80
  5
8A9
 10
375.37087920744705
 20
27.181335448285044
 30
0.0
  0
VERTEX
  8
0
  6
CONTINUOUS
 62
              80
  5
8AA
 10
375.19735422786664
 20
27.12507852080395
 30
0.0
  0
VERTEX
  8
0
  6
CONTINUOUS
 62
              80
  5
8AB
 10
375.02382944757892
 20
27.068821438783061
 30
0.0
  0
VERTEX
  8
0
  6
CONTINUOUS
 62
              80
  5
8AC
 10
374.85030479215152
 20
27.012564248821832
 30
0.0
  0
VERTEX
  8
0
  6
CONTINUOUS
 62
              80
  5
8AD
 10
374.6767801871523
 20
26.956306997519786
 30
0.0
  0
VERTEX
  8
0
  6
CONTINUOUS
 62
              80
  5
8AE
 10
374.50325555814908
 20
26.900049731476489
 30
0.0
  0
VERTEX
  8
0
  6
CONTINUOUS
 62
              80
  5
8AF
 10
374.32973083070976
 20
26.84379249729157
 30
0.0
  0
VERTEX
  8
0
  6
CONTINUOUS
 62
              80
  5
8B0
 10
374.15620593040228
 20
26.787535341564706
 30
0.0
  0
VERTEX
  8
0
  6
CONTINUOUS
 62
              80
  5
8B1
 10
373.98268078279455
 20
26.731278310895618
 30
0.0
  0
VERTEX
  8
0
  6
CONTINUOUS
 62
              80
  5
8B2
 10
373.80915531345477
 20
26.675021451884096
 30
0.0
  0
VERTEX
  8
0
  6
CONTINUOUS
 62
              80
  5
8B3
 10
373.63562944795086
 20
26.618764811129981
 30
0.0
  0
VERTEX
  8
0
  6
CONTINUOUS
 62
              80
  5
8B4
 10
373.46210311185104
 20
26.562508435233159
 30
0.0
  0
VERTEX
  8
0
  6
CONTINUOUS
 62
              80
  5
8B5
 10
373.28857623072344
 20
26.506252370793575
 30
0.0
  0
SEQEND
  8
0
  6
CONTINUOUS
 62
              80
  5
8B6
  0
POLYLINE
  8
0
  6
CONTINUOUS
 62
              80
  5
360
 66
               1
 10
0.0
 20
0.0
 30
0.0
  0
VERTEX
  8
0
  6
CONTINUOUS
 62
              80
  5
8B7
 10
376.06430053710938
 20
27.5
 30
0.0
  0
VERTEX
  8
0
  6
CONTINUOUS
 62
              80
  5
8B8
 10
375.8852829936659
 20
27.441964091180125
 30
0.0
  0
VERTEX
  8
0
  6
CONTINUOUS
 62
              80
  5
8B9
 10
375.70626602228731
 20
27.383927824208513
 30
0.0
  0
VERTEX
  8
0
  6
CONTINUOUS
 62
              80
  5
8BA
 10
375.52724954125006
 20
27.325891250249697
 30
0.0
  0
VERTEX
  8
0
  6
CONTINUOUS
 62
              80
  5
8BB
 10
375.34823346883059
 20
27.267854420468211
 30
0.0
  0
VERTEX
  8
0
  6
CONTINUOUS
 62
              80
  5
8BC
 10
375.16921772330534
 20
27.20981738602859
 30
0.0
  0
VERTEX
  8
0
  6
CONTINUOUS
 62
              80
  5
8BD
 10
374.99020222295076
 20
27.151780198095366
 30
0.0
  0
VERTEX
  8
0
  6
CONTINUOUS
 62
              80
  5
8BE
 10
374.81118688604329
 20
27.093742907833075
 30
0.0
  0
VERTEX
  8
0
  6
CONTINUOUS
 62
              80
  5
8BF
 10
374.63217163085937
 20
27.03570556640625
 30
0.0
  0
VERTEX
  8
0
  6
CONTINUOUS
 62
              80
  5
8C0
 10
374.45315637567546
 20
26.977668224979425
 30
0.0
  0
VERTEX
  8
0
  6
CONTINUOUS
 62
              80
  5
8C1
 10
374.27414103876799
 20
26.919630934717134
 30
0.0
  0
VERTEX
  8
0
  6
CONTINUOUS
 62
              80
  5
8C2
 10
374.09512553841341
 20
26.86159374678391
 30
0.0
  0
VERTEX
  8
0
  6
CONTINUOUS
 62
              80
  5
8C3
 10
373.91610979288816
 20
26.803556712344289
 30
0.0
  0
VERTEX
  8
0
  6
CONTINUOUS
 62
              80
  5
8C4
 10
373.73709372046869
 20
26.745519882562803
 30
0.0
  0
VERTEX
  8
0
  6
CONTINUOUS
 62
              80
  5
8C5
 10
373.55807723943144
 20
26.687483308603987
 30
0.0
  0
VERTEX
  8
0
  6
CONTINUOUS
 62
              80
  5
8C6
 10
373.37906026805285
 20
26.629447041632375
 30
0.0
  0
VERTEX
  8
0
  6
CONTINUOUS
 62
              80
  5
8C7
 10
373.20004272460937
 20
26.5714111328125
 30
0.0
  0
SEQEND
  8
0
  6
CONTINUOUS
 62
              80
  5
8C8
  0
POLYLINE
  8
0
  6
CONTINUOUS
 62
              80
  5
361
 66
               1
 10
0.0
 20
0.0
 30
0.0
  0
VERTEX
  8
0
  6
CONTINUOUS
 62
              80
  5
8C9
 10
376.06361848966623
 20
27.406360676028438
 30
0.0
  0
VERTEX
  8
0
  6
CONTINUOUS
 62
              80
  5
8CA
 10
376.23714551876031
 20
27.35010480389791
 30
0.0
  0
VERTEX
  8
0
  6
CONTINUOUS
 62
              80
  5
8CB
 10
376.4106726171629
 20
27.29384859462014
 30
0.0
  0
VERTEX
  8
0
  6
CONTINUOUS
 62
              80
  5
8CC
 10
376.58419977787594
 20
27.237592094794671
 30
0.0
  0
VERTEX
  8
0
  6
CONTINUOUS
 62
              80
  5
8CD
 10
376.75772699390154
 20
27.181335351021051
 30
0.0
  0
VERTEX
  8
0
  6
CONTINUOUS
 62
              80
  5
8CE
 10
376.93125425824167
 20
27.125078409898844
 30
0.0
  0
VERTEX
  8
0
  6
CONTINUOUS
 62
              80
  5
8CF
 10
377.10478156389831
 20
27.068821318027616
 30
0.0
  0
VERTEX
  8
0
  6
CONTINUOUS
 62
              80
  5
8D0
 10
377.27830890387366
 20
27.012564122006943
 30
0.0
  0
VERTEX
  8
0
  6
CONTINUOUS
 62
              80
  5
8D1
 10
377.45183627116978
 20
26.956306868436414
 30
0.0
  0
VERTEX
  8
0
  6
CONTINUOUS
 62
              80
  5
8D2
 10
377.62536365878861
 20
26.900049603915626
 30
0.0
  0
VERTEX
  8
0
  6
CONTINUOUS
 62
              80
  5
8D3
 10
377.7988910597324
 20
26.843792375044181
 30
0.0
  0
VERTEX
  8
0
  6
CONTINUOUS
 62
              80
  5
8D4
 10
377.97241846700325
 20
26.787535228421703
 30
0.0
  0
VERTEX
  8
0
  6
CONTINUOUS
 62
              80
  5
8D5
 10
378.14594587360335
 20
26.731278210647805
 30
0.0
  0
VERTEX
  8
0
  6
CONTINUOUS
 62
              80
  5
8D6
 10
378.31947327253482
 20
26.675021368322124
 30
0.0
  0
VERTEX
  8
0
  6
CONTINUOUS
 62
              80
  5
8D7
 10
378.49300065679989
 20
26.618764748044306
 30
0.0
  0
VERTEX
  8
0
  6
CONTINUOUS
 62
              80
  5
8D8
 10
378.66652801940063
 20
26.562508396414003
 30
0.0
  0
VERTEX
  8
0
  6
CONTINUOUS
 62
              80
  5
8D9
 10
378.84005535333949
 20
26.506252360030867
 30
0.0
  0
SEQEND
  8
0
  6
CONTINUOUS
 62
              80
  5
8DA
  0
POLYLINE
  8
0
  6
CONTINUOUS
 62
              80
  5
362
 66
               1
 10
0.0
 20
0.0
 30
0.0
  0
VERTEX
  8
0
  6
CONTINUOUS
 62
              80
  5
8DB
 10
376.06430053710938
 20
27.5
 30
0.0
  0
VERTEX
  8
0
  6
CONTINUOUS
 62
              80
  5
8DC
 10
376.24331842327956
 20
27.441964091180125
 30
0.0
  0
VERTEX
  8
0
  6
CONTINUOUS
 62
              80
  5
8DD
 10
376.42233636323363
 20
27.383927824208513
 30
0.0
  0
VERTEX
  8
0
  6
CONTINUOUS
 62
              80
  5
8DE
 10
376.60135434928816
 20
27.325891250249697
 30
0.0
  0
VERTEX
  8
0
  6
CONTINUOUS
 62
              80
  5
8DF
 10
376.78037237375975
 20
27.267854420468211
 30
0.0
  0
VERTEX
  8
0
  6
CONTINUOUS
 62
              80
  5
8E0
 10
376.95939042896498
 20
27.20981738602859
 30
0.0
  0
VERTEX
  8
0
  6
CONTINUOUS
 62
              80
  5
8E1
 10
377.13840850722045
 20
27.151780198095366
 30
0.0
  0
VERTEX
  8
0
  6
CONTINUOUS
 62
              80
  5
8E2
 10
377.31742660084274
 20
27.093742907833075
 30
0.0
  0
VERTEX
  8
0
  6
CONTINUOUS
 62
              80
  5
8E3
 10
377.49644470214844
 20
27.03570556640625
 30
0.0
  0
VERTEX
  8
0
  6
CONTINUOUS
 62
              80
  5
8E4
 10
377.67546280345414
 20
26.977668224979425
 30
0.0
  0
VERTEX
  8
0
  6
CONTINUOUS
 62
              80
  5
8E5
 10
377.85448089707643
 20
26.919630934717134
 30
0.0
  0
VERTEX
  8
0
  6
CONTINUOUS
 62
              80
  5
8E6
 10
378.0334989753319
 20
26.86159374678391
 30
0.0
  0
VERTEX
  8
0
  6
CONTINUOUS
 62
              80
  5
8E7
 10
378.21251703053713
 20
26.803556712344289
 30
0.0
  0
VERTEX
  8
0
  6
CONTINUOUS
 62
              80
  5
8E8
 10
378.39153505500872
 20
26.745519882562803
 30
0.0
  0
VERTEX
  8
0
  6
CONTINUOUS
 62
              80
  5
8E9
 10
378.57055304106325
 20
26.687483308603987
 30
0.0
  0
VERTEX
  8
0
  6
CONTINUOUS
 62
              80
  5
8EA
 10
378.74957098101731
 20
26.629447041632375
 30
0.0
  0
VERTEX
  8
0
  6
CONTINUOUS
 62
              80
  5
8EB
 10
378.9285888671875
 20
26.5714111328125
 30
0.0
  0
SEQEND
  8
0
  6
CONTINUOUS
 62
              80
  5
8EC
  0
POLYLINE
  8
0
  6
CONTINUOUS
 62
              80
  5
363
 66
               1
 10
0.0
 20
0.0
 30
0.0
  0
VERTEX
  8
0
  6
CONTINUOUS
 62
              80
  5
8ED
 10
364.09256844301217
 20
25.661198729085047
 30
0.0
  0
VERTEX
  8
0
  6
CONTINUOUS
 62
              80
  5
8EE
 10
364.09252460264531
 20
25.661034831297027
 30
0.0
  0
VERTEX
  8
0
  6
CONTINUOUS
 62
              80
  5
8EF
 10
364.09248074166982
 20
25.660870940430701
 30
0.0
  0
VERTEX
  8
0
  6
CONTINUOUS
 62
              80
  5
8F0
 10
364.09243686008585
 20
25.660707056489752
 30
0.0
  0
VERTEX
  8
0
  6
CONTINUOUS
 62
              80
  5
8F1
 10
364.09239295789337
 20
25.660543179477862
 30
0.0
  0
VERTEX
  8
0
  6
CONTINUOUS
 62
              80
  5
8F2
 10
364.09234903509247
 20
25.66037930939871
 30
0.0
  0
VERTEX
  8
0
  6
CONTINUOUS
 62
              80
  5
8F3
 10
364.09230509168299
 20
25.660215446255982
 30
0.0
  0
VERTEX
  8
0
  6
CONTINUOUS
 62
              80
  5
8F4
 10
364.09226112766515
 20
25.66005159005336
 30
0.0
  0
VERTEX
  8
0
  6
CONTINUOUS
 62
              80
  5
8F5
 10
364.09221714303891
 20
25.659887740794524
 30
0.0
  0
VERTEX
  8
0
  6
CONTINUOUS
 62
              80
  5
8F6
 10
364.09217313780425
 20
25.659723898483154
 30
0.0
  0
VERTEX
  8
0
  6
CONTINUOUS
 62
              80
  5
8F7
 10
364.0921291119613
 20
25.659560063122935
 30
0.0
  0
VERTEX
  8
0
  6
CONTINUOUS
 62
              80
  5
8F8
 10
364.09208506550999
 20
25.659396234717541
 30
0.0
  0
VERTEX
  8
0
  6
CONTINUOUS
 62
              80
  5
8F9
 10
364.09204099845033
 20
25.659232413270658
 30
0.0
  0
VERTEX
  8
0
  6
CONTINUOUS
 62
              80
  5
8FA
 10
364.09199691078237
 20
25.659068598785964
 30
0.0
  0
VERTEX
  8
0
  6
CONTINUOUS
 62
              80
  5
8FB
 10
364.09195280250617
 20
25.65890479126714
 30
0.0
  0
VERTEX
  8
0
  6
CONTINUOUS
 62
              80
  5
8FC
 10
364.09190867362167
 20
25.658740990717867
 30
0.0
  0
VERTEX
  8
0
  6
CONTINUOUS
 62
              80
  5
8FD
 10
364.09186452412899
 20
25.658577197141827
 30
0.0
  0
VERTEX
  8
0
  6
CONTINUOUS
 62
              80
  5
8FE
 10
364.0896420979239
 20
25.650438328844881
 30
0.0
  0
VERTEX
  8
0
  6
CONTINUOUS
 62
              80
  5
8FF
 10
364.08736622951653
 20
25.642308522158153
 30
0.0
  0
VERTEX
  8
0
  6
CONTINUOUS
 62
              80
  5
900
 10
364.08503743325099
 20
25.634188056573123
 30
0.0
  0
VERTEX
  8
0
  6
CONTINUOUS
 62
              80
  5
901
 10
364.08265622630216
 20
25.626077214301617
 30
0.0
  0
VERTEX
  8
0
  6
CONTINUOUS
 62
              80
  5
902
 10
364.0802231286836
 20
25.617976280129209
 30
0.0
  0
VERTEX
  8
0
  6
CONTINUOUS
 62
              80
  5
903
 10
364.07773866324914
 20
25.609885541272241
 30
0.0
  0
VERTEX
  8
0
  6
CONTINUOUS
 62
              80
  5
904
 10
364.07520335569154
 20
25.60180528723841
 30
0.0
  0
VERTEX
  8
0
  6
CONTINUOUS
 62
              80
  5
905
 10
364.07261773453632
 20
25.593735809691058
 30
0.0
  0
VERTEX
  8
0
  6
CONTINUOUS
 62
              80
  5
906
 10
364.06998233113228
 20
25.585677402317213
 30
0.0
  0
VERTEX
  8
0
  6
CONTINUOUS
 62
              80
  5
907
 10
364.06729767963822
 20
25.577630360699423
 30
0.0
  0
VERTEX
  8
0
  6
CONTINUOUS
 62
              80
  5
908
 10
364.06456431700639
 20
25.569594982191415
 30
0.0
  0
VERTEX
  8
0
  6
CONTINUOUS
 62
              80
  5
909
 10
364.06178278296301
 20
25.561571565797568
 30
0.0
  0
VERTEX
  8
0
  6
CONTINUOUS
 62
              80
  5
90A
 10
364.05895361998614
 20
25.55356041205626
 30
0.0
  0
VERTEX
  8
0
  6
CONTINUOUS
 62
              80
  5
90B
 10
364.05607737328006
 20
25.545561822927059
 30
0.0
  0
VERTEX
  8
0
  6
CONTINUOUS
 62
              80
  5
90C
 10
364.05315459074853
 20
25.537576101681719
 30
0.0
  0
VERTEX
  8
0
  6
CONTINUOUS
 62
              80
  5
90D
 10
364.05018582296464
 20
25.529603552798974
 30
0.0
  0
VERTEX
  8
0
  6
CONTINUOUS
 62
              80
  5
90E
 10
364.0305056971589
 20
25.479843101755627
 30
0.0
  0
VERTEX
  8
0
  6
CONTINUOUS
 62
              80
  5
90F
 10
364.00909831989429
 20
25.430570113360449
 30
0.0
  0
VERTEX
  8
0
  6
CONTINUOUS
 62
              80
  5
910
 10
363.98605693948696
 20
25.381732237509411
 30
0.0
  0
VERTEX
  8
0
  6
CONTINUOUS
 62
              80
  5
911
 10
363.96147771418066
 20
25.333281120335872
 30
0.0
  0
VERTEX
  8
0
  6
CONTINUOUS
 62
              80
  5
912
 10
363.93545994982026
 20
25.285171411199787
 30
0.0
  0
VERTEX
  8
0
  6
CONTINUOUS
 62
              80
  5
913
 10
363.90810613582505
 20
25.23735983239607
 30
0.0
  0
VERTEX
  8
0
  6
CONTINUOUS
 62
              80
  5
914
 10
363.87952183068967
 20
25.189804349356571
 30
0.0
  0
VERTEX
  8
0
  6
CONTINUOUS
 62
              80
  5
915
 10
363.84981544602243
 20
25.142463459424555
 30
0.0
  0
VERTEX
  8
0
  6
CONTINUOUS
 62
              80
  5
916
 10
363.81909797182823
 20
25.095295602365979
 30
0.0
  0
VERTEX
  8
0
  6
CONTINUOUS
 62
              80
  5
917
 10
363.78748267765923
 20
25.048258685714277
 30
0.0
  0
VERTEX
  8
0
  6
CONTINUOUS
 62
              80
  5
918
 10
363.75508481604857
 20
25.001309712190441
 30
0.0
  0
VERTEX
  8
0
  6
CONTINUOUS
 62
              80
  5
919
 10
363.72202134730543
 20
24.954404493876023
 30
0.0
  0
VERTEX
  8
0
  6
CONTINUOUS
 62
              80
  5
91A
 10
363.68841069876351
 20
24.907497437605766
 30
0.0
  0
VERTEX
  8
0
  6
CONTINUOUS
 62
              80
  5
91B
 10
363.65437256705411
 20
24.860541387388739
 30
0.0
  0
VERTEX
  8
0
  6
CONTINUOUS
 62
              80
  5
91C
 10
363.62002776881258
 20
24.813487511955604
 30
0.0
  0
VERTEX
  8
0
  6
CONTINUOUS
 62
              80
  5
91D
 10
363.58549814319588
 20
24.766285228353151
 30
0.0
  0
VERTEX
  8
0
  6
CONTINUOUS
 62
              80
  5
91E
 10
363.54790436237039
 20
24.714814512701121
 30
0.0
  0
VERTEX
  8
0
  6
CONTINUOUS
 62
              80
  5
91F
 10
363.5104431740337
 20
24.663459015714878
 30
0.0
  0
VERTEX
  8
0
  6
CONTINUOUS
 62
              80
  5
920
 10
363.47307737830658
 20
24.612238993957721
 30
0.0
  0
VERTEX
  8
0
  6
CONTINUOUS
 62
              80
  5
921
 10
363.43576988116615
 20
24.561174571599647
 30
0.0
  0
VERTEX
  8
0
  6
CONTINUOUS
 62
              80
  5
922
 10
363.39848369510105
 20
24.510285738092996
 30
0.0
  0
VERTEX
  8
0
  6
CONTINUOUS
 62
              80
  5
923
 10
363.3611819384526
 20
24.459592344828472
 30
0.0
  0
VERTEX
  8
0
  6
CONTINUOUS
 62
              80
  5
924
 10
363.32382783339091
 20
24.409114100779917
 30
0.0
  0
VERTEX
  8
0
  6
CONTINUOUS
 62
              80
  5
925
 10
363.28638470246602
 20
24.358870567170577
 30
0.0
  0
VERTEX
  8
0
  6
CONTINUOUS
 62
              80
  5
926
 10
363.24881596366441
 20
24.308881151219857
 30
0.0
  0
VERTEX
  8
0
  6
CONTINUOUS
 62
              80
  5
927
 10
363.21108512389742
 20
24.259165099057697
 30
0.0
  0
VERTEX
  8
0
  6
CONTINUOUS
 62
              80
  5
928
 10
363.17315577084236
 20
24.209741487923605
 30
0.0
  0
VERTEX
  8
0
  6
CONTINUOUS
 62
              80
  5
929
 10
363.1349915630604
 20
24.160629217799592
 30
0.0
  0
VERTEX
  8
0
  6
CONTINUOUS
 62
              80
  5
92A
 10
363.09655621831774
 20
24.11184700265974
 30
0.0
  0
VERTEX
  8
0
  6
CONTINUOUS
 62
              80
  5
92B
 10
363.05781350005043
 20
24.063413361554201
 30
0.0
  0
VERTEX
  8
0
  6
CONTINUOUS
 62
              80
  5
92C
 10
363.01872720192756
 20
24.015346609781083
 30
0.0
  0
VERTEX
  8
0
  6
CONTINUOUS
 62
              80
  5
92D
 10
362.97926113049397
 20
23.967664850434815
 30
0.0
  0
SEQEND
  8
0
  6
CONTINUOUS
 62
              80
  5
92E
  0
POLYLINE
  8
0
  6
CONTINUOUS
 62
              80
  5
364
 66
               1
 10
0.0
 20
0.0
 30
0.0
  0
VERTEX
  8
0
  6
CONTINUOUS
 62
              80
  5
92F
 10
364.22176153208846
 20
25.662003220159338
 30
0.0
  0
VERTEX
  8
0
  6
CONTINUOUS
 62
              80
  5
930
 10
364.2212128087279
 20
25.659748198492565
 30
0.0
  0
VERTEX
  8
0
  6
CONTINUOUS
 62
              80
  5
931
 10
364.22066053005756
 20
25.65749409946622
 30
0.0
  0
VERTEX
  8
0
  6
CONTINUOUS
 62
              80
  5
932
 10
364.22010469538185
 20
25.655240930236225
 30
0.0
  0
VERTEX
  8
0
  6
CONTINUOUS
 62
              80
  5
933
 10
364.21954530400524
 20
25.652988697958495
 30
0.0
  0
VERTEX
  8
0
  6
CONTINUOUS
 62
              80
  5
934
 10
364.21898235523224
 20
25.650737409788945
 30
0.0
  0
VERTEX
  8
0
  6
CONTINUOUS
 62
              80
  5
935
 10
364.21841584836721
 20
25.648487072883498
 30
0.0
  0
VERTEX
  8
0
  6
CONTINUOUS
 62
              80
  5
936
 10
364.21784578271473
 20
25.646237694398067
 30
0.0
  0
VERTEX
  8
0
  6
CONTINUOUS
 62
              80
  5
937
 10
364.2172721575792
 20
25.643989281488569
 30
0.0
  0
VERTEX
  8
0
  6
CONTINUOUS
 62
              80
  5
938
 10
364.21669497226509
 20
25.641741841310921
 30
0.0
  0
VERTEX
  8
0
  6
CONTINUOUS
 62
              80
  5
939
 10
364.21611422607685
 20
25.639495381021042
 30
0.0
  0
VERTEX
  8
0
  6
CONTINUOUS
 62
              80
  5
93A
 10
364.21552991831896
 20
25.637249907774848
 30
0.0
  0
VERTEX
  8
0
  6
CONTINUOUS
 62
              80
  5
93B
 10
364.21494204829588
 20
25.635005428728256
 30
0.0
  0
VERTEX
  8
0
  6
CONTINUOUS
 62
              80
  5
93C
 10
364.21435061531201
 20
25.632761951037185
 30
0.0
  0
VERTEX
  8
0
  6
CONTINUOUS
 62
              80
  5
93D
 10
364.21375561867188
 20
25.630519481857547
 30
0.0
  0
VERTEX
  8
0
  6
CONTINUOUS
 62
              80
  5
93E
 10
364.21315705767995
 20
25.628278028345264
 30
0.0
  0
VERTEX
  8
0
  6
CONTINUOUS
 62
              80
  5
93F
 10
364.21255493164063
 20
25.62603759765625
 30
0.0
  0
VERTEX
  8
0
  6
CONTINUOUS
 62
              80
  5
940
 10
364.21012116347401
 20
25.617124746567264
 30
0.0
  0
VERTEX
  8
0
  6
CONTINUOUS
 62
              80
  5
941
 10
364.2076309711141
 20
25.608229321338953
 30
0.0
  0
VERTEX
  8
0
  6
CONTINUOUS
 62
              80
  5
942
 10
364.20508500111947
 20
25.599351560640546
 30
0.0
  0
VERTEX
  8
0
  6
CONTINUOUS
 62
              80
  5
943
 10
364.20248390004849
 20
25.590491703141275
 30
0.0
  0
VERTEX
  8
0
  6
CONTINUOUS
 62
              80
  5
944
 10
364.19982831445986
 20
25.581649987510364
 30
0.0
  0
VERTEX
  8
0
  6
CONTINUOUS
 62
              80
  5
945
 10
364.1971188909119
 20
25.572826652417039
 30
0.0
  0
VERTEX
  8
0
  6
CONTINUOUS
 62
              80
  5
946
 10
364.19435627596329
 20
25.56402193653053
 30
0.0
  0
VERTEX
  8
0
  6
CONTINUOUS
 62
              80
  5
947
 10
364.1915411161724
 20
25.555236078520068
 30
0.0
  0
VERTEX
  8
0
  6
CONTINUOUS
 62
              80
  5
948
 10
364.18867405809783
 20
25.546469317054875
 30
0.0
  0
VERTEX
  8
0
  6
CONTINUOUS
 62
              80
  5
949
 10
364.18575574829805
 20
25.537721890804178
 30
0.0
  0
VERTEX
  8
0
  6
CONTINUOUS
 62
              80
  5
94A
 10
364.18278683333159
 20
25.528994038437212
 30
0.0
  0
VERTEX
  8
0
  6
CONTINUOUS
 62
              80
  5
94B
 10
364.17976795975693
 20
25.520285998623201
 30
0.0
  0
VERTEX
  8
0
  6
CONTINUOUS
 62
              80
  5
94C
 10
364.17669977413266
 20
25.511598010031371
 30
0.0
  0
VERTEX
  8
0
  6
CONTINUOUS
 62
              80
  5
94D
 10
364.17358292301719
 20
25.50293031133095
 30
0.0
  0
VERTEX
  8
0
  6
CONTINUOUS
 62
              80
  5
94E
 10
364.17041805296913
 20
25.494283141191168
 30
0.0
  0
VERTEX
  8
0
  6
CONTINUOUS
 62
              80
  5
94F
 10
364.16720581054687
 20
25.48565673828125
 30
0.0
  0
VERTEX
  8
0
  6
CONTINUOUS
 62
              80
  5
950
 10
364.14594743674451
 20
25.431903506831894
 30
0.0
  0
VERTEX
  8
0
  6
CONTINUOUS
 62
              80
  5
951
 10
364.12294127584352
 20
25.378948592840992
 30
0.0
  0
VERTEX
  8
0
  6
CONTINUOUS
 62
              80
  5
952
 10
364.09831065639634
 20
25.326740392295513
 30
0.0
  0
VERTEX
  8
0
  6
CONTINUOUS
 62
              80
  5
953
 10
364.07217890695517
 20
25.275227301182444
 30
0.0
  0
VERTEX
  8
0
  6
CONTINUOUS
 62
              80
  5
954
 10
364.04466935607252
 20
25.22435771548875
 30
0.0
  0
VERTEX
  8
0
  6
CONTINUOUS
 62
              80
  5
955
 10
364.01590533230058
 20
25.174080031201417
 30
0.0
  0
VERTEX
  8
0
  6
CONTINUOUS
 62
              80
  5
956
 10
363.98601016419178
 20
25.124342644307415
 30
0.0
  0
VERTEX
  8
0
  6
CONTINUOUS
 62
              80
  5
957
 10
363.9551071802984
 20
25.075093950793725
 30
0.0
  0
VERTEX
  8
0
  6
CONTINUOUS
 62
              80
  5
958
 10
363.92331970917274
 20
25.026282346647321
 30
0.0
  0
VERTEX
  8
0
  6
CONTINUOUS
 62
              80
  5
959
 10
363.89077107936725
 20
24.977856227855177
 30
0.0
  0
VERTEX
  8
0
  6
CONTINUOUS
 62
              80
  5
95A
 10
363.85758461943419
 20
24.929763990404272
 30
0.0
  0
VERTEX
  8
0
  6
CONTINUOUS
 62
              80
  5
95B
 10
363.82388365792593
 20
24.881954030281584
 30
0.0
  0
VERTEX
  8
0
  6
CONTINUOUS
 62
              80
  5
95C
 10
363.7897915233948
 20
24.834374743474086
 30
0.0
  0
VERTEX
  8
0
  6
CONTINUOUS
 62
              80
  5
95D
 10
363.75543154439316
 20
24.786974525968756
 30
0.0
  0
VERTEX
  8
0
  6
CONTINUOUS
 62
              80
  5
95E
 10
363.72092704947323
 20
24.739701773752568
 30
0.0
  0
VERTEX
  8
0
  6
CONTINUOUS
 62
              80
  5
95F
 10
363.6864013671875
 20
24.6925048828125
 30
0.0
  0
VERTEX
  8
0
  6
CONTINUOUS
 62
              80
  5
960
 10
363.65548390506586
 20
24.650181730130203
 30
0.0
  0
VERTEX
  8
0
  6
CONTINUOUS
 62
              80
  5
961
 10
363.62462796638891
 20
24.607889341775106
 30
0.0
  0
VERTEX
  8
0
  6
CONTINUOUS
 62
              80
  5
962
 10
363.59381267640623
 20
24.565638861287237
 30
0.0
  0
VERTEX
  8
0
  6
CONTINUOUS
 62
              80
  5
963
 10
363.56301716036751
 20
24.523441432206635
 30
0.0
  0
VERTEX
  8
0
  6
CONTINUOUS
 62
              80
  5
964
 10
363.53222054352233
 20
24.481308198073332
 30
0.0
  0
VERTEX
  8
0
  6
CONTINUOUS
 62
              80
  5
965
 10
363.50140195112033
 20
24.439250302427361
 30
0.0
  0
VERTEX
  8
0
  6
CONTINUOUS
 62
              80
  5
966
 10
363.47054050841126
 20
24.397278888808756
 30
0.0
  0
VERTEX
  8
0
  6
CONTINUOUS
 62
              80
  5
967
 10
363.43961534064465
 20
24.355405100757551
 30
0.0
  0
VERTEX
  8
0
  6
CONTINUOUS
 62
              80
  5
968
 10
363.40860557307025
 20
24.31364008181378
 30
0.0
  0
VERTEX
  8
0
  6
CONTINUOUS
 62
              80
  5
969
 10
363.37749033093758
 20
24.271994975517476
 30
0.0
  0
VERTEX
  8
0
  6
CONTINUOUS
 62
              80
  5
96A
 10
363.34624873949639
 20
24.230480925408671
 30
0.0
  0
VERTEX
  8
0
  6
CONTINUOUS
 62
              80
  5
96B
 10
363.31485992399627
 20
24.1891090750274
 30
0.0
  0
VERTEX
  8
0
  6
CONTINUOUS
 62
              80
  5
96C
 10
363.2833030096869
 20
24.147890567913699
 30
0.0
  0
VERTEX
  8
0
  6
CONTINUOUS
 62
              80
  5
96D
 10
363.25155712181788
 20
24.106836547607596
 30
0.0
  0
VERTEX
  8
0
  6
CONTINUOUS
 62
              80
  5
96E
 10
363.2196013856389
 20
24.065958157649131
 30
0.0
  0
VERTEX
  8
0
  6
CONTINUOUS
 62
              80
  5
96F
 10
363.18741492639958
 20
24.025266541578333
 30
0.0
  0
SEQEND
  8
0
  6
CONTINUOUS
 62
              80
  5
970
  0
LINE
  8
0
  6
CONTINUOUS
 62
              80
  5
365
 10
304.0
 20
280.49998474121094
 30
0.0
 11
304.0
 21
230.64940038234832
 31
0.0
  0
TEXT
  8
0
  6
CONTINUOUS
 62
               3
  5
366
 10
294.91666665010985
 20
276.39998471736908
 30
0.0
 40
3.2000000476837158
  1
訂正数
 41
0.7812499573143839
  7
MX_NOTE_STANDARD
 11
294.91666665010985
 21
277.99998474121094
 31
0.0
 73
               2
  0
LINE
  8
0
  6
CONTINUOUS
 62
               3
  5
367
 10
283.0
 20
53.0
 30
0.0
 11
283.0
 21
37.5
 31
0.0
  0
LINE
  8
0
  6
CONTINUOUS
 62
               3
  5
368
 10
340.0
 20
53.0
 30
0.0
 11
340.0
 21
37.5
 31
0.0
  0
TEXT
  8
0
  6
CONTINUOUS
 62
               3
  5
369
 10
372.89273763329703
 20
18.040419965304281
 30
0.0
 40
3.0
  1
様式　D-094
 41
0.9011857274319544
  7
MX_NOTE_STANDARD
 11
372.89273763329703
 21
19.540419965304281
 31
0.0
 73
               2
  0
LINE
  8
0
  6
CONTINUOUS
 62
               3
  5
36A
 10
0.0
 20
297.0
 30
0.0
 11
420.0
 21
297.0
 31
0.0
  0
TEXT
  8
0
  6
CONTINUOUS
 62
               3
  5
36B
 10
239.41337571548192
 20
44.428823378441798
 30
0.0
 40
3.2000000476837158
  1
ＳＰＥＣＩＦＩＣＡＴＩＯＮ
 41
0.799999963243804
  7
MX_NOTE_STANDARD
  0
TEXT
  8
0
  6
CONTINUOUS
 62
               3
  5
36C
 10
239.41337571548192
 20
39.228823569176662
 30
0.0
 40
3.2000000476837158
  1
　　　　商品仕様図
 41
0.799999963243804
  7
MX_NOTE_STANDARD
  0
POINT
  8
0
  6
CONTINUOUS
 62
              80
  5
36D
 10
368.5
 20
42.25
 30
0.0
  0
POINT
  8
0
  6
CONTINUOUS
 62
              80
  5
36E
 10
311.5
 20
42.25
 30
0.0
  0
POINT
  8
0
  6
CONTINUOUS
 62
              80
  5
36F
 10
252.0
 20
30.25
 30
0.0
  0
POINT
  8
0
  6
CONTINUOUS
 62
              80
  5
370
 10
258.0
 20
42.25
 30
0.0
  0
POINT
  8
0
  6
CONTINUOUS
 62
              80
  5
371
 10
306.5
 20
272.99998474121094
 30
0.0
  0
POINT
  8
0
  6
CONTINUOUS
 62
              80
  5
372
 10
299.0
 20
272.99998474121094
 30
0.0
  0
POINT
  8
0
  6
CONTINUOUS
 62
              80
  5
373
 10
276.5
 20
272.99998474121094
 30
0.0
  0
POINT
  8
0
  6
CONTINUOUS
 62
              80
  5
374
 10
291.5
 20
272.99998474121094
 30
0.0
  0
POINT
  8
0
  6
CONTINUOUS
 62
              80
  5
375
 10
276.5
 20
267.99998474121094
 30
0.0
  0
POINT
  8
0
  6
CONTINUOUS
 62
              80
  5
376
 10
291.5
 20
267.99998474121094
 30
0.0
  0
POINT
  8
0
  6
CONTINUOUS
 62
              80
  5
377
 10
299.0
 20
267.99998474121094
 30
0.0
  0
POINT
  8
0
  6
CONTINUOUS
 62
              80
  5
378
 10
306.5
 20
267.99998474121094
 30
0.0
  0
POINT
  8
0
  6
CONTINUOUS
 62
              80
  5
379
 10
276.5
 20
262.9999885559082
 30
0.0
  0
POINT
  8
0
  6
CONTINUOUS
 62
              80
  5
37A
 10
291.5
 20
262.9999885559082
 30
0.0
  0
POINT
  8
0
  6
CONTINUOUS
 62
              80
  5
37B
 10
299.0
 20
262.9999885559082
 30
0.0
  0
POINT
  8
0
  6
CONTINUOUS
 62
              80
  5
37C
 10
306.5
 20
262.9999885559082
 30
0.0
  0
LINE
  8
0
  6
CONTINUOUS
 62
               3
  5
37D
 10
397.0
 20
280.49998474121094
 30
0.0
 11
397.0
 21
275.49998474121094
 31
0.0
  0
POINT
  8
0
  6
CONTINUOUS
 62
              80
  5
37E
 10
392.0
 20
272.99998474121094
 30
0.0
  0
POINT
  8
0
  6
CONTINUOUS
 62
              80
  5
37F
 10
392.0
 20
267.99998474121094
 30
0.0
  0
POINT
  8
0
  6
CONTINUOUS
 62
              80
  5
380
 10
392.0
 20
262.99998474121094
 30
0.0
  0
POINT
  8
0
  6
CONTINUOUS
 62
              80
  5
381
 10
299.5
 20
23.0
 30
0.0
  0
POINT
  8
0
  6
CONTINUOUS
 62
              80
  5
382
 10
280.5
 20
23.0
 30
0.0
  0
ENDBLK
  8
0
  5
383
  0
BLOCK
  8
0
  6
BYBLOCK
 62
               0
  5
1DD
  2
*X1
 70
               1
 10
0.0
 20
0.0
 30
0.0
  3
*X1
  0
LINE
  8
0
  6
CONTINUOUS
 62
               0
  5
1DE
 10
321.2290779763955
 20
24.0
 30
0.0
 11
322.6612449824662
 21
24.0
 31
0.0
  0
LINE
  8
0
  6
CONTINUOUS
 62
               0
  5
1DF
 10
321.47146606445312
 20
24.5
 30
0.0
 11
322.68573921533437
 21
24.5
 31
0.0
  0
LINE
  8
0
  6
CONTINUOUS
 62
               0
  5
1E0
 10
321.47146606445312
 20
25.0
 30
0.0
 11
322.68573382816504
 21
25.0
 31
0.0
  0
LINE
  8
0
  6
CONTINUOUS
 62
               0
  5
1E1
 10
321.47146606445312
 20
25.5
 30
0.0
 11
325.16123263513305
 21
25.5
 31
0.0
  0
LINE
  8
0
  6
CONTINUOUS
 62
               0
  5
1E2
 10
321.47146606445312
 20
26.0
 30
0.0
 11
322.68572998046875
 21
26.0
 31
0.0
  0
LINE
  8
0
  6
CONTINUOUS
 62
               0
  5
1E3
 10
324.215479631184
 20
26.0
 30
0.0
 11
325.40002876520157
 21
26.0
 31
0.0
  0
LINE
  8
0
  6
CONTINUOUS
 62
               0
  5
1E4
 10
324.25716292920089
 20
26.5
 30
0.0
 11
325.40002707308048
 21
26.5
 31
0.0
  0
LINE
  8
0
  6
CONTINUOUS
 62
               0
  5
1E5
 10
324.2571705433844
 20
27.0
 30
0.0
 11
325.40002538095933
 21
27.0
 31
0.0
  0
LINE
  8
0
  6
CONTINUOUS
 62
               0
  5
1E6
 10
320.0
 20
23.714233616311702
 30
0.0
 11
320.0
 21
23.92852783203125
 31
0.0
  0
LINE
  8
0
  6
CONTINUOUS
 62
               0
  5
1E7
 10
320.0
 20
27.0714111328125
 30
0.0
 11
320.0
 21
27.28570556640625
 31
0.0
  0
LINE
  8
0
  6
CONTINUOUS
 62
               0
  5
1E8
 10
320.5
 20
23.714237430041305
 30
0.0
 11
320.5
 21
23.92852783203125
 31
0.0
  0
LINE
  8
0
  6
CONTINUOUS
 62
               0
  5
1E9
 10
320.5
 20
27.0714111328125
 30
0.0
 11
320.5
 21
27.28570556640625
 31
0.0
  0
LINE
  8
0
  6
CONTINUOUS
 62
               0
  5
1EA
 10
321.0
 20
23.714241243770907
 30
0.0
 11
321.0
 21
23.929342681488681
 31
0.0
  0
LINE
  8
0
  6
CONTINUOUS
 62
               0
  5
1EB
 10
321.0
 20
27.0714111328125
 30
0.0
 11
321.0
 21
27.28570556640625
 31
0.0
  0
LINE
  8
0
  6
CONTINUOUS
 62
               0
  5
1EC
 10
321.5
 20
23.714245057500513
 30
0.0
 11
321.5
 21
26.2857666015625
 31
0.0
  0
LINE
  8
0
  6
CONTINUOUS
 62
               0
  5
1ED
 10
321.5
 20
27.0714111328125
 30
0.0
 11
321.5
 21
27.28570556640625
 31
0.0
  0
LINE
  8
0
  6
CONTINUOUS
 62
               0
  5
1EE
 10
322.0
 20
23.714248871230115
 30
0.0
 11
322.0
 21
26.2857666015625
 31
0.0
  0
LINE
  8
0
  6
CONTINUOUS
 62
               0
  5
1EF
 10
322.0
 20
27.0714111328125
 30
0.0
 11
322.0
 21
27.28570556640625
 31
0.0
  0
LINE
  8
0
  6
CONTINUOUS
 62
               0
  5
1F0
 10
322.5
 20
23.789682270470777
 30
0.0
 11
322.5
 21
26.2857666015625
 31
0.0
  0
LINE
  8
0
  6
CONTINUOUS
 62
               0
  5
1F1
 10
322.5
 20
27.0714111328125
 30
0.0
 11
322.5
 21
27.28570556640625
 31
0.0
  0
LINE
  8
0
  6
CONTINUOUS
 62
               0
  5
1F2
 10
323.0
 20
25.35712066907589
 30
0.0
 11
323.0
 21
25.642816777162668
 31
0.0
  0
LINE
  8
0
  6
CONTINUOUS
 62
               0
  5
1F3
 10
323.0
 20
27.0714111328125
 30
0.0
 11
323.0
 21
27.28570556640625
 31
0.0
  0
LINE
  8
0
  6
CONTINUOUS
 62
               0
  5
1F4
 10
323.5
 20
25.357126985073108
 30
0.0
 11
323.5
 21
25.642808045081992
 31
0.0
  0
LINE
  8
0
  6
CONTINUOUS
 62
               0
  5
1F5
 10
323.5
 20
27.0714111328125
 30
0.0
 11
323.5
 21
27.28570556640625
 31
0.0
  0
LINE
  8
0
  6
CONTINUOUS
 62
               0
  5
1F6
 10
324.0
 20
25.357133301070331
 30
0.0
 11
324.0
 21
25.736986087012031
 31
0.0
  0
LINE
  8
0
  6
CONTINUOUS
 62
               0
  5
1F7
 10
324.0
 20
27.0714111328125
 30
0.0
 11
324.0
 21
27.28570556640625
 31
0.0
  0
LINE
  8
0
  6
CONTINUOUS
 62
               0
  5
1F8
 10
324.5
 20
25.357139617067549
 30
0.0
 11
324.5
 21
27.28570556640625
 31
0.0
  0
LINE
  8
0
  6
CONTINUOUS
 62
               0
  5
1F9
 10
325.0
 20
25.4047692226412
 30
0.0
 11
325.0
 21
27.28570556640625
 31
0.0
  0
ENDBLK
  8
0
  6
BYBLOCK
 62
               0
  5
1FA
  0
BLOCK
  8
0
  6
BYBLOCK
 62
               0
  5
201
  2
*X2
 70
               1
 10
0.0
 20
0.0
 30
0.0
  3
*X2
  0
LINE
  8
0
  6
CONTINUOUS
 62
               0
  5
202
 10
338.61430233761735
 20
24.0
 30
0.0
 11
339.54287719726562
 21
24.0
 31
0.0
  0
LINE
  8
0
  6
CONTINUOUS
 62
               0
  5
203
 10
338.61430807293402
 20
24.5
 30
0.0
 11
339.54287719726562
 21
24.5
 31
0.0
  0
LINE
  8
0
  6
CONTINUOUS
 62
               0
  5
204
 10
338.61431380825076
 20
25.0
 30
0.0
 11
339.54287719726562
 21
25.0
 31
0.0
  0
LINE
  8
0
  6
CONTINUOUS
 62
               0
  5
205
 10
339.0
 20
23.767791208902523
 30
0.0
 11
339.0
 21
25.4393310546875
 31
0.0
  0
LINE
  8
0
  6
CONTINUOUS
 62
               0
  5
206
 10
339.5
 20
23.767819812721797
 30
0.0
 11
339.5
 21
25.4393310546875
 31
0.0
  0
ENDBLK
  8
0
  6
BYBLOCK
 62
               0
  5
207
  0
BLOCK
  8
0
  6
BYBLOCK
 62
               0
  5
20B
  2
*X3
 70
               1
 10
0.0
 20
0.0
 30
0.0
  3
*X3
  0
LINE
  8
0
  6
CONTINUOUS
 62
               0
  5
20C
 10
341.5
 20
23.774977710497541
 30
0.0
 11
341.5
 21
23.857141525036397
 31
0.0
  0
ENDBLK
  8
0
  6
BYBLOCK
 62
               0
  5
20D
  0
BLOCK
  8
0
  6
BYBLOCK
 62
               0
  5
210
  2
*X4
 70
               1
 10
0.0
 20
0.0
 30
0.0
  3
*X4
  0
LINE
  8
0
  6
CONTINUOUS
 62
               0
  5
211
 10
326.66478158423257
 20
24.0
 30
0.0
 11
330.92096874086332
 21
24.0
 31
0.0
  0
LINE
  8
0
  6
CONTINUOUS
 62
               0
  5
212
 10
326.58143717501997
 20
24.5
 30
0.0
 11
327.5830872461716
 21
24.5
 31
0.0
  0
LINE
  8
0
  6
CONTINUOUS
 62
               0
  5
213
 10
330.00266714835965
 20
24.5
 30
0.0
 11
331.00429890965972
 21
24.5
 31
0.0
  0
LINE
  8
0
  6
CONTINUOUS
 62
               0
  5
214
 10
326.49809276580737
 20
25.0
 30
0.0
 11
327.51493330566257
 21
25.0
 31
0.0
  0
LINE
  8
0
  6
CONTINUOUS
 62
               0
  5
215
 10
330.07082108886868
 20
25.0
 30
0.0
 11
331.08762907845613
 21
25.0
 31
0.0
  0
LINE
  8
0
  6
CONTINUOUS
 62
               0
  5
216
 10
326.41474835659477
 20
25.5
 30
0.0
 11
327.44677936515353
 21
25.5
 31
0.0
  0
LINE
  8
0
  6
CONTINUOUS
 62
               0
  5
217
 10
330.13897502937772
 20
25.5
 30
0.0
 11
331.17095924725254
 21
25.5
 31
0.0
  0
LINE
  8
0
  6
CONTINUOUS
 62
               0
  5
218
 10
326.33140394738217
 20
26.0
 30
0.0
 11
327.3786254246445
 21
26.0
 31
0.0
  0
LINE
  8
0
  6
CONTINUOUS
 62
               0
  5
219
 10
330.20712896988675
 20
26.0
 30
0.0
 11
331.25428941604895
 21
26.0
 31
0.0
  0
LINE
  8
0
  6
CONTINUOUS
 62
               0
  5
21A
 10
326.24805953816957
 20
26.5
 30
0.0
 11
327.31047148413541
 21
26.5
 31
0.0
  0
LINE
  8
0
  6
CONTINUOUS
 62
               0
  5
21B
 10
330.27528291039584
 20
26.5
 30
0.0
 11
331.3376195848453
 21
26.5
 31
0.0
  0
LINE
  8
0
  6
CONTINUOUS
 62
               0
  5
21C
 10
326.16471512895697
 20
27.0
 30
0.0
 11
331.42094975364171
 21
27.0
 31
0.0
  0
LINE
  8
0
  6
CONTINUOUS
 62
               0
  5
21D
 10
326.5
 20
24.988558115591452
 30
0.0
 11
326.5
 21
27.0716552734375
 31
0.0
  0
LINE
  8
0
  6
CONTINUOUS
 62
               0
  5
21E
 10
327.0
 20
23.85711669921875
 30
0.0
 11
327.0
 21
27.0716552734375
 31
0.0
  0
LINE
  8
0
  6
CONTINUOUS
 62
               0
  5
21F
 10
327.5
 20
23.85711669921875
 30
0.0
 11
327.5
 21
25.109555702509841
 31
0.0
  0
LINE
  8
0
  6
CONTINUOUS
 62
               0
  5
220
 10
327.5
 20
26.85699462890625
 30
0.0
 11
327.5
 21
27.0716552734375
 31
0.0
  0
LINE
  8
0
  6
CONTINUOUS
 62
               0
  5
221
 10
328.0
 20
23.85711669921875
 30
0.0
 11
328.0
 21
24.07049560546875
 31
0.0
  0
LINE
  8
0
  6
CONTINUOUS
 62
               0
  5
222
 10
328.0
 20
26.85699462890625
 30
0.0
 11
328.0
 21
27.0716552734375
 31
0.0
  0
LINE
  8
0
  6
CONTINUOUS
 62
               0
  5
223
 10
328.5
 20
23.85711669921875
 30
0.0
 11
328.5
 21
24.07049560546875
 31
0.0
  0
LINE
  8
0
  6
CONTINUOUS
 62
               0
  5
224
 10
328.5
 20
26.85699462890625
 30
0.0
 11
328.5
 21
27.0716552734375
 31
0.0
  0
LINE
  8
0
  6
CONTINUOUS
 62
               0
  5
225
 10
329.0
 20
23.85711669921875
 30
0.0
 11
329.0
 21
24.07049560546875
 31
0.0
  0
LINE
  8
0
  6
CONTINUOUS
 62
               0
  5
226
 10
329.0
 20
26.85699462890625
 30
0.0
 11
329.0
 21
27.0716552734375
 31
0.0
  0
LINE
  8
0
  6
CONTINUOUS
 62
               0
  5
227
 10
329.5
 20
23.85711669921875
 30
0.0
 11
329.5
 21
24.07049560546875
 31
0.0
  0
LINE
  8
0
  6
CONTINUOUS
 62
               0
  5
228
 10
329.5
 20
26.85699462890625
 30
0.0
 11
329.5
 21
27.0716552734375
 31
0.0
  0
LINE
  8
0
  6
CONTINUOUS
 62
               0
  5
229
 10
330.0
 20
23.85711669921875
 30
0.0
 11
330.0
 21
24.480432911584295
 31
0.0
  0
LINE
  8
0
  6
CONTINUOUS
 62
               0
  5
22A
 10
330.0
 20
26.85699462890625
 30
0.0
 11
330.0
 21
27.0716552734375
 31
0.0
  0
LINE
  8
0
  6
CONTINUOUS
 62
               0
  5
22B
 10
330.5
 20
23.85711669921875
 30
0.0
 11
330.5
 21
27.0716552734375
 31
0.0
  0
LINE
  8
0
  6
CONTINUOUS
 62
               0
  5
22C
 10
331.0
 20
24.474205562512239
 30
0.0
 11
331.0
 21
27.0716552734375
 31
0.0
  0
ENDBLK
  8
0
  6
BYBLOCK
 62
               0
  5
22D
  0
BLOCK
  8
0
  6
BYBLOCK
 62
               0
  5
231
  2
*X5
 70
               1
 10
0.0
 20
0.0
 30
0.0
  3
*X5
  0
LINE
  8
0
  6
CONTINUOUS
 62
               0
  5
232
 10
343.61431012799358
 20
24.0
 30
0.0
 11
344.3285798435378
 21
24.0
 31
0.0
  0
LINE
  8
0
  6
CONTINUOUS
 62
               0
  5
233
 10
344.97146606445312
 20
24.0
 30
0.0
 11
345.82859771348984
 21
24.0
 31
0.0
  0
LINE
  8
0
  6
CONTINUOUS
 62
               0
  5
234
 10
344.97146606445312
 20
24.5
 30
0.0
 11
345.82859189908027
 21
24.5
 31
0.0
  0
LINE
  8
0
  6
CONTINUOUS
 62
               0
  5
235
 10
344.97146606445312
 20
25.0
 30
0.0
 11
345.82858608467069
 21
25.0
 31
0.0
  0
LINE
  8
0
  6
CONTINUOUS
 62
               0
  5
236
 10
342.61431884765625
 20
25.5
 30
0.0
 11
348.04287719726562
 21
25.5
 31
0.0
  0
LINE
  8
0
  6
CONTINUOUS
 62
               0
  5
237
 10
344.97137231061987
 20
26.0
 30
0.0
 11
345.82804134244901
 21
26.0
 31
0.0
  0
LINE
  8
0
  6
CONTINUOUS
 62
               0
  5
238
 10
346.17172977716172
 20
26.5
 30
0.0
 11
347.08400663850426
 21
26.5
 31
0.0
  0
LINE
  8
0
  6
CONTINUOUS
 62
               0
  5
239
 10
346.7088359645453
 20
27.0
 30
0.0
 11
348.04365288002703
 21
27.0
 31
0.0
  0
LINE
  8
0
  6
CONTINUOUS
 62
               0
  5
23A
 10
343.0
 20
25.28558349609375
 30
0.0
 11
343.0
 21
25.5
 31
0.0
  0
LINE
  8
0
  6
CONTINUOUS
 62
               0
  5
23B
 10
343.0
 20
27.071417982463032
 30
0.0
 11
343.0
 21
27.28570556640625
 31
0.0
  0
LINE
  8
0
  6
CONTINUOUS
 62
               0
  5
23C
 10
343.5
 20
25.28558349609375
 30
0.0
 11
343.5
 21
25.5
 31
0.0
  0
LINE
  8
0
  6
CONTINUOUS
 62
               0
  5
23D
 10
343.5
 20
27.071426862402443
 30
0.0
 11
343.5
 21
27.28570556640625
 31
0.0
  0
LINE
  8
0
  6
CONTINUOUS
 62
               0
  5
23E
 10
344.0
 20
23.714276991784573
 30
0.0
 11
344.0
 21
24.214239195088382
 31
0.0
  0
LINE
  8
0
  6
CONTINUOUS
 62
               0
  5
23F
 10
344.0
 20
25.28558349609375
 30
0.0
 11
344.0
 21
25.5
 31
0.0
  0
LINE
  8
0
  6
CONTINUOUS
 62
               0
  5
240
 10
344.0
 20
27.071435742341858
 30
0.0
 11
344.0
 21
27.28570556640625
 31
0.0
  0
LINE
  8
0
  6
CONTINUOUS
 62
               0
  5
241
 10
344.5
 20
23.714276991784573
 30
0.0
 11
344.5
 21
23.931145878278969
 31
0.0
  0
LINE
  8
0
  6
CONTINUOUS
 62
               0
  5
242
 10
344.5
 20
25.28558349609375
 30
0.0
 11
344.5
 21
25.5
 31
0.0
  0
LINE
  8
0
  6
CONTINUOUS
 62
               0
  5
243
 10
344.5
 20
27.071444622281273
 30
0.0
 11
344.5
 21
27.28570556640625
 31
0.0
  0
LINE
  8
0
  6
CONTINUOUS
 62
               0
  5
244
 10
345.0
 20
23.714276991784573
 30
0.0
 11
345.0
 21
26.043426954428952
 31
0.0
  0
LINE
  8
0
  6
CONTINUOUS
 62
               0
  5
245
 10
345.0
 20
27.071453502220685
 30
0.0
 11
345.0
 21
27.28570556640625
 31
0.0
  0
LINE
  8
0
  6
CONTINUOUS
 62
               0
  5
246
 10
345.5
 20
23.714276991784573
 30
0.0
 11
345.5
 21
26.190551166717139
 31
0.0
  0
LINE
  8
0
  6
CONTINUOUS
 62
               0
  5
247
 10
345.5
 20
27.071462382160099
 30
0.0
 11
345.5
 21
27.28570556640625
 31
0.0
  0
LINE
  8
0
  6
CONTINUOUS
 62
               0
  5
248
 10
346.0
 20
25.28558349609375
 30
0.0
 11
346.0
 21
25.5
 31
0.0
  0
LINE
  8
0
  6
CONTINUOUS
 62
               0
  5
249
 10
346.0
 20
26.067898953017437
 30
0.0
 11
346.0
 21
26.407388261534617
 31
0.0
  0
LINE
  8
0
  6
CONTINUOUS
 62
               0
  5
24A
 10
346.0
 20
27.071471262099514
 30
0.0
 11
346.0
 21
27.28570556640625
 31
0.0
  0
LINE
  8
0
  6
CONTINUOUS
 62
               0
  5
24B
 10
346.5
 20
25.28558349609375
 30
0.0
 11
346.5
 21
25.5
 31
0.0
  0
LINE
  8
0
  6
CONTINUOUS
 62
               0
  5
24C
 10
346.5
 20
26.242382556848593
 30
0.0
 11
346.5
 21
26.722789141145647
 31
0.0
  0
LINE
  8
0
  6
CONTINUOUS
 62
               0
  5
24D
 10
346.5
 20
27.071480142038926
 30
0.0
 11
346.5
 21
27.28570556640625
 31
0.0
  0
LINE
  8
0
  6
CONTINUOUS
 62
               0
  5
24E
 10
347.0
 20
25.28558349609375
 30
0.0
 11
347.0
 21
25.5
 31
0.0
  0
LINE
  8
0
  6
CONTINUOUS
 62
               0
  5
24F
 10
347.0
 20
26.461719042441615
 30
0.0
 11
347.0
 21
27.28570556640625
 31
0.0
  0
LINE
  8
0
  6
CONTINUOUS
 62
               0
  5
250
 10
347.5
 20
25.28558349609375
 30
0.0
 11
347.5
 21
25.5
 31
0.0
  0
LINE
  8
0
  6
CONTINUOUS
 62
               0
  5
251
 10
347.5
 20
26.698770819545231
 30
0.0
 11
347.5
 21
27.28570556640625
 31
0.0
  0
LINE
  8
0
  6
CONTINUOUS
 62
               0
  5
252
 10
348.0
 20
25.28558349609375
 30
0.0
 11
348.0
 21
25.5
 31
0.0
  0
LINE
  8
0
  6
CONTINUOUS
 62
               0
  5
253
 10
348.0
 20
26.95869311983521
 30
0.0
 11
348.0
 21
27.28570556640625
 31
0.0
  0
ENDBLK
  8
0
  6
BYBLOCK
 62
               0
  5
254
  0
BLOCK
  8
0
  6
BYBLOCK
 62
               0
  5
257
  2
*X6
 70
               1
 10
0.0
 20
0.0
 30
0.0
  3
*X6
  0
LINE
  8
0
  6
CONTINUOUS
 62
               0
  5
258
 10
351.11419677734375
 20
24.0
 30
0.0
 11
352.04302978515625
 21
24.0
 31
0.0
  0
LINE
  8
0
  6
CONTINUOUS
 62
               0
  5
259
 10
351.11419677734375
 20
24.5
 30
0.0
 11
352.04302978515625
 21
24.5
 31
0.0
  0
LINE
  8
0
  6
CONTINUOUS
 62
               0
  5
25A
 10
351.11419677734375
 20
25.0
 30
0.0
 11
352.04302978515625
 21
25.0
 31
0.0
  0
LINE
  8
0
  6
CONTINUOUS
 62
               0
  5
25B
 10
351.11419677734375
 20
25.5
 30
0.0
 11
352.04302978515625
 21
25.5
 31
0.0
  0
LINE
  8
0
  6
CONTINUOUS
 62
               0
  5
25C
 10
351.11419677734375
 20
26.0
 30
0.0
 11
352.04302978515625
 21
26.0
 31
0.0
  0
LINE
  8
0
  6
CONTINUOUS
 62
               0
  5
25D
 10
351.11419677734375
 20
26.5
 30
0.0
 11
352.04302978515625
 21
26.5
 31
0.0
  0
LINE
  8
0
  6
CONTINUOUS
 62
               0
  5
25E
 10
351.11419677734375
 20
27.0
 30
0.0
 11
352.04302978515625
 21
27.0
 31
0.0
  0
LINE
  8
0
  6
CONTINUOUS
 62
               0
  5
25F
 10
349.0
 20
23.7142333984375
 30
0.0
 11
349.0
 21
23.92864990234375
 31
0.0
  0
LINE
  8
0
  6
CONTINUOUS
 62
               0
  5
260
 10
349.0
 20
27.0714111328125
 30
0.0
 11
349.0
 21
27.28570556640625
 31
0.0
  0
LINE
  8
0
  6
CONTINUOUS
 62
               0
  5
261
 10
349.5
 20
23.7142333984375
 30
0.0
 11
349.5
 21
23.92864990234375
 31
0.0
  0
LINE
  8
0
  6
CONTINUOUS
 62
               0
  5
262
 10
349.5
 20
27.0714111328125
 30
0.0
 11
349.5
 21
27.28570556640625
 31
0.0
  0
LINE
  8
0
  6
CONTINUOUS
 62
               0
  5
263
 10
350.0
 20
23.7142333984375
 30
0.0
 11
350.0
 21
23.92864990234375
 31
0.0
  0
LINE
  8
0
  6
CONTINUOUS
 62
               0
  5
264
 10
350.0
 20
27.0714111328125
 30
0.0
 11
350.0
 21
27.28570556640625
 31
0.0
  0
LINE
  8
0
  6
CONTINUOUS
 62
               0
  5
265
 10
350.5
 20
23.7142333984375
 30
0.0
 11
350.5
 21
23.92864990234375
 31
0.0
  0
LINE
  8
0
  6
CONTINUOUS
 62
               0
  5
266
 10
350.5
 20
27.0714111328125
 30
0.0
 11
350.5
 21
27.28570556640625
 31
0.0
  0
LINE
  8
0
  6
CONTINUOUS
 62
               0
  5
267
 10
351.0
 20
23.7142333984375
 30
0.0
 11
351.0
 21
23.92864990234375
 31
0.0
  0
LINE
  8
0
  6
CONTINUOUS
 62
               0
  5
268
 10
351.0
 20
27.0714111328125
 30
0.0
 11
351.0
 21
27.28570556640625
 31
0.0
  0
LINE
  8
0
  6
CONTINUOUS
 62
               0
  5
269
 10
351.5
 20
23.7142333984375
 30
0.0
 11
351.5
 21
27.28570556640625
 31
0.0
  0
LINE
  8
0
  6
CONTINUOUS
 62
               0
  5
26A
 10
352.0
 20
23.7142333984375
 30
0.0
 11
352.0
 21
27.28570556640625
 31
0.0
  0
LINE
  8
0
  6
CONTINUOUS
 62
               0
  5
26B
 10
352.5
 20
23.7142333984375
 30
0.0
 11
352.5
 21
23.92864990234375
 31
0.0
  0
LINE
  8
0
  6
CONTINUOUS
 62
               0
  5
26C
 10
352.5
 20
27.0714111328125
 30
0.0
 11
352.5
 21
27.28570556640625
 31
0.0
  0
LINE
  8
0
  6
CONTINUOUS
 62
               0
  5
26D
 10
353.0
 20
23.7142333984375
 30
0.0
 11
353.0
 21
23.92864990234375
 31
0.0
  0
LINE
  8
0
  6
CONTINUOUS
 62
               0
  5
26E
 10
353.0
 20
27.0714111328125
 30
0.0
 11
353.0
 21
27.28570556640625
 31
0.0
  0
LINE
  8
0
  6
CONTINUOUS
 62
               0
  5
26F
 10
353.5
 20
23.7142333984375
 30
0.0
 11
353.5
 21
23.92864990234375
 31
0.0
  0
LINE
  8
0
  6
CONTINUOUS
 62
               0
  5
270
 10
353.5
 20
27.0714111328125
 30
0.0
 11
353.5
 21
27.28570556640625
 31
0.0
  0
LINE
  8
0
  6
CONTINUOUS
 62
               0
  5
271
 10
354.0
 20
23.7142333984375
 30
0.0
 11
354.0
 21
23.92864990234375
 31
0.0
  0
LINE
  8
0
  6
CONTINUOUS
 62
               0
  5
272
 10
354.0
 20
27.0714111328125
 30
0.0
 11
354.0
 21
27.28570556640625
 31
0.0
  0
ENDBLK
  8
0
  6
BYBLOCK
 62
               0
  5
273
  0
BLOCK
  8
0
  6
BYBLOCK
 62
               0
  5
27C
  2
*X7
 70
               1
 10
0.0
 20
0.0
 30
0.0
  3
*X7
  0
LINE
  8
0
  6
CONTINUOUS
 62
               0
  5
27D
 10
359.98054274782078
 20
24.0
 30
0.0
 11
360.39091721311672
 21
24.0
 31
0.0
  0
LINE
  8
0
  6
CONTINUOUS
 62
               0
  5
27E
 10
360.0
 20
23.975477189942811
 30
0.0
 11
360.0
 21
24.310167341307189
 31
0.0
  0
ENDBLK
  8
0
  6
BYBLOCK
 62
               0
  5
27F
  0
BLOCK
  8
0
  6
BYBLOCK
 62
               0
  5
283
  2
*X8
 70
               1
 10
0.0
 20
0.0
 30
0.0
  3
*X8
  0
LINE
  8
0
  6
CONTINUOUS
 62
               0
  5
284
 10
355.19572630072128
 20
24.0
 30
0.0
 11
356.21255019734571
 21
24.0
 31
0.0
  0
LINE
  8
0
  6
CONTINUOUS
 62
               0
  5
285
 10
355.7962703853936
 20
24.5
 30
0.0
 11
357.02245323022288
 21
24.5
 31
0.0
  0
LINE
  8
0
  6
CONTINUOUS
 62
               0
  5
286
 10
355.5
 20
23.730631462693776
 30
0.0
 11
355.5
 21
24.242455256828414
 31
0.0
  0
LINE
  8
0
  6
CONTINUOUS
 62
               0
  5
287
 10
356.0
 20
23.907188231077846
 30
0.0
 11
356.0
 21
24.714066103220063
 31
0.0
  0
LINE
  8
0
  6
CONTINUOUS
 62
               0
  5
288
 10
356.5
 20
24.143782337555347
 30
0.0
 11
356.5
 21
24.946604073575561
 31
0.0
  0
LINE
  8
0
  6
CONTINUOUS
 62
               0
  5
289
 10
357.0
 20
24.481708397845651
 30
0.0
 11
357.0
 21
24.946455663178284
 31
0.0
  0
ENDBLK
  8
0
  6
BYBLOCK
 62
               0
  5
28A
  0
BLOCK
  8
0
  6
BYBLOCK
 62
               0
  5
28D
  2
*X9
 70
               1
 10
0.0
 20
0.0
 30
0.0
  3
*X9
  0
LINE
  8
0
  6
CONTINUOUS
 62
               0
  5
28E
 10
366.05202689571405
 20
24.5
 30
0.0
 11
366.4623163660047
 21
24.5
 31
0.0
  0
LINE
  8
0
  6
CONTINUOUS
 62
               0
  5
28F
 10
366.5
 20
24.297666021001387
 30
0.0
 11
366.5
 21
24.416567377436113
 31
0.0
  0
ENDBLK
  8
0
  6
BYBLOCK
 62
               0
  5
290
  0
BLOCK
  8
0
  6
BYBLOCK
 62
               0
  5
293
  2
*X10
 70
               1
 10
0.0
 20
0.0
 30
0.0
  3
*X10
  0
LINE
  8
0
  6
CONTINUOUS
 62
               0
  5
294
 10
361.82859287630987
 20
24.0
 30
0.0
 11
362.32873721603346
 21
24.0
 31
0.0
  0
LINE
  8
0
  6
CONTINUOUS
 62
               0
  5
295
 10
361.82861057018658
 20
24.5
 30
0.0
 11
362.32900745818347
 21
24.5
 31
0.0
  0
LINE
  8
0
  6
CONTINUOUS
 62
               0
  5
296
 10
361.27877177527495
 20
25.0
 30
0.0
 11
361.57360596862378
 21
25.0
 31
0.0
  0
LINE
  8
0
  6
CONTINUOUS
 62
               0
  5
297
 10
361.82862826406324
 20
25.0
 30
0.0
 11
362.32927770033348
 21
25.0
 31
0.0
  0
LINE
  8
0
  6
CONTINUOUS
 62
               0
  5
298
 10
362.70489976688219
 20
25.0
 30
0.0
 11
363.01081708021684
 21
25.0
 31
0.0
  0
LINE
  8
0
  6
CONTINUOUS
 62
               0
  5
299
 10
361.54361406425414
 20
25.5
 30
0.0
 11
362.55547077684827
 21
25.5
 31
0.0
  0
LINE
  8
0
  6
CONTINUOUS
 62
               0
  5
29A
 10
361.71705125807142
 20
26.0
 30
0.0
 11
362.32919007621507
 21
26.0
 31
0.0
  0
LINE
  8
0
  6
CONTINUOUS
 62
               0
  5
29B
 10
361.81379365265411
 20
26.5
 30
0.0
 11
362.32865934180563
 21
26.5
 31
0.0
  0
LINE
  8
0
  6
CONTINUOUS
 62
               0
  5
29C
 10
361.82858276367187
 20
27.0
 30
0.0
 11
362.32858276367187
 21
27.0
 31
0.0
  0
LINE
  8
0
  6
CONTINUOUS
 62
               0
  5
29D
 10
361.5
 20
24.91108197051188
 30
0.0
 11
361.5
 21
25.403438243872525
 31
0.0
  0
LINE
  8
0
  6
CONTINUOUS
 62
               0
  5
29E
 10
361.5
 20
26.572271786675458
 30
0.0
 11
361.5
 21
26.64208984375
 31
0.0
  0
LINE
  8
0
  6
CONTINUOUS
 62
               0
  5
29F
 10
362.0
 20
23.7142333984375
 30
0.0
 11
362.0
 21
27.28570556640625
 31
0.0
  0
LINE
  8
0
  6
CONTINUOUS
 62
               0
  5
2A0
 10
362.5
 20
25.183073671119953
 30
0.0
 11
362.5
 21
25.567218374117516
 31
0.0
  0
LINE
  8
0
  6
CONTINUOUS
 62
               0
  5
2A1
 10
362.5
 20
26.5721435546875
 30
0.0
 11
362.5
 21
26.64208984375
 31
0.0
  0
LINE
  8
0
  6
CONTINUOUS
 62
               0
  5
2A2
 10
363.0
 20
24.744808656620286
 30
0.0
 11
363.0
 21
25.010914852547952
 31
0.0
  0
ENDBLK
  8
0
  6
BYBLOCK
 62
               0
  5
2A3
  0
BLOCK
  8
0
  6
BYBLOCK
 62
               0
  5
2A6
  2
*X11
 70
               1
 10
0.0
 20
0.0
 30
0.0
  3
*X11
  0
LINE
  8
0
  6
CONTINUOUS
 62
               0
  5
2A7
 10
363.25699286364528
 20
24.0
 30
0.0
 11
363.73108231400317
 21
24.0
 31
0.0
  0
LINE
  8
0
  6
CONTINUOUS
 62
               0
  5
2A8
 10
364.75710707614593
 20
24.0
 30
0.0
 11
365.18576049804687
 21
24.0
 31
0.0
  0
LINE
  8
0
  6
CONTINUOUS
 62
               0
  5
2A9
 10
363.54676345065974
 20
24.5
 30
0.0
 11
364.30870176592362
 21
24.5
 31
0.0
  0
LINE
  8
0
  6
CONTINUOUS
 62
               0
  5
2AA
 10
364.75699412607923
 20
24.5
 30
0.0
 11
365.18576049804687
 21
24.5
 31
0.0
  0
LINE
  8
0
  6
CONTINUOUS
 62
               0
  5
2AB
 10
363.90832480491957
 20
25.0
 30
0.0
 11
365.18576049804687
 21
25.0
 31
0.0
  0
LINE
  8
0
  6
CONTINUOUS
 62
               0
  5
2AC
 10
364.17251806712932
 20
25.5
 30
0.0
 11
365.18576049804687
 21
25.5
 31
0.0
  0
LINE
  8
0
  6
CONTINUOUS
 62
               0
  5
2AD
 10
364.75717163085937
 20
26.0
 30
0.0
 11
365.18576049804687
 21
26.0
 31
0.0
  0
LINE
  8
0
  6
CONTINUOUS
 62
               0
  5
2AE
 10
364.75717163085937
 20
26.5
 30
0.0
 11
365.18576049804687
 21
26.5
 31
0.0
  0
LINE
  8
0
  6
CONTINUOUS
 62
               0
  5
2AF
 10
363.61431884765625
 20
27.0
 30
0.0
 11
364.11431884765625
 21
27.0
 31
0.0
  0
LINE
  8
0
  6
CONTINUOUS
 62
               0
  5
2B0
 10
364.75717163085937
 20
27.0
 30
0.0
 11
365.18576049804687
 21
27.0
 31
0.0
  0
LINE
  8
0
  6
CONTINUOUS
 62
               0
  5
2B1
 10
363.5
 20
23.91177290312044
 30
0.0
 11
363.5
 21
24.436569197069971
 31
0.0
  0
LINE
  8
0
  6
CONTINUOUS
 62
               0
  5
2B2
 10
364.0
 20
24.22100536834396
 30
0.0
 11
364.0
 21
25.151508905344699
 31
0.0
  0
LINE
  8
0
  6
CONTINUOUS
 62
               0
  5
2B3
 10
364.0
 20
25.786071047918171
 30
0.0
 11
364.0
 21
25.85638427734375
 31
0.0
  0
LINE
  8
0
  6
CONTINUOUS
 62
               0
  5
2B4
 10
364.0
 20
26.5721435546875
 30
0.0
 11
364.0
 21
27.28570556640625
 31
0.0
  0
LINE
  8
0
  6
CONTINUOUS
 62
               0
  5
2B5
 10
364.5
 20
24.68802768422827
 30
0.0
 11
364.5
 21
25.85638427734375
 31
0.0
  0
LINE
  8
0
  6
CONTINUOUS
 62
               0
  5
2B6
 10
364.5
 20
26.5721435546875
 30
0.0
 11
364.5
 21
26.64208984375
 31
0.0
  0
LINE
  8
0
  6
CONTINUOUS
 62
               0
  5
2B7
 10
365.0
 20
23.7142333984375
 30
0.0
 11
365.0
 21
27.28570556640625
 31
0.0
  0
LINE
  8
0
  6
CONTINUOUS
 62
               0
  5
2B8
 10
365.5
 20
25.78643798828125
 30
0.0
 11
365.5
 21
25.85638427734375
 31
0.0
  0
LINE
  8
0
  6
CONTINUOUS
 62
               0
  5
2B9
 10
365.5
 20
26.5721435546875
 30
0.0
 11
365.5
 21
26.64208984375
 31
0.0
  0
LINE
  8
0
  6
CONTINUOUS
 62
               0
  5
2BA
 10
366.0
 20
25.78643798828125
 30
0.0
 11
366.0
 21
25.85638427734375
 31
0.0
  0
LINE
  8
0
  6
CONTINUOUS
 62
               0
  5
2BB
 10
366.0
 20
26.5721435546875
 30
0.0
 11
366.0
 21
26.64208984375
 31
0.0
  0
LINE
  8
0
  6
CONTINUOUS
 62
               0
  5
2BC
 10
366.5
 20
25.78643798828125
 30
0.0
 11
366.5
 21
25.85638427734375
 31
0.0
  0
LINE
  8
0
  6
CONTINUOUS
 62
               0
  5
2BD
 10
366.5
 20
26.5721435546875
 30
0.0
 11
366.5
 21
26.64208984375
 31
0.0
  0
ENDBLK
  8
0
  6
BYBLOCK
 62
               0
  5
2BE
  0
BLOCK
  8
0
  6
BYBLOCK
 62
               0
  5
2C1
  2
*X12
 70
               1
 10
0.0
 20
0.0
 30
0.0
  3
*X12
  0
LINE
  8
0
  6
CONTINUOUS
 62
               0
  5
2C2
 10
371.82950234733266
 20
24.0
 30
0.0
 11
372.58732211682451
 21
24.0
 31
0.0
  0
LINE
  8
0
  6
CONTINUOUS
 62
               0
  5
2C3
 10
371.53533240848492
 20
24.5
 30
0.0
 11
372.27184076706942
 21
24.5
 31
0.0
  0
LINE
  8
0
  6
CONTINUOUS
 62
               0
  5
2C4
 10
371.27443484063923
 20
25.0
 30
0.0
 11
371.98007704525457
 21
25.0
 31
0.0
  0
LINE
  8
0
  6
CONTINUOUS
 62
               0
  5
2C5
 10
371.04428785828742
 20
25.5
 30
0.0
 11
371.7106464047651
 21
25.5
 31
0.0
  0
LINE
  8
0
  6
CONTINUOUS
 62
               0
  5
2C6
 10
370.8428748893752
 20
26.0
 30
0.0
 11
371.46179918722913
 21
26.0
 31
0.0
  0
LINE
  8
0
  6
CONTINUOUS
 62
               0
  5
2C7
 10
370.66930329680611
 20
26.5
 30
0.0
 11
371.23985082648852
 21
26.5
 31
0.0
  0
LINE
  8
0
  6
CONTINUOUS
 62
               0
  5
2C8
 10
370.51880982277294
 20
27.0
 30
0.0
 11
371.07115946918572
 21
27.0
 31
0.0
  0
LINE
  8
0
  6
CONTINUOUS
 62
               0
  5
2C9
 10
367.5
 20
26.214265939567646
 30
0.0
 11
367.5
 21
26.428514210928629
 31
0.0
  0
LINE
  8
0
  6
CONTINUOUS
 62
               0
  5
2CA
 10
368.0
 20
26.214360874374684
 30
0.0
 11
368.0
 21
26.428474473011015
 31
0.0
  0
LINE
  8
0
  6
CONTINUOUS
 62
               0
  5
2CB
 10
368.5
 20
26.214455809181718
 30
0.0
 11
368.5
 21
26.428434735093401
 31
0.0
  0
LINE
  8
0
  6
CONTINUOUS
 62
               0
  5
2CC
 10
369.0
 20
26.214550743988756
 30
0.0
 11
369.0
 21
26.428394997175783
 31
0.0
  0
LINE
  8
0
  6
CONTINUOUS
 62
               0
  5
2CD
 10
369.5
 20
26.21464567879579
 30
0.0
 11
369.5
 21
26.428355259258169
 31
0.0
  0
LINE
  8
0
  6
CONTINUOUS
 62
               0
  5
2CE
 10
370.0
 20
26.214740613602828
 30
0.0
 11
370.0
 21
26.428315521340554
 31
0.0
  0
LINE
  8
0
  6
CONTINUOUS
 62
               0
  5
2CF
 10
370.5
 20
26.214835548409866
 30
0.0
 11
370.5
 21
26.428275783422936
 31
0.0
  0
LINE
  8
0
  6
CONTINUOUS
 62
               0
  5
2D0
 10
370.5
 20
27.067774145641227
 30
0.0
 11
370.5
 21
27.213651680751667
 31
0.0
  0
LINE
  8
0
  6
CONTINUOUS
 62
               0
  5
2D1
 10
371.0
 20
25.604205838508896
 30
0.0
 11
371.0
 21
27.214928289174374
 31
0.0
  0
LINE
  8
0
  6
CONTINUOUS
 62
               0
  5
2D2
 10
371.5
 20
24.5642553124435
 30
0.0
 11
371.5
 21
25.921237767159194
 31
0.0
  0
LINE
  8
0
  6
CONTINUOUS
 62
               0
  5
2D3
 10
371.5
 20
26.214292570789247
 30
0.0
 11
371.5
 21
26.427855152262349
 31
0.0
  0
LINE
  8
0
  6
CONTINUOUS
 62
               0
  5
2D4
 10
372.0
 20
23.929267894173542
 30
0.0
 11
372.0
 21
24.964572104034801
 31
0.0
  0
LINE
  8
0
  6
CONTINUOUS
 62
               0
  5
2D5
 10
372.0
 20
26.214266355878991
 30
0.0
 11
372.0
 21
26.428153167116431
 31
0.0
  0
LINE
  8
0
  6
CONTINUOUS
 62
               0
  5
2D6
 10
372.5
 20
23.92854020205959
 30
0.0
 11
372.5
 21
24.134559512186449
 31
0.0
  0
LINE
  8
0
  6
CONTINUOUS
 62
               0
  5
2D7
 10
372.5
 20
26.214240140968737
 30
0.0
 11
372.5
 21
26.428451181970516
 31
0.0
  0
ENDBLK
  8
0
  6
BYBLOCK
 62
               0
  5
2D8
  0
BLOCK
  8
0
  6
BYBLOCK
 62
               0
  5
2DB
  2
*X13
 70
               1
 10
0.0
 20
0.0
 30
0.0
  3
*X13
  0
LINE
  8
0
  6
CONTINUOUS
 62
               0
  5
2DC
 10
371.78056105836765
 20
27.0
 30
0.0
 11
372.1909355236636
 21
27.0
 31
0.0
  0
LINE
  8
0
  6
CONTINUOUS
 62
               0
  5
2DD
 10
372.0
 20
26.893228818613615
 30
0.0
 11
372.0
 21
27.392415712636385
 31
0.0
  0
ENDBLK
  8
0
  6
BYBLOCK
 62
               0
  5
2DE
  0
BLOCK
  8
0
  6
BYBLOCK
 62
               0
  5
2E1
  2
*X14
 70
               1
 10
0.0
 20
0.0
 30
0.0
  3
*X14
  0
LINE
  8
0
  6
CONTINUOUS
 62
               0
  5
2E2
 10
368.25656374532753
 20
24.0
 30
0.0
 11
368.90128250736802
 21
24.0
 31
0.0
  0
LINE
  8
0
  6
CONTINUOUS
 62
               0
  5
2E3
 10
369.12477720619688
 20
24.0
 30
0.0
 11
369.84420310939805
 21
24.0
 31
0.0
  0
LINE
  8
0
  6
CONTINUOUS
 62
               0
  5
2E4
 10
368.25681406191927
 20
24.5
 30
0.0
 11
368.90076444662816
 21
24.5
 31
0.0
  0
LINE
  8
0
  6
CONTINUOUS
 62
               0
  5
2E5
 10
368.25706437851107
 20
25.0
 30
0.0
 11
368.90024638588829
 21
25.0
 31
0.0
  0
LINE
  8
0
  6
CONTINUOUS
 62
               0
  5
2E6
 10
367.5
 20
23.667257514283659
 30
0.0
 11
367.5
 21
23.887992519605003
 31
0.0
  0
LINE
  8
0
  6
CONTINUOUS
 62
               0
  5
2E7
 10
367.5
 20
25.2142333984375
 30
0.0
 11
367.5
 21
25.28570556640625
 31
0.0
  0
LINE
  8
0
  6
CONTINUOUS
 62
               0
  5
2E8
 10
368.0
 20
23.711010174815012
 30
0.0
 11
368.0
 21
23.925126485668539
 31
0.0
  0
LINE
  8
0
  6
CONTINUOUS
 62
               0
  5
2E9
 10
368.0
 20
25.2142333984375
 30
0.0
 11
368.0
 21
25.28570556640625
 31
0.0
  0
LINE
  8
0
  6
CONTINUOUS
 62
               0
  5
2EA
 10
368.5
 20
23.768713524949035
 30
0.0
 11
368.5
 21
25.28570556640625
 31
0.0
  0
LINE
  8
0
  6
CONTINUOUS
 62
               0
  5
2EB
 10
369.0
 20
23.841336335948853
 30
0.0
 11
369.0
 21
23.98927892040037
 31
0.0
  0
LINE
  8
0
  6
CONTINUOUS
 62
               0
  5
2EC
 10
369.0
 20
25.2142333984375
 30
0.0
 11
369.0
 21
25.28570556640625
 31
0.0
  0
LINE
  8
0
  6
CONTINUOUS
 62
               0
  5
2ED
 10
369.5
 20
23.929746227399505
 30
0.0
 11
369.5
 21
24.040247799509551
 31
0.0
  0
LINE
  8
0
  6
CONTINUOUS
 62
               0
  5
2EE
 10
369.5
 20
25.2142333984375
 30
0.0
 11
369.5
 21
25.28570556640625
 31
0.0
  0
ENDBLK
  8
0
  6
BYBLOCK
 62
               0
  5
2EF
  0
BLOCK
  8
0
  6
BYBLOCK
 62
               0
  5
2F2
  2
*X15
 70
               1
 10
0.0
 20
0.0
 30
0.0
  3
*X15
  0
LINE
  8
0
  6
CONTINUOUS
 62
               0
  5
2F3
 10
373.67458168093185
 20
26.5
 30
0.0
 11
374.70478034125915
 21
26.5
 31
0.0
  0
LINE
  8
0
  6
CONTINUOUS
 62
               0
  5
2F4
 10
377.4238207329596
 20
26.5
 30
0.0
 11
378.45413684662083
 21
26.5
 31
0.0
  0
LINE
  8
0
  6
CONTINUOUS
 62
               0
  5
2F5
 10
375.21682544824489
 20
27.0
 30
0.0
 11
376.91240803065375
 21
27.0
 31
0.0
  0
LINE
  8
0
  6
CONTINUOUS
 62
               0
  5
2F6
 10
373.5
 20
26.108455753854656
 30
0.0
 11
373.5
 21
26.443400101646695
 31
0.0
  0
LINE
  8
0
  6
CONTINUOUS
 62
               0
  5
2F7
 10
374.0
 20
26.270951867352046
 30
0.0
 11
374.0
 21
26.605501583460793
 31
0.0
  0
LINE
  8
0
  6
CONTINUOUS
 62
               0
  5
2F8
 10
374.5
 20
26.43344798084944
 30
0.0
 11
374.5
 21
26.767603065274894
 31
0.0
  0
LINE
  8
0
  6
CONTINUOUS
 62
               0
  5
2F9
 10
375.0
 20
26.59594409434683
 30
0.0
 11
375.0
 21
26.929704547088992
 31
0.0
  0
LINE
  8
0
  6
CONTINUOUS
 62
               0
  5
2FA
 10
375.5
 20
26.75844020784422
 30
0.0
 11
375.5
 21
27.091806028903093
 31
0.0
  0
LINE
  8
0
  6
CONTINUOUS
 62
               0
  5
2FB
 10
376.0
 20
26.920936321341614
 30
0.0
 11
376.0
 21
27.253907510717191
 31
0.0
  0
LINE
  8
0
  6
CONTINUOUS
 62
               0
  5
2FC
 10
376.5
 20
26.800234557348496
 30
0.0
 11
376.5
 21
27.133748564073855
 31
0.0
  0
LINE
  8
0
  6
CONTINUOUS
 62
               0
  5
2FD
 10
377.0
 20
26.637738443851102
 30
0.0
 11
377.0
 21
26.971592938901093
 31
0.0
  0
LINE
  8
0
  6
CONTINUOUS
 62
               0
  5
2FE
 10
377.5
 20
26.475242330353712
 30
0.0
 11
377.5
 21
26.809437313728328
 31
0.0
  0
LINE
  8
0
  6
CONTINUOUS
 62
               0
  5
2FF
 10
378.0
 20
26.312746216856318
 30
0.0
 11
378.0
 21
26.647281688555566
 31
0.0
  0
LINE
  8
0
  6
CONTINUOUS
 62
               0
  5
300
 10
378.5
 20
26.150250103358928
 30
0.0
 11
378.5
 21
26.485126063382804
 31
0.0
  0
ENDBLK
  8
0
  6
BYBLOCK
 62
               0
  5
301
  0
BLOCK
  8
0
  6
BYBLOCK
 62
               0
  5
305
  2
*X16
 70
               1
 10
0.0
 20
0.0
 30
0.0
  3
*X16
  0
LINE
  8
0
  6
CONTINUOUS
 62
               0
  5
306
 10
373.84944503131078
 20
24.0
 30
0.0
 11
374.7351525731649
 21
24.0
 31
0.0
  0
LINE
  8
0
  6
CONTINUOUS
 62
               0
  5
307
 10
377.40257322009887
 20
24.0
 30
0.0
 11
378.27975080840145
 21
24.0
 31
0.0
  0
LINE
  8
0
  6
CONTINUOUS
 62
               0
  5
308
 10
374.23465903909289
 20
24.5
 30
0.0
 11
375.00412718990276
 21
24.5
 31
0.0
  0
LINE
  8
0
  6
CONTINUOUS
 62
               0
  5
309
 10
377.13103514520571
 20
24.5
 30
0.0
 11
377.89935111220854
 21
24.5
 31
0.0
  0
LINE
  8
0
  6
CONTINUOUS
 62
               0
  5
30A
 10
373.414306640625
 20
25.0
 30
0.0
 11
378.71432495117187
 21
25.0
 31
0.0
  0
LINE
  8
0
  6
CONTINUOUS
 62
               0
  5
30B
 10
373.5
 20
25.0
 30
0.0
 11
373.5
 21
25.142822265625
 31
0.0
  0
LINE
  8
0
  6
CONTINUOUS
 62
               0
  5
30C
 10
374.0
 20
23.713782337525632
 30
0.0
 11
374.0
 21
24.195417307844064
 31
0.0
  0
LINE
  8
0
  6
CONTINUOUS
 62
               0
  5
30D
 10
374.0
 20
25.0
 30
0.0
 11
374.0
 21
25.142822265625
 31
0.0
  0
LINE
  8
0
  6
CONTINUOUS
 62
               0
  5
30E
 10
374.5
 20
23.713832487033855
 30
0.0
 11
374.5
 21
24.844407206833964
 31
0.0
  0
LINE
  8
0
  6
CONTINUOUS
 62
               0
  5
30F
 10
374.5
 20
25.0
 30
0.0
 11
374.5
 21
25.142822265625
 31
0.0
  0
LINE
  8
0
  6
CONTINUOUS
 62
               0
  5
310
 10
375.0
 20
23.713882636542074
 30
0.0
 11
375.0
 21
23.78570556640625
 31
0.0
  0
LINE
  8
0
  6
CONTINUOUS
 62
               0
  5
311
 10
375.0
 20
24.492327919353869
 30
0.0
 11
375.0
 21
25.142822265625
 31
0.0
  0
LINE
  8
0
  6
CONTINUOUS
 62
               0
  5
312
 10
375.5
 20
23.713932786050297
 30
0.0
 11
375.5
 21
23.78570556640625
 31
0.0
  0
LINE
  8
0
  6
CONTINUOUS
 62
               0
  5
313
 10
375.5
 20
25.0
 30
0.0
 11
375.5
 21
25.142822265625
 31
0.0
  0
LINE
  8
0
  6
CONTINUOUS
 62
               0
  5
314
 10
376.0
 20
23.713982935558519
 30
0.0
 11
376.0
 21
23.78570556640625
 31
0.0
  0
LINE
  8
0
  6
CONTINUOUS
 62
               0
  5
315
 10
376.0
 20
25.0
 30
0.0
 11
376.0
 21
25.142822265625
 31
0.0
  0
LINE
  8
0
  6
CONTINUOUS
 62
               0
  5
316
 10
376.5
 20
23.714033085066738
 30
0.0
 11
376.5
 21
23.78570556640625
 31
0.0
  0
LINE
  8
0
  6
CONTINUOUS
 62
               0
  5
317
 10
376.5
 20
25.0
 30
0.0
 11
376.5
 21
25.142822265625
 31
0.0
  0
LINE
  8
0
  6
CONTINUOUS
 62
               0
  5
318
 10
377.0
 20
23.714083234574961
 30
0.0
 11
377.0
 21
23.78570556640625
 31
0.0
  0
LINE
  8
0
  6
CONTINUOUS
 62
               0
  5
319
 10
377.0
 20
24.741283188844204
 30
0.0
 11
377.0
 21
25.142822265625
 31
0.0
  0
LINE
  8
0
  6
CONTINUOUS
 62
               0
  5
31A
 10
377.5
 20
23.714133384083183
 30
0.0
 11
377.5
 21
23.78570556640625
 31
0.0
  0
LINE
  8
0
  6
CONTINUOUS
 62
               0
  5
31B
 10
377.5
 20
23.820601991195076
 30
0.0
 11
377.5
 21
25.142822265625
 31
0.0
  0
LINE
  8
0
  6
CONTINUOUS
 62
               0
  5
31C
 10
378.0
 20
23.714183533591402
 30
0.0
 11
378.0
 21
24.367706403555573
 31
0.0
  0
LINE
  8
0
  6
CONTINUOUS
 62
               0
  5
31D
 10
378.0
 20
25.0
 30
0.0
 11
378.0
 21
25.142822265625
 31
0.0
  0
LINE
  8
0
  6
CONTINUOUS
 62
               0
  5
31E
 10
378.5
 20
25.0
 30
0.0
 11
378.5
 21
25.142822265625
 31
0.0
  0
ENDBLK
  8
0
  6
BYBLOCK
 62
               0
  5
31F
  0
BLOCK
  8
0
  6
BYBLOCK
 62
               0
  5
322
  2
*X17
 70
               1
 10
0.0
 20
0.0
 30
0.0
  3
*X17
  0
LINE
  8
0
  6
CONTINUOUS
 62
               0
  5
323
 10
382.02841034985278
 20
25.0
 30
0.0
 11
382.28592070483472
 21
25.0
 31
0.0
  0
LINE
  8
0
  6
CONTINUOUS
 62
               0
  5
324
 10
382.0
 20
24.591285924870832
 30
0.0
 11
382.0
 21
24.980125207941668
 31
0.0
  0
ENDBLK
  8
0
  6
BYBLOCK
 62
               0
  5
325
  0
BLOCK
  8
0
  6
BYBLOCK
 62
               0
  5
328
  2
*X18
 70
               1
 10
0.0
 20
0.0
 30
0.0
  3
*X18
  0
LINE
  8
0
  6
CONTINUOUS
 62
               0
  5
329
 10
383.3714599609375
 20
24.0
 30
0.0
 11
383.94287109375
 21
24.0
 31
0.0
  0
LINE
  8
0
  6
CONTINUOUS
 62
               0
  5
32A
 10
383.3714599609375
 20
24.5
 30
0.0
 11
383.94287109375
 21
24.5
 31
0.0
  0
LINE
  8
0
  6
CONTINUOUS
 62
               0
  5
32B
 10
383.3714599609375
 20
25.0
 30
0.0
 11
383.94287109375
 21
25.0
 31
0.0
  0
LINE
  8
0
  6
CONTINUOUS
 62
               0
  5
32C
 10
383.3714599609375
 20
25.5
 30
0.0
 11
383.94287109375
 21
25.5
 31
0.0
  0
LINE
  8
0
  6
CONTINUOUS
 62
               0
  5
32D
 10
383.3714599609375
 20
26.0
 30
0.0
 11
383.94287109375
 21
26.0
 31
0.0
  0
LINE
  8
0
  6
CONTINUOUS
 62
               0
  5
32E
 10
382.58572387695312
 20
26.5
 30
0.0
 11
384.8714599609375
 21
26.5
 31
0.0
  0
LINE
  8
0
  6
CONTINUOUS
 62
               0
  5
32F
 10
383.3714599609375
 20
27.0
 30
0.0
 11
383.94287109375
 21
27.0
 31
0.0
  0
LINE
  8
0
  6
CONTINUOUS
 62
               0
  5
330
 10
382.5
 20
23.7142333984375
 30
0.0
 11
382.5
 21
23.78570556640625
 31
0.0
  0
LINE
  8
0
  6
CONTINUOUS
 62
               0
  5
331
 10
383.0
 20
23.7142333984375
 30
0.0
 11
383.0
 21
23.78570556640625
 31
0.0
  0
LINE
  8
0
  6
CONTINUOUS
 62
               0
  5
332
 10
383.0
 20
26.42852783203125
 30
0.0
 11
383.0
 21
26.5
 31
0.0
  0
LINE
  8
0
  6
CONTINUOUS
 62
               0
  5
333
 10
383.5
 20
23.7142333984375
 30
0.0
 11
383.5
 21
27.28570556640625
 31
0.0
  0
LINE
  8
0
  6
CONTINUOUS
 62
               0
  5
334
 10
384.0
 20
23.7142333984375
 30
0.0
 11
384.0
 21
23.78570556640625
 31
0.0
  0
LINE
  8
0
  6
CONTINUOUS
 62
               0
  5
335
 10
384.0
 20
26.42852783203125
 30
0.0
 11
384.0
 21
26.5
 31
0.0
  0
LINE
  8
0
  6
CONTINUOUS
 62
               0
  5
336
 10
384.5
 20
23.7142333984375
 30
0.0
 11
384.5
 21
23.78570556640625
 31
0.0
  0
LINE
  8
0
  6
CONTINUOUS
 62
               0
  5
337
 10
384.5
 20
26.42852783203125
 30
0.0
 11
384.5
 21
26.5
 31
0.0
  0
ENDBLK
  8
0
  6
BYBLOCK
 62
               0
  5
338
  0
BLOCK
  8
0
  6
BYBLOCK
 62
               0
  5
33C
  2
*X19
 70
               1
 10
0.0
 20
0.0
 30
0.0
  3
*X19
  0
LINE
  8
0
  6
CONTINUOUS
 62
               0
  5
33D
 10
380.51431307141792
 20
24.0
 30
0.0
 11
381.15716552734375
 21
24.0
 31
0.0
  0
LINE
  8
0
  6
CONTINUOUS
 62
               0
  5
33E
 10
379.42813665451979
 20
24.5
 30
0.0
 11
379.65267752179221
 21
24.5
 31
0.0
  0
LINE
  8
0
  6
CONTINUOUS
 62
               0
  5
33F
 10
380.5143136440484
 20
24.5
 30
0.0
 11
381.15716552734375
 21
24.5
 31
0.0
  0
LINE
  8
0
  6
CONTINUOUS
 62
               0
  5
340
 10
379.76547291952653
 20
25.0
 30
0.0
 11
380.45250514946963
 21
25.0
 31
0.0
  0
LINE
  8
0
  6
CONTINUOUS
 62
               0
  5
341
 10
380.51431421667883
 20
25.0
 30
0.0
 11
381.15716552734375
 21
25.0
 31
0.0
  0
LINE
  8
0
  6
CONTINUOUS
 62
               0
  5
342
 10
380.13826677097012
 20
25.5
 30
0.0
 11
381.15716552734375
 21
25.5
 31
0.0
  0
LINE
  8
0
  6
CONTINUOUS
 62
               0
  5
343
 10
380.38200478122695
 20
26.0
 30
0.0
 11
381.15716552734375
 21
26.0
 31
0.0
  0
LINE
  8
0
  6
CONTINUOUS
 62
               0
  5
344
 10
379.4285888671875
 20
26.5
 30
0.0
 11
381.8714599609375
 21
26.5
 31
0.0
  0
LINE
  8
0
  6
CONTINUOUS
 62
               0
  5
345
 10
379.5
 20
24.409910733656641
 30
0.0
 11
379.5
 21
24.743965727244067
 31
0.0
  0
LINE
  8
0
  6
CONTINUOUS
 62
               0
  5
346
 10
379.5
 20
26.428527988609691
 30
0.0
 11
379.5
 21
26.5
 31
0.0
  0
LINE
  8
0
  6
CONTINUOUS
 62
               0
  5
347
 10
380.0
 20
24.709452788823448
 30
0.0
 11
380.0
 21
25.287900211654208
 31
0.0
  0
LINE
  8
0
  6
CONTINUOUS
 62
               0
  5
348
 10
380.0
 20
26.428529084926435
 30
0.0
 11
380.0
 21
26.5
 31
0.0
  0
LINE
  8
0
  6
CONTINUOUS
 62
               0
  5
349
 10
380.5
 20
25.034887083952146
 30
0.0
 11
380.5
 21
26.369992237956765
 31
0.0
  0
LINE
  8
0
  6
CONTINUOUS
 62
               0
  5
34A
 10
380.5
 20
26.428530181243179
 30
0.0
 11
380.5
 21
26.5
 31
0.0
  0
LINE
  8
0
  6
CONTINUOUS
 62
               0
  5
34B
 10
381.0
 20
23.7142333984375
 30
0.0
 11
381.0
 21
26.5
 31
0.0
  0
LINE
  8
0
  6
CONTINUOUS
 62
               0
  5
34C
 10
381.5
 20
26.42852783203125
 30
0.0
 11
381.5
 21
26.5
 31
0.0
  0
ENDBLK
  8
0
  6
BYBLOCK
 62
               0
  5
34D
  0
ENDSEC
  0
SECTION
  2
ENTITIES
  0
LINE
  8
LY_1
  6
CONTINUOUS
 62
               3
  5
384
 10
111.45520716606961
 20
-24.661756509312227
 30
0.0
 11
111.45520716606961
 21
-18.643131532411275
 31
0.0
  0
LINE
  8
LY_1
  6
CONTINUOUS
 62
               3
  5
385
 10
121.15520716606989
 20
-17.592691831960565
 30
0.0
 11
121.15520716606989
 21
24.577105891741894
 31
0.0
  0
LINE
  8
LY_1
  6
CONTINUOUS
 62
               3
  5
386
 10
81.655207166069886
 20
-24.900000000000091
 30
0.0
 11
81.655207166069886
 21
24.900000000000091
 31
0.0
  0
CIRCLE
  8
LY_1
  6
CONTINUOUS
 62
               3
  5
387
 10
161.91041433213968
 20
0.0
 30
0.0
 40
24.899999999999999
  0
ARC
  8
LY_1
  6
CONTINUOUS
 62
               3
  5
388
 10
161.91041433213968
 20
0.0
 30
0.0
 40
24.57710589174193
 50
315.27031492491477
 51
180.0
  0
ARC
  8
LY_1
  6
CONTINUOUS
 62
               3
  5
389
 10
0.0
 20
0.0
 30
0.0
 40
24.899999999999999
 50
21.189013090997417
 51
158.81098690900257
  0
ARC
  8
LY_1
  6
CONTINUOUS
 62
               3
  5
38A
 10
0.0
 20
0.0
 30
0.0
 40
24.899999999999999
 50
201.18901309099741
 51
338.81098690900262
  0
LINE
  8
LY_1
  6
CONTINUOUS
 62
               3
  5
38B
 10
84.155207166069886
 20
24.899999999999977
 30
0.0
 11
84.155207166069886
 21
8.7999999999999829
 31
0.0
  0
LINE
  8
LY_1
  6
CONTINUOUS
 62
               3
  5
38C
 10
84.155207166069886
 20
-24.900000000000006
 30
0.0
 11
84.155207166069886
 21
-8.8000000000000114
 31
0.0
  0
LINE
  8
LY_1
  6
CONTINUOUS
 62
               3
  5
38D
 10
81.655207166069886
 20
-8.8000000000000114
 30
0.0
 11
84.155207166069886
 21
-8.8000000000000114
 31
0.0
  0
LINE
  8
LY_1
  6
CONTINUOUS
 62
               3
  5
38E
 10
81.655207166069886
 20
8.7999999999999829
 30
0.0
 11
84.155207166069886
 21
8.7999999999999829
 31
0.0
  0
ARC
  8
LY_1
  6
CONTINUOUS
 62
               3
  5
38F
 10
0.0
 20
0.0
 30
0.0
 40
8.8262456232814781
 50
211.567353789111
 51
328.43264621088889
  0
LINE
  8
LY_1
  6
CONTINUOUS
 62
               3
  5
390
 10
63.655207166069886
 20
-0.7706019282341003
 30
0.0
 11
63.655207166069886
 21
0.7706019282341003
 31
0.0
  0
LINE
  8
LY_1
  6
CONTINUOUS
 62
               3
  5
391
 10
63.655207166069886
 20
18.0
 30
0.0
 11
63.655207166069886
 21
17.576473873543421
 31
0.0
  0
LINE
  8
LY_1
  6
CONTINUOUS
 62
               3
  5
392
 10
63.155207166069886
 20
17.300000000000011
 30
0.0
 11
63.655207166069886
 21
18.0
 31
0.0
  0
LINE
  8
LY_1
  6
CONTINUOUS
 62
               3
  5
393
 10
71.655207166069886
 20
17.576473873543421
 30
0.0
 11
71.655207166069886
 21
15.959466427257041
 31
0.0
  0
LINE
  8
LY_1
  6
CONTINUOUS
 62
               3
  5
394
 10
63.655207151162813
 20
17.576473873543421
 30
0.0
 11
71.655207166069886
 21
17.576473873543421
 31
0.0
  0
LINE
  8
LY_1
  6
CONTINUOUS
 62
               3
  5
395
 10
72.655207166069886
 20
18.0
 30
0.0
 11
63.655207166069886
 21
18.0
 31
0.0
  0
LINE
  8
LY_1
  6
CONTINUOUS
 62
               3
  5
396
 10
63.655207166069886
 20
15.959466427257041
 30
0.0
 11
63.655207166069886
 21
15.188864473214608
 31
0.0
  0
ARC
  8
LY_1
  6
CONTINUOUS
 62
               3
  5
397
 10
64.058885436406172
 20
16.767970150400231
 30
0.0
 40
0.9036782703363766
 50
116.53252410095924
 51
243.46747674464928
  0
ARC
  8
LY_1
  6
CONTINUOUS
 62
               3
  5
398
 10
65.714056919900258
 20
13.669374508183438
 30
0.0
 40
2.5588497538304256
 50
143.5716142091392
 51
216.42838579086089
  0
LINE
  8
LY_1
  6
CONTINUOUS
 62
               3
  5
399
 10
63.655207151162813
 20
15.959466427257041
 30
0.0
 11
71.655207166069886
 21
15.959466427257041
 31
0.0
  0
LINE
  8
LY_1
  6
CONTINUOUS
 62
               3
  5
39A
 10
63.655207151162813
 20
15.188864473214608
 30
0.0
 11
71.655207151162813
 21
15.188864473214608
 31
0.0
  0
LINE
  8
LY_1
  6
CONTINUOUS
 62
               3
  5
39B
 10
71.655207166069886
 20
15.188864473214608
 30
0.0
 11
71.655207166069886
 21
12.149884543152297
 31
0.0
  0
LINE
  8
LY_1
  6
CONTINUOUS
 62
               3
  5
39C
 10
63.655207151162813
 20
12.149884543152297
 30
0.0
 11
71.655207151162813
 21
12.149884543152297
 31
0.0
  0
LINE
  8
LY_1
  6
CONTINUOUS
 62
               3
  5
39D
 10
71.655207166069886
 20
10.969253853650599
 30
0.0
 11
71.655207166069886
 21
6.8748472699448655
 31
0.0
  0
LINE
  8
LY_1
  6
CONTINUOUS
 62
               3
  5
39E
 10
71.655207166069886
 20
5.4265893303910957
 30
0.0
 11
71.655207166069886
 21
0.7706019540424052
 31
0.0
  0
LINE
  8
LY_1
  6
CONTINUOUS
 62
               3
  5
39F
 10
63.655207166069886
 20
6.8748472699448655
 30
0.0
 11
63.655207166069886
 21
5.4265893303910957
 31
0.0
  0
LINE
  8
LY_1
  6
CONTINUOUS
 62
               3
  5
3A0
 10
63.655207166069886
 20
12.149884543152297
 30
0.0
 11
63.655207166069886
 21
10.969253853650599
 31
0.0
  0
ARC
  8
LY_1
  6
CONTINUOUS
 62
               3
  5
3A1
 10
68.824761778249467
 20
3.0985956422167362
 30
0.0
 40
5.6695546121795903
 50
155.75664214619025
 51
204.24335785380975
  0
ARC
  8
LY_1
  6
CONTINUOUS
 62
               3
  5
3A2
 10
67.596248484243006
 20
8.9220505617977608
 30
0.0
 40
4.4410413181732142
 50
152.55004291801055
 51
207.4499570819896
  0
LINE
  8
LY_1
  6
CONTINUOUS
 62
               3
  5
3A3
 10
63.655207151162813
 20
10.969253853650599
 30
0.0
 11
71.655207151162813
 21
10.969253853650599
 31
0.0
  0
LINE
  8
LY_1
  6
CONTINUOUS
 62
               3
  5
3A4
 10
63.655207151162813
 20
6.8748472699448655
 30
0.0
 11
71.655207151162813
 21
6.8748472699448655
 31
0.0
  0
LINE
  8
LY_1
  6
CONTINUOUS
 62
               3
  5
3A5
 10
63.655207151162813
 20
5.4265893303910957
 30
0.0
 11
71.655207151162813
 21
5.4265893303910957
 31
0.0
  0
LINE
  8
LY_1
  6
CONTINUOUS
 62
               3
  5
3A6
 10
63.655207151162813
 20
0.7706019540424052
 30
0.0
 11
71.655207151162813
 21
0.7706019540424052
 31
0.0
  0
LINE
  8
LY_1
  6
CONTINUOUS
 62
               3
  5
3A7
 10
63.655207166069886
 20
-12.149884543152297
 30
0.0
 11
63.655207166069886
 21
-10.969253853650628
 31
0.0
  0
LINE
  8
LY_1
  6
CONTINUOUS
 62
               3
  5
3A8
 10
63.655207166069886
 20
-6.8748472699448655
 30
0.0
 11
63.655207166069886
 21
-5.4265893303910957
 31
0.0
  0
ARC
  8
LY_1
  6
CONTINUOUS
 62
               3
  5
3A9
 10
64.058885436406172
 20
-16.767970150400231
 30
0.0
 40
0.9036782703363766
 50
116.53252325535071
 51
243.46747589904075
  0
ARC
  8
LY_1
  6
CONTINUOUS
 62
               3
  5
3AA
 10
68.824761778249467
 20
-3.0985956422167362
 30
0.0
 40
5.6695546121795903
 50
155.75664214619025
 51
204.24335785380975
  0
ARC
  8
LY_1
  6
CONTINUOUS
 62
               3
  5
3AB
 10
67.596248484243006
 20
-8.9220505617977608
 30
0.0
 40
4.4410413181732142
 50
152.5500429180104
 51
207.44995708198942
  0
ARC
  8
LY_1
  6
CONTINUOUS
 62
               3
  5
3AC
 10
65.714056919900258
 20
-13.669374508183438
 30
0.0
 40
2.5588497538304256
 50
143.57161420913909
 51
216.4283857908608
  0
LINE
  8
LY_1
  6
CONTINUOUS
 62
               3
  5
3AD
 10
63.655207166069886
 20
-15.959466427257041
 30
0.0
 11
63.655207166069886
 21
-15.188864473214608
 31
0.0
  0
LINE
  8
LY_1
  6
CONTINUOUS
 62
               3
  5
3AE
 10
63.655207166069886
 20
-18.0
 30
0.0
 11
63.655207166069886
 21
-17.576473873543392
 31
0.0
  0
LINE
  8
LY_1
  6
CONTINUOUS
 62
               3
  5
3AF
 10
71.655207166069886
 20
-5.4265893303910957
 30
0.0
 11
71.655207166069886
 21
-0.7706019540424052
 31
0.0
  0
LINE
  8
LY_1
  6
CONTINUOUS
 62
               3
  5
3B0
 10
71.655207166069886
 20
-10.969253853650628
 30
0.0
 11
71.655207166069886
 21
-6.8748472699448655
 31
0.0
  0
LINE
  8
LY_1
  6
CONTINUOUS
 62
               3
  5
3B1
 10
71.655207166069886
 20
-17.576473873543392
 30
0.0
 11
71.655207166069886
 21
-15.959466427257041
 31
0.0
  0
LINE
  8
LY_1
  6
CONTINUOUS
 62
               3
  5
3B2
 10
71.655207166069886
 20
-15.188864473214608
 30
0.0
 11
71.655207166069886
 21
-12.149884543152297
 31
0.0
  0
LINE
  8
LY_1
  6
CONTINUOUS
 62
               3
  5
3B3
 10
63.655207151162813
 20
-17.576473873543392
 30
0.0
 11
71.655207166069886
 21
-17.576473873543392
 31
0.0
  0
LINE
  8
LY_1
  6
CONTINUOUS
 62
               3
  5
3B4
 10
63.655207151162813
 20
-15.959466427257041
 30
0.0
 11
71.655207166069886
 21
-15.959466427257041
 31
0.0
  0
LINE
  8
LY_1
  6
CONTINUOUS
 62
               3
  5
3B5
 10
63.655207151162813
 20
-15.188864473214608
 30
0.0
 11
71.655207151162813
 21
-15.188864473214608
 31
0.0
  0
LINE
  8
LY_1
  6
CONTINUOUS
 62
               3
  5
3B6
 10
63.655207151162813
 20
-12.149884543152297
 30
0.0
 11
71.655207151162813
 21
-12.149884543152297
 31
0.0
  0
LINE
  8
LY_1
  6
CONTINUOUS
 62
               3
  5
3B7
 10
63.655207151162813
 20
-10.969253853650628
 30
0.0
 11
71.655207151162813
 21
-10.969253853650628
 31
0.0
  0
LINE
  8
LY_1
  6
CONTINUOUS
 62
               3
  5
3B8
 10
63.655207151162813
 20
-6.8748472699448655
 30
0.0
 11
71.655207151162813
 21
-6.8748472699448655
 31
0.0
  0
LINE
  8
LY_1
  6
CONTINUOUS
 62
               3
  5
3B9
 10
63.655207151162813
 20
-5.4265893303910957
 30
0.0
 11
71.655207151162813
 21
-5.4265893303910957
 31
0.0
  0
LINE
  8
LY_1
  6
CONTINUOUS
 62
               3
  5
3BA
 10
63.655207151162813
 20
-0.7706019540424052
 30
0.0
 11
71.655207151162813
 21
-0.7706019540424052
 31
0.0
  0
CIRCLE
  8
LY_1
  6
CONTINUOUS
 62
               3
  5
3BB
 10
0.0
 20
0.0
 30
0.0
 40
12.800000000000001
  0
CIRCLE
  8
LY_1
  6
CONTINUOUS
 62
               3
  5
3BC
 10
0.0
 20
0.0
 30
0.0
 40
15.5
  0
ARC
  8
LY_1
  6
CONTINUOUS
 62
               3
  5
3BD
 10
7.6099481889959861
 20
20.908160812486472
 30
0.0
 40
5.0
 50
221.78500810961449
 51
278.21499189038519
  0
ARC
  8
LY_1
  6
CONTINUOUS
 62
               3
  5
3BE
 10
14.302024315525387
 20
17.044488859397262
 30
0.0
 40
5.0
 50
201.78500810961449
 51
258.21499189038525
  0
ARC
  8
LY_1
  6
CONTINUOUS
 62
               3
  5
3BF
 10
19.269065234203708
 20
11.125000000000028
 30
0.0
 40
5.0
 50
181.78500810961447
 51
238.21499189038519
  0
ARC
  8
LY_1
  6
CONTINUOUS
 62
               3
  5
3C0
 10
21.9119725045216
 20
3.8636719530892094
 30
0.0
 40
5.0
 50
161.78500810961447
 51
218.21499189038519
  0
ARC
  8
LY_1
  6
CONTINUOUS
 62
               3
  5
3C1
 10
21.9119725045216
 20
-3.863671953089181
 30
0.0
 40
5.0
 50
141.78500810961447
 51
198.21499189038519
  0
ARC
  8
LY_1
  6
CONTINUOUS
 62
               3
  5
3C2
 10
19.269065234203708
 20
-11.124999999999972
 30
0.0
 40
5.0
 50
121.78500810961447
 51
178.21499189038519
  0
ARC
  8
LY_1
  6
CONTINUOUS
 62
               3
  5
3C3
 10
14.302024315525387
 20
-17.044488859397262
 30
0.0
 40
5.0
 50
101.78500810961448
 51
158.21499189038519
  0
ARC
  8
LY_1
  6
CONTINUOUS
 62
               3
  5
3C4
 10
7.6099481889959861
 20
-20.908160812486443
 30
0.0
 40
5.0
 50
81.785008109614481
 51
138.21499189038522
  0
ARC
  8
LY_1
  6
CONTINUOUS
 62
               3
  5
3C5
 10
0.0
 20
-22.250000000000028
 30
0.0
 40
5.0
 50
61.785008109614473
 51
118.21499189038518
  0
ARC
  8
LY_1
  6
CONTINUOUS
 62
               3
  5
3C6
 10
-7.6099481889962135
 20
-20.908160812486472
 30
0.0
 40
5.0
 50
41.785008109614481
 51
98.214991890385207
  0
ARC
  8
LY_1
  6
CONTINUOUS
 62
               3
  5
3C7
 10
-14.302024315525614
 20
-17.044488859397262
 30
0.0
 40
5.0
 50
21.785008109614481
 51
78.214991890385193
  0
ARC
  8
LY_1
  6
CONTINUOUS
 62
               3
  5
3C8
 10
-19.269065234203936
 20
-11.125000000000028
 30
0.0
 40
5.0
 50
1.7850081096144808
 51
58.2149918903852
  0
ARC
  8
LY_1
  6
CONTINUOUS
 62
               3
  5
3C9
 10
-21.911972504521827
 20
-3.8636719530892094
 30
0.0
 40
5.0
 50
341.78500810961452
 51
38.214991890385221
  0
ARC
  8
LY_1
  6
CONTINUOUS
 62
               3
  5
3CA
 10
-21.911972504521827
 20
3.8636719530892094
 30
0.0
 40
5.0
 50
321.78500810961452
 51
18.214991890385242
  0
ARC
  8
LY_1
  6
CONTINUOUS
 62
               3
  5
3CB
 10
-19.269065234203936
 20
11.125
 30
0.0
 40
5.0
 50
301.78500810961452
 51
358.21499189038525
  0
ARC
  8
LY_1
  6
CONTINUOUS
 62
               3
  5
3CC
 10
-14.302024315525614
 20
17.044488859397262
 30
0.0
 40
5.0
 50
281.78500810961458
 51
338.21499189038531
  0
ARC
  8
LY_1
  6
CONTINUOUS
 62
               3
  5
3CD
 10
-7.6099481889962135
 20
20.908160812486415
 30
0.0
 40
5.0
 50
261.78500810961458
 51
318.21499189038531
  0
ARC
  8
LY_1
  6
CONTINUOUS
 62
               3
  5
3CE
 10
0.0
 20
22.25
 30
0.0
 40
5.0
 50
241.78500810961461
 51
298.21499189038531
  0
CIRCLE
  8
LY_1
  6
CONTINUOUS
 62
               3
  5
3CF
 10
0.0
 20
0.0
 30
0.0
 40
17.25
  0
CIRCLE
  8
LY_1
  6
CONTINUOUS
 62
               3
  5
3D0
 10
0.0
 20
0.0
 30
0.0
 40
18.0
  0
CIRCLE
  8
LY_1
  6
CONTINUOUS
 62
               3
  5
3D1
 10
0.0
 20
0.0
 30
0.0
 40
20.0
  0
LINE
  8
LY_1
  6
DASHED
 62
              80
  5
3D3
 10
111.45520716606984
 20
-18.643131532411275
 30
0.0
 11
111.45520716606984
 21
-3.5087275324640927
 31
0.0
  0
LINE
  8
LY_1
  6
DASHED
 62
              80
  5
3D4
 10
111.45520716606984
 20
-3.5087275324640927
 30
0.0
 11
121.15520716606989
 21
-3.3394134026603695
 31
0.0
  0
LINE
  8
LY_1
  6
CONTINUOUS
 62
               3
  5
3D5
 10
76.655207166069886
 20
-20.0
 30
0.0
 11
76.655207166069886
 21
20.0
 31
0.0
  0
LINE
  8
LY_1
  6
CONTINUOUS
 62
               3
  5
3D6
 10
72.655207166069886
 20
0.0
 30
0.0
 11
72.655207166069886
 21
-20.0
 31
0.0
  0
LINE
  8
LY_1
  6
CONTINUOUS
 62
               3
  5
3D7
 10
63.155207166069886
 20
17.300000000000011
 30
0.0
 11
63.655207166069886
 21
18.0
 31
0.0
  0
LINE
  8
LY_1
  6
CONTINUOUS
 62
               3
  5
3D8
 10
72.655207166069886
 20
18.0
 30
0.0
 11
63.655207166069886
 21
18.0
 31
0.0
  0
LINE
  8
LY_1
  6
CONTINUOUS
 62
               3
  5
3D9
 10
72.655207166069886
 20
0.0
 30
0.0
 11
72.655207166069886
 21
20.0
 31
0.0
  0
LINE
  8
LY_1
  6
CONTINUOUS
 62
               3
  5
3DA
 10
74.655207166069886
 20
20.0
 30
0.0
 11
74.655207166069886
 21
-20.0
 31
0.0
  0
LINE
  8
LY_1
  6
CONTINUOUS
 62
               3
  5
3DB
 10
81.655207166069886
 20
20.0
 30
0.0
 11
72.655207166069886
 21
20.0
 31
0.0
  0
LINE
  8
LY_1
  6
CONTINUOUS
 62
               3
  5
3DC
 10
81.655207166069886
 20
-20.0
 30
0.0
 11
72.655207166069886
 21
-20.0
 31
0.0
  0
LINE
  8
LY_1
  6
CONTINUOUS
 62
               3
  5
3DD
 10
63.155207166069886
 20
-17.300000000000011
 30
0.0
 11
63.655207166069886
 21
-18.0
 31
0.0
  0
LINE
  8
LY_1
  6
CONTINUOUS
 62
               3
  5
3DE
 10
60.655207166069886
 20
-15.5
 30
0.0
 11
63.155207166069886
 21
-17.300000000000011
 31
0.0
  0
LINE
  8
LY_1
  6
CONTINUOUS
 62
               3
  5
3DF
 10
63.155207166069886
 20
-17.300000000000011
 30
0.0
 11
63.655207166069886
 21
-18.0
 31
0.0
  0
LINE
  8
LY_1
  6
CONTINUOUS
 62
               3
  5
3E0
 10
72.655207166069886
 20
-18.0
 30
0.0
 11
63.655207166069886
 21
-18.0
 31
0.0
  0
LINE
  8
LY_1
  6
CONTINUOUS
 62
               3
  5
3E1
 10
72.655207166069886
 20
-18.0
 30
0.0
 11
63.655207166069886
 21
-18.0
 31
0.0
  0
LINE
  8
LY_1
  6
CONTINUOUS
 62
               3
  5
3E2
 10
60.655207166069886
 20
15.5
 30
0.0
 11
63.155207166069886
 21
17.300000000000011
 31
0.0
  0
LINE
  8
LY_1
  6
CONTINUOUS
 62
               3
  5
3E3
 10
60.655207166069886
 20
-15.5
 30
0.0
 11
60.655207166069886
 21
15.5
 31
0.0
  0
LINE
  8
LY_1
  6
CONTINUOUS
 62
               3
  5
3E4
 10
63.155207166069886
 20
17.300000000000011
 30
0.0
 11
63.155207166069886
 21
-17.300000000000011
 31
0.0
  0
ARC
  8
LY_1
  6
CONTINUOUS
 62
               3
  5
3E5
 10
0.0
 20
0.0
 30
0.0
 40
23.244604635745894
 50
337.22044417878072
 51
22.779555821219148
  0
LINE
  8
LY_1
  6
CONTINUOUS
 62
               3
  5
3E6
 10
21.431557215287285
 20
9.0
 30
0.0
 11
23.216588896735175
 21
9.0
 31
0.0
  0
LINE
  8
LY_1
  6
CONTINUOUS
 62
               3
  5
3E7
 10
60.655207166069886
 20
12.130565227389809
 30
0.0
 11
60.363235763888042
 21
11.95179078146225
 31
0.0
  0
LINE
  8
LY_1
  6
CONTINUOUS
 62
               3
  5
3E8
 10
60.00472450303414
 20
11.374358333490591
 30
0.0
 11
60.00472450303414
 21
5.5046810509986699
 31
0.0
  0
LINE
  8
LY_1
  6
CONTINUOUS
 62
               3
  5
3E9
 10
60.655207166069886
 20
-12.130565227389809
 30
0.0
 11
60.363235763888042
 21
-11.95179078146225
 31
0.0
  0
LINE
  8
LY_1
  6
CONTINUOUS
 62
               3
  5
3EA
 10
60.363235763888042
 20
11.95179078146225
 30
0.0
 11
60.363235763888042
 21
-11.95179078146225
 31
0.0
  0
LINE
  8
LY_1
  6
CONTINUOUS
 62
               3
  5
3EB
 10
60.00472450303414
 20
-11.374358333490591
 30
0.0
 11
60.00472450303414
 21
-5.5046810509986699
 31
0.0
  0
LINE
  8
LY_1
  6
CONTINUOUS
 62
               3
  5
3EC
 10
59.340092674332027
 20
0.9194864020057594
 30
0.0
 11
56.874331460081976
 21
0.9194864020057594
 31
0.0
  0
LINE
  8
LY_1
  6
CONTINUOUS
 62
               3
  5
3ED
 10
59.340092674332027
 20
-0.9194864020057594
 30
0.0
 11
56.874331460081976
 21
-0.9194864020057594
 31
0.0
  0
LINE
  8
LY_1
  6
CONTINUOUS
 62
               3
  5
3EE
 10
59.340092674332027
 20
0.9194864020057594
 30
0.0
 11
59.340092674332027
 21
-0.9194864020057594
 31
0.0
  0
ARC
  8
LY_1
  6
CONTINUOUS
 62
               3
  5
3EF
 10
78.968990335262333
 20
0.0
 30
0.0
 40
22.113783169192395
 50
147.28450093325785
 51
149.04557729948988
  0
ARC
  8
LY_1
  6
CONTINUOUS
 62
               3
  5
3F0
 10
78.968990335262333
 20
0.0
 30
0.0
 40
22.113783169192395
 50
182.33780231637081
 51
187.54081141685302
  0
ARC
  8
LY_1
  6
CONTINUOUS
 62
               3
  5
3F1
 10
78.968990335262333
 20
0.0
 30
0.0
 40
22.113783169192395
 50
182.38303332831401
 51
187.54081141685302
  0
ARC
  8
LY_1
  6
CONTINUOUS
 62
               3
  5
3F2
 10
78.968990335262333
 20
0.0
 30
0.0
 40
20.413783169192396
 50
193.22364594567497
 51
201.72158610751495
  0
ARC
  8
LY_1
  6
CONTINUOUS
 62
               3
  5
3F3
 10
78.968990335262333
 20
0.0
 30
0.0
 40
22.113783169192395
 50
210.95442270050998
 51
212.71549906674201
  0
ARC
  8
LY_1
  6
CONTINUOUS
 62
               3
  5
3F4
 10
78.968990335262333
 20
0.0
 30
0.0
 40
20.413783169192396
 50
158.27841389248505
 51
166.77369661311937
  0
ARC
  8
LY_1
  6
CONTINUOUS
 62
               3
  5
3F5
 10
78.968990335262333
 20
0.0
 30
0.0
 40
22.113783169192395
 50
172.28411917361245
 51
177.61696667168613
  0
POLYLINE
  8
LY_1
  6
CONTINUOUS
 62
               3
  5
3F6
 66
               1
 10
0.0
 20
0.0
 30
0.0
  0
VERTEX
  8
LY_1
  6
CONTINUOUS
 62
               3
  5
971
 10
60.004800078764077
 20
5.5049483525338001
 30
0.0
  0
VERTEX
  8
LY_1
  6
CONTINUOUS
 62
               3
  5
972
 10
59.980530979213519
 20
5.4822509967862496
 30
0.0
  0
VERTEX
  8
LY_1
  6
CONTINUOUS
 62
               3
  5
973
 10
59.956248235574016
 20
5.4595678258074978
 30
0.0
  0
VERTEX
  8
LY_1
  6
CONTINUOUS
 62
               3
  5
974
 10
59.931952143588411
 20
5.4368984838969077
 30
0.0
  0
VERTEX
  8
LY_1
  6
CONTINUOUS
 62
               3
  5
975
 10
59.90764299899957
 20
5.4142426153538405
 30
0.0
  0
VERTEX
  8
LY_1
  6
CONTINUOUS
 62
               3
  5
976
 10
59.883321097550343
 20
5.3915998644776577
 30
0.0
  0
VERTEX
  8
LY_1
  6
CONTINUOUS
 62
               3
  5
977
 10
59.858986734983588
 20
5.3689698755677213
 30
0.0
  0
VERTEX
  8
LY_1
  6
CONTINUOUS
 62
               3
  5
978
 10
59.834640207042163
 20
5.3463522929233926
 30
0.0
  0
VERTEX
  8
LY_1
  6
CONTINUOUS
 62
               3
  5
979
 10
59.810281809468933
 20
5.3237467608440348
 30
0.0
  0
VERTEX
  8
LY_1
  6
CONTINUOUS
 62
               3
  5
97A
 10
59.78591183800674
 20
5.301152923629008
 30
0.0
  0
VERTEX
  8
LY_1
  6
CONTINUOUS
 62
               3
  5
97B
 10
59.76153058839845
 20
5.2785704255776738
 30
0.0
  0
VERTEX
  8
LY_1
  6
CONTINUOUS
 62
               3
  5
97C
 10
59.737138356386914
 20
5.255998910989395
 30
0.0
  0
VERTEX
  8
LY_1
  6
CONTINUOUS
 62
               3
  5
97D
 10
59.712735437714997
 20
5.233438024163533
 30
0.0
  0
VERTEX
  8
LY_1
  6
CONTINUOUS
 62
               3
  5
97E
 10
59.688322128125549
 20
5.2108874093994482
 30
0.0
  0
VERTEX
  8
LY_1
  6
CONTINUOUS
 62
               3
  5
97F
 10
59.663898723361427
 20
5.1883467109965045
 30
0.0
  0
VERTEX
  8
LY_1
  6
CONTINUOUS
 62
               3
  5
980
 10
59.639465519165491
 20
5.1658155732540623
 30
0.0
  0
VERTEX
  8
LY_1
  6
CONTINUOUS
 62
               3
  5
981
 10
59.615022811280596
 20
5.1432936404714837
 30
0.0
  0
VERTEX
  8
LY_1
  6
CONTINUOUS
 62
               3
  5
982
 10
59.489414938657177
 20
5.0278423715211185
 30
0.0
  0
VERTEX
  8
LY_1
  6
CONTINUOUS
 62
               3
  5
983
 10
59.363531439121694
 20
4.9126696622059089
 30
0.0
  0
VERTEX
  8
LY_1
  6
CONTINUOUS
 62
               3
  5
984
 10
59.237339265907316
 20
4.7978209414970756
 30
0.0
  0
VERTEX
  8
LY_1
  6
CONTINUOUS
 62
               3
  5
985
 10
59.110805372247214
 20
4.6833416383658406
 30
0.0
  0
VERTEX
  8
LY_1
  6
CONTINUOUS
 62
               3
  5
986
 10
58.983896711374562
 20
4.5692771817834235
 30
0.0
  0
VERTEX
  8
LY_1
  6
CONTINUOUS
 62
               3
  5
987
 10
58.856580236522532
 20
4.4556730007210446
 30
0.0
  0
VERTEX
  8
LY_1
  6
CONTINUOUS
 62
               3
  5
988
 10
58.728822900924285
 20
4.3425745241499261
 30
0.0
  0
VERTEX
  8
LY_1
  6
CONTINUOUS
 62
               3
  5
989
 10
58.600591657813005
 20
4.2300271810412884
 30
0.0
  0
VERTEX
  8
LY_1
  6
CONTINUOUS
 62
               3
  5
98A
 10
58.471853460421855
 20
4.1180764003663519
 30
0.0
  0
VERTEX
  8
LY_1
  6
CONTINUOUS
 62
               3
  5
98B
 10
58.342575261984003
 20
4.0067676110963371
 30
0.0
  0
VERTEX
  8
LY_1
  6
CONTINUOUS
 62
               3
  5
98C
 10
58.212724015732633
 20
3.896146242202466
 30
0.0
  0
VERTEX
  8
LY_1
  6
CONTINUOUS
 62
               3
  5
98D
 10
58.0822666749009
 20
3.7862577226559582
 30
0.0
  0
VERTEX
  8
LY_1
  6
CONTINUOUS
 62
               3
  5
98E
 10
57.951170192721982
 20
3.6771474814280349
 30
0.0
  0
VERTEX
  8
LY_1
  6
CONTINUOUS
 62
               3
  5
98F
 10
57.819401522429054
 20
3.5688609474899176
 30
0.0
  0
VERTEX
  8
LY_1
  6
CONTINUOUS
 62
               3
  5
990
 10
57.686927617255286
 20
3.4614435498128255
 30
0.0
  0
VERTEX
  8
LY_1
  6
CONTINUOUS
 62
               3
  5
991
 10
57.55371543043384
 20
3.3549407173679811
 30
0.0
  0
VERTEX
  8
LY_1
  6
CONTINUOUS
 62
               3
  5
992
 10
57.522841312868529
 20
3.3304779982604864
 30
0.0
  0
VERTEX
  8
LY_1
  6
CONTINUOUS
 62
               3
  5
993
 10
57.491926982756475
 20
3.3060655048905319
 30
0.0
  0
VERTEX
  8
LY_1
  6
CONTINUOUS
 62
               3
  5
994
 10
57.460973370056529
 20
3.2817022570940608
 30
0.0
  0
VERTEX
  8
LY_1
  6
CONTINUOUS
 62
               3
  5
995
 10
57.429981404727535
 20
3.2573872747070149
 30
0.0
  0
VERTEX
  8
LY_1
  6
CONTINUOUS
 62
               3
  5
996
 10
57.398952016728352
 20
3.2331195775653376
 30
0.0
  0
VERTEX
  8
LY_1
  6
CONTINUOUS
 62
               3
  5
997
 10
57.36788613601783
 20
3.2088981855049701
 30
0.0
  0
VERTEX
  8
LY_1
  6
CONTINUOUS
 62
               3
  5
998
 10
57.336784692554808
 20
3.1847221183618557
 30
0.0
  0
VERTEX
  8
LY_1
  6
CONTINUOUS
 62
               3
  5
999
 10
57.30564861629815
 20
3.160590395971937
 30
0.0
  0
VERTEX
  8
LY_1
  6
CONTINUOUS
 62
               3
  5
99A
 10
57.274478837206701
 20
3.1365020381711557
 30
0.0
  0
VERTEX
  8
LY_1
  6
CONTINUOUS
 62
               3
  5
99B
 10
57.243276285239311
 20
3.1124560647954547
 30
0.0
  0
VERTEX
  8
LY_1
  6
CONTINUOUS
 62
               3
  5
99C
 10
57.212041890354833
 20
3.0884514956807765
 30
0.0
  0
VERTEX
  8
LY_1
  6
CONTINUOUS
 62
               3
  5
99D
 10
57.180776582512117
 20
3.0644873506630632
 30
0.0
  0
VERTEX
  8
LY_1
  6
CONTINUOUS
 62
               3
  5
99E
 10
57.149481291670014
 20
3.0405626495782574
 30
0.0
  0
VERTEX
  8
LY_1
  6
CONTINUOUS
 62
               3
  5
99F
 10
57.118156947787369
 20
3.016676412262302
 30
0.0
  0
VERTEX
  8
LY_1
  6
CONTINUOUS
 62
               3
  5
9A0
 10
57.086804480823041
 20
2.9928276585511391
 30
0.0
  0
VERTEX
  8
LY_1
  6
CONTINUOUS
 62
               3
  5
9A1
 10
57.05542482073588
 20
2.9690154082807112
 30
0.0
  0
SEQEND
  8
LY_1
  6
CONTINUOUS
 62
               3
  5
9A2
  0
POLYLINE
  8
LY_1
  6
CONTINUOUS
 62
               3
  5
3F7
 66
               1
 10
0.0
 20
0.0
 30
0.0
  0
VERTEX
  8
LY_1
  6
CONTINUOUS
 62
               3
  5
9A3
 10
60.004800078764077
 20
-5.5049483525338001
 30
0.0
  0
VERTEX
  8
LY_1
  6
CONTINUOUS
 62
               3
  5
9A4
 10
59.980530979213519
 20
-5.4822509967862496
 30
0.0
  0
VERTEX
  8
LY_1
  6
CONTINUOUS
 62
               3
  5
9A5
 10
59.956248235574016
 20
-5.4595678258074978
 30
0.0
  0
VERTEX
  8
LY_1
  6
CONTINUOUS
 62
               3
  5
9A6
 10
59.931952143588411
 20
-5.4368984838969077
 30
0.0
  0
VERTEX
  8
LY_1
  6
CONTINUOUS
 62
               3
  5
9A7
 10
59.90764299899957
 20
-5.4142426153538405
 30
0.0
  0
VERTEX
  8
LY_1
  6
CONTINUOUS
 62
               3
  5
9A8
 10
59.883321097550343
 20
-5.3915998644776577
 30
0.0
  0
VERTEX
  8
LY_1
  6
CONTINUOUS
 62
               3
  5
9A9
 10
59.858986734983588
 20
-5.3689698755677213
 30
0.0
  0
VERTEX
  8
LY_1
  6
CONTINUOUS
 62
               3
  5
9AA
 10
59.834640207042163
 20
-5.3463522929233926
 30
0.0
  0
VERTEX
  8
LY_1
  6
CONTINUOUS
 62
               3
  5
9AB
 10
59.810281809468933
 20
-5.3237467608440348
 30
0.0
  0
VERTEX
  8
LY_1
  6
CONTINUOUS
 62
               3
  5
9AC
 10
59.78591183800674
 20
-5.301152923629008
 30
0.0
  0
VERTEX
  8
LY_1
  6
CONTINUOUS
 62
               3
  5
9AD
 10
59.76153058839845
 20
-5.2785704255776738
 30
0.0
  0
VERTEX
  8
LY_1
  6
CONTINUOUS
 62
               3
  5
9AE
 10
59.737138356386914
 20
-5.255998910989395
 30
0.0
  0
VERTEX
  8
LY_1
  6
CONTINUOUS
 62
               3
  5
9AF
 10
59.712735437714997
 20
-5.233438024163533
 30
0.0
  0
VERTEX
  8
LY_1
  6
CONTINUOUS
 62
               3
  5
9B0
 10
59.688322128125549
 20
-5.2108874093994482
 30
0.0
  0
VERTEX
  8
LY_1
  6
CONTINUOUS
 62
               3
  5
9B1
 10
59.663898723361427
 20
-5.1883467109965045
 30
0.0
  0
VERTEX
  8
LY_1
  6
CONTINUOUS
 62
               3
  5
9B2
 10
59.639465519165491
 20
-5.1658155732540623
 30
0.0
  0
VERTEX
  8
LY_1
  6
CONTINUOUS
 62
               3
  5
9B3
 10
59.615022811280596
 20
-5.1432936404714837
 30
0.0
  0
VERTEX
  8
LY_1
  6
CONTINUOUS
 62
               3
  5
9B4
 10
59.489414938657177
 20
-5.0278423715211185
 30
0.0
  0
VERTEX
  8
LY_1
  6
CONTINUOUS
 62
               3
  5
9B5
 10
59.363531439121694
 20
-4.9126696622059089
 30
0.0
  0
VERTEX
  8
LY_1
  6
CONTINUOUS
 62
               3
  5
9B6
 10
59.237339265907316
 20
-4.7978209414970756
 30
0.0
  0
VERTEX
  8
LY_1
  6
CONTINUOUS
 62
               3
  5
9B7
 10
59.110805372247214
 20
-4.6833416383658406
 30
0.0
  0
VERTEX
  8
LY_1
  6
CONTINUOUS
 62
               3
  5
9B8
 10
58.983896711374562
 20
-4.5692771817834235
 30
0.0
  0
VERTEX
  8
LY_1
  6
CONTINUOUS
 62
               3
  5
9B9
 10
58.856580236522532
 20
-4.4556730007210446
 30
0.0
  0
VERTEX
  8
LY_1
  6
CONTINUOUS
 62
               3
  5
9BA
 10
58.728822900924285
 20
-4.3425745241499261
 30
0.0
  0
VERTEX
  8
LY_1
  6
CONTINUOUS
 62
               3
  5
9BB
 10
58.600591657813005
 20
-4.2300271810412884
 30
0.0
  0
VERTEX
  8
LY_1
  6
CONTINUOUS
 62
               3
  5
9BC
 10
58.471853460421855
 20
-4.1180764003663519
 30
0.0
  0
VERTEX
  8
LY_1
  6
CONTINUOUS
 62
               3
  5
9BD
 10
58.342575261984003
 20
-4.0067676110963371
 30
0.0
  0
VERTEX
  8
LY_1
  6
CONTINUOUS
 62
               3
  5
9BE
 10
58.212724015732633
 20
-3.896146242202466
 30
0.0
  0
VERTEX
  8
LY_1
  6
CONTINUOUS
 62
               3
  5
9BF
 10
58.0822666749009
 20
-3.7862577226559582
 30
0.0
  0
VERTEX
  8
LY_1
  6
CONTINUOUS
 62
               3
  5
9C0
 10
57.951170192721982
 20
-3.6771474814280349
 30
0.0
  0
VERTEX
  8
LY_1
  6
CONTINUOUS
 62
               3
  5
9C1
 10
57.819401522429054
 20
-3.5688609474899176
 30
0.0
  0
VERTEX
  8
LY_1
  6
CONTINUOUS
 62
               3
  5
9C2
 10
57.686927617255286
 20
-3.4614435498128255
 30
0.0
  0
VERTEX
  8
LY_1
  6
CONTINUOUS
 62
               3
  5
9C3
 10
57.55371543043384
 20
-3.3549407173679811
 30
0.0
  0
VERTEX
  8
LY_1
  6
CONTINUOUS
 62
               3
  5
9C4
 10
57.522841312868529
 20
-3.3304779982604864
 30
0.0
  0
VERTEX
  8
LY_1
  6
CONTINUOUS
 62
               3
  5
9C5
 10
57.491926982756475
 20
-3.3060655048905319
 30
0.0
  0
VERTEX
  8
LY_1
  6
CONTINUOUS
 62
               3
  5
9C6
 10
57.460973370056529
 20
-3.2817022570940608
 30
0.0
  0
VERTEX
  8
LY_1
  6
CONTINUOUS
 62
               3
  5
9C7
 10
57.429981404727535
 20
-3.2573872747070149
 30
0.0
  0
VERTEX
  8
LY_1
  6
CONTINUOUS
 62
               3
  5
9C8
 10
57.398952016728352
 20
-3.2331195775653376
 30
0.0
  0
VERTEX
  8
LY_1
  6
CONTINUOUS
 62
               3
  5
9C9
 10
57.36788613601783
 20
-3.2088981855049701
 30
0.0
  0
VERTEX
  8
LY_1
  6
CONTINUOUS
 62
               3
  5
9CA
 10
57.336784692554808
 20
-3.1847221183618557
 30
0.0
  0
VERTEX
  8
LY_1
  6
CONTINUOUS
 62
               3
  5
9CB
 10
57.30564861629815
 20
-3.160590395971937
 30
0.0
  0
VERTEX
  8
LY_1
  6
CONTINUOUS
 62
               3
  5
9CC
 10
57.274478837206701
 20
-3.1365020381711557
 30
0.0
  0
VERTEX
  8
LY_1
  6
CONTINUOUS
 62
               3
  5
9CD
 10
57.243276285239311
 20
-3.1124560647954547
 30
0.0
  0
VERTEX
  8
LY_1
  6
CONTINUOUS
 62
               3
  5
9CE
 10
57.212041890354833
 20
-3.0884514956807765
 30
0.0
  0
VERTEX
  8
LY_1
  6
CONTINUOUS
 62
               3
  5
9CF
 10
57.180776582512117
 20
-3.0644873506630632
 30
0.0
  0
VERTEX
  8
LY_1
  6
CONTINUOUS
 62
               3
  5
9D0
 10
57.149481291670014
 20
-3.0405626495782574
 30
0.0
  0
VERTEX
  8
LY_1
  6
CONTINUOUS
 62
               3
  5
9D1
 10
57.118156947787369
 20
-3.016676412262302
 30
0.0
  0
VERTEX
  8
LY_1
  6
CONTINUOUS
 62
               3
  5
9D2
 10
57.086804480823041
 20
-2.9928276585511391
 30
0.0
  0
VERTEX
  8
LY_1
  6
CONTINUOUS
 62
               3
  5
9D3
 10
57.05542482073588
 20
-2.9690154082807112
 30
0.0
  0
SEQEND
  8
LY_1
  6
CONTINUOUS
 62
               3
  5
9D4
  0
ARC
  8
LY_1
  6
CONTINUOUS
 62
               3
  5
3F8
 10
0.0
 20
0.0
 30
0.0
 40
23.244604635745894
 50
157.22044417878087
 51
202.77955582121928
  0
LINE
  8
LY_1
  6
CONTINUOUS
 62
               3
  5
3F9
 10
-21.431557215287626
 20
-9.0
 30
0.0
 11
-23.216588896735288
 21
-9.0
 31
0.0
  0
LINE
  8
LY_1
  6
CONTINUOUS
 62
               3
  5
3FA
 10
-21.431557215287626
 20
9.0
 30
0.0
 11
-23.216588896735288
 21
9.0
 31
0.0
  0
LINE
  8
LY_1
  6
CONTINUOUS
 62
               3
  5
3FB
 10
21.431557215287285
 20
-9.0
 30
0.0
 11
23.21658889673472
 21
-9.0
 31
0.0
  0
ARC
  8
LY_1
  6
CONTINUOUS
 62
               3
  5
3FC
 10
151.88538991807718
 20
-8.0250244140625
 30
0.0
 40
0.6000000238418579
 50
180.0
 51
270.00000250447818
  0
ARC
  8
LY_1
  6
CONTINUOUS
 62
               3
  5
3FD
 10
149.93537771104593
 20
-8.0250244140625
 30
0.0
 40
0.6000000238418579
 50
270.00000250447818
 51
0.0000050089563345
  0
ARC
  8
LY_1
  6
CONTINUOUS
 62
               3
  5
3FE
 10
149.93537771104593
 20
-9.97503662109375
 30
0.0
 40
0.6000000238418579
 50
359.99999499104365
 51
89.999997495521839
  0
ARC
  8
LY_1
  6
CONTINUOUS
 62
               3
  5
3FF
 10
151.88538991807718
 20
-9.97503662109375
 30
0.0
 40
0.6000000238418579
 50
89.999997495521839
 51
180.0
  0
CIRCLE
  8
LY_1
  6
CONTINUOUS
 62
               3
  5
400
 10
150.91041433213968
 20
-9.0
 30
0.0
 40
2.75
  0
LINE
  8
LY_1
  6
CONTINUOUS
 62
               3
  5
401
 10
151.28541433213968
 20
-8.0250244140625
 30
0.0
 11
151.28541433213968
 21
-7.5
 31
0.0
  0
LINE
  8
LY_1
  6
CONTINUOUS
 62
               3
  5
402
 10
152.41041433213968
 20
-8.625
 30
0.0
 11
151.88538991807718
 21
-8.625
 31
0.0
  0
LINE
  8
LY_1
  6
CONTINUOUS
 62
               3
  5
403
 10
149.93537771104593
 20
-8.625
 30
0.0
 11
149.41041433213968
 21
-8.625
 31
0.0
  0
LINE
  8
LY_1
  6
CONTINUOUS
 62
               3
  5
404
 10
150.53541433213968
 20
-8.0250244140625
 30
0.0
 11
150.53541433213968
 21
-7.5
 31
0.0
  0
LINE
  8
LY_1
  6
CONTINUOUS
 62
               3
  5
405
 10
151.28541433213968
 20
-7.5
 30
0.0
 11
150.53541433213968
 21
-7.5
 31
0.0
  0
LINE
  8
LY_1
  6
CONTINUOUS
 62
               3
  5
406
 10
149.93537771104593
 20
-9.375
 30
0.0
 11
149.41041433213968
 21
-9.375
 31
0.0
  0
LINE
  8
LY_1
  6
CONTINUOUS
 62
               3
  5
407
 10
150.53541433213968
 20
-10.5
 30
0.0
 11
150.53541433213968
 21
-9.97503662109375
 31
0.0
  0
LINE
  8
LY_1
  6
CONTINUOUS
 62
               3
  5
408
 10
149.41041433213968
 20
-9.375
 30
0.0
 11
149.41041433213968
 21
-8.625
 31
0.0
  0
LINE
  8
LY_1
  6
CONTINUOUS
 62
               3
  5
409
 10
152.41041433213968
 20
-9.375
 30
0.0
 11
151.88538991807718
 21
-9.375
 31
0.0
  0
LINE
  8
LY_1
  6
CONTINUOUS
 62
               3
  5
40A
 10
151.28541433213968
 20
-10.5
 30
0.0
 11
151.28541433213968
 21
-9.97503662109375
 31
0.0
  0
LINE
  8
LY_1
  6
CONTINUOUS
 62
               3
  5
40B
 10
151.28541433213968
 20
-10.5
 30
0.0
 11
150.53541433213968
 21
-10.5
 31
0.0
  0
LINE
  8
LY_1
  6
CONTINUOUS
 62
               3
  5
40C
 10
152.41041433213968
 20
-9.375
 30
0.0
 11
152.41041433213968
 21
-8.625
 31
0.0
  0
ARC
  8
LY_1
  6
CONTINUOUS
 62
               3
  5
40D
 10
162.88538991807718
 20
-8.0250244140625
 30
0.0
 40
0.6000000238418579
 50
180.0
 51
270.00000250447818
  0
ARC
  8
LY_1
  6
CONTINUOUS
 62
               3
  5
40E
 10
160.93537771104593
 20
-8.0250244140625
 30
0.0
 40
0.6000000238418579
 50
270.00000250447818
 51
0.0000050089563345
  0
ARC
  8
LY_1
  6
CONTINUOUS
 62
               3
  5
40F
 10
160.93537771104593
 20
-9.97503662109375
 30
0.0
 40
0.6000000238418579
 50
359.99999499104365
 51
89.999997495521839
  0
ARC
  8
LY_1
  6
CONTINUOUS
 62
               3
  5
410
 10
162.88538991807718
 20
-9.97503662109375
 30
0.0
 40
0.6000000238418579
 50
89.999997495521839
 51
180.0
  0
CIRCLE
  8
LY_1
  6
CONTINUOUS
 62
               3
  5
411
 10
161.91041433213968
 20
-9.0
 30
0.0
 40
2.75
  0
LINE
  8
LY_1
  6
CONTINUOUS
 62
               3
  5
412
 10
162.28541433213968
 20
-8.0250244140625
 30
0.0
 11
162.28541433213968
 21
-7.5
 31
0.0
  0
LINE
  8
LY_1
  6
CONTINUOUS
 62
               3
  5
413
 10
163.41041433213968
 20
-8.625
 30
0.0
 11
162.88538991807718
 21
-8.625
 31
0.0
  0
LINE
  8
LY_1
  6
CONTINUOUS
 62
               3
  5
414
 10
160.93537771104593
 20
-8.625
 30
0.0
 11
160.41041433213968
 21
-8.625
 31
0.0
  0
LINE
  8
LY_1
  6
CONTINUOUS
 62
               3
  5
415
 10
161.53541433213968
 20
-8.0250244140625
 30
0.0
 11
161.53541433213968
 21
-7.5
 31
0.0
  0
LINE
  8
LY_1
  6
CONTINUOUS
 62
               3
  5
416
 10
162.28541433213968
 20
-7.5
 30
0.0
 11
161.53541433213968
 21
-7.5
 31
0.0
  0
LINE
  8
LY_1
  6
CONTINUOUS
 62
               3
  5
417
 10
160.93537771104593
 20
-9.375
 30
0.0
 11
160.41041433213968
 21
-9.375
 31
0.0
  0
LINE
  8
LY_1
  6
CONTINUOUS
 62
               3
  5
418
 10
161.53541433213968
 20
-10.5
 30
0.0
 11
161.53541433213968
 21
-9.97503662109375
 31
0.0
  0
LINE
  8
LY_1
  6
CONTINUOUS
 62
               3
  5
419
 10
160.41041433213968
 20
-9.375
 30
0.0
 11
160.41041433213968
 21
-8.625
 31
0.0
  0
LINE
  8
LY_1
  6
CONTINUOUS
 62
               3
  5
41A
 10
163.41041433213968
 20
-9.375
 30
0.0
 11
162.88538991807718
 21
-9.375
 31
0.0
  0
LINE
  8
LY_1
  6
CONTINUOUS
 62
               3
  5
41B
 10
162.28541433213968
 20
-10.5
 30
0.0
 11
162.28541433213968
 21
-9.97503662109375
 31
0.0
  0
LINE
  8
LY_1
  6
CONTINUOUS
 62
               3
  5
41C
 10
162.28541433213968
 20
-10.5
 30
0.0
 11
161.53541433213968
 21
-10.5
 31
0.0
  0
LINE
  8
LY_1
  6
CONTINUOUS
 62
               3
  5
41D
 10
163.41041433213968
 20
-9.375
 30
0.0
 11
163.41041433213968
 21
-8.625
 31
0.0
  0
ARC
  8
LY_1
  6
CONTINUOUS
 62
               3
  5
41E
 10
173.88538991807718
 20
-8.0250244140625
 30
0.0
 40
0.6000000238418579
 50
180.0
 51
270.00000250447818
  0
ARC
  8
LY_1
  6
CONTINUOUS
 62
               3
  5
41F
 10
171.93537771104593
 20
-8.0250244140625
 30
0.0
 40
0.6000000238418579
 50
270.00000250447818
 51
0.0000050089563345
  0
ARC
  8
LY_1
  6
CONTINUOUS
 62
               3
  5
420
 10
171.93537771104593
 20
-9.97503662109375
 30
0.0
 40
0.6000000238418579
 50
359.99999499104365
 51
89.999997495521839
  0
ARC
  8
LY_1
  6
CONTINUOUS
 62
               3
  5
421
 10
173.88538991807718
 20
-9.97503662109375
 30
0.0
 40
0.6000000238418579
 50
89.999997495521839
 51
180.0
  0
CIRCLE
  8
LY_1
  6
CONTINUOUS
 62
               3
  5
422
 10
172.91041433213968
 20
-9.0
 30
0.0
 40
2.75
  0
LINE
  8
LY_1
  6
CONTINUOUS
 62
               3
  5
423
 10
173.28541433213968
 20
-8.0250244140625
 30
0.0
 11
173.28541433213968
 21
-7.5
 31
0.0
  0
LINE
  8
LY_1
  6
CONTINUOUS
 62
               3
  5
424
 10
174.41041433213968
 20
-8.625
 30
0.0
 11
173.88538991807718
 21
-8.625
 31
0.0
  0
LINE
  8
LY_1
  6
CONTINUOUS
 62
               3
  5
425
 10
171.93537771104593
 20
-8.625
 30
0.0
 11
171.41041433213968
 21
-8.625
 31
0.0
  0
LINE
  8
LY_1
  6
CONTINUOUS
 62
               3
  5
426
 10
172.53541433213968
 20
-8.0250244140625
 30
0.0
 11
172.53541433213968
 21
-7.5
 31
0.0
  0
LINE
  8
LY_1
  6
CONTINUOUS
 62
               3
  5
427
 10
173.28541433213968
 20
-7.5
 30
0.0
 11
172.53541433213968
 21
-7.5
 31
0.0
  0
LINE
  8
LY_1
  6
CONTINUOUS
 62
               3
  5
428
 10
171.93537771104593
 20
-9.375
 30
0.0
 11
171.41041433213968
 21
-9.375
 31
0.0
  0
LINE
  8
LY_1
  6
CONTINUOUS
 62
               3
  5
429
 10
172.53541433213968
 20
-10.5
 30
0.0
 11
172.53541433213968
 21
-9.97503662109375
 31
0.0
  0
LINE
  8
LY_1
  6
CONTINUOUS
 62
               3
  5
42A
 10
171.41041433213968
 20
-9.375
 30
0.0
 11
171.41041433213968
 21
-8.625
 31
0.0
  0
LINE
  8
LY_1
  6
CONTINUOUS
 62
               3
  5
42B
 10
174.41041433213968
 20
-9.375
 30
0.0
 11
173.88538991807718
 21
-9.375
 31
0.0
  0
LINE
  8
LY_1
  6
CONTINUOUS
 62
               3
  5
42C
 10
173.28541433213968
 20
-10.5
 30
0.0
 11
173.28541433213968
 21
-9.97503662109375
 31
0.0
  0
LINE
  8
LY_1
  6
CONTINUOUS
 62
               3
  5
42D
 10
173.28541433213968
 20
-10.5
 30
0.0
 11
172.53541433213968
 21
-10.5
 31
0.0
  0
LINE
  8
LY_1
  6
CONTINUOUS
 62
               3
  5
42E
 10
174.41041433213968
 20
-9.375
 30
0.0
 11
174.41041433213968
 21
-8.625
 31
0.0
  0
ARC
  8
LY_1
  6
CONTINUOUS
 62
               3
  5
42F
 10
0.0
 20
0.0
 30
0.0
 40
8.8262456232814781
 50
31.567353789111099
 51
148.432646210889
  0
ARC
  8
LY_1
  6
CONTINUOUS
 62
               3
  5
430
 10
0.0
 20
0.0
 30
0.0
 40
8.694025913968332
 50
211.567353789111
 51
328.43264621088889
  0
ARC
  8
LY_1
  6
CONTINUOUS
 62
               3
  5
431
 10
0.0
 20
0.0
 30
0.0
 40
8.694025913968332
 50
31.643371247675677
 51
148.432646210889
  0
ARC
  8
LY_1
  6
CONTINUOUS
 62
               3
  5
432
 10
0.0
 20
0.0
 30
0.0
 40
10.880821971507494
 50
30.863808200260763
 51
149.13619179973924
  0
ARC
  8
LY_1
  6
CONTINUOUS
 62
               3
  5
433
 10
0.0
 20
0.0
 30
0.0
 40
10.880821971507494
 50
210.86380820026076
 51
329.13619179973927
  0
ARC
  8
LY_1
  6
CONTINUOUS
 62
               3
  5
434
 10
0.0
 20
0.0
 30
0.0
 40
11.37435833349052
 50
210.91499532421301
 51
329.08500467578699
  0
CIRCLE
  8
LY_1
  6
CONTINUOUS
 62
               3
  5
435
 10
0.0
 20
0.0
 30
0.0
 40
11.951790781462222
  0
ARC
  8
LY_1
  6
CONTINUOUS
 62
               3
  5
436
 10
0.0
 20
0.0
 30
0.0
 40
11.37435833349052
 50
30.914995324213013
 51
149.08500467578702
  0
ARC
  8
LY_1
  6
CONTINUOUS
 62
               3
  5
437
 10
0.0
 20
-20.969015408280711
 30
0.0
 40
18.0
 50
55.330739138351902
 51
122.82901520078711
  0
ARC
  8
LY_1
  6
CONTINUOUS
 62
               3
  5
438
 10
0.0
 20
0.0
 30
0.0
 40
10.184585542416031
 50
355.21255641989444
 51
4.7874435801054886
  0
ARC
  8
LY_1
  6
CONTINUOUS
 62
               3
  5
439
 10
0.0
 20
0.0
 30
0.0
 40
10.184585542416031
 50
175.21255641989447
 51
184.78744358010547
  0
ARC
  8
LY_1
  6
CONTINUOUS
 62
               3
  5
43A
 10
0.0
 20
20.969015408280711
 30
0.0
 40
18.0
 50
237.1709847992129
 51
302.82901520078707
  0
ARC
  8
LY_1
  6
CONTINUOUS
 62
               3
  5
43B
 10
118.65520716606989
 20
-17.517302736884403
 30
0.0
 40
1.0
 50
271.00000000000011
 51
354.92189576956764
  0
ARC
  8
LY_1
  6
CONTINUOUS
 62
               3
  5
43C
 10
0.0
 20
0.0
 30
0.0
 40
23.417396618002911
 50
157.92691390625919
 51
202.07308609374093
  0
ARC
  8
LY_1
  6
CONTINUOUS
 62
               3
  5
43D
 10
0.0
 20
0.0
 30
0.0
 40
24.742916379766335
 50
159.16626296038567
 51
200.83373703961448
  0
ARC
  8
LY_1
  6
CONTINUOUS
 62
               3
  5
43E
 10
0.0
 20
0.0
 30
0.0
 40
23.417396618002911
 50
337.92691390625913
 51
22.073086093740912
  0
ARC
  8
LY_1
  6
CONTINUOUS
 62
               3
  5
43F
 10
0.0
 20
0.0
 30
0.0
 40
24.742916379766335
 50
339.16626296038561
 51
20.833737039614363
  0
ARC
  8
LY_1
  6
CONTINUOUS
 62
               3
  5
440
 10
178.66041433213968
 20
-16.592691831960565
 30
0.0
 40
1.0
 50
180.0
 51
315.27031492491477
  0
ARC
  8
LY_1
  6
CONTINUOUS
 62
               3
  5
441
 10
161.91041433213968
 20
0.0
 30
0.0
 40
24.57710589174193
 50
180.0
 51
224.72968507508523
  0
ARC
  8
LY_1
  6
CONTINUOUS
 62
               3
  5
442
 10
145.16041433213968
 20
-16.592691831960565
 30
0.0
 40
1.0
 50
224.72968507508529
 51
0.0000000000000509
  0
LINE
  8
LY_1
  6
CONTINUOUS
 62
               3
  5
443
 10
-10.149053289385733
 20
-0.8499999999999091
 30
0.0
 11
10.149053289385392
 21
-0.8499999999999091
 31
0.0
  0
LINE
  8
LY_1
  6
CONTINUOUS
 62
               3
  5
444
 10
-10.149053289385733
 20
0.8499999999999091
 30
0.0
 11
10.149053289385392
 21
0.8499999999999091
 31
0.0
  0
LINE
  8
LY_1
  6
CONTINUOUS
 62
               3
  5
445
 10
111.45755248204614
 20
-18.643090594768637
 30
0.0
 11
118.6726595725072
 21
-18.51715043204058
 31
0.0
  0
LINE
  8
LY_1
  6
CONTINUOUS
 62
               3
  5
446
 10
119.65128212999457
 20
-17.605816386917581
 30
0.0
 11
121.15520716606989
 21
-17.592691831960565
 31
0.0
  0
LINE
  8
LY_1
  6
CONTINUOUS
 62
               3
  5
447
 10
-21.701024500351537
 20
-8.7999999999999545
 30
0.0
 11
-23.125135912597784
 21
-8.7999999999999545
 31
0.0
  0
LINE
  8
LY_1
  6
CONTINUOUS
 62
               3
  5
448
 10
-21.701024500351537
 20
8.7999999999999545
 30
0.0
 11
-23.125135912597784
 21
8.7999999999999545
 31
0.0
  0
LINE
  8
LY_1
  6
CONTINUOUS
 62
               3
  5
449
 10
21.701024500351195
 20
-8.7999999999999545
 30
0.0
 11
23.125135912597216
 21
-8.7999999999999545
 31
0.0
  0
LINE
  8
LY_1
  6
CONTINUOUS
 62
               3
  5
44A
 10
21.701024500351195
 20
8.7999999999999545
 30
0.0
 11
23.125135912597216
 21
8.7999999999999545
 31
0.0
  0
LINE
  8
LY_1
  6
CONTINUOUS
 62
               3
  5
44B
 10
146.16041433213968
 20
-7.8394134026605116
 30
0.0
 11
144.68636843746617
 21
-7.8394134026605116
 31
0.0
  0
LINE
  8
LY_1
  6
CONTINUOUS
 62
               3
  5
44C
 10
146.16041433213968
 20
-13.03941340266033
 30
0.0
 11
144.68636843746617
 21
-13.03941340266033
 31
0.0
  0
LINE
  8
LY_1
  6
CONTINUOUS
 62
               3
  5
44D
 10
177.66041433213968
 20
-13.03941340266033
 30
0.0
 11
179.13446022681319
 21
-13.03941340266033
 31
0.0
  0
LINE
  8
LY_1
  6
CONTINUOUS
 62
               3
  5
44E
 10
177.66041433213968
 20
-7.8394134026605116
 30
0.0
 11
179.13446022681319
 21
-7.8394134026605116
 31
0.0
  0
LINE
  8
LY_1
  6
CONTINUOUS
 62
               3
  5
44F
 10
166.66041433213968
 20
-4.5
 30
0.0
 11
157.16041433213968
 21
-4.5
 31
0.0
  0
LINE
  8
LY_1
  6
CONTINUOUS
 62
               3
  5
450
 10
155.66041433213968
 20
-4.5
 30
0.0
 11
146.16041433213968
 21
-4.5
 31
0.0
  0
LINE
  8
LY_1
  6
CONTINUOUS
 62
               3
  5
451
 10
155.66041433213968
 20
-13.5
 30
0.0
 11
146.16041433213968
 21
-13.5
 31
0.0
  0
LINE
  8
LY_1
  6
CONTINUOUS
 62
               3
  5
452
 10
166.66041433213968
 20
-13.5
 30
0.0
 11
157.16041433213968
 21
-13.5
 31
0.0
  0
LINE
  8
LY_1
  6
CONTINUOUS
 62
               3
  5
453
 10
177.66041433213968
 20
-4.5
 30
0.0
 11
168.16041433213968
 21
-4.5
 31
0.0
  0
LINE
  8
LY_1
  6
CONTINUOUS
 62
               3
  5
454
 10
177.66041433213968
 20
-13.5
 30
0.0
 11
168.16041433213968
 21
-13.5
 31
0.0
  0
LINE
  8
LY_1
  6
CONTINUOUS
 62
               3
  5
455
 10
146.16041433213968
 20
-3.3394134026605116
 30
0.0
 11
177.66041433213968
 21
-3.3394134026605116
 31
0.0
  0
LINE
  8
LY_1
  6
CONTINUOUS
 62
               3
  5
456
 10
157.16041433213968
 20
-18.5
 30
0.0
 11
155.66041433213968
 21
-18.5
 31
0.0
  0
LINE
  8
LY_1
  6
CONTINUOUS
 62
               3
  5
457
 10
177.66041433213968
 20
-16.592691831960565
 30
0.0
 11
177.66041433213968
 21
-3.3394134026605116
 31
0.0
  0
LINE
  8
LY_1
  6
CONTINUOUS
 62
               3
  5
458
 10
168.16041433213968
 20
-18.5
 30
0.0
 11
168.16041433213968
 21
-3.3394134026605116
 31
0.0
  0
LINE
  8
LY_1
  6
CONTINUOUS
 62
               3
  5
459
 10
166.66041433213968
 20
-18.5
 30
0.0
 11
166.66041433213968
 21
-3.3394134026605116
 31
0.0
  0
LINE
  8
LY_1
  6
CONTINUOUS
 62
               3
  5
45A
 10
155.66041433213968
 20
-18.5
 30
0.0
 11
155.66041433213968
 21
-3.3394134026605116
 31
0.0
  0
LINE
  8
LY_1
  6
CONTINUOUS
 62
               3
  5
45B
 10
157.16041433213968
 20
-18.5
 30
0.0
 11
157.16041433213968
 21
-3.3394134026605116
 31
0.0
  0
LINE
  8
LY_1
  6
CONTINUOUS
 62
               3
  5
45C
 10
146.16041433213968
 20
-16.592691831960565
 30
0.0
 11
146.16041433213968
 21
-3.3394134026605116
 31
0.0
  0
LINE
  8
LY_1
  6
CONTINUOUS
 62
               3
  5
45D
 10
166.66041433213968
 20
-18.5
 30
0.0
 11
168.16041433213968
 21
-18.5
 31
0.0
  0
LINE
  8
LY_1
  6
CONTINUOUS
 62
               3
  5
45E
 10
146.91041433213968
 20
-5.0
 30
0.0
 11
154.91041433213968
 21
-5.0
 31
0.0
  0
LINE
  8
LY_1
  6
CONTINUOUS
 62
               3
  5
45F
 10
146.91041433213968
 20
-13.0
 30
0.0
 11
154.91041433213968
 21
-13.0
 31
0.0
  0
LINE
  8
LY_1
  6
CONTINUOUS
 62
               3
  5
460
 10
154.91041433213968
 20
-13.0
 30
0.0
 11
154.91041433213968
 21
-5.0
 31
0.0
  0
LINE
  8
LY_1
  6
CONTINUOUS
 62
               3
  5
461
 10
146.91041433213968
 20
-13.0
 30
0.0
 11
146.91041433213968
 21
-5.0
 31
0.0
  0
LINE
  8
LY_1
  6
CONTINUOUS
 62
               3
  5
462
 10
157.91041433213968
 20
-13.0
 30
0.0
 11
165.91041433213968
 21
-13.0
 31
0.0
  0
LINE
  8
LY_1
  6
CONTINUOUS
 62
               3
  5
463
 10
165.91041433213968
 20
-13.0
 30
0.0
 11
165.91041433213968
 21
-5.0
 31
0.0
  0
LINE
  8
LY_1
  6
CONTINUOUS
 62
               3
  5
464
 10
157.91041433213968
 20
-13.0
 30
0.0
 11
157.91041433213968
 21
-5.0
 31
0.0
  0
LINE
  8
LY_1
  6
CONTINUOUS
 62
               3
  5
465
 10
157.91041433213968
 20
-5.0
 30
0.0
 11
165.91041433213968
 21
-5.0
 31
0.0
  0
LINE
  8
LY_1
  6
CONTINUOUS
 62
               3
  5
466
 10
168.91041433213968
 20
-13.0
 30
0.0
 11
176.91041433213968
 21
-13.0
 31
0.0
  0
LINE
  8
LY_1
  6
CONTINUOUS
 62
               3
  5
467
 10
176.91041433213968
 20
-13.0
 30
0.0
 11
176.91041433213968
 21
-5.0
 31
0.0
  0
LINE
  8
LY_1
  6
CONTINUOUS
 62
               3
  5
468
 10
168.91041433213968
 20
-5.0
 30
0.0
 11
176.91041433213968
 21
-5.0
 31
0.0
  0
LINE
  8
LY_1
  6
CONTINUOUS
 62
               3
  5
469
 10
168.91041433213968
 20
-13.0
 30
0.0
 11
168.91041433213968
 21
-5.0
 31
0.0
  0
LINE
  8
LY_1
  6
CONTINUOUS
 62
               3
  5
46A
 10
81.655207166069886
 20
24.900000000000091
 30
0.0
 11
84.155207166069886
 21
24.900000000000091
 31
0.0
  0
LINE
  8
LY_1
  6
CONTINUOUS
 62
               3
  5
46B
 10
81.655207166069886
 20
-24.900000000000091
 30
0.0
 11
84.155207166069886
 21
-24.900000000000091
 31
0.0
  0
LINE
  8
LY_1
  6
CONTINUOUS
 62
               3
  5
46C
 10
84.155207166069886
 20
24.900000000000091
 30
0.0
 11
121.15520716606989
 21
24.577105891741894
 31
0.0
  0
LINE
  8
LY_1
  6
CONTINUOUS
 62
               3
  5
46D
 10
84.155207166069886
 20
-24.900000000000091
 30
0.0
 11
111.45520716606961
 21
-24.661756509312227
 31
0.0
  0
LINE
  8
LY_1
  6
CONTINUOUS
 62
               3
  5
46E
 10
179.13446022681319
 20
-13.03941340266033
 30
0.0
 11
179.13446022681319
 21
-7.8394134026605116
 31
0.0
  0
LINE
  8
LY_1
  6
CONTINUOUS
 62
               3
  5
46F
 10
144.68636843746617
 20
-13.03941340266033
 30
0.0
 11
144.68636843746617
 21
-7.8394134026605116
 31
0.0
  0
LINE
  8
LY_1
  6
CONTINUOUS
 62
               3
  5
470
 10
91.655207166069886
 20
3.9999999999999716
 30
0.0
 11
91.655207166069886
 21
-4.0000000000000284
 31
0.0
  0
LINE
  8
LY_1
  6
CONTINUOUS
 62
               3
  5
471
 10
89.45520716606984
 20
3.9999999999999716
 30
0.0
 11
89.45520716606984
 21
-4.0000000000000284
 31
0.0
  0
LINE
  8
LY_1
  6
CONTINUOUS
 62
               3
  5
472
 10
89.45520716606984
 20
3.9999999999999716
 30
0.0
 11
91.655207166069886
 21
3.9999999999999716
 31
0.0
  0
LINE
  8
LY_1
  6
CONTINUOUS
 62
               3
  5
473
 10
89.45520716606984
 20
-4.0000000000000284
 30
0.0
 11
91.655207166069886
 21
-4.0000000000000284
 31
0.0
  0
CIRCLE
  8
LY_1
  6
CONTINUOUS
 62
               3
  5
474
 10
116.1052071660697
 20
13.649999999999977
 30
0.0
 40
1.05
  0
CIRCLE
  8
LY_1
  6
CONTINUOUS
 62
               3
  5
475
 10
116.1052071660697
 20
9.8499999999999943
 30
0.0
 40
1.05
  0
CIRCLE
  8
LY_1
  6
CONTINUOUS
 62
               3
  5
476
 10
112.6052071660697
 20
9.8499999999999943
 30
0.0
 40
1.05
  0
CIRCLE
  8
LY_1
  6
CONTINUOUS
 62
               3
  5
477
 10
112.6052071660697
 20
13.649999999999977
 30
0.0
 40
1.05
  0
CIRCLE
  8
LY_1
  6
CONTINUOUS
 62
               3
  5
478
 10
112.6052071660697
 20
6.0500000000000114
 30
0.0
 40
1.05
  0
CIRCLE
  8
LY_1
  6
CONTINUOUS
 62
               3
  5
479
 10
116.1052071660697
 20
6.0500000000000114
 30
0.0
 40
1.05
  0
CIRCLE
  8
LY_1
  6
CONTINUOUS
 62
               3
  5
47A
 10
109.1052071660697
 20
6.0500000000000114
 30
0.0
 40
1.05
  0
CIRCLE
  8
LY_1
  6
CONTINUOUS
 62
               3
  5
47B
 10
103.50520716606979
 20
6.0500000000000114
 30
0.0
 40
1.05
  0
CIRCLE
  8
LY_1
  6
CONTINUOUS
 62
               3
  5
47C
 10
100.00520716606979
 20
6.0500000000000114
 30
0.0
 40
1.05
  0
CIRCLE
  8
LY_1
  6
CONTINUOUS
 62
               3
  5
47D
 10
109.1052071660697
 20
13.649999999999977
 30
0.0
 40
1.05
  0
CIRCLE
  8
LY_1
  6
CONTINUOUS
 62
               3
  5
47E
 10
103.50520716606979
 20
13.649999999999977
 30
0.0
 40
1.05
  0
CIRCLE
  8
LY_1
  6
CONTINUOUS
 62
               3
  5
47F
 10
100.00520716606979
 20
13.649999999999977
 30
0.0
 40
1.05
  0
CIRCLE
  8
LY_1
  6
CONTINUOUS
 62
               3
  5
480
 10
100.00520716606979
 20
9.8499999999999943
 30
0.0
 40
1.05
  0
CIRCLE
  8
LY_1
  6
CONTINUOUS
 62
               3
  5
481
 10
103.50520716606979
 20
9.8499999999999943
 30
0.0
 40
1.05
  0
CIRCLE
  8
LY_1
  6
CONTINUOUS
 62
               3
  5
482
 10
109.1052071660697
 20
9.8499999999999943
 30
0.0
 40
1.05
  0
CIRCLE
  8
LY_1
  6
CONTINUOUS
 62
               3
  5
483
 10
109.1052071660697
 20
-6.0500000000000114
 30
0.0
 40
1.05
  0
CIRCLE
  8
LY_1
  6
CONTINUOUS
 62
               3
  5
484
 10
109.1052071660697
 20
-13.649999999999977
 30
0.0
 40
1.05
  0
CIRCLE
  8
LY_1
  6
CONTINUOUS
 62
               3
  5
485
 10
109.1052071660697
 20
-9.8499999999999943
 30
0.0
 40
1.05
  0
CIRCLE
  8
LY_1
  6
CONTINUOUS
 62
               3
  5
486
 10
103.50520716606979
 20
-9.8499999999999943
 30
0.0
 40
1.05
  0
CIRCLE
  8
LY_1
  6
CONTINUOUS
 62
               3
  5
487
 10
100.00520716606979
 20
-9.8499999999999943
 30
0.0
 40
1.05
  0
CIRCLE
  8
LY_1
  6
CONTINUOUS
 62
               3
  5
488
 10
100.00520716606979
 20
-13.649999999999977
 30
0.0
 40
1.05
  0
CIRCLE
  8
LY_1
  6
CONTINUOUS
 62
               3
  5
489
 10
103.50520716606979
 20
-13.649999999999977
 30
0.0
 40
1.05
  0
CIRCLE
  8
LY_1
  6
CONTINUOUS
 62
               3
  5
48A
 10
100.00520716606979
 20
-6.0500000000000114
 30
0.0
 40
1.05
  0
CIRCLE
  8
LY_1
  6
CONTINUOUS
 62
               3
  5
48B
 10
103.50520716606979
 20
-6.0500000000000114
 30
0.0
 40
1.05
  0
CIRCLE
  8
LY_1
  6
CONTINUOUS
 62
               3
  5
48C
 10
116.1052071660697
 20
-6.0500000000000114
 30
0.0
 40
1.05
  0
CIRCLE
  8
LY_1
  6
CONTINUOUS
 62
               3
  5
48D
 10
112.6052071660697
 20
-6.0500000000000114
 30
0.0
 40
1.05
  0
CIRCLE
  8
LY_1
  6
CONTINUOUS
 62
               3
  5
48E
 10
116.1052071660697
 20
-13.649999999999977
 30
0.0
 40
1.05
  0
CIRCLE
  8
LY_1
  6
CONTINUOUS
 62
               3
  5
48F
 10
112.6052071660697
 20
-13.649999999999977
 30
0.0
 40
1.05
  0
CIRCLE
  8
LY_1
  6
CONTINUOUS
 62
               3
  5
490
 10
112.6052071660697
 20
-9.8499999999999943
 30
0.0
 40
1.05
  0
CIRCLE
  8
LY_1
  6
CONTINUOUS
 62
               3
  5
491
 10
116.1052071660697
 20
-9.8499999999999943
 30
0.0
 40
1.05
  0
ENDSEC
  0
EOF
