  0
SECTION
  2
HEADER
  9
$ACADVER
  1
AC1009
  9
$DWGCODEPAGE
  3
dos932
  9
$INSBASE
 10
0.0
 20
0.0
 30
0.0
  9
$EXTMIN
 10
-241.000004
 20
-67.0
 30
0.0
  9
$EXTMAX
 10
190.0
 20
66.000054
 30
0.0
  9
$LIMMIN
 10
-241.000004
 20
-67.0
  9
$LIMMAX
 10
190.0
 20
66.000054
  9
$ORTHOMODE
 70
     0
  9
$REGENMODE
 70
     1
  9
$FILLMODE
 70
     1
  9
$QTEXTMODE
 70
     0
  9
$MIRRTEXT
 70
     1
  9
$DRAGMODE
 70
     2
  9
$LTSCALE
 40
1.0
  9
$OSMODE
 70
     0
  9
$ATTMODE
 70
     1
  9
$TEXTSIZE
 40
4.1656
  9
$TRACEWID
 40
0.05
  9
$TEXTSTYLE
  7
MX_NOTE_STANDARD
  9
$CLAYER
  8
0
  9
$CELTYPE
  6
CONTINUOUS
  9
$CECOLOR
 62
   256
  9
$DIMSCALE
 40
1.0
  9
$DIMASZ
 40
2.5
  9
$DIMEXO
 40
0.5
  9
$DIMDLI
 40
3.75
  9
$DIMRND
 40
0.0
  9
$DIMDLE
 40
0.0
  9
$DIMEXE
 40
1.0
  9
$DIMTP
 40
0.0
  9
$DIMTM
 40
0.0
  9
$DIMTXT
 40
2.5
  9
$DIMCEN
 40
2.5
  9
$DIMTSZ
 40
0.0
  9
$DIMTOL
 70
     0
  9
$DIMLIM
 70
     0
  9
$DIMTIH
 70
     0
  9
$DIMTOH
 70
     0
  9
$DIMSE1
 70
     0
  9
$DIMSE2
 70
     0
  9
$DIMTAD
 70
     1
  9
$DIMZIN
 70
     8
  9
$DIMBLK
  1

  9
$DIMASO
 70
     1
  9
$DIMSHO
 70
     1
  9
$DIMPOST
  1

  9
$DIMAPOST
  1

  9
$DIMALT
 70
     0
  9
$DIMALTD
 70
     4
  9
$DIMALTF
 40
0.03937
  9
$DIMLFAC
 40
1.0
  9
$DIMTOFL
 70
     1
  9
$DIMTVP
 40
0.0
  9
$DIMTIX
 70
     0
  9
$DIMSOXD
 70
     0
  9
$DIMSAH
 70
     1
  9
$DIMBLK1
  1
_OPEN30
  9
$DIMBLK2
  1
_OPEN30
  9
$DIMSTYLE
  2
MXDIMSTYLE
  9
$DIMCLRD
 70
     0
  9
$DIMCLRE
 70
     0
  9
$DIMCLRT
 70
     0
  9
$DIMTFAC
 40
1.0
  9
$DIMGAP
 40
1.0
  9
$LUNITS
 70
     2
  9
$LUPREC
 70
     4
  9
$AXISMODE
 70
     0
  9
$AXISUNIT
 10
0.0
 20
0.0
  9
$SKETCHINC
 40
0.1
  9
$FILLETRAD
 40
0.0
  9
$AUNITS
 70
     0
  9
$AUPREC
 70
     0
  9
$MENU
  1
acad
  9
$ELEVATION
 40
0.0
  9
$PELEVATION
 40
0.0
  9
$THICKNESS
 40
0.0
  9
$LIMCHECK
 70
     0
  9
$BLIPMODE
 70
     1
  9
$CHAMFERA
 40
0.0
  9
$CHAMFERB
 40
0.0
  9
$SKPOLY
 70
     0
  9
$TDCREATE
 40
2455817.687673611
  9
$TDUPDATE
 40
2455817.687673611
  9
$TDINDWG
 40
0.0000000000
  9
$TDUSRTIMER
 40
0.0000000000
  9
$USRTIMER
 70
     1
  9
$ANGBASE
 50
0.0
  9
$ANGDIR
 70
     0
  9
$PDMODE
 70
     0
  9
$PDSIZE
 40
0.0
  9
$PLINEWID
 40
0.0
  9
$COORDS
 70
     1
  9
$SPLFRAME
 70
     0
  9
$SPLINETYPE
 70
     6
  9
$SPLINESEGS
 70
     8
  9
$ATTDIA
 70
     0
  9
$ATTREQ
 70
     1
  9
$HANDLING
 70
     1
  9
$HANDSEED
  5
67B
  9
$SURFTAB1
 70
     6
  9
$SURFTAB2
 70
     6
  9
$SURFTYPE
 70
     6
  9
$SURFU
 70
     6
  9
$SURFV
 70
     6
  9
$UCSNAME
  2

  9
$UCSORG
 10
0.0
 20
0.0
 30
0.0
  9
$UCSXDIR
 10
1.0
 20
0.0
 30
0.0
  9
$UCSYDIR
 10
0.0
 20
1.0
 30
0.0
  9
$PUCSNAME
  2

  9
$PUCSORG
 10
0.0
 20
0.0
 30
0.0
  9
$PUCSXDIR
 10
1.0
 20
0.0
 30
0.0
  9
$PUCSYDIR
 10
0.0
 20
1.0
 30
0.0
  9
$USERI1
 70
     0
  9
$USERI2
 70
     0
  9
$USERI3
 70
     0
  9
$USERI4
 70
     0
  9
$USERI5
 70
     0
  9
$USERR1
 40
0.0
  9
$USERR2
 40
0.0
  9
$USERR3
 40
0.0
  9
$USERR4
 40
0.0
  9
$USERR5
 40
0.0
  9
$WORLDVIEW
 70
     1
  9
$SHADEDGE
 70
     3
  9
$SHADEDIF
 70
    70
  9
$TILEMODE
 70
     1
  9
$MAXACTVP
 70
    16
  9
$PINSBASE
 10
0.0
 20
0.0
 30
0.0
  9
$PLIMCHECK
 70
     0
  9
$PEXTMIN
 10
1.000000E+20
 20
1.000000E+20
 30
1.000000E+20
  9
$PEXTMAX
 10
-1.000000E+20
 20
-1.000000E+20
 30
-1.000000E+20
  9
$PLIMMIN
 10
0.0
 20
0.0
  9
$PLIMMAX
 10
12.0
 20
9.0
  9
$UNITMODE
 70
     0
  9
$VISRETAIN
 70
     0
  9
$PLINEGEN
 70
     1
  9
$PSLTSCALE
 70
     0
  9
$TREEDEPTH
 70
  3020
  0
ENDSEC
  0
SECTION
  2
TABLES
  0
TABLE
  2
VPORT
 70
     1
  0
VPORT
  2
*ACTIVE
 70
     0
 10
0.0
 20
0.0
 11
1.0
 21
1.0
 12
-25.500002
 22
-0.499973
 13
0.0
 23
0.0
 14
1.0
 24
1.0
 15
0.0
 25
0.0
 16
0.0
 26
0.0
 36
1.0
 17
0.0
 27
0.0
 37
0.0
 40
134.330055
 41
1.732051
 42
50.0
 43
0.0
 44
0.0
 50
0.0
 51
0.0
 71
     0
 72
   100
 73
     1
 74
     1
 75
     0
 76
     0
 77
     0
 78
     0
  0
ENDTAB
  0
TABLE
  2
LTYPE
 70
     1
  0
LTYPE
  2
CONTINUOUS
 70
    64
  3
Solid line
 72
    65
 73
     0
 40
0.0
  0
ENDTAB
  0
TABLE
  2
LAYER
 70
     3
  0
LAYER
  2
0
 70
     0
 62
     7
  6
CONTINUOUS
  0
LAYER
  2
DEFPOINTS
 70
     0
 62
     7
  6
CONTINUOUS
  0
LAYER
  2
LY_3
 70
     0
 62
     7
  6
CONTINUOUS
  0
ENDTAB
  0
TABLE
  2
STYLE
 70
     1
  0
STYLE
  2
MX_NOTE_STANDARD
 70
     0
 40
0.0
 41
1.0
 50
0.0
 71
     0
 42
4.1656
  3
txt.shx
  4
extfont.shx
  0
ENDTAB
  0
TABLE
  2
VIEW
 70
     0
  0
ENDTAB
  0
TABLE
  2
UCS
 70
     0
  0
ENDTAB
  0
TABLE
  2
APPID
 70
     1
  0
APPID
  2
ACAD
 70
     0
  0
ENDTAB
  0
TABLE
  2
DIMSTYLE
 70
     1
  0
DIMSTYLE
  2
MXDIMSTYLE
 70
     0
  3

  4

  5

  6
_OPEN30
  7
_OPEN30
 40
1.0
 41
2.5
 42
0.5
 43
3.75
 44
1.0
 45
0.0
 46
0.0
 47
0.0
 48
0.0
 71
     0
 72
     0
 73
     0
 74
     0
 75
     0
 76
     0
 77
     1
 78
     8
140
2.5
141
2.5
142
0.0
143
0.03937
144
1.0
145
0.0
146
1.0
147
1.0
170
     0
171
     4
172
     1
173
     1
174
     0
175
     0
176
     0
177
     0
178
     0
  0
ENDTAB
  0
ENDSEC
  0
SECTION
  2
BLOCKS
  0
BLOCK
  8
0
  5
2C
  2
MS_1
 70
     0
 10
0.0
 20
0.0
 30
0.0
  3
MS_1
  0
INSERT
  8
0
  6
BYBLOCK
  5
2D
  2
*X1
 10
0.0
 20
0.0
 30
0.0
  0
INSERT
  8
0
  6
BYBLOCK
  5
2E
  2
*X2
 10
0.0
 20
0.0
 30
0.0
  0
INSERT
  8
0
  6
BYBLOCK
  5
2F
  2
*X3
 10
0.0
 20
0.0
 30
0.0
  0
INSERT
  8
0
  6
BYBLOCK
  5
30
  2
*X4
 10
0.0
 20
0.0
 30
0.0
  0
INSERT
  8
0
  6
BYBLOCK
  5
31
  2
*X5
 10
0.0
 20
0.0
 30
0.0
  0
INSERT
  8
0
  6
BYBLOCK
  5
32
  2
*X6
 10
0.0
 20
0.0
 30
0.0
  0
LINE
  8
0
  6
CONTINUOUS
 62
    20
  5
33
 10
-39.786931
 20
-6.25
 30
0.0
 11
-36.377476
 21
-6.25
 31
0.0
  0
LINE
  8
0
  6
CONTINUOUS
 62
    20
  5
34
 10
-23.286931
 20
6.25
 30
0.0
 11
-23.286931
 21
3.25
 31
0.0
  0
LINE
  8
0
  6
CONTINUOUS
 62
    20
  5
35
 10
-10.286931
 20
6.25
 30
0.0
 11
-10.286931
 21
3.25
 31
0.0
  0
LINE
  8
0
  6
CONTINUOUS
 62
    20
  5
36
 10
-33.036931
 20
6.25
 30
0.0
 11
-31.036931
 21
6.25
 31
0.0
  0
LINE
  8
0
  6
CONTINUOUS
 62
    20
  5
37
 10
-33.036932
 20
6.250001
 30
0.0
 11
-39.786933
 21
-6.25
 31
0.0
  0
LINE
  8
0
  6
CONTINUOUS
 62
    20
  5
38
 10
-31.036929
 20
6.250001
 30
0.0
 11
-24.286929
 21
-6.249998
 31
0.0
  0
LINE
  8
0
  6
CONTINUOUS
 62
    20
  5
39
 10
19.963069
 20
6.25
 30
0.0
 11
25.713069
 21
-6.25
 31
0.0
  0
LINE
  8
0
  6
CONTINUOUS
 62
    20
  5
3A
 10
36.21307
 20
-6.25
 30
0.0
 11
41.963069
 21
6.25
 31
0.0
  0
LINE
  8
0
  6
CONTINUOUS
 62
    20
  5
3B
 10
-32.036933
 20
1.788041
 30
0.0
 11
-36.377476
 21
-6.250001
 31
0.0
  0
LINE
  8
0
  6
CONTINUOUS
 62
    20
  5
3C
 10
-32.036929
 20
1.788043
 30
0.0
 11
-27.696386
 21
-6.249999
 31
0.0
  0
LINE
  8
0
  6
CONTINUOUS
 62
    20
  5
3D
 10
23.26525
 20
6.25
 30
0.0
 11
26.614159
 21
-1.030238
 31
0.0
  0
LINE
  8
0
  6
CONTINUOUS
 62
    20
  5
3E
 10
35.311979
 20
-1.030237
 30
0.0
 11
38.660888
 21
6.25
 31
0.0
  0
LINE
  8
0
  6
CONTINUOUS
 62
    20
  5
3F
 10
29.963069
 20
6.25
 30
0.0
 11
26.61416
 21
-1.030239
 31
0.0
  0
LINE
  8
0
  6
CONTINUOUS
 62
    20
  5
40
 10
30.963069
 20
1.245258
 30
0.0
 11
27.515251
 21
-6.25
 31
0.0
  0
LINE
  8
0
  6
CONTINUOUS
 62
    20
  5
41
 10
30.963069
 20
1.245259
 30
0.0
 11
34.410888
 21
-6.249999
 31
0.0
  0
LINE
  8
0
  6
CONTINUOUS
 62
    20
  5
42
 10
31.96307
 20
6.25
 30
0.0
 11
35.311979
 21
-1.030238
 31
0.0
  0
LINE
  8
0
  6
CONTINUOUS
 62
    20
  5
43
 10
-20.286931
 20
-2.25
 30
0.0
 11
-20.286931
 21
-6.25
 31
0.0
  0
LINE
  8
0
  6
CONTINUOUS
 62
    20
  5
44
 10
-7.286931
 20
-2.25
 30
0.0
 11
-7.286931
 21
-6.25
 31
0.0
  0
LINE
  8
0
  6
CONTINUOUS
 62
    20
  5
45
 10
-23.286931
 20
3.25
 30
0.0
 11
-15.536931
 21
3.25
 31
0.0
  0
LINE
  8
0
  6
CONTINUOUS
 62
    20
  5
46
 10
-10.286931
 20
3.25
 30
0.0
 11
-2.536931
 21
3.25
 31
0.0
  0
LINE
  8
0
  6
CONTINUOUS
 62
    20
  5
47
 10
-23.286931
 20
0.75
 30
0.0
 11
-15.536931
 21
0.75
 31
0.0
  0
LINE
  8
0
  6
CONTINUOUS
 62
    20
  5
48
 10
-10.286931
 20
0.75
 30
0.0
 11
-2.536931
 21
0.75
 31
0.0
  0
LINE
  8
0
  6
CONTINUOUS
 62
    20
  5
49
 10
-20.286931
 20
-2.25
 30
0.0
 11
-17.863629
 21
-2.25
 31
0.0
  0
LINE
  8
0
  6
CONTINUOUS
 62
    20
  5
4A
 10
-7.286931
 20
-2.25
 30
0.0
 11
-4.863633
 21
-2.25
 31
0.0
  0
LINE
  8
0
  6
CONTINUOUS
 62
    20
  5
4B
 10
-11.28693
 20
-6.250002
 30
0.0
 11
-14.299505
 21
-2.06587
 31
0.0
  0
LINE
  8
0
  6
CONTINUOUS
 62
    20
  5
4C
 10
-1.299506
 20
-2.065869
 30
0.0
 11
1.713069
 21
-6.250001
 31
0.0
  0
LINE
  8
0
  6
CONTINUOUS
 62
    20
  5
4D
 10
-14.983632
 20
-6.250002
 30
0.0
 11
-17.863632
 21
-2.250001
 31
0.0
  0
LINE
  8
0
  6
CONTINUOUS
 62
    20
  5
4E
 10
-4.863632
 20
-2.250002
 30
0.0
 11
-1.983632
 21
-6.250001
 31
0.0
  0
LINE
  8
0
  6
CONTINUOUS
 62
    20
  5
4F
 10
-10.286931
 20
6.25
 30
0.0
 11
-2.536931
 21
6.25
 31
0.0
  0
LINE
  8
0
  6
CONTINUOUS
 62
    20
  5
50
 10
-10.286931
 20
-6.25
 30
0.0
 11
-7.286931
 21
-6.25
 31
0.0
  0
LINE
  8
0
  6
CONTINUOUS
 62
    20
  5
51
 10
-23.286931
 20
-6.25
 30
0.0
 11
-20.286931
 21
-6.25
 31
0.0
  0
LINE
  8
0
  6
CONTINUOUS
 62
    20
  5
52
 10
-14.983632
 20
-6.25
 30
0.0
 11
-11.263905
 21
-6.25
 31
0.0
  0
LINE
  8
0
  6
CONTINUOUS
 62
    20
  5
53
 10
-27.696385
 20
-6.25
 30
0.0
 11
-24.286931
 21
-6.25
 31
0.0
  0
LINE
  8
0
  6
CONTINUOUS
 62
    20
  5
54
 10
-1.983632
 20
-6.25
 30
0.0
 11
1.713069
 21
-6.25
 31
0.0
  0
LINE
  8
0
  6
CONTINUOUS
 62
    20
  5
55
 10
34.410888
 20
-6.25
 30
0.0
 11
36.213069
 21
-6.25
 31
0.0
  0
LINE
  8
0
  6
CONTINUOUS
 62
    20
  5
56
 10
25.713069
 20
-6.25
 30
0.0
 11
27.515251
 21
-6.25
 31
0.0
  0
LINE
  8
0
  6
CONTINUOUS
 62
    20
  5
57
 10
19.963069
 20
6.25
 30
0.0
 11
23.265251
 21
6.25
 31
0.0
  0
LINE
  8
0
  6
CONTINUOUS
 62
    20
  5
58
 10
29.963069
 20
6.25
 30
0.0
 11
31.963069
 21
6.25
 31
0.0
  0
LINE
  8
0
  6
CONTINUOUS
 62
    20
  5
59
 10
38.660888
 20
6.25
 30
0.0
 11
41.963069
 21
6.25
 31
0.0
  0
LINE
  8
0
  6
CONTINUOUS
 62
    20
  5
5A
 10
-23.286931
 20
6.25
 30
0.0
 11
-15.536931
 21
6.25
 31
0.0
  0
LINE
  8
0
  6
CONTINUOUS
 62
    20
  5
5B
 10
-23.286931
 20
0.75
 30
0.0
 11
-23.286931
 21
-6.25
 31
0.0
  0
LINE
  8
0
  6
CONTINUOUS
 62
    20
  5
5C
 10
-10.286931
 20
0.75
 30
0.0
 11
-10.286931
 21
-6.25
 31
0.0
  0
ARC
  8
0
  6
CONTINUOUS
 62
    20
  5
5D
 10
-15.536931
 20
2.0
 30
0.0
 40
1.25
 50
269.999997
 51
90.000003
  0
ARC
  8
0
  6
CONTINUOUS
 62
    20
  5
5E
 10
-15.536931
 20
2.0
 30
0.0
 40
4.25
 50
286.927344
 51
90.000003
  0
ARC
  8
0
  6
CONTINUOUS
 62
    20
  5
5F
 10
-2.536931
 20
2.0
 30
0.0
 40
1.25
 50
269.999997
 51
90.000003
  0
ARC
  8
0
  6
CONTINUOUS
 62
    20
  5
60
 10
-2.536931
 20
2.0
 30
0.0
 40
4.25
 50
286.927344
 51
90.000003
  0
POLYLINE
  8
0
  6
CONTINUOUS
 62
    20
  5
61
 66
     1
 10
0.0
 20
0.0
 30
0.0
 70
     1
  0
VERTEX
  8
0
  6
CONTINUOUS
 62
    20
  5
3A8
 10
20.963069
 20
0.0
 30
0.0
  0
VERTEX
  8
0
  6
CONTINUOUS
 62
    20
  5
3A9
 10
20.92787
 20
0.61009
 30
0.0
  0
VERTEX
  8
0
  6
CONTINUOUS
 62
    20
  5
3AA
 10
20.822541
 20
1.215537
 30
0.0
  0
VERTEX
  8
0
  6
CONTINUOUS
 62
    20
  5
3AB
 10
20.647883
 20
1.811733
 30
0.0
  0
VERTEX
  8
0
  6
CONTINUOUS
 62
    20
  5
3AC
 10
20.405226
 20
2.394141
 30
0.0
  0
VERTEX
  8
0
  6
CONTINUOUS
 62
    20
  5
3AD
 10
20.096416
 20
2.958328
 30
0.0
  0
VERTEX
  8
0
  6
CONTINUOUS
 62
    20
  5
3AE
 10
19.723804
 20
3.5
 30
0.0
  0
VERTEX
  8
0
  6
CONTINUOUS
 62
    20
  5
3AF
 10
19.290226
 20
4.015035
 30
0.0
  0
VERTEX
  8
0
  6
CONTINUOUS
 62
    20
  5
3B0
 10
18.798981
 20
4.499513
 30
0.0
  0
VERTEX
  8
0
  6
CONTINUOUS
 62
    20
  5
3B1
 10
18.253807
 20
4.949747
 30
0.0
  0
VERTEX
  8
0
  6
CONTINUOUS
 62
    20
  5
3B2
 10
17.658855
 20
5.362311
 30
0.0
  0
VERTEX
  8
0
  6
CONTINUOUS
 62
    20
  5
3B3
 10
17.018651
 20
5.734064
 30
0.0
  0
VERTEX
  8
0
  6
CONTINUOUS
 62
    20
  5
3B4
 10
16.338069
 20
6.062178
 30
0.0
  0
VERTEX
  8
0
  6
CONTINUOUS
 62
    20
  5
3B5
 10
15.622288
 20
6.344155
 30
0.0
  0
VERTEX
  8
0
  6
CONTINUOUS
 62
    20
  5
3B6
 10
14.876756
 20
6.577848
 30
0.0
  0
VERTEX
  8
0
  6
CONTINUOUS
 62
    20
  5
3B7
 10
14.107146
 20
6.761481
 30
0.0
  0
VERTEX
  8
0
  6
CONTINUOUS
 62
    20
  5
3B8
 10
13.319315
 20
6.893654
 30
0.0
  0
VERTEX
  8
0
  6
CONTINUOUS
 62
    20
  5
3B9
 10
12.51926
 20
6.973363
 30
0.0
  0
VERTEX
  8
0
  6
CONTINUOUS
 62
    20
  5
3BA
 10
11.713069
 20
7.0
 30
0.0
  0
VERTEX
  8
0
  6
CONTINUOUS
 62
    20
  5
3BB
 10
10.906879
 20
6.973363
 30
0.0
  0
VERTEX
  8
0
  6
CONTINUOUS
 62
    20
  5
3BC
 10
10.106824
 20
6.893654
 30
0.0
  0
VERTEX
  8
0
  6
CONTINUOUS
 62
    20
  5
3BD
 10
9.318993
 20
6.761481
 30
0.0
  0
VERTEX
  8
0
  6
CONTINUOUS
 62
    20
  5
3BE
 10
8.549383
 20
6.577848
 30
0.0
  0
VERTEX
  8
0
  6
CONTINUOUS
 62
    20
  5
3BF
 10
7.803851
 20
6.344155
 30
0.0
  0
VERTEX
  8
0
  6
CONTINUOUS
 62
    20
  5
3C0
 10
7.088069
 20
6.062178
 30
0.0
  0
VERTEX
  8
0
  6
CONTINUOUS
 62
    20
  5
3C1
 10
6.407487
 20
5.734064
 30
0.0
  0
VERTEX
  8
0
  6
CONTINUOUS
 62
    20
  5
3C2
 10
5.767284
 20
5.362311
 30
0.0
  0
VERTEX
  8
0
  6
CONTINUOUS
 62
    20
  5
3C3
 10
5.172332
 20
4.949747
 30
0.0
  0
VERTEX
  8
0
  6
CONTINUOUS
 62
    20
  5
3C4
 10
4.627158
 20
4.499513
 30
0.0
  0
VERTEX
  8
0
  6
CONTINUOUS
 62
    20
  5
3C5
 10
4.135913
 20
4.015035
 30
0.0
  0
VERTEX
  8
0
  6
CONTINUOUS
 62
    20
  5
3C6
 10
3.702334
 20
3.5
 30
0.0
  0
VERTEX
  8
0
  6
CONTINUOUS
 62
    20
  5
3C7
 10
3.329722
 20
2.958328
 30
0.0
  0
VERTEX
  8
0
  6
CONTINUOUS
 62
    20
  5
3C8
 10
3.020913
 20
2.394141
 30
0.0
  0
VERTEX
  8
0
  6
CONTINUOUS
 62
    20
  5
3C9
 10
2.778256
 20
1.811733
 30
0.0
  0
VERTEX
  8
0
  6
CONTINUOUS
 62
    20
  5
3CA
 10
2.603598
 20
1.215537
 30
0.0
  0
VERTEX
  8
0
  6
CONTINUOUS
 62
    20
  5
3CB
 10
2.498268
 20
0.61009
 30
0.0
  0
VERTEX
  8
0
  6
CONTINUOUS
 62
    20
  5
3CC
 10
2.463069
 20
0.0
 30
0.0
  0
VERTEX
  8
0
  6
CONTINUOUS
 62
    20
  5
3CD
 10
2.498268
 20
-0.61009
 30
0.0
  0
VERTEX
  8
0
  6
CONTINUOUS
 62
    20
  5
3CE
 10
2.603598
 20
-1.215537
 30
0.0
  0
VERTEX
  8
0
  6
CONTINUOUS
 62
    20
  5
3CF
 10
2.778256
 20
-1.811733
 30
0.0
  0
VERTEX
  8
0
  6
CONTINUOUS
 62
    20
  5
3D0
 10
3.020913
 20
-2.394141
 30
0.0
  0
VERTEX
  8
0
  6
CONTINUOUS
 62
    20
  5
3D1
 10
3.329722
 20
-2.958328
 30
0.0
  0
VERTEX
  8
0
  6
CONTINUOUS
 62
    20
  5
3D2
 10
3.702334
 20
-3.5
 30
0.0
  0
VERTEX
  8
0
  6
CONTINUOUS
 62
    20
  5
3D3
 10
4.135913
 20
-4.015035
 30
0.0
  0
VERTEX
  8
0
  6
CONTINUOUS
 62
    20
  5
3D4
 10
4.627158
 20
-4.499513
 30
0.0
  0
VERTEX
  8
0
  6
CONTINUOUS
 62
    20
  5
3D5
 10
5.172332
 20
-4.949747
 30
0.0
  0
VERTEX
  8
0
  6
CONTINUOUS
 62
    20
  5
3D6
 10
5.767284
 20
-5.362311
 30
0.0
  0
VERTEX
  8
0
  6
CONTINUOUS
 62
    20
  5
3D7
 10
6.407487
 20
-5.734064
 30
0.0
  0
VERTEX
  8
0
  6
CONTINUOUS
 62
    20
  5
3D8
 10
7.088069
 20
-6.062178
 30
0.0
  0
VERTEX
  8
0
  6
CONTINUOUS
 62
    20
  5
3D9
 10
7.803851
 20
-6.344155
 30
0.0
  0
VERTEX
  8
0
  6
CONTINUOUS
 62
    20
  5
3DA
 10
8.549383
 20
-6.577848
 30
0.0
  0
VERTEX
  8
0
  6
CONTINUOUS
 62
    20
  5
3DB
 10
9.318993
 20
-6.761481
 30
0.0
  0
VERTEX
  8
0
  6
CONTINUOUS
 62
    20
  5
3DC
 10
10.106824
 20
-6.893654
 30
0.0
  0
VERTEX
  8
0
  6
CONTINUOUS
 62
    20
  5
3DD
 10
10.906879
 20
-6.973363
 30
0.0
  0
VERTEX
  8
0
  6
CONTINUOUS
 62
    20
  5
3DE
 10
11.713069
 20
-7.0
 30
0.0
  0
VERTEX
  8
0
  6
CONTINUOUS
 62
    20
  5
3DF
 10
12.51926
 20
-6.973363
 30
0.0
  0
VERTEX
  8
0
  6
CONTINUOUS
 62
    20
  5
3E0
 10
13.319315
 20
-6.893654
 30
0.0
  0
VERTEX
  8
0
  6
CONTINUOUS
 62
    20
  5
3E1
 10
14.107146
 20
-6.761481
 30
0.0
  0
VERTEX
  8
0
  6
CONTINUOUS
 62
    20
  5
3E2
 10
14.876756
 20
-6.577848
 30
0.0
  0
VERTEX
  8
0
  6
CONTINUOUS
 62
    20
  5
3E3
 10
15.622288
 20
-6.344155
 30
0.0
  0
VERTEX
  8
0
  6
CONTINUOUS
 62
    20
  5
3E4
 10
16.338069
 20
-6.062178
 30
0.0
  0
VERTEX
  8
0
  6
CONTINUOUS
 62
    20
  5
3E5
 10
17.018651
 20
-5.734064
 30
0.0
  0
VERTEX
  8
0
  6
CONTINUOUS
 62
    20
  5
3E6
 10
17.658855
 20
-5.362311
 30
0.0
  0
VERTEX
  8
0
  6
CONTINUOUS
 62
    20
  5
3E7
 10
18.253807
 20
-4.949747
 30
0.0
  0
VERTEX
  8
0
  6
CONTINUOUS
 62
    20
  5
3E8
 10
18.798981
 20
-4.499513
 30
0.0
  0
VERTEX
  8
0
  6
CONTINUOUS
 62
    20
  5
3E9
 10
19.290226
 20
-4.015035
 30
0.0
  0
VERTEX
  8
0
  6
CONTINUOUS
 62
    20
  5
3EA
 10
19.723804
 20
-3.5
 30
0.0
  0
VERTEX
  8
0
  6
CONTINUOUS
 62
    20
  5
3EB
 10
20.096416
 20
-2.958328
 30
0.0
  0
VERTEX
  8
0
  6
CONTINUOUS
 62
    20
  5
3EC
 10
20.405226
 20
-2.394141
 30
0.0
  0
VERTEX
  8
0
  6
CONTINUOUS
 62
    20
  5
3ED
 10
20.647883
 20
-1.811733
 30
0.0
  0
VERTEX
  8
0
  6
CONTINUOUS
 62
    20
  5
3EE
 10
20.822541
 20
-1.215537
 30
0.0
  0
VERTEX
  8
0
  6
CONTINUOUS
 62
    20
  5
3EF
 10
20.92787
 20
-0.61009
 30
0.0
  0
SEQEND
  8
0
  6
CONTINUOUS
 62
    20
  5
3F0
  0
POLYLINE
  8
0
  6
CONTINUOUS
 62
    20
  5
62
 66
     1
 10
0.0
 20
0.0
 30
0.0
 70
     1
  0
VERTEX
  8
0
  6
CONTINUOUS
 62
    20
  5
3F1
 10
18.463069
 20
0.0
 30
0.0
  0
VERTEX
  8
0
  6
CONTINUOUS
 62
    20
  5
3F2
 10
18.462681
 20
0.046039
 30
0.0
  0
VERTEX
  8
0
  6
CONTINUOUS
 62
    20
  5
3F3
 10
18.461521
 20
0.092104
 30
0.0
  0
VERTEX
  8
0
  6
CONTINUOUS
 62
    20
  5
3F4
 10
18.459593
 20
0.138178
 30
0.0
  0
VERTEX
  8
0
  6
CONTINUOUS
 62
    20
  5
3F5
 10
18.456905
 20
0.184243
 30
0.0
  0
VERTEX
  8
0
  6
CONTINUOUS
 62
    20
  5
3F6
 10
18.453462
 20
0.230282
 30
0.0
  0
VERTEX
  8
0
  6
CONTINUOUS
 62
    20
  5
3F7
 10
18.449271
 20
0.276278
 30
0.0
  0
VERTEX
  8
0
  6
CONTINUOUS
 62
    20
  5
3F8
 10
18.444336
 20
0.322214
 30
0.0
  0
VERTEX
  8
0
  6
CONTINUOUS
 62
    20
  5
3F9
 10
18.438664
 20
0.368073
 30
0.0
  0
VERTEX
  8
0
  6
CONTINUOUS
 62
    20
  5
3FA
 10
18.432261
 20
0.413837
 30
0.0
  0
VERTEX
  8
0
  6
CONTINUOUS
 62
    20
  5
3FB
 10
18.425133
 20
0.45949
 30
0.0
  0
VERTEX
  8
0
  6
CONTINUOUS
 62
    20
  5
3FC
 10
18.417286
 20
0.505014
 30
0.0
  0
VERTEX
  8
0
  6
CONTINUOUS
 62
    20
  5
3FD
 10
18.408724
 20
0.550391
 30
0.0
  0
VERTEX
  8
0
  6
CONTINUOUS
 62
    20
  5
3FE
 10
18.399456
 20
0.595606
 30
0.0
  0
VERTEX
  8
0
  6
CONTINUOUS
 62
    20
  5
3FF
 10
18.389485
 20
0.64064
 30
0.0
  0
VERTEX
  8
0
  6
CONTINUOUS
 62
    20
  5
400
 10
18.378819
 20
0.685477
 30
0.0
  0
VERTEX
  8
0
  6
CONTINUOUS
 62
    20
  5
401
 10
18.367463
 20
0.730099
 30
0.0
  0
VERTEX
  8
0
  6
CONTINUOUS
 62
    20
  5
402
 10
18.354229
 20
0.778774
 30
0.0
  0
VERTEX
  8
0
  6
CONTINUOUS
 62
    20
  5
403
 10
18.340176
 20
0.827255
 30
0.0
  0
VERTEX
  8
0
  6
CONTINUOUS
 62
    20
  5
404
 10
18.325318
 20
0.875528
 30
0.0
  0
VERTEX
  8
0
  6
CONTINUOUS
 62
    20
  5
405
 10
18.309671
 20
0.923582
 30
0.0
  0
VERTEX
  8
0
  6
CONTINUOUS
 62
    20
  5
406
 10
18.29325
 20
0.971403
 30
0.0
  0
VERTEX
  8
0
  6
CONTINUOUS
 62
    20
  5
407
 10
18.276071
 20
1.018979
 30
0.0
  0
VERTEX
  8
0
  6
CONTINUOUS
 62
    20
  5
408
 10
18.258149
 20
1.066297
 30
0.0
  0
VERTEX
  8
0
  6
CONTINUOUS
 62
    20
  5
409
 10
18.2395
 20
1.113344
 30
0.0
  0
VERTEX
  8
0
  6
CONTINUOUS
 62
    20
  5
40A
 10
18.220139
 20
1.160107
 30
0.0
  0
VERTEX
  8
0
  6
CONTINUOUS
 62
    20
  5
40B
 10
18.200081
 20
1.206575
 30
0.0
  0
VERTEX
  8
0
  6
CONTINUOUS
 62
    20
  5
40C
 10
18.179343
 20
1.252733
 30
0.0
  0
VERTEX
  8
0
  6
CONTINUOUS
 62
    20
  5
40D
 10
18.157938
 20
1.29857
 30
0.0
  0
VERTEX
  8
0
  6
CONTINUOUS
 62
    20
  5
40E
 10
18.135883
 20
1.344072
 30
0.0
  0
VERTEX
  8
0
  6
CONTINUOUS
 62
    20
  5
40F
 10
18.113193
 20
1.389227
 30
0.0
  0
VERTEX
  8
0
  6
CONTINUOUS
 62
    20
  5
410
 10
18.089883
 20
1.434022
 30
0.0
  0
VERTEX
  8
0
  6
CONTINUOUS
 62
    20
  5
411
 10
18.065969
 20
1.478445
 30
0.0
  0
VERTEX
  8
0
  6
CONTINUOUS
 62
    20
  5
412
 10
18.03776
 20
1.529036
 30
0.0
  0
VERTEX
  8
0
  6
CONTINUOUS
 62
    20
  5
413
 10
18.008754
 20
1.579211
 30
0.0
  0
VERTEX
  8
0
  6
CONTINUOUS
 62
    20
  5
414
 10
17.978971
 20
1.628962
 30
0.0
  0
VERTEX
  8
0
  6
CONTINUOUS
 62
    20
  5
415
 10
17.948431
 20
1.678285
 30
0.0
  0
VERTEX
  8
0
  6
CONTINUOUS
 62
    20
  5
416
 10
17.917153
 20
1.727172
 30
0.0
  0
VERTEX
  8
0
  6
CONTINUOUS
 62
    20
  5
417
 10
17.885158
 20
1.775616
 30
0.0
  0
VERTEX
  8
0
  6
CONTINUOUS
 62
    20
  5
418
 10
17.852465
 20
1.823612
 30
0.0
  0
VERTEX
  8
0
  6
CONTINUOUS
 62
    20
  5
419
 10
17.819095
 20
1.871152
 30
0.0
  0
VERTEX
  8
0
  6
CONTINUOUS
 62
    20
  5
41A
 10
17.785067
 20
1.918231
 30
0.0
  0
VERTEX
  8
0
  6
CONTINUOUS
 62
    20
  5
41B
 10
17.750401
 20
1.964842
 30
0.0
  0
VERTEX
  8
0
  6
CONTINUOUS
 62
    20
  5
41C
 10
17.715117
 20
2.010978
 30
0.0
  0
VERTEX
  8
0
  6
CONTINUOUS
 62
    20
  5
41D
 10
17.679235
 20
2.056632
 30
0.0
  0
VERTEX
  8
0
  6
CONTINUOUS
 62
    20
  5
41E
 10
17.642775
 20
2.101799
 30
0.0
  0
VERTEX
  8
0
  6
CONTINUOUS
 62
    20
  5
41F
 10
17.605756
 20
2.146472
 30
0.0
  0
VERTEX
  8
0
  6
CONTINUOUS
 62
    20
  5
420
 10
17.5682
 20
2.190644
 30
0.0
  0
VERTEX
  8
0
  6
CONTINUOUS
 62
    20
  5
421
 10
17.530124
 20
2.234308
 30
0.0
  0
VERTEX
  8
0
  6
CONTINUOUS
 62
    20
  5
422
 10
17.48565
 20
2.283972
 30
0.0
  0
VERTEX
  8
0
  6
CONTINUOUS
 62
    20
  5
423
 10
17.440472
 20
2.333036
 30
0.0
  0
VERTEX
  8
0
  6
CONTINUOUS
 62
    20
  5
424
 10
17.394609
 20
2.3815
 30
0.0
  0
VERTEX
  8
0
  6
CONTINUOUS
 62
    20
  5
425
 10
17.348082
 20
2.429361
 30
0.0
  0
VERTEX
  8
0
  6
CONTINUOUS
 62
    20
  5
426
 10
17.300911
 20
2.476618
 30
0.0
  0
VERTEX
  8
0
  6
CONTINUOUS
 62
    20
  5
427
 10
17.253115
 20
2.523271
 30
0.0
  0
VERTEX
  8
0
  6
CONTINUOUS
 62
    20
  5
428
 10
17.204714
 20
2.569317
 30
0.0
  0
VERTEX
  8
0
  6
CONTINUOUS
 62
    20
  5
429
 10
17.155729
 20
2.614755
 30
0.0
  0
VERTEX
  8
0
  6
CONTINUOUS
 62
    20
  5
42A
 10
17.10618
 20
2.659585
 30
0.0
  0
VERTEX
  8
0
  6
CONTINUOUS
 62
    20
  5
42B
 10
17.056086
 20
2.703804
 30
0.0
  0
VERTEX
  8
0
  6
CONTINUOUS
 62
    20
  5
42C
 10
17.005467
 20
2.747412
 30
0.0
  0
VERTEX
  8
0
  6
CONTINUOUS
 62
    20
  5
42D
 10
16.954343
 20
2.790407
 30
0.0
  0
VERTEX
  8
0
  6
CONTINUOUS
 62
    20
  5
42E
 10
16.902735
 20
2.832788
 30
0.0
  0
VERTEX
  8
0
  6
CONTINUOUS
 62
    20
  5
42F
 10
16.850662
 20
2.874553
 30
0.0
  0
VERTEX
  8
0
  6
CONTINUOUS
 62
    20
  5
430
 10
16.798143
 20
2.915701
 30
0.0
  0
VERTEX
  8
0
  6
CONTINUOUS
 62
    20
  5
431
 10
16.7452
 20
2.956232
 30
0.0
  0
VERTEX
  8
0
  6
CONTINUOUS
 62
    20
  5
432
 10
16.685029
 20
3.001183
 30
0.0
  0
VERTEX
  8
0
  6
CONTINUOUS
 62
    20
  5
433
 10
16.624287
 20
3.045409
 30
0.0
  0
VERTEX
  8
0
  6
CONTINUOUS
 62
    20
  5
434
 10
16.562994
 20
3.088911
 30
0.0
  0
VERTEX
  8
0
  6
CONTINUOUS
 62
    20
  5
435
 10
16.501165
 20
3.131691
 30
0.0
  0
VERTEX
  8
0
  6
CONTINUOUS
 62
    20
  5
436
 10
16.43882
 20
3.173749
 30
0.0
  0
VERTEX
  8
0
  6
CONTINUOUS
 62
    20
  5
437
 10
16.375976
 20
3.215089
 30
0.0
  0
VERTEX
  8
0
  6
CONTINUOUS
 62
    20
  5
438
 10
16.312651
 20
3.25571
 30
0.0
  0
VERTEX
  8
0
  6
CONTINUOUS
 62
    20
  5
439
 10
16.248862
 20
3.295616
 30
0.0
  0
VERTEX
  8
0
  6
CONTINUOUS
 62
    20
  5
43A
 10
16.184628
 20
3.334808
 30
0.0
  0
VERTEX
  8
0
  6
CONTINUOUS
 62
    20
  5
43B
 10
16.119965
 20
3.373286
 30
0.0
  0
VERTEX
  8
0
  6
CONTINUOUS
 62
    20
  5
43C
 10
16.054891
 20
3.411054
 30
0.0
  0
VERTEX
  8
0
  6
CONTINUOUS
 62
    20
  5
43D
 10
15.989426
 20
3.448112
 30
0.0
  0
VERTEX
  8
0
  6
CONTINUOUS
 62
    20
  5
43E
 10
15.923585
 20
3.484463
 30
0.0
  0
VERTEX
  8
0
  6
CONTINUOUS
 62
    20
  5
43F
 10
15.857387
 20
3.520107
 30
0.0
  0
VERTEX
  8
0
  6
CONTINUOUS
 62
    20
  5
440
 10
15.790849
 20
3.555046
 30
0.0
  0
VERTEX
  8
0
  6
CONTINUOUS
 62
    20
  5
441
 10
15.72399
 20
3.589283
 30
0.0
  0
VERTEX
  8
0
  6
CONTINUOUS
 62
    20
  5
442
 10
15.650454
 20
3.625956
 30
0.0
  0
VERTEX
  8
0
  6
CONTINUOUS
 62
    20
  5
443
 10
15.576496
 20
3.661831
 30
0.0
  0
VERTEX
  8
0
  6
CONTINUOUS
 62
    20
  5
444
 10
15.502131
 20
3.696909
 30
0.0
  0
VERTEX
  8
0
  6
CONTINUOUS
 62
    20
  5
445
 10
15.427372
 20
3.731194
 30
0.0
  0
VERTEX
  8
0
  6
CONTINUOUS
 62
    20
  5
446
 10
15.352236
 20
3.764687
 30
0.0
  0
VERTEX
  8
0
  6
CONTINUOUS
 62
    20
  5
447
 10
15.276737
 20
3.797391
 30
0.0
  0
VERTEX
  8
0
  6
CONTINUOUS
 62
    20
  5
448
 10
15.200891
 20
3.82931
 30
0.0
  0
VERTEX
  8
0
  6
CONTINUOUS
 62
    20
  5
449
 10
15.124713
 20
3.860444
 30
0.0
  0
VERTEX
  8
0
  6
CONTINUOUS
 62
    20
  5
44A
 10
15.048216
 20
3.890798
 30
0.0
  0
VERTEX
  8
0
  6
CONTINUOUS
 62
    20
  5
44B
 10
14.971418
 20
3.920372
 30
0.0
  0
VERTEX
  8
0
  6
CONTINUOUS
 62
    20
  5
44C
 10
14.894332
 20
3.949171
 30
0.0
  0
VERTEX
  8
0
  6
CONTINUOUS
 62
    20
  5
44D
 10
14.816974
 20
3.977196
 30
0.0
  0
VERTEX
  8
0
  6
CONTINUOUS
 62
    20
  5
44E
 10
14.739359
 20
4.004449
 30
0.0
  0
VERTEX
  8
0
  6
CONTINUOUS
 62
    20
  5
44F
 10
14.661501
 20
4.030935
 30
0.0
  0
VERTEX
  8
0
  6
CONTINUOUS
 62
    20
  5
450
 10
14.583417
 20
4.056654
 30
0.0
  0
VERTEX
  8
0
  6
CONTINUOUS
 62
    20
  5
451
 10
14.50512
 20
4.081609
 30
0.0
  0
VERTEX
  8
0
  6
CONTINUOUS
 62
    20
  5
452
 10
14.421787
 20
4.107268
 30
0.0
  0
VERTEX
  8
0
  6
CONTINUOUS
 62
    20
  5
453
 10
14.338176
 20
4.132094
 30
0.0
  0
VERTEX
  8
0
  6
CONTINUOUS
 62
    20
  5
454
 10
14.254297
 20
4.15609
 30
0.0
  0
VERTEX
  8
0
  6
CONTINUOUS
 62
    20
  5
455
 10
14.170166
 20
4.179257
 30
0.0
  0
VERTEX
  8
0
  6
CONTINUOUS
 62
    20
  5
456
 10
14.085793
 20
4.201597
 30
0.0
  0
VERTEX
  8
0
  6
CONTINUOUS
 62
    20
  5
457
 10
14.001194
 20
4.223113
 30
0.0
  0
VERTEX
  8
0
  6
CONTINUOUS
 62
    20
  5
458
 10
13.916379
 20
4.243805
 30
0.0
  0
VERTEX
  8
0
  6
CONTINUOUS
 62
    20
  5
459
 10
13.831363
 20
4.263677
 30
0.0
  0
VERTEX
  8
0
  6
CONTINUOUS
 62
    20
  5
45A
 10
13.746158
 20
4.28273
 30
0.0
  0
VERTEX
  8
0
  6
CONTINUOUS
 62
    20
  5
45B
 10
13.660778
 20
4.300967
 30
0.0
  0
VERTEX
  8
0
  6
CONTINUOUS
 62
    20
  5
45C
 10
13.575234
 20
4.318389
 30
0.0
  0
VERTEX
  8
0
  6
CONTINUOUS
 62
    20
  5
45D
 10
13.489541
 20
4.334998
 30
0.0
  0
VERTEX
  8
0
  6
CONTINUOUS
 62
    20
  5
45E
 10
13.40371
 20
4.350797
 30
0.0
  0
VERTEX
  8
0
  6
CONTINUOUS
 62
    20
  5
45F
 10
13.317756
 20
4.365786
 30
0.0
  0
VERTEX
  8
0
  6
CONTINUOUS
 62
    20
  5
460
 10
13.23169
 20
4.37997
 30
0.0
  0
VERTEX
  8
0
  6
CONTINUOUS
 62
    20
  5
461
 10
13.145527
 20
4.393348
 30
0.0
  0
VERTEX
  8
0
  6
CONTINUOUS
 62
    20
  5
462
 10
13.056674
 20
4.406291
 30
0.0
  0
VERTEX
  8
0
  6
CONTINUOUS
 62
    20
  5
463
 10
12.967676
 20
4.418393
 30
0.0
  0
VERTEX
  8
0
  6
CONTINUOUS
 62
    20
  5
464
 10
12.878544
 20
4.429656
 30
0.0
  0
VERTEX
  8
0
  6
CONTINUOUS
 62
    20
  5
465
 10
12.789291
 20
4.44008
 30
0.0
  0
VERTEX
  8
0
  6
CONTINUOUS
 62
    20
  5
466
 10
12.699928
 20
4.449665
 30
0.0
  0
VERTEX
  8
0
  6
CONTINUOUS
 62
    20
  5
467
 10
12.610467
 20
4.458414
 30
0.0
  0
VERTEX
  8
0
  6
CONTINUOUS
 62
    20
  5
468
 10
12.52092
 20
4.466325
 30
0.0
  0
VERTEX
  8
0
  6
CONTINUOUS
 62
    20
  5
469
 10
12.431298
 20
4.473401
 30
0.0
  0
VERTEX
  8
0
  6
CONTINUOUS
 62
    20
  5
46A
 10
12.341614
 20
4.479641
 30
0.0
  0
VERTEX
  8
0
  6
CONTINUOUS
 62
    20
  5
46B
 10
12.25188
 20
4.485047
 30
0.0
  0
VERTEX
  8
0
  6
CONTINUOUS
 62
    20
  5
46C
 10
12.162106
 20
4.489619
 30
0.0
  0
VERTEX
  8
0
  6
CONTINUOUS
 62
    20
  5
46D
 10
12.072306
 20
4.493358
 30
0.0
  0
VERTEX
  8
0
  6
CONTINUOUS
 62
    20
  5
46E
 10
11.98249
 20
4.496265
 30
0.0
  0
VERTEX
  8
0
  6
CONTINUOUS
 62
    20
  5
46F
 10
11.892671
 20
4.498341
 30
0.0
  0
VERTEX
  8
0
  6
CONTINUOUS
 62
    20
  5
470
 10
11.80286
 20
4.499585
 30
0.0
  0
VERTEX
  8
0
  6
CONTINUOUS
 62
    20
  5
471
 10
11.713069
 20
4.5
 30
0.0
  0
VERTEX
  8
0
  6
CONTINUOUS
 62
    20
  5
472
 10
11.623279
 20
4.499585
 30
0.0
  0
VERTEX
  8
0
  6
CONTINUOUS
 62
    20
  5
473
 10
11.533468
 20
4.498341
 30
0.0
  0
VERTEX
  8
0
  6
CONTINUOUS
 62
    20
  5
474
 10
11.443649
 20
4.496265
 30
0.0
  0
VERTEX
  8
0
  6
CONTINUOUS
 62
    20
  5
475
 10
11.353833
 20
4.493358
 30
0.0
  0
VERTEX
  8
0
  6
CONTINUOUS
 62
    20
  5
476
 10
11.264033
 20
4.489619
 30
0.0
  0
VERTEX
  8
0
  6
CONTINUOUS
 62
    20
  5
477
 10
11.174259
 20
4.485047
 30
0.0
  0
VERTEX
  8
0
  6
CONTINUOUS
 62
    20
  5
478
 10
11.084525
 20
4.479641
 30
0.0
  0
VERTEX
  8
0
  6
CONTINUOUS
 62
    20
  5
479
 10
10.994841
 20
4.473401
 30
0.0
  0
VERTEX
  8
0
  6
CONTINUOUS
 62
    20
  5
47A
 10
10.905219
 20
4.466325
 30
0.0
  0
VERTEX
  8
0
  6
CONTINUOUS
 62
    20
  5
47B
 10
10.815672
 20
4.458414
 30
0.0
  0
VERTEX
  8
0
  6
CONTINUOUS
 62
    20
  5
47C
 10
10.726211
 20
4.449665
 30
0.0
  0
VERTEX
  8
0
  6
CONTINUOUS
 62
    20
  5
47D
 10
10.636848
 20
4.44008
 30
0.0
  0
VERTEX
  8
0
  6
CONTINUOUS
 62
    20
  5
47E
 10
10.547595
 20
4.429656
 30
0.0
  0
VERTEX
  8
0
  6
CONTINUOUS
 62
    20
  5
47F
 10
10.458463
 20
4.418393
 30
0.0
  0
VERTEX
  8
0
  6
CONTINUOUS
 62
    20
  5
480
 10
10.369465
 20
4.406291
 30
0.0
  0
VERTEX
  8
0
  6
CONTINUOUS
 62
    20
  5
481
 10
10.280612
 20
4.393348
 30
0.0
  0
VERTEX
  8
0
  6
CONTINUOUS
 62
    20
  5
482
 10
10.194449
 20
4.37997
 30
0.0
  0
VERTEX
  8
0
  6
CONTINUOUS
 62
    20
  5
483
 10
10.108383
 20
4.365786
 30
0.0
  0
VERTEX
  8
0
  6
CONTINUOUS
 62
    20
  5
484
 10
10.022429
 20
4.350797
 30
0.0
  0
VERTEX
  8
0
  6
CONTINUOUS
 62
    20
  5
485
 10
9.936598
 20
4.334998
 30
0.0
  0
VERTEX
  8
0
  6
CONTINUOUS
 62
    20
  5
486
 10
9.850905
 20
4.318389
 30
0.0
  0
VERTEX
  8
0
  6
CONTINUOUS
 62
    20
  5
487
 10
9.765361
 20
4.300967
 30
0.0
  0
VERTEX
  8
0
  6
CONTINUOUS
 62
    20
  5
488
 10
9.679981
 20
4.28273
 30
0.0
  0
VERTEX
  8
0
  6
CONTINUOUS
 62
    20
  5
489
 10
9.594776
 20
4.263677
 30
0.0
  0
VERTEX
  8
0
  6
CONTINUOUS
 62
    20
  5
48A
 10
9.50976
 20
4.243805
 30
0.0
  0
VERTEX
  8
0
  6
CONTINUOUS
 62
    20
  5
48B
 10
9.424945
 20
4.223113
 30
0.0
  0
VERTEX
  8
0
  6
CONTINUOUS
 62
    20
  5
48C
 10
9.340345
 20
4.201597
 30
0.0
  0
VERTEX
  8
0
  6
CONTINUOUS
 62
    20
  5
48D
 10
9.255973
 20
4.179257
 30
0.0
  0
VERTEX
  8
0
  6
CONTINUOUS
 62
    20
  5
48E
 10
9.171841
 20
4.15609
 30
0.0
  0
VERTEX
  8
0
  6
CONTINUOUS
 62
    20
  5
48F
 10
9.087963
 20
4.132094
 30
0.0
  0
VERTEX
  8
0
  6
CONTINUOUS
 62
    20
  5
490
 10
9.004351
 20
4.107268
 30
0.0
  0
VERTEX
  8
0
  6
CONTINUOUS
 62
    20
  5
491
 10
8.921019
 20
4.081609
 30
0.0
  0
VERTEX
  8
0
  6
CONTINUOUS
 62
    20
  5
492
 10
8.842722
 20
4.056654
 30
0.0
  0
VERTEX
  8
0
  6
CONTINUOUS
 62
    20
  5
493
 10
8.764638
 20
4.030935
 30
0.0
  0
VERTEX
  8
0
  6
CONTINUOUS
 62
    20
  5
494
 10
8.68678
 20
4.004449
 30
0.0
  0
VERTEX
  8
0
  6
CONTINUOUS
 62
    20
  5
495
 10
8.609165
 20
3.977196
 30
0.0
  0
VERTEX
  8
0
  6
CONTINUOUS
 62
    20
  5
496
 10
8.531807
 20
3.949171
 30
0.0
  0
VERTEX
  8
0
  6
CONTINUOUS
 62
    20
  5
497
 10
8.454721
 20
3.920372
 30
0.0
  0
VERTEX
  8
0
  6
CONTINUOUS
 62
    20
  5
498
 10
8.377922
 20
3.890798
 30
0.0
  0
VERTEX
  8
0
  6
CONTINUOUS
 62
    20
  5
499
 10
8.301426
 20
3.860444
 30
0.0
  0
VERTEX
  8
0
  6
CONTINUOUS
 62
    20
  5
49A
 10
8.225248
 20
3.82931
 30
0.0
  0
VERTEX
  8
0
  6
CONTINUOUS
 62
    20
  5
49B
 10
8.149402
 20
3.797391
 30
0.0
  0
VERTEX
  8
0
  6
CONTINUOUS
 62
    20
  5
49C
 10
8.073903
 20
3.764687
 30
0.0
  0
VERTEX
  8
0
  6
CONTINUOUS
 62
    20
  5
49D
 10
7.998767
 20
3.731194
 30
0.0
  0
VERTEX
  8
0
  6
CONTINUOUS
 62
    20
  5
49E
 10
7.924008
 20
3.696909
 30
0.0
  0
VERTEX
  8
0
  6
CONTINUOUS
 62
    20
  5
49F
 10
7.849643
 20
3.661831
 30
0.0
  0
VERTEX
  8
0
  6
CONTINUOUS
 62
    20
  5
4A0
 10
7.775685
 20
3.625956
 30
0.0
  0
VERTEX
  8
0
  6
CONTINUOUS
 62
    20
  5
4A1
 10
7.702149
 20
3.589283
 30
0.0
  0
VERTEX
  8
0
  6
CONTINUOUS
 62
    20
  5
4A2
 10
7.63529
 20
3.555046
 30
0.0
  0
VERTEX
  8
0
  6
CONTINUOUS
 62
    20
  5
4A3
 10
7.568752
 20
3.520107
 30
0.0
  0
VERTEX
  8
0
  6
CONTINUOUS
 62
    20
  5
4A4
 10
7.502554
 20
3.484463
 30
0.0
  0
VERTEX
  8
0
  6
CONTINUOUS
 62
    20
  5
4A5
 10
7.436713
 20
3.448112
 30
0.0
  0
VERTEX
  8
0
  6
CONTINUOUS
 62
    20
  5
4A6
 10
7.371247
 20
3.411054
 30
0.0
  0
VERTEX
  8
0
  6
CONTINUOUS
 62
    20
  5
4A7
 10
7.306174
 20
3.373286
 30
0.0
  0
VERTEX
  8
0
  6
CONTINUOUS
 62
    20
  5
4A8
 10
7.241511
 20
3.334808
 30
0.0
  0
VERTEX
  8
0
  6
CONTINUOUS
 62
    20
  5
4A9
 10
7.177277
 20
3.295616
 30
0.0
  0
VERTEX
  8
0
  6
CONTINUOUS
 62
    20
  5
4AA
 10
7.113488
 20
3.25571
 30
0.0
  0
VERTEX
  8
0
  6
CONTINUOUS
 62
    20
  5
4AB
 10
7.050162
 20
3.215089
 30
0.0
  0
VERTEX
  8
0
  6
CONTINUOUS
 62
    20
  5
4AC
 10
6.987318
 20
3.173749
 30
0.0
  0
VERTEX
  8
0
  6
CONTINUOUS
 62
    20
  5
4AD
 10
6.924973
 20
3.131691
 30
0.0
  0
VERTEX
  8
0
  6
CONTINUOUS
 62
    20
  5
4AE
 10
6.863145
 20
3.088911
 30
0.0
  0
VERTEX
  8
0
  6
CONTINUOUS
 62
    20
  5
4AF
 10
6.801852
 20
3.045409
 30
0.0
  0
VERTEX
  8
0
  6
CONTINUOUS
 62
    20
  5
4B0
 10
6.74111
 20
3.001183
 30
0.0
  0
VERTEX
  8
0
  6
CONTINUOUS
 62
    20
  5
4B1
 10
6.680938
 20
2.956232
 30
0.0
  0
VERTEX
  8
0
  6
CONTINUOUS
 62
    20
  5
4B2
 10
6.627995
 20
2.915701
 30
0.0
  0
VERTEX
  8
0
  6
CONTINUOUS
 62
    20
  5
4B3
 10
6.575477
 20
2.874553
 30
0.0
  0
VERTEX
  8
0
  6
CONTINUOUS
 62
    20
  5
4B4
 10
6.523404
 20
2.832788
 30
0.0
  0
VERTEX
  8
0
  6
CONTINUOUS
 62
    20
  5
4B5
 10
6.471796
 20
2.790407
 30
0.0
  0
VERTEX
  8
0
  6
CONTINUOUS
 62
    20
  5
4B6
 10
6.420672
 20
2.747412
 30
0.0
  0
VERTEX
  8
0
  6
CONTINUOUS
 62
    20
  5
4B7
 10
6.370053
 20
2.703804
 30
0.0
  0
VERTEX
  8
0
  6
CONTINUOUS
 62
    20
  5
4B8
 10
6.319959
 20
2.659585
 30
0.0
  0
VERTEX
  8
0
  6
CONTINUOUS
 62
    20
  5
4B9
 10
6.270409
 20
2.614755
 30
0.0
  0
VERTEX
  8
0
  6
CONTINUOUS
 62
    20
  5
4BA
 10
6.221424
 20
2.569317
 30
0.0
  0
VERTEX
  8
0
  6
CONTINUOUS
 62
    20
  5
4BB
 10
6.173024
 20
2.523271
 30
0.0
  0
VERTEX
  8
0
  6
CONTINUOUS
 62
    20
  5
4BC
 10
6.125228
 20
2.476618
 30
0.0
  0
VERTEX
  8
0
  6
CONTINUOUS
 62
    20
  5
4BD
 10
6.078057
 20
2.429361
 30
0.0
  0
VERTEX
  8
0
  6
CONTINUOUS
 62
    20
  5
4BE
 10
6.03153
 20
2.3815
 30
0.0
  0
VERTEX
  8
0
  6
CONTINUOUS
 62
    20
  5
4BF
 10
5.985667
 20
2.333036
 30
0.0
  0
VERTEX
  8
0
  6
CONTINUOUS
 62
    20
  5
4C0
 10
5.940489
 20
2.283972
 30
0.0
  0
VERTEX
  8
0
  6
CONTINUOUS
 62
    20
  5
4C1
 10
5.896015
 20
2.234308
 30
0.0
  0
VERTEX
  8
0
  6
CONTINUOUS
 62
    20
  5
4C2
 10
5.857939
 20
2.190644
 30
0.0
  0
VERTEX
  8
0
  6
CONTINUOUS
 62
    20
  5
4C3
 10
5.820383
 20
2.146472
 30
0.0
  0
VERTEX
  8
0
  6
CONTINUOUS
 62
    20
  5
4C4
 10
5.783364
 20
2.101799
 30
0.0
  0
VERTEX
  8
0
  6
CONTINUOUS
 62
    20
  5
4C5
 10
5.746904
 20
2.056632
 30
0.0
  0
VERTEX
  8
0
  6
CONTINUOUS
 62
    20
  5
4C6
 10
5.711022
 20
2.010978
 30
0.0
  0
VERTEX
  8
0
  6
CONTINUOUS
 62
    20
  5
4C7
 10
5.675738
 20
1.964842
 30
0.0
  0
VERTEX
  8
0
  6
CONTINUOUS
 62
    20
  5
4C8
 10
5.641072
 20
1.918231
 30
0.0
  0
VERTEX
  8
0
  6
CONTINUOUS
 62
    20
  5
4C9
 10
5.607044
 20
1.871152
 30
0.0
  0
VERTEX
  8
0
  6
CONTINUOUS
 62
    20
  5
4CA
 10
5.573674
 20
1.823612
 30
0.0
  0
VERTEX
  8
0
  6
CONTINUOUS
 62
    20
  5
4CB
 10
5.540981
 20
1.775616
 30
0.0
  0
VERTEX
  8
0
  6
CONTINUOUS
 62
    20
  5
4CC
 10
5.508986
 20
1.727172
 30
0.0
  0
VERTEX
  8
0
  6
CONTINUOUS
 62
    20
  5
4CD
 10
5.477708
 20
1.678285
 30
0.0
  0
VERTEX
  8
0
  6
CONTINUOUS
 62
    20
  5
4CE
 10
5.447168
 20
1.628962
 30
0.0
  0
VERTEX
  8
0
  6
CONTINUOUS
 62
    20
  5
4CF
 10
5.417384
 20
1.579211
 30
0.0
  0
VERTEX
  8
0
  6
CONTINUOUS
 62
    20
  5
4D0
 10
5.388379
 20
1.529036
 30
0.0
  0
VERTEX
  8
0
  6
CONTINUOUS
 62
    20
  5
4D1
 10
5.36017
 20
1.478445
 30
0.0
  0
VERTEX
  8
0
  6
CONTINUOUS
 62
    20
  5
4D2
 10
5.336256
 20
1.434022
 30
0.0
  0
VERTEX
  8
0
  6
CONTINUOUS
 62
    20
  5
4D3
 10
5.312946
 20
1.389227
 30
0.0
  0
VERTEX
  8
0
  6
CONTINUOUS
 62
    20
  5
4D4
 10
5.290256
 20
1.344072
 30
0.0
  0
VERTEX
  8
0
  6
CONTINUOUS
 62
    20
  5
4D5
 10
5.268201
 20
1.29857
 30
0.0
  0
VERTEX
  8
0
  6
CONTINUOUS
 62
    20
  5
4D6
 10
5.246796
 20
1.252733
 30
0.0
  0
VERTEX
  8
0
  6
CONTINUOUS
 62
    20
  5
4D7
 10
5.226057
 20
1.206575
 30
0.0
  0
VERTEX
  8
0
  6
CONTINUOUS
 62
    20
  5
4D8
 10
5.206
 20
1.160107
 30
0.0
  0
VERTEX
  8
0
  6
CONTINUOUS
 62
    20
  5
4D9
 10
5.186639
 20
1.113344
 30
0.0
  0
VERTEX
  8
0
  6
CONTINUOUS
 62
    20
  5
4DA
 10
5.16799
 20
1.066297
 30
0.0
  0
VERTEX
  8
0
  6
CONTINUOUS
 62
    20
  5
4DB
 10
5.150068
 20
1.018979
 30
0.0
  0
VERTEX
  8
0
  6
CONTINUOUS
 62
    20
  5
4DC
 10
5.132889
 20
0.971403
 30
0.0
  0
VERTEX
  8
0
  6
CONTINUOUS
 62
    20
  5
4DD
 10
5.116468
 20
0.923582
 30
0.0
  0
VERTEX
  8
0
  6
CONTINUOUS
 62
    20
  5
4DE
 10
5.100821
 20
0.875528
 30
0.0
  0
VERTEX
  8
0
  6
CONTINUOUS
 62
    20
  5
4DF
 10
5.085963
 20
0.827255
 30
0.0
  0
VERTEX
  8
0
  6
CONTINUOUS
 62
    20
  5
4E0
 10
5.07191
 20
0.778774
 30
0.0
  0
VERTEX
  8
0
  6
CONTINUOUS
 62
    20
  5
4E1
 10
5.058676
 20
0.730099
 30
0.0
  0
VERTEX
  8
0
  6
CONTINUOUS
 62
    20
  5
4E2
 10
5.04732
 20
0.685477
 30
0.0
  0
VERTEX
  8
0
  6
CONTINUOUS
 62
    20
  5
4E3
 10
5.036654
 20
0.64064
 30
0.0
  0
VERTEX
  8
0
  6
CONTINUOUS
 62
    20
  5
4E4
 10
5.026683
 20
0.595606
 30
0.0
  0
VERTEX
  8
0
  6
CONTINUOUS
 62
    20
  5
4E5
 10
5.017414
 20
0.550391
 30
0.0
  0
VERTEX
  8
0
  6
CONTINUOUS
 62
    20
  5
4E6
 10
5.008853
 20
0.505014
 30
0.0
  0
VERTEX
  8
0
  6
CONTINUOUS
 62
    20
  5
4E7
 10
5.001006
 20
0.45949
 30
0.0
  0
VERTEX
  8
0
  6
CONTINUOUS
 62
    20
  5
4E8
 10
4.993877
 20
0.413837
 30
0.0
  0
VERTEX
  8
0
  6
CONTINUOUS
 62
    20
  5
4E9
 10
4.987475
 20
0.368073
 30
0.0
  0
VERTEX
  8
0
  6
CONTINUOUS
 62
    20
  5
4EA
 10
4.981803
 20
0.322214
 30
0.0
  0
VERTEX
  8
0
  6
CONTINUOUS
 62
    20
  5
4EB
 10
4.976868
 20
0.276278
 30
0.0
  0
VERTEX
  8
0
  6
CONTINUOUS
 62
    20
  5
4EC
 10
4.972676
 20
0.230282
 30
0.0
  0
VERTEX
  8
0
  6
CONTINUOUS
 62
    20
  5
4ED
 10
4.969234
 20
0.184243
 30
0.0
  0
VERTEX
  8
0
  6
CONTINUOUS
 62
    20
  5
4EE
 10
4.966546
 20
0.138178
 30
0.0
  0
VERTEX
  8
0
  6
CONTINUOUS
 62
    20
  5
4EF
 10
4.964618
 20
0.092104
 30
0.0
  0
VERTEX
  8
0
  6
CONTINUOUS
 62
    20
  5
4F0
 10
4.963458
 20
0.046039
 30
0.0
  0
VERTEX
  8
0
  6
CONTINUOUS
 62
    20
  5
4F1
 10
4.963069
 20
0.0
 30
0.0
  0
VERTEX
  8
0
  6
CONTINUOUS
 62
    20
  5
4F2
 10
4.963458
 20
-0.046039
 30
0.0
  0
VERTEX
  8
0
  6
CONTINUOUS
 62
    20
  5
4F3
 10
4.964618
 20
-0.092104
 30
0.0
  0
VERTEX
  8
0
  6
CONTINUOUS
 62
    20
  5
4F4
 10
4.966546
 20
-0.138178
 30
0.0
  0
VERTEX
  8
0
  6
CONTINUOUS
 62
    20
  5
4F5
 10
4.969234
 20
-0.184243
 30
0.0
  0
VERTEX
  8
0
  6
CONTINUOUS
 62
    20
  5
4F6
 10
4.972676
 20
-0.230282
 30
0.0
  0
VERTEX
  8
0
  6
CONTINUOUS
 62
    20
  5
4F7
 10
4.976868
 20
-0.276278
 30
0.0
  0
VERTEX
  8
0
  6
CONTINUOUS
 62
    20
  5
4F8
 10
4.981803
 20
-0.322214
 30
0.0
  0
VERTEX
  8
0
  6
CONTINUOUS
 62
    20
  5
4F9
 10
4.987475
 20
-0.368073
 30
0.0
  0
VERTEX
  8
0
  6
CONTINUOUS
 62
    20
  5
4FA
 10
4.993877
 20
-0.413837
 30
0.0
  0
VERTEX
  8
0
  6
CONTINUOUS
 62
    20
  5
4FB
 10
5.001006
 20
-0.45949
 30
0.0
  0
VERTEX
  8
0
  6
CONTINUOUS
 62
    20
  5
4FC
 10
5.008853
 20
-0.505014
 30
0.0
  0
VERTEX
  8
0
  6
CONTINUOUS
 62
    20
  5
4FD
 10
5.017414
 20
-0.550391
 30
0.0
  0
VERTEX
  8
0
  6
CONTINUOUS
 62
    20
  5
4FE
 10
5.026683
 20
-0.595606
 30
0.0
  0
VERTEX
  8
0
  6
CONTINUOUS
 62
    20
  5
4FF
 10
5.036654
 20
-0.64064
 30
0.0
  0
VERTEX
  8
0
  6
CONTINUOUS
 62
    20
  5
500
 10
5.04732
 20
-0.685477
 30
0.0
  0
VERTEX
  8
0
  6
CONTINUOUS
 62
    20
  5
501
 10
5.058676
 20
-0.730099
 30
0.0
  0
VERTEX
  8
0
  6
CONTINUOUS
 62
    20
  5
502
 10
5.07191
 20
-0.778774
 30
0.0
  0
VERTEX
  8
0
  6
CONTINUOUS
 62
    20
  5
503
 10
5.085963
 20
-0.827255
 30
0.0
  0
VERTEX
  8
0
  6
CONTINUOUS
 62
    20
  5
504
 10
5.100821
 20
-0.875528
 30
0.0
  0
VERTEX
  8
0
  6
CONTINUOUS
 62
    20
  5
505
 10
5.116468
 20
-0.923582
 30
0.0
  0
VERTEX
  8
0
  6
CONTINUOUS
 62
    20
  5
506
 10
5.132889
 20
-0.971403
 30
0.0
  0
VERTEX
  8
0
  6
CONTINUOUS
 62
    20
  5
507
 10
5.150068
 20
-1.018979
 30
0.0
  0
VERTEX
  8
0
  6
CONTINUOUS
 62
    20
  5
508
 10
5.16799
 20
-1.066297
 30
0.0
  0
VERTEX
  8
0
  6
CONTINUOUS
 62
    20
  5
509
 10
5.186639
 20
-1.113344
 30
0.0
  0
VERTEX
  8
0
  6
CONTINUOUS
 62
    20
  5
50A
 10
5.206
 20
-1.160107
 30
0.0
  0
VERTEX
  8
0
  6
CONTINUOUS
 62
    20
  5
50B
 10
5.226057
 20
-1.206575
 30
0.0
  0
VERTEX
  8
0
  6
CONTINUOUS
 62
    20
  5
50C
 10
5.246796
 20
-1.252733
 30
0.0
  0
VERTEX
  8
0
  6
CONTINUOUS
 62
    20
  5
50D
 10
5.268201
 20
-1.29857
 30
0.0
  0
VERTEX
  8
0
  6
CONTINUOUS
 62
    20
  5
50E
 10
5.290256
 20
-1.344072
 30
0.0
  0
VERTEX
  8
0
  6
CONTINUOUS
 62
    20
  5
50F
 10
5.312946
 20
-1.389227
 30
0.0
  0
VERTEX
  8
0
  6
CONTINUOUS
 62
    20
  5
510
 10
5.336256
 20
-1.434022
 30
0.0
  0
VERTEX
  8
0
  6
CONTINUOUS
 62
    20
  5
511
 10
5.36017
 20
-1.478445
 30
0.0
  0
VERTEX
  8
0
  6
CONTINUOUS
 62
    20
  5
512
 10
5.388379
 20
-1.529036
 30
0.0
  0
VERTEX
  8
0
  6
CONTINUOUS
 62
    20
  5
513
 10
5.417384
 20
-1.579211
 30
0.0
  0
VERTEX
  8
0
  6
CONTINUOUS
 62
    20
  5
514
 10
5.447168
 20
-1.628962
 30
0.0
  0
VERTEX
  8
0
  6
CONTINUOUS
 62
    20
  5
515
 10
5.477708
 20
-1.678285
 30
0.0
  0
VERTEX
  8
0
  6
CONTINUOUS
 62
    20
  5
516
 10
5.508986
 20
-1.727172
 30
0.0
  0
VERTEX
  8
0
  6
CONTINUOUS
 62
    20
  5
517
 10
5.540981
 20
-1.775616
 30
0.0
  0
VERTEX
  8
0
  6
CONTINUOUS
 62
    20
  5
518
 10
5.573674
 20
-1.823612
 30
0.0
  0
VERTEX
  8
0
  6
CONTINUOUS
 62
    20
  5
519
 10
5.607044
 20
-1.871152
 30
0.0
  0
VERTEX
  8
0
  6
CONTINUOUS
 62
    20
  5
51A
 10
5.641072
 20
-1.918231
 30
0.0
  0
VERTEX
  8
0
  6
CONTINUOUS
 62
    20
  5
51B
 10
5.675738
 20
-1.964842
 30
0.0
  0
VERTEX
  8
0
  6
CONTINUOUS
 62
    20
  5
51C
 10
5.711022
 20
-2.010978
 30
0.0
  0
VERTEX
  8
0
  6
CONTINUOUS
 62
    20
  5
51D
 10
5.746904
 20
-2.056632
 30
0.0
  0
VERTEX
  8
0
  6
CONTINUOUS
 62
    20
  5
51E
 10
5.783364
 20
-2.101799
 30
0.0
  0
VERTEX
  8
0
  6
CONTINUOUS
 62
    20
  5
51F
 10
5.820383
 20
-2.146472
 30
0.0
  0
VERTEX
  8
0
  6
CONTINUOUS
 62
    20
  5
520
 10
5.857939
 20
-2.190644
 30
0.0
  0
VERTEX
  8
0
  6
CONTINUOUS
 62
    20
  5
521
 10
5.896015
 20
-2.234308
 30
0.0
  0
VERTEX
  8
0
  6
CONTINUOUS
 62
    20
  5
522
 10
5.940489
 20
-2.283972
 30
0.0
  0
VERTEX
  8
0
  6
CONTINUOUS
 62
    20
  5
523
 10
5.985667
 20
-2.333036
 30
0.0
  0
VERTEX
  8
0
  6
CONTINUOUS
 62
    20
  5
524
 10
6.03153
 20
-2.3815
 30
0.0
  0
VERTEX
  8
0
  6
CONTINUOUS
 62
    20
  5
525
 10
6.078057
 20
-2.429361
 30
0.0
  0
VERTEX
  8
0
  6
CONTINUOUS
 62
    20
  5
526
 10
6.125228
 20
-2.476618
 30
0.0
  0
VERTEX
  8
0
  6
CONTINUOUS
 62
    20
  5
527
 10
6.173024
 20
-2.523271
 30
0.0
  0
VERTEX
  8
0
  6
CONTINUOUS
 62
    20
  5
528
 10
6.221424
 20
-2.569317
 30
0.0
  0
VERTEX
  8
0
  6
CONTINUOUS
 62
    20
  5
529
 10
6.270409
 20
-2.614755
 30
0.0
  0
VERTEX
  8
0
  6
CONTINUOUS
 62
    20
  5
52A
 10
6.319959
 20
-2.659585
 30
0.0
  0
VERTEX
  8
0
  6
CONTINUOUS
 62
    20
  5
52B
 10
6.370053
 20
-2.703804
 30
0.0
  0
VERTEX
  8
0
  6
CONTINUOUS
 62
    20
  5
52C
 10
6.420672
 20
-2.747412
 30
0.0
  0
VERTEX
  8
0
  6
CONTINUOUS
 62
    20
  5
52D
 10
6.471796
 20
-2.790407
 30
0.0
  0
VERTEX
  8
0
  6
CONTINUOUS
 62
    20
  5
52E
 10
6.523404
 20
-2.832788
 30
0.0
  0
VERTEX
  8
0
  6
CONTINUOUS
 62
    20
  5
52F
 10
6.575477
 20
-2.874553
 30
0.0
  0
VERTEX
  8
0
  6
CONTINUOUS
 62
    20
  5
530
 10
6.627995
 20
-2.915701
 30
0.0
  0
VERTEX
  8
0
  6
CONTINUOUS
 62
    20
  5
531
 10
6.680938
 20
-2.956232
 30
0.0
  0
VERTEX
  8
0
  6
CONTINUOUS
 62
    20
  5
532
 10
6.74111
 20
-3.001183
 30
0.0
  0
VERTEX
  8
0
  6
CONTINUOUS
 62
    20
  5
533
 10
6.801852
 20
-3.045409
 30
0.0
  0
VERTEX
  8
0
  6
CONTINUOUS
 62
    20
  5
534
 10
6.863145
 20
-3.088911
 30
0.0
  0
VERTEX
  8
0
  6
CONTINUOUS
 62
    20
  5
535
 10
6.924973
 20
-3.131691
 30
0.0
  0
VERTEX
  8
0
  6
CONTINUOUS
 62
    20
  5
536
 10
6.987318
 20
-3.173749
 30
0.0
  0
VERTEX
  8
0
  6
CONTINUOUS
 62
    20
  5
537
 10
7.050162
 20
-3.215089
 30
0.0
  0
VERTEX
  8
0
  6
CONTINUOUS
 62
    20
  5
538
 10
7.113488
 20
-3.25571
 30
0.0
  0
VERTEX
  8
0
  6
CONTINUOUS
 62
    20
  5
539
 10
7.177277
 20
-3.295616
 30
0.0
  0
VERTEX
  8
0
  6
CONTINUOUS
 62
    20
  5
53A
 10
7.241511
 20
-3.334808
 30
0.0
  0
VERTEX
  8
0
  6
CONTINUOUS
 62
    20
  5
53B
 10
7.306174
 20
-3.373286
 30
0.0
  0
VERTEX
  8
0
  6
CONTINUOUS
 62
    20
  5
53C
 10
7.371247
 20
-3.411054
 30
0.0
  0
VERTEX
  8
0
  6
CONTINUOUS
 62
    20
  5
53D
 10
7.436713
 20
-3.448112
 30
0.0
  0
VERTEX
  8
0
  6
CONTINUOUS
 62
    20
  5
53E
 10
7.502554
 20
-3.484463
 30
0.0
  0
VERTEX
  8
0
  6
CONTINUOUS
 62
    20
  5
53F
 10
7.568752
 20
-3.520107
 30
0.0
  0
VERTEX
  8
0
  6
CONTINUOUS
 62
    20
  5
540
 10
7.63529
 20
-3.555046
 30
0.0
  0
VERTEX
  8
0
  6
CONTINUOUS
 62
    20
  5
541
 10
7.702149
 20
-3.589283
 30
0.0
  0
VERTEX
  8
0
  6
CONTINUOUS
 62
    20
  5
542
 10
7.775685
 20
-3.625956
 30
0.0
  0
VERTEX
  8
0
  6
CONTINUOUS
 62
    20
  5
543
 10
7.849643
 20
-3.661831
 30
0.0
  0
VERTEX
  8
0
  6
CONTINUOUS
 62
    20
  5
544
 10
7.924008
 20
-3.696909
 30
0.0
  0
VERTEX
  8
0
  6
CONTINUOUS
 62
    20
  5
545
 10
7.998767
 20
-3.731194
 30
0.0
  0
VERTEX
  8
0
  6
CONTINUOUS
 62
    20
  5
546
 10
8.073903
 20
-3.764687
 30
0.0
  0
VERTEX
  8
0
  6
CONTINUOUS
 62
    20
  5
547
 10
8.149402
 20
-3.797391
 30
0.0
  0
VERTEX
  8
0
  6
CONTINUOUS
 62
    20
  5
548
 10
8.225248
 20
-3.82931
 30
0.0
  0
VERTEX
  8
0
  6
CONTINUOUS
 62
    20
  5
549
 10
8.301426
 20
-3.860444
 30
0.0
  0
VERTEX
  8
0
  6
CONTINUOUS
 62
    20
  5
54A
 10
8.377922
 20
-3.890798
 30
0.0
  0
VERTEX
  8
0
  6
CONTINUOUS
 62
    20
  5
54B
 10
8.454721
 20
-3.920372
 30
0.0
  0
VERTEX
  8
0
  6
CONTINUOUS
 62
    20
  5
54C
 10
8.531807
 20
-3.949171
 30
0.0
  0
VERTEX
  8
0
  6
CONTINUOUS
 62
    20
  5
54D
 10
8.609165
 20
-3.977196
 30
0.0
  0
VERTEX
  8
0
  6
CONTINUOUS
 62
    20
  5
54E
 10
8.68678
 20
-4.004449
 30
0.0
  0
VERTEX
  8
0
  6
CONTINUOUS
 62
    20
  5
54F
 10
8.764638
 20
-4.030935
 30
0.0
  0
VERTEX
  8
0
  6
CONTINUOUS
 62
    20
  5
550
 10
8.842722
 20
-4.056654
 30
0.0
  0
VERTEX
  8
0
  6
CONTINUOUS
 62
    20
  5
551
 10
8.921019
 20
-4.081609
 30
0.0
  0
VERTEX
  8
0
  6
CONTINUOUS
 62
    20
  5
552
 10
9.004351
 20
-4.107268
 30
0.0
  0
VERTEX
  8
0
  6
CONTINUOUS
 62
    20
  5
553
 10
9.087963
 20
-4.132094
 30
0.0
  0
VERTEX
  8
0
  6
CONTINUOUS
 62
    20
  5
554
 10
9.171841
 20
-4.15609
 30
0.0
  0
VERTEX
  8
0
  6
CONTINUOUS
 62
    20
  5
555
 10
9.255973
 20
-4.179257
 30
0.0
  0
VERTEX
  8
0
  6
CONTINUOUS
 62
    20
  5
556
 10
9.340345
 20
-4.201597
 30
0.0
  0
VERTEX
  8
0
  6
CONTINUOUS
 62
    20
  5
557
 10
9.424945
 20
-4.223113
 30
0.0
  0
VERTEX
  8
0
  6
CONTINUOUS
 62
    20
  5
558
 10
9.50976
 20
-4.243805
 30
0.0
  0
VERTEX
  8
0
  6
CONTINUOUS
 62
    20
  5
559
 10
9.594776
 20
-4.263677
 30
0.0
  0
VERTEX
  8
0
  6
CONTINUOUS
 62
    20
  5
55A
 10
9.679981
 20
-4.28273
 30
0.0
  0
VERTEX
  8
0
  6
CONTINUOUS
 62
    20
  5
55B
 10
9.765361
 20
-4.300967
 30
0.0
  0
VERTEX
  8
0
  6
CONTINUOUS
 62
    20
  5
55C
 10
9.850905
 20
-4.318389
 30
0.0
  0
VERTEX
  8
0
  6
CONTINUOUS
 62
    20
  5
55D
 10
9.936598
 20
-4.334998
 30
0.0
  0
VERTEX
  8
0
  6
CONTINUOUS
 62
    20
  5
55E
 10
10.022429
 20
-4.350797
 30
0.0
  0
VERTEX
  8
0
  6
CONTINUOUS
 62
    20
  5
55F
 10
10.108383
 20
-4.365786
 30
0.0
  0
VERTEX
  8
0
  6
CONTINUOUS
 62
    20
  5
560
 10
10.194449
 20
-4.37997
 30
0.0
  0
VERTEX
  8
0
  6
CONTINUOUS
 62
    20
  5
561
 10
10.280612
 20
-4.393348
 30
0.0
  0
VERTEX
  8
0
  6
CONTINUOUS
 62
    20
  5
562
 10
10.369465
 20
-4.406291
 30
0.0
  0
VERTEX
  8
0
  6
CONTINUOUS
 62
    20
  5
563
 10
10.458463
 20
-4.418393
 30
0.0
  0
VERTEX
  8
0
  6
CONTINUOUS
 62
    20
  5
564
 10
10.547595
 20
-4.429656
 30
0.0
  0
VERTEX
  8
0
  6
CONTINUOUS
 62
    20
  5
565
 10
10.636848
 20
-4.44008
 30
0.0
  0
VERTEX
  8
0
  6
CONTINUOUS
 62
    20
  5
566
 10
10.726211
 20
-4.449665
 30
0.0
  0
VERTEX
  8
0
  6
CONTINUOUS
 62
    20
  5
567
 10
10.815672
 20
-4.458414
 30
0.0
  0
VERTEX
  8
0
  6
CONTINUOUS
 62
    20
  5
568
 10
10.905219
 20
-4.466325
 30
0.0
  0
VERTEX
  8
0
  6
CONTINUOUS
 62
    20
  5
569
 10
10.994841
 20
-4.473401
 30
0.0
  0
VERTEX
  8
0
  6
CONTINUOUS
 62
    20
  5
56A
 10
11.084525
 20
-4.479641
 30
0.0
  0
VERTEX
  8
0
  6
CONTINUOUS
 62
    20
  5
56B
 10
11.174259
 20
-4.485047
 30
0.0
  0
VERTEX
  8
0
  6
CONTINUOUS
 62
    20
  5
56C
 10
11.264033
 20
-4.489619
 30
0.0
  0
VERTEX
  8
0
  6
CONTINUOUS
 62
    20
  5
56D
 10
11.353833
 20
-4.493358
 30
0.0
  0
VERTEX
  8
0
  6
CONTINUOUS
 62
    20
  5
56E
 10
11.443649
 20
-4.496265
 30
0.0
  0
VERTEX
  8
0
  6
CONTINUOUS
 62
    20
  5
56F
 10
11.533468
 20
-4.498341
 30
0.0
  0
VERTEX
  8
0
  6
CONTINUOUS
 62
    20
  5
570
 10
11.623279
 20
-4.499585
 30
0.0
  0
VERTEX
  8
0
  6
CONTINUOUS
 62
    20
  5
571
 10
11.713069
 20
-4.5
 30
0.0
  0
VERTEX
  8
0
  6
CONTINUOUS
 62
    20
  5
572
 10
11.80286
 20
-4.499585
 30
0.0
  0
VERTEX
  8
0
  6
CONTINUOUS
 62
    20
  5
573
 10
11.892671
 20
-4.498341
 30
0.0
  0
VERTEX
  8
0
  6
CONTINUOUS
 62
    20
  5
574
 10
11.98249
 20
-4.496265
 30
0.0
  0
VERTEX
  8
0
  6
CONTINUOUS
 62
    20
  5
575
 10
12.072306
 20
-4.493358
 30
0.0
  0
VERTEX
  8
0
  6
CONTINUOUS
 62
    20
  5
576
 10
12.162106
 20
-4.489619
 30
0.0
  0
VERTEX
  8
0
  6
CONTINUOUS
 62
    20
  5
577
 10
12.25188
 20
-4.485047
 30
0.0
  0
VERTEX
  8
0
  6
CONTINUOUS
 62
    20
  5
578
 10
12.341614
 20
-4.479641
 30
0.0
  0
VERTEX
  8
0
  6
CONTINUOUS
 62
    20
  5
579
 10
12.431298
 20
-4.473401
 30
0.0
  0
VERTEX
  8
0
  6
CONTINUOUS
 62
    20
  5
57A
 10
12.52092
 20
-4.466325
 30
0.0
  0
VERTEX
  8
0
  6
CONTINUOUS
 62
    20
  5
57B
 10
12.610467
 20
-4.458414
 30
0.0
  0
VERTEX
  8
0
  6
CONTINUOUS
 62
    20
  5
57C
 10
12.699928
 20
-4.449665
 30
0.0
  0
VERTEX
  8
0
  6
CONTINUOUS
 62
    20
  5
57D
 10
12.789291
 20
-4.44008
 30
0.0
  0
VERTEX
  8
0
  6
CONTINUOUS
 62
    20
  5
57E
 10
12.878544
 20
-4.429656
 30
0.0
  0
VERTEX
  8
0
  6
CONTINUOUS
 62
    20
  5
57F
 10
12.967676
 20
-4.418393
 30
0.0
  0
VERTEX
  8
0
  6
CONTINUOUS
 62
    20
  5
580
 10
13.056674
 20
-4.406291
 30
0.0
  0
VERTEX
  8
0
  6
CONTINUOUS
 62
    20
  5
581
 10
13.145527
 20
-4.393348
 30
0.0
  0
VERTEX
  8
0
  6
CONTINUOUS
 62
    20
  5
582
 10
13.23169
 20
-4.37997
 30
0.0
  0
VERTEX
  8
0
  6
CONTINUOUS
 62
    20
  5
583
 10
13.317756
 20
-4.365786
 30
0.0
  0
VERTEX
  8
0
  6
CONTINUOUS
 62
    20
  5
584
 10
13.40371
 20
-4.350797
 30
0.0
  0
VERTEX
  8
0
  6
CONTINUOUS
 62
    20
  5
585
 10
13.489541
 20
-4.334998
 30
0.0
  0
VERTEX
  8
0
  6
CONTINUOUS
 62
    20
  5
586
 10
13.575234
 20
-4.318389
 30
0.0
  0
VERTEX
  8
0
  6
CONTINUOUS
 62
    20
  5
587
 10
13.660778
 20
-4.300967
 30
0.0
  0
VERTEX
  8
0
  6
CONTINUOUS
 62
    20
  5
588
 10
13.746158
 20
-4.28273
 30
0.0
  0
VERTEX
  8
0
  6
CONTINUOUS
 62
    20
  5
589
 10
13.831363
 20
-4.263677
 30
0.0
  0
VERTEX
  8
0
  6
CONTINUOUS
 62
    20
  5
58A
 10
13.916379
 20
-4.243805
 30
0.0
  0
VERTEX
  8
0
  6
CONTINUOUS
 62
    20
  5
58B
 10
14.001194
 20
-4.223113
 30
0.0
  0
VERTEX
  8
0
  6
CONTINUOUS
 62
    20
  5
58C
 10
14.085793
 20
-4.201597
 30
0.0
  0
VERTEX
  8
0
  6
CONTINUOUS
 62
    20
  5
58D
 10
14.170166
 20
-4.179257
 30
0.0
  0
VERTEX
  8
0
  6
CONTINUOUS
 62
    20
  5
58E
 10
14.254297
 20
-4.15609
 30
0.0
  0
VERTEX
  8
0
  6
CONTINUOUS
 62
    20
  5
58F
 10
14.338176
 20
-4.132094
 30
0.0
  0
VERTEX
  8
0
  6
CONTINUOUS
 62
    20
  5
590
 10
14.421787
 20
-4.107268
 30
0.0
  0
VERTEX
  8
0
  6
CONTINUOUS
 62
    20
  5
591
 10
14.50512
 20
-4.081609
 30
0.0
  0
VERTEX
  8
0
  6
CONTINUOUS
 62
    20
  5
592
 10
14.583417
 20
-4.056654
 30
0.0
  0
VERTEX
  8
0
  6
CONTINUOUS
 62
    20
  5
593
 10
14.661501
 20
-4.030935
 30
0.0
  0
VERTEX
  8
0
  6
CONTINUOUS
 62
    20
  5
594
 10
14.739359
 20
-4.004449
 30
0.0
  0
VERTEX
  8
0
  6
CONTINUOUS
 62
    20
  5
595
 10
14.816974
 20
-3.977196
 30
0.0
  0
VERTEX
  8
0
  6
CONTINUOUS
 62
    20
  5
596
 10
14.894332
 20
-3.949171
 30
0.0
  0
VERTEX
  8
0
  6
CONTINUOUS
 62
    20
  5
597
 10
14.971418
 20
-3.920372
 30
0.0
  0
VERTEX
  8
0
  6
CONTINUOUS
 62
    20
  5
598
 10
15.048216
 20
-3.890798
 30
0.0
  0
VERTEX
  8
0
  6
CONTINUOUS
 62
    20
  5
599
 10
15.124713
 20
-3.860444
 30
0.0
  0
VERTEX
  8
0
  6
CONTINUOUS
 62
    20
  5
59A
 10
15.200891
 20
-3.82931
 30
0.0
  0
VERTEX
  8
0
  6
CONTINUOUS
 62
    20
  5
59B
 10
15.276737
 20
-3.797391
 30
0.0
  0
VERTEX
  8
0
  6
CONTINUOUS
 62
    20
  5
59C
 10
15.352236
 20
-3.764687
 30
0.0
  0
VERTEX
  8
0
  6
CONTINUOUS
 62
    20
  5
59D
 10
15.427372
 20
-3.731194
 30
0.0
  0
VERTEX
  8
0
  6
CONTINUOUS
 62
    20
  5
59E
 10
15.502131
 20
-3.696909
 30
0.0
  0
VERTEX
  8
0
  6
CONTINUOUS
 62
    20
  5
59F
 10
15.576496
 20
-3.661831
 30
0.0
  0
VERTEX
  8
0
  6
CONTINUOUS
 62
    20
  5
5A0
 10
15.650454
 20
-3.625956
 30
0.0
  0
VERTEX
  8
0
  6
CONTINUOUS
 62
    20
  5
5A1
 10
15.72399
 20
-3.589283
 30
0.0
  0
VERTEX
  8
0
  6
CONTINUOUS
 62
    20
  5
5A2
 10
15.790849
 20
-3.555046
 30
0.0
  0
VERTEX
  8
0
  6
CONTINUOUS
 62
    20
  5
5A3
 10
15.857387
 20
-3.520107
 30
0.0
  0
VERTEX
  8
0
  6
CONTINUOUS
 62
    20
  5
5A4
 10
15.923585
 20
-3.484463
 30
0.0
  0
VERTEX
  8
0
  6
CONTINUOUS
 62
    20
  5
5A5
 10
15.989426
 20
-3.448112
 30
0.0
  0
VERTEX
  8
0
  6
CONTINUOUS
 62
    20
  5
5A6
 10
16.054891
 20
-3.411054
 30
0.0
  0
VERTEX
  8
0
  6
CONTINUOUS
 62
    20
  5
5A7
 10
16.119965
 20
-3.373286
 30
0.0
  0
VERTEX
  8
0
  6
CONTINUOUS
 62
    20
  5
5A8
 10
16.184628
 20
-3.334808
 30
0.0
  0
VERTEX
  8
0
  6
CONTINUOUS
 62
    20
  5
5A9
 10
16.248862
 20
-3.295616
 30
0.0
  0
VERTEX
  8
0
  6
CONTINUOUS
 62
    20
  5
5AA
 10
16.312651
 20
-3.25571
 30
0.0
  0
VERTEX
  8
0
  6
CONTINUOUS
 62
    20
  5
5AB
 10
16.375976
 20
-3.215089
 30
0.0
  0
VERTEX
  8
0
  6
CONTINUOUS
 62
    20
  5
5AC
 10
16.43882
 20
-3.173749
 30
0.0
  0
VERTEX
  8
0
  6
CONTINUOUS
 62
    20
  5
5AD
 10
16.501165
 20
-3.131691
 30
0.0
  0
VERTEX
  8
0
  6
CONTINUOUS
 62
    20
  5
5AE
 10
16.562994
 20
-3.088911
 30
0.0
  0
VERTEX
  8
0
  6
CONTINUOUS
 62
    20
  5
5AF
 10
16.624287
 20
-3.045409
 30
0.0
  0
VERTEX
  8
0
  6
CONTINUOUS
 62
    20
  5
5B0
 10
16.685029
 20
-3.001183
 30
0.0
  0
VERTEX
  8
0
  6
CONTINUOUS
 62
    20
  5
5B1
 10
16.7452
 20
-2.956232
 30
0.0
  0
VERTEX
  8
0
  6
CONTINUOUS
 62
    20
  5
5B2
 10
16.798143
 20
-2.915701
 30
0.0
  0
VERTEX
  8
0
  6
CONTINUOUS
 62
    20
  5
5B3
 10
16.850662
 20
-2.874553
 30
0.0
  0
VERTEX
  8
0
  6
CONTINUOUS
 62
    20
  5
5B4
 10
16.902735
 20
-2.832788
 30
0.0
  0
VERTEX
  8
0
  6
CONTINUOUS
 62
    20
  5
5B5
 10
16.954343
 20
-2.790407
 30
0.0
  0
VERTEX
  8
0
  6
CONTINUOUS
 62
    20
  5
5B6
 10
17.005467
 20
-2.747412
 30
0.0
  0
VERTEX
  8
0
  6
CONTINUOUS
 62
    20
  5
5B7
 10
17.056086
 20
-2.703804
 30
0.0
  0
VERTEX
  8
0
  6
CONTINUOUS
 62
    20
  5
5B8
 10
17.10618
 20
-2.659585
 30
0.0
  0
VERTEX
  8
0
  6
CONTINUOUS
 62
    20
  5
5B9
 10
17.155729
 20
-2.614755
 30
0.0
  0
VERTEX
  8
0
  6
CONTINUOUS
 62
    20
  5
5BA
 10
17.204714
 20
-2.569317
 30
0.0
  0
VERTEX
  8
0
  6
CONTINUOUS
 62
    20
  5
5BB
 10
17.253115
 20
-2.523271
 30
0.0
  0
VERTEX
  8
0
  6
CONTINUOUS
 62
    20
  5
5BC
 10
17.300911
 20
-2.476618
 30
0.0
  0
VERTEX
  8
0
  6
CONTINUOUS
 62
    20
  5
5BD
 10
17.348082
 20
-2.429361
 30
0.0
  0
VERTEX
  8
0
  6
CONTINUOUS
 62
    20
  5
5BE
 10
17.394609
 20
-2.3815
 30
0.0
  0
VERTEX
  8
0
  6
CONTINUOUS
 62
    20
  5
5BF
 10
17.440472
 20
-2.333036
 30
0.0
  0
VERTEX
  8
0
  6
CONTINUOUS
 62
    20
  5
5C0
 10
17.48565
 20
-2.283972
 30
0.0
  0
VERTEX
  8
0
  6
CONTINUOUS
 62
    20
  5
5C1
 10
17.530124
 20
-2.234308
 30
0.0
  0
VERTEX
  8
0
  6
CONTINUOUS
 62
    20
  5
5C2
 10
17.5682
 20
-2.190644
 30
0.0
  0
VERTEX
  8
0
  6
CONTINUOUS
 62
    20
  5
5C3
 10
17.605756
 20
-2.146472
 30
0.0
  0
VERTEX
  8
0
  6
CONTINUOUS
 62
    20
  5
5C4
 10
17.642775
 20
-2.101799
 30
0.0
  0
VERTEX
  8
0
  6
CONTINUOUS
 62
    20
  5
5C5
 10
17.679235
 20
-2.056632
 30
0.0
  0
VERTEX
  8
0
  6
CONTINUOUS
 62
    20
  5
5C6
 10
17.715117
 20
-2.010978
 30
0.0
  0
VERTEX
  8
0
  6
CONTINUOUS
 62
    20
  5
5C7
 10
17.750401
 20
-1.964842
 30
0.0
  0
VERTEX
  8
0
  6
CONTINUOUS
 62
    20
  5
5C8
 10
17.785067
 20
-1.918231
 30
0.0
  0
VERTEX
  8
0
  6
CONTINUOUS
 62
    20
  5
5C9
 10
17.819095
 20
-1.871152
 30
0.0
  0
VERTEX
  8
0
  6
CONTINUOUS
 62
    20
  5
5CA
 10
17.852465
 20
-1.823612
 30
0.0
  0
VERTEX
  8
0
  6
CONTINUOUS
 62
    20
  5
5CB
 10
17.885158
 20
-1.775616
 30
0.0
  0
VERTEX
  8
0
  6
CONTINUOUS
 62
    20
  5
5CC
 10
17.917153
 20
-1.727172
 30
0.0
  0
VERTEX
  8
0
  6
CONTINUOUS
 62
    20
  5
5CD
 10
17.948431
 20
-1.678285
 30
0.0
  0
VERTEX
  8
0
  6
CONTINUOUS
 62
    20
  5
5CE
 10
17.978971
 20
-1.628962
 30
0.0
  0
VERTEX
  8
0
  6
CONTINUOUS
 62
    20
  5
5CF
 10
18.008754
 20
-1.579211
 30
0.0
  0
VERTEX
  8
0
  6
CONTINUOUS
 62
    20
  5
5D0
 10
18.03776
 20
-1.529036
 30
0.0
  0
VERTEX
  8
0
  6
CONTINUOUS
 62
    20
  5
5D1
 10
18.065969
 20
-1.478445
 30
0.0
  0
VERTEX
  8
0
  6
CONTINUOUS
 62
    20
  5
5D2
 10
18.089883
 20
-1.434022
 30
0.0
  0
VERTEX
  8
0
  6
CONTINUOUS
 62
    20
  5
5D3
 10
18.113193
 20
-1.389227
 30
0.0
  0
VERTEX
  8
0
  6
CONTINUOUS
 62
    20
  5
5D4
 10
18.135883
 20
-1.344072
 30
0.0
  0
VERTEX
  8
0
  6
CONTINUOUS
 62
    20
  5
5D5
 10
18.157938
 20
-1.29857
 30
0.0
  0
VERTEX
  8
0
  6
CONTINUOUS
 62
    20
  5
5D6
 10
18.179343
 20
-1.252733
 30
0.0
  0
VERTEX
  8
0
  6
CONTINUOUS
 62
    20
  5
5D7
 10
18.200081
 20
-1.206575
 30
0.0
  0
VERTEX
  8
0
  6
CONTINUOUS
 62
    20
  5
5D8
 10
18.220139
 20
-1.160107
 30
0.0
  0
VERTEX
  8
0
  6
CONTINUOUS
 62
    20
  5
5D9
 10
18.2395
 20
-1.113344
 30
0.0
  0
VERTEX
  8
0
  6
CONTINUOUS
 62
    20
  5
5DA
 10
18.258149
 20
-1.066297
 30
0.0
  0
VERTEX
  8
0
  6
CONTINUOUS
 62
    20
  5
5DB
 10
18.276071
 20
-1.018979
 30
0.0
  0
VERTEX
  8
0
  6
CONTINUOUS
 62
    20
  5
5DC
 10
18.29325
 20
-0.971403
 30
0.0
  0
VERTEX
  8
0
  6
CONTINUOUS
 62
    20
  5
5DD
 10
18.309671
 20
-0.923582
 30
0.0
  0
VERTEX
  8
0
  6
CONTINUOUS
 62
    20
  5
5DE
 10
18.325318
 20
-0.875528
 30
0.0
  0
VERTEX
  8
0
  6
CONTINUOUS
 62
    20
  5
5DF
 10
18.340176
 20
-0.827255
 30
0.0
  0
VERTEX
  8
0
  6
CONTINUOUS
 62
    20
  5
5E0
 10
18.354229
 20
-0.778774
 30
0.0
  0
VERTEX
  8
0
  6
CONTINUOUS
 62
    20
  5
5E1
 10
18.367463
 20
-0.730099
 30
0.0
  0
VERTEX
  8
0
  6
CONTINUOUS
 62
    20
  5
5E2
 10
18.378819
 20
-0.685477
 30
0.0
  0
VERTEX
  8
0
  6
CONTINUOUS
 62
    20
  5
5E3
 10
18.389485
 20
-0.64064
 30
0.0
  0
VERTEX
  8
0
  6
CONTINUOUS
 62
    20
  5
5E4
 10
18.399456
 20
-0.595606
 30
0.0
  0
VERTEX
  8
0
  6
CONTINUOUS
 62
    20
  5
5E5
 10
18.408724
 20
-0.550391
 30
0.0
  0
VERTEX
  8
0
  6
CONTINUOUS
 62
    20
  5
5E6
 10
18.417286
 20
-0.505014
 30
0.0
  0
VERTEX
  8
0
  6
CONTINUOUS
 62
    20
  5
5E7
 10
18.425133
 20
-0.45949
 30
0.0
  0
VERTEX
  8
0
  6
CONTINUOUS
 62
    20
  5
5E8
 10
18.432261
 20
-0.413837
 30
0.0
  0
VERTEX
  8
0
  6
CONTINUOUS
 62
    20
  5
5E9
 10
18.438664
 20
-0.368073
 30
0.0
  0
VERTEX
  8
0
  6
CONTINUOUS
 62
    20
  5
5EA
 10
18.444336
 20
-0.322214
 30
0.0
  0
VERTEX
  8
0
  6
CONTINUOUS
 62
    20
  5
5EB
 10
18.449271
 20
-0.276278
 30
0.0
  0
VERTEX
  8
0
  6
CONTINUOUS
 62
    20
  5
5EC
 10
18.453462
 20
-0.230282
 30
0.0
  0
VERTEX
  8
0
  6
CONTINUOUS
 62
    20
  5
5ED
 10
18.456905
 20
-0.184243
 30
0.0
  0
VERTEX
  8
0
  6
CONTINUOUS
 62
    20
  5
5EE
 10
18.459593
 20
-0.138178
 30
0.0
  0
VERTEX
  8
0
  6
CONTINUOUS
 62
    20
  5
5EF
 10
18.461521
 20
-0.092104
 30
0.0
  0
VERTEX
  8
0
  6
CONTINUOUS
 62
    20
  5
5F0
 10
18.462681
 20
-0.046039
 30
0.0
  0
SEQEND
  8
0
  6
CONTINUOUS
 62
    20
  5
5F1
  0
ENDBLK
  8
0
  5
63
  0
BLOCK
  8
0
  5
64
  2
*X1
 70
     1
 10
0.0
 20
0.0
 30
0.0
  3
*X1
  0
LINE
  8
0
  6
CONTINUOUS
 62
    90
  5
65
 10
25.598069
 20
-6.0
 30
0.0
 11
27.630251
 21
-6.0
 31
0.0
  0
LINE
  8
0
  6
CONTINUOUS
 62
    90
  5
66
 10
34.295888
 20
-6.0
 30
0.0
 11
36.328069
 21
-6.0
 31
0.0
  0
LINE
  8
0
  6
CONTINUOUS
 62
    90
  5
67
 10
25.368069
 20
-5.5
 30
0.0
 11
27.860251
 21
-5.5
 31
0.0
  0
LINE
  8
0
  6
CONTINUOUS
 62
    90
  5
68
 10
34.065888
 20
-5.5
 30
0.0
 11
36.558069
 21
-5.5
 31
0.0
  0
LINE
  8
0
  6
CONTINUOUS
 62
    90
  5
69
 10
25.138069
 20
-5.0
 30
0.0
 11
28.090251
 21
-5.0
 31
0.0
  0
LINE
  8
0
  6
CONTINUOUS
 62
    90
  5
6A
 10
33.835888
 20
-5.0
 30
0.0
 11
36.788069
 21
-5.0
 31
0.0
  0
LINE
  8
0
  6
CONTINUOUS
 62
    90
  5
6B
 10
24.908069
 20
-4.5
 30
0.0
 11
28.320251
 21
-4.5
 31
0.0
  0
LINE
  8
0
  6
CONTINUOUS
 62
    90
  5
6C
 10
33.605888
 20
-4.5
 30
0.0
 11
37.018069
 21
-4.5
 31
0.0
  0
LINE
  8
0
  6
CONTINUOUS
 62
    90
  5
6D
 10
24.678069
 20
-4.0
 30
0.0
 11
28.550251
 21
-4.0
 31
0.0
  0
LINE
  8
0
  6
CONTINUOUS
 62
    90
  5
6E
 10
33.375888
 20
-4.0
 30
0.0
 11
37.248069
 21
-4.0
 31
0.0
  0
LINE
  8
0
  6
CONTINUOUS
 62
    90
  5
6F
 10
24.448069
 20
-3.5
 30
0.0
 11
28.780251
 21
-3.5
 31
0.0
  0
LINE
  8
0
  6
CONTINUOUS
 62
    90
  5
70
 10
33.145888
 20
-3.5
 30
0.0
 11
37.478069
 21
-3.5
 31
0.0
  0
LINE
  8
0
  6
CONTINUOUS
 62
    90
  5
71
 10
24.218069
 20
-3.0
 30
0.0
 11
29.010251
 21
-3.0
 31
0.0
  0
LINE
  8
0
  6
CONTINUOUS
 62
    90
  5
72
 10
32.915888
 20
-3.0
 30
0.0
 11
37.708069
 21
-3.0
 31
0.0
  0
LINE
  8
0
  6
CONTINUOUS
 62
    90
  5
73
 10
23.988069
 20
-2.5
 30
0.0
 11
29.240251
 21
-2.5
 31
0.0
  0
LINE
  8
0
  6
CONTINUOUS
 62
    90
  5
74
 10
32.685888
 20
-2.5
 30
0.0
 11
37.938069
 21
-2.5
 31
0.0
  0
LINE
  8
0
  6
CONTINUOUS
 62
    90
  5
75
 10
23.758069
 20
-2.0
 30
0.0
 11
29.470251
 21
-2.0
 31
0.0
  0
LINE
  8
0
  6
CONTINUOUS
 62
    90
  5
76
 10
32.455888
 20
-2.0
 30
0.0
 11
38.168069
 21
-2.0
 31
0.0
  0
LINE
  8
0
  6
CONTINUOUS
 62
    90
  5
77
 10
23.528069
 20
-1.5
 30
0.0
 11
29.700251
 21
-1.5
 31
0.0
  0
LINE
  8
0
  6
CONTINUOUS
 62
    90
  5
78
 10
32.225888
 20
-1.5
 30
0.0
 11
38.398069
 21
-1.5
 31
0.0
  0
LINE
  8
0
  6
CONTINUOUS
 62
    90
  5
79
 10
23.298069
 20
-1.0
 30
0.0
 11
26.600251
 21
-1.0
 31
0.0
  0
LINE
  8
0
  6
CONTINUOUS
 62
    90
  5
7A
 10
26.62807
 20
-1.0
 30
0.0
 11
29.930251
 21
-1.0
 31
0.0
  0
LINE
  8
0
  6
CONTINUOUS
 62
    90
  5
7B
 10
31.995888
 20
-1.0
 30
0.0
 11
35.298069
 21
-1.0
 31
0.0
  0
LINE
  8
0
  6
CONTINUOUS
 62
    90
  5
7C
 10
35.325888
 20
-1.0
 30
0.0
 11
38.628069
 21
-1.0
 31
0.0
  0
LINE
  8
0
  6
CONTINUOUS
 62
    90
  5
7D
 10
23.068069
 20
-0.5
 30
0.0
 11
26.370251
 21
-0.5
 31
0.0
  0
LINE
  8
0
  6
CONTINUOUS
 62
    90
  5
7E
 10
26.85807
 20
-0.5
 30
0.0
 11
30.160251
 21
-0.5
 31
0.0
  0
LINE
  8
0
  6
CONTINUOUS
 62
    90
  5
7F
 10
31.765888
 20
-0.5
 30
0.0
 11
35.068069
 21
-0.5
 31
0.0
  0
LINE
  8
0
  6
CONTINUOUS
 62
    90
  5
80
 10
35.555888
 20
-0.5
 30
0.0
 11
38.858069
 21
-0.5
 31
0.0
  0
LINE
  8
0
  6
CONTINUOUS
 62
    90
  5
81
 10
22.838069
 20
0.0
 30
0.0
 11
26.140251
 21
0.0
 31
0.0
  0
LINE
  8
0
  6
CONTINUOUS
 62
    90
  5
82
 10
27.08807
 20
0.0
 30
0.0
 11
30.390251
 21
0.0
 31
0.0
  0
LINE
  8
0
  6
CONTINUOUS
 62
    90
  5
83
 10
31.535888
 20
0.0
 30
0.0
 11
34.838069
 21
0.0
 31
0.0
  0
LINE
  8
0
  6
CONTINUOUS
 62
    90
  5
84
 10
35.785888
 20
0.0
 30
0.0
 11
39.088069
 21
0.0
 31
0.0
  0
LINE
  8
0
  6
CONTINUOUS
 62
    90
  5
85
 10
22.608069
 20
0.5
 30
0.0
 11
25.910251
 21
0.5
 31
0.0
  0
LINE
  8
0
  6
CONTINUOUS
 62
    90
  5
86
 10
27.31807
 20
0.5
 30
0.0
 11
30.620251
 21
0.5
 31
0.0
  0
LINE
  8
0
  6
CONTINUOUS
 62
    90
  5
87
 10
31.305888
 20
0.5
 30
0.0
 11
34.608069
 21
0.5
 31
0.0
  0
LINE
  8
0
  6
CONTINUOUS
 62
    90
  5
88
 10
36.015888
 20
0.5
 30
0.0
 11
39.318069
 21
0.5
 31
0.0
  0
LINE
  8
0
  6
CONTINUOUS
 62
    90
  5
89
 10
22.378069
 20
1.0
 30
0.0
 11
25.680251
 21
1.0
 31
0.0
  0
LINE
  8
0
  6
CONTINUOUS
 62
    90
  5
8A
 10
27.54807
 20
1.0
 30
0.0
 11
30.850251
 21
1.0
 31
0.0
  0
LINE
  8
0
  6
CONTINUOUS
 62
    90
  5
8B
 10
31.075888
 20
1.0
 30
0.0
 11
34.378069
 21
1.0
 31
0.0
  0
LINE
  8
0
  6
CONTINUOUS
 62
    90
  5
8C
 10
36.245888
 20
1.0
 30
0.0
 11
39.548069
 21
1.0
 31
0.0
  0
LINE
  8
0
  6
CONTINUOUS
 62
    90
  5
8D
 10
22.148069
 20
1.5
 30
0.0
 11
25.450251
 21
1.5
 31
0.0
  0
LINE
  8
0
  6
CONTINUOUS
 62
    90
  5
8E
 10
27.77807
 20
1.5
 30
0.0
 11
34.148069
 21
1.5
 31
0.0
  0
LINE
  8
0
  6
CONTINUOUS
 62
    90
  5
8F
 10
36.475888
 20
1.5
 30
0.0
 11
39.778069
 21
1.5
 31
0.0
  0
LINE
  8
0
  6
CONTINUOUS
 62
    90
  5
90
 10
21.918069
 20
2.0
 30
0.0
 11
25.220251
 21
2.0
 31
0.0
  0
LINE
  8
0
  6
CONTINUOUS
 62
    90
  5
91
 10
28.00807
 20
2.0
 30
0.0
 11
33.918069
 21
2.0
 31
0.0
  0
LINE
  8
0
  6
CONTINUOUS
 62
    90
  5
92
 10
36.705888
 20
2.0
 30
0.0
 11
40.008069
 21
2.0
 31
0.0
  0
LINE
  8
0
  6
CONTINUOUS
 62
    90
  5
93
 10
21.688069
 20
2.5
 30
0.0
 11
24.990251
 21
2.5
 31
0.0
  0
LINE
  8
0
  6
CONTINUOUS
 62
    90
  5
94
 10
28.23807
 20
2.5
 30
0.0
 11
33.688069
 21
2.5
 31
0.0
  0
LINE
  8
0
  6
CONTINUOUS
 62
    90
  5
95
 10
36.935888
 20
2.5
 30
0.0
 11
40.238069
 21
2.5
 31
0.0
  0
LINE
  8
0
  6
CONTINUOUS
 62
    90
  5
96
 10
21.458069
 20
3.0
 30
0.0
 11
24.760251
 21
3.0
 31
0.0
  0
LINE
  8
0
  6
CONTINUOUS
 62
    90
  5
97
 10
28.46807
 20
3.0
 30
0.0
 11
33.458069
 21
3.0
 31
0.0
  0
LINE
  8
0
  6
CONTINUOUS
 62
    90
  5
98
 10
37.165888
 20
3.0
 30
0.0
 11
40.468069
 21
3.0
 31
0.0
  0
LINE
  8
0
  6
CONTINUOUS
 62
    90
  5
99
 10
21.228069
 20
3.5
 30
0.0
 11
24.530251
 21
3.5
 31
0.0
  0
LINE
  8
0
  6
CONTINUOUS
 62
    90
  5
9A
 10
28.69807
 20
3.5
 30
0.0
 11
33.228069
 21
3.5
 31
0.0
  0
LINE
  8
0
  6
CONTINUOUS
 62
    90
  5
9B
 10
37.395888
 20
3.5
 30
0.0
 11
40.698069
 21
3.5
 31
0.0
  0
LINE
  8
0
  6
CONTINUOUS
 62
    90
  5
9C
 10
20.998069
 20
4.0
 30
0.0
 11
24.300251
 21
4.0
 31
0.0
  0
LINE
  8
0
  6
CONTINUOUS
 62
    90
  5
9D
 10
28.928069
 20
4.0
 30
0.0
 11
32.998069
 21
4.0
 31
0.0
  0
LINE
  8
0
  6
CONTINUOUS
 62
    90
  5
9E
 10
37.625888
 20
4.0
 30
0.0
 11
40.928069
 21
4.0
 31
0.0
  0
LINE
  8
0
  6
CONTINUOUS
 62
    90
  5
9F
 10
20.768069
 20
4.5
 30
0.0
 11
24.070251
 21
4.5
 31
0.0
  0
LINE
  8
0
  6
CONTINUOUS
 62
    90
  5
A0
 10
29.158069
 20
4.5
 30
0.0
 11
32.768069
 21
4.5
 31
0.0
  0
LINE
  8
0
  6
CONTINUOUS
 62
    90
  5
A1
 10
37.855888
 20
4.5
 30
0.0
 11
41.158069
 21
4.5
 31
0.0
  0
LINE
  8
0
  6
CONTINUOUS
 62
    90
  5
A2
 10
20.538069
 20
5.0
 30
0.0
 11
23.840251
 21
5.0
 31
0.0
  0
LINE
  8
0
  6
CONTINUOUS
 62
    90
  5
A3
 10
29.388069
 20
5.0
 30
0.0
 11
32.538069
 21
5.0
 31
0.0
  0
LINE
  8
0
  6
CONTINUOUS
 62
    90
  5
A4
 10
38.085888
 20
5.0
 30
0.0
 11
41.388069
 21
5.0
 31
0.0
  0
LINE
  8
0
  6
CONTINUOUS
 62
    90
  5
A5
 10
20.308069
 20
5.5
 30
0.0
 11
23.610251
 21
5.5
 31
0.0
  0
LINE
  8
0
  6
CONTINUOUS
 62
    90
  5
A6
 10
29.618069
 20
5.5
 30
0.0
 11
32.308069
 21
5.5
 31
0.0
  0
LINE
  8
0
  6
CONTINUOUS
 62
    90
  5
A7
 10
38.315888
 20
5.5
 30
0.0
 11
41.618069
 21
5.5
 31
0.0
  0
LINE
  8
0
  6
CONTINUOUS
 62
    90
  5
A8
 10
20.078069
 20
6.0
 30
0.0
 11
23.380251
 21
6.0
 31
0.0
  0
LINE
  8
0
  6
CONTINUOUS
 62
    90
  5
A9
 10
29.848069
 20
6.0
 30
0.0
 11
32.078069
 21
6.0
 31
0.0
  0
LINE
  8
0
  6
CONTINUOUS
 62
    90
  5
AA
 10
38.545888
 20
6.0
 30
0.0
 11
41.848069
 21
6.0
 31
0.0
  0
LINE
  8
0
  6
CONTINUOUS
 62
    90
  5
AB
 10
20.0
 20
6.169716
 30
0.0
 11
20.0
 21
6.25
 31
0.0
  0
LINE
  8
0
  6
CONTINUOUS
 62
    90
  5
AC
 10
20.5
 20
5.08276
 30
0.0
 11
20.5
 21
6.25
 31
0.0
  0
LINE
  8
0
  6
CONTINUOUS
 62
    90
  5
AD
 10
21.0
 20
3.995803
 30
0.0
 11
21.0
 21
6.25
 31
0.0
  0
LINE
  8
0
  6
CONTINUOUS
 62
    90
  5
AE
 10
21.5
 20
2.908847
 30
0.0
 11
21.5
 21
6.25
 31
0.0
  0
LINE
  8
0
  6
CONTINUOUS
 62
    90
  5
AF
 10
22.0
 20
1.82189
 30
0.0
 11
22.0
 21
6.25
 31
0.0
  0
LINE
  8
0
  6
CONTINUOUS
 62
    90
  5
B0
 10
22.5
 20
0.734934
 30
0.0
 11
22.5
 21
6.25
 31
0.0
  0
LINE
  8
0
  6
CONTINUOUS
 62
    90
  5
B1
 10
23.0
 20
-0.352023
 30
0.0
 11
23.0
 21
6.25
 31
0.0
  0
LINE
  8
0
  6
CONTINUOUS
 62
    90
  5
B2
 10
23.5
 20
-1.438979
 30
0.0
 11
23.5
 21
5.739675
 31
0.0
  0
LINE
  8
0
  6
CONTINUOUS
 62
    90
  5
B3
 10
24.0
 20
-2.525936
 30
0.0
 11
24.0
 21
4.652719
 31
0.0
  0
LINE
  8
0
  6
CONTINUOUS
 62
    90
  5
B4
 10
24.5
 20
-3.612893
 30
0.0
 11
24.5
 21
3.565762
 31
0.0
  0
LINE
  8
0
  6
CONTINUOUS
 62
    90
  5
B5
 10
25.0
 20
-4.699849
 30
0.0
 11
25.0
 21
2.478806
 31
0.0
  0
LINE
  8
0
  6
CONTINUOUS
 62
    90
  5
B6
 10
25.5
 20
-5.786806
 30
0.0
 11
25.5
 21
1.391849
 31
0.0
  0
LINE
  8
0
  6
CONTINUOUS
 62
    90
  5
B7
 10
26.0
 20
-6.25
 30
0.0
 11
26.0
 21
0.304892
 31
0.0
  0
LINE
  8
0
  6
CONTINUOUS
 62
    90
  5
B8
 10
26.5
 20
-6.25
 30
0.0
 11
26.5
 21
-0.782064
 31
0.0
  0
LINE
  8
0
  6
CONTINUOUS
 62
    90
  5
B9
 10
27.0
 20
-6.25
 30
0.0
 11
27.0
 21
-0.191456
 31
0.0
  0
LINE
  8
0
  6
CONTINUOUS
 62
    90
  5
BA
 10
27.5
 20
-6.25
 30
0.0
 11
27.5
 21
0.895501
 31
0.0
  0
LINE
  8
0
  6
CONTINUOUS
 62
    90
  5
BB
 10
28.0
 20
-5.196197
 30
0.0
 11
28.0
 21
1.982458
 31
0.0
  0
LINE
  8
0
  6
CONTINUOUS
 62
    90
  5
BC
 10
28.5
 20
-4.109241
 30
0.0
 11
28.5
 21
3.069414
 31
0.0
  0
LINE
  8
0
  6
CONTINUOUS
 62
    90
  5
BD
 10
29.0
 20
-3.022284
 30
0.0
 11
29.0
 21
4.156371
 31
0.0
  0
LINE
  8
0
  6
CONTINUOUS
 62
    90
  5
BE
 10
29.5
 20
-1.935327
 30
0.0
 11
29.5
 21
5.243327
 31
0.0
  0
LINE
  8
0
  6
CONTINUOUS
 62
    90
  5
BF
 10
30.0
 20
-0.848371
 30
0.0
 11
30.0
 21
6.25
 31
0.0
  0
LINE
  8
0
  6
CONTINUOUS
 62
    90
  5
C0
 10
30.5
 20
0.238586
 30
0.0
 11
30.5
 21
6.25
 31
0.0
  0
LINE
  8
0
  6
CONTINUOUS
 62
    90
  5
C1
 10
31.0
 20
1.164975
 30
0.0
 11
31.0
 21
6.25
 31
0.0
  0
LINE
  8
0
  6
CONTINUOUS
 62
    90
  5
C2
 10
31.5
 20
0.078018
 30
0.0
 11
31.5
 21
6.25
 31
0.0
  0
LINE
  8
0
  6
CONTINUOUS
 62
    90
  5
C3
 10
32.0
 20
-1.008939
 30
0.0
 11
32.0
 21
6.169716
 31
0.0
  0
LINE
  8
0
  6
CONTINUOUS
 62
    90
  5
C4
 10
32.5
 20
-2.095895
 30
0.0
 11
32.5
 21
5.08276
 31
0.0
  0
LINE
  8
0
  6
CONTINUOUS
 62
    90
  5
C5
 10
33.0
 20
-3.182852
 30
0.0
 11
33.0
 21
3.995803
 31
0.0
  0
LINE
  8
0
  6
CONTINUOUS
 62
    90
  5
C6
 10
33.5
 20
-4.269808
 30
0.0
 11
33.5
 21
2.908846
 31
0.0
  0
LINE
  8
0
  6
CONTINUOUS
 62
    90
  5
C7
 10
34.0
 20
-5.356765
 30
0.0
 11
34.0
 21
1.82189
 31
0.0
  0
LINE
  8
0
  6
CONTINUOUS
 62
    90
  5
C8
 10
34.5
 20
-6.25
 30
0.0
 11
34.5
 21
0.734933
 31
0.0
  0
LINE
  8
0
  6
CONTINUOUS
 62
    90
  5
C9
 10
35.0
 20
-6.25
 30
0.0
 11
35.0
 21
-0.352023
 31
0.0
  0
LINE
  8
0
  6
CONTINUOUS
 62
    90
  5
CA
 10
35.5
 20
-6.25
 30
0.0
 11
35.5
 21
-0.621496
 31
0.0
  0
LINE
  8
0
  6
CONTINUOUS
 62
    90
  5
CB
 10
36.0
 20
-6.25
 30
0.0
 11
36.0
 21
0.46546
 31
0.0
  0
LINE
  8
0
  6
CONTINUOUS
 62
    90
  5
CC
 10
36.5
 20
-5.626238
 30
0.0
 11
36.5
 21
1.552417
 31
0.0
  0
LINE
  8
0
  6
CONTINUOUS
 62
    90
  5
CD
 10
37.0
 20
-4.539281
 30
0.0
 11
37.0
 21
2.639373
 31
0.0
  0
LINE
  8
0
  6
CONTINUOUS
 62
    90
  5
CE
 10
37.5
 20
-3.452325
 30
0.0
 11
37.5
 21
3.72633
 31
0.0
  0
LINE
  8
0
  6
CONTINUOUS
 62
    90
  5
CF
 10
38.0
 20
-2.365368
 30
0.0
 11
38.0
 21
4.813286
 31
0.0
  0
LINE
  8
0
  6
CONTINUOUS
 62
    90
  5
D0
 10
38.5
 20
-1.278412
 30
0.0
 11
38.5
 21
5.900243
 31
0.0
  0
LINE
  8
0
  6
CONTINUOUS
 62
    90
  5
D1
 10
39.0
 20
-0.191455
 30
0.0
 11
39.0
 21
6.25
 31
0.0
  0
LINE
  8
0
  6
CONTINUOUS
 62
    90
  5
D2
 10
39.5
 20
0.895501
 30
0.0
 11
39.5
 21
6.25
 31
0.0
  0
LINE
  8
0
  6
CONTINUOUS
 62
    90
  5
D3
 10
40.0
 20
1.982458
 30
0.0
 11
40.0
 21
6.25
 31
0.0
  0
LINE
  8
0
  6
CONTINUOUS
 62
    90
  5
D4
 10
40.5
 20
3.069414
 30
0.0
 11
40.5
 21
6.25
 31
0.0
  0
LINE
  8
0
  6
CONTINUOUS
 62
    90
  5
D5
 10
41.0
 20
4.156371
 30
0.0
 11
41.0
 21
6.25
 31
0.0
  0
LINE
  8
0
  6
CONTINUOUS
 62
    90
  5
D6
 10
41.5
 20
5.243327
 30
0.0
 11
41.5
 21
6.25
 31
0.0
  0
ENDBLK
  8
0
  5
D7
  0
BLOCK
  8
0
  5
D8
  2
*X2
 70
     1
 10
0.0
 20
0.0
 30
0.0
  3
*X2
  0
LINE
  8
0
  6
CONTINUOUS
 62
    90
  5
D9
 10
2.46307
 20
0.0
 30
0.0
 11
4.963071
 21
0.0
 31
0.0
  0
LINE
  8
0
  6
CONTINUOUS
 62
    90
  5
DA
 10
18.463068
 20
0.0
 30
0.0
 11
20.963069
 21
0.0
 31
0.0
  0
LINE
  8
0
  6
CONTINUOUS
 62
    90
  5
DB
 10
2.499615
 20
0.5
 30
0.0
 11
5.025111
 21
0.5
 31
0.0
  0
LINE
  8
0
  6
CONTINUOUS
 62
    90
  5
DC
 10
18.401027
 20
0.5
 30
0.0
 11
20.926523
 21
0.5
 31
0.0
  0
LINE
  8
0
  6
CONTINUOUS
 62
    90
  5
DD
 10
2.576973
 20
1.0
 30
0.0
 11
5.157436
 21
1.0
 31
0.0
  0
LINE
  8
0
  6
CONTINUOUS
 62
    90
  5
DE
 10
18.268702
 20
1.0
 30
0.0
 11
20.849166
 21
1.0
 31
0.0
  0
LINE
  8
0
  6
CONTINUOUS
 62
    90
  5
DF
 10
2.696717
 20
1.5
 30
0.0
 11
5.368326
 21
1.5
 31
0.0
  0
LINE
  8
0
  6
CONTINUOUS
 62
    90
  5
E0
 10
18.057812
 20
1.5
 30
0.0
 11
20.729422
 21
1.5
 31
0.0
  0
LINE
  8
0
  6
CONTINUOUS
 62
    90
  5
E1
 10
2.861447
 20
2.0
 30
0.0
 11
5.673981
 21
2.0
 31
0.0
  0
LINE
  8
0
  6
CONTINUOUS
 62
    90
  5
E2
 10
17.752157
 20
2.0
 30
0.0
 11
20.564692
 21
2.0
 31
0.0
  0
LINE
  8
0
  6
CONTINUOUS
 62
    90
  5
E3
 10
3.075105
 20
2.5
 30
0.0
 11
6.107277
 21
2.5
 31
0.0
  0
LINE
  8
0
  6
CONTINUOUS
 62
    90
  5
E4
 10
17.31886
 20
2.5
 30
0.0
 11
20.351034
 21
2.5
 31
0.0
  0
LINE
  8
0
  6
CONTINUOUS
 62
    90
  5
E5
 10
3.343526
 20
3.0
 30
0.0
 11
6.743704
 21
3.0
 31
0.0
  0
LINE
  8
0
  6
CONTINUOUS
 62
    90
  5
E6
 10
16.682432
 20
3.0
 30
0.0
 11
20.082613
 21
3.0
 31
0.0
  0
LINE
  8
0
  6
CONTINUOUS
 62
    90
  5
E7
 10
3.675452
 20
3.5
 30
0.0
 11
7.563389
 21
3.5
 31
0.0
  0
LINE
  8
0
  6
CONTINUOUS
 62
    90
  5
E8
 10
15.862748
 20
3.5
 30
0.0
 11
19.750687
 21
3.5
 31
0.0
  0
LINE
  8
0
  6
CONTINUOUS
 62
    90
  5
E9
 10
4.084522
 20
4.0
 30
0.0
 11
8.687916
 21
4.0
 31
0.0
  0
LINE
  8
0
  6
CONTINUOUS
 62
    90
  5
EA
 10
14.738221
 20
4.0
 30
0.0
 11
19.341617
 21
4.0
 31
0.0
  0
LINE
  8
0
  6
CONTINUOUS
 62
    90
  5
EB
 10
4.593643
 20
4.5
 30
0.0
 11
11.406174
 21
4.5
 31
0.0
  0
LINE
  8
0
  6
CONTINUOUS
 62
    90
  5
EC
 10
12.019961
 20
4.5
 30
0.0
 11
18.832497
 21
4.5
 31
0.0
  0
LINE
  8
0
  6
CONTINUOUS
 62
    90
  5
ED
 10
5.243059
 20
5.0
 30
0.0
 11
18.183081
 21
5.0
 31
0.0
  0
LINE
  8
0
  6
CONTINUOUS
 62
    90
  5
EE
 10
6.020332
 20
5.5
 30
0.0
 11
17.405807
 21
5.5
 31
0.0
  0
LINE
  8
0
  6
CONTINUOUS
 62
    90
  5
EF
 10
6.980572
 20
6.0
 30
0.0
 11
16.445568
 21
6.0
 31
0.0
  0
LINE
  8
0
  6
CONTINUOUS
 62
    90
  5
F0
 10
8.280871
 20
6.5
 30
0.0
 11
15.145268
 21
6.5
 31
0.0
  0
LINE
  8
0
  6
CONTINUOUS
 62
    90
  5
F1
 10
11.401868
 20
7.0
 30
0.0
 11
12.024271
 21
7.0
 31
0.0
  0
LINE
  8
0
  6
CONTINUOUS
 62
    90
  5
F2
 10
2.5
 20
0.0
 30
0.0
 11
2.5
 21
0.503379
 31
0.0
  0
LINE
  8
0
  6
CONTINUOUS
 62
    90
  5
F3
 10
3.0
 20
0.0
 30
0.0
 11
3.0
 21
2.337525
 31
0.0
  0
LINE
  8
0
  6
CONTINUOUS
 62
    90
  5
F4
 10
3.5
 20
0.0
 30
0.0
 11
3.5
 21
3.248721
 31
0.0
  0
LINE
  8
0
  6
CONTINUOUS
 62
    90
  5
F5
 10
4.0
 20
0.0
 30
0.0
 11
4.0
 21
3.90502
 31
0.0
  0
LINE
  8
0
  6
CONTINUOUS
 62
    90
  5
F6
 10
4.5
 20
0.0
 30
0.0
 11
4.5
 21
4.416311
 31
0.0
  0
LINE
  8
0
  6
CONTINUOUS
 62
    90
  5
F7
 10
5.0
 20
0.354251
 30
0.0
 11
5.0
 21
4.826986
 31
0.0
  0
LINE
  8
0
  6
CONTINUOUS
 62
    90
  5
F8
 10
5.5
 20
1.737097
 30
0.0
 11
5.5
 21
5.175633
 31
0.0
  0
LINE
  8
0
  6
CONTINUOUS
 62
    90
  5
F9
 10
6.0
 20
2.391902
 30
0.0
 11
6.0
 21
5.488072
 31
0.0
  0
LINE
  8
0
  6
CONTINUOUS
 62
    90
  5
FA
 10
6.5
 20
2.831437
 30
0.0
 11
6.5
 21
5.764839
 31
0.0
  0
LINE
  8
0
  6
CONTINUOUS
 62
    90
  5
FB
 10
7.0
 20
3.170219
 30
0.0
 11
7.0
 21
6.008903
 31
0.0
  0
LINE
  8
0
  6
CONTINUOUS
 62
    90
  5
FC
 10
7.5
 20
3.465756
 30
0.0
 11
7.5
 21
6.222617
 31
0.0
  0
LINE
  8
0
  6
CONTINUOUS
 62
    90
  5
FD
 10
8.0
 20
3.717554
 30
0.0
 11
8.0
 21
6.407857
 31
0.0
  0
LINE
  8
0
  6
CONTINUOUS
 62
    90
  5
FE
 10
8.5
 20
3.929795
 30
0.0
 11
8.5
 21
6.566126
 31
0.0
  0
LINE
  8
0
  6
CONTINUOUS
 62
    90
  5
FF
 10
9.0
 20
4.105597
 30
0.0
 11
9.0
 21
6.698625
 31
0.0
  0
LINE
  8
0
  6
CONTINUOUS
 62
    90
  5
100
 10
9.5
 20
4.247298
 30
0.0
 11
9.5
 21
6.806307
 31
0.0
  0
LINE
  8
0
  6
CONTINUOUS
 62
    90
  5
101
 10
10.0
 20
4.356639
 30
0.0
 11
10.0
 21
6.889908
 31
0.0
  0
LINE
  8
0
  6
CONTINUOUS
 62
    90
  5
102
 10
10.5
 20
4.434882
 30
0.0
 11
10.5
 21
6.949984
 31
0.0
  0
LINE
  8
0
  6
CONTINUOUS
 62
    90
  5
103
 10
11.0
 20
4.482891
 30
0.0
 11
11.0
 21
6.986921
 31
0.0
  0
LINE
  8
0
  6
CONTINUOUS
 62
    90
  5
104
 10
11.5
 20
4.50118
 30
0.0
 11
11.5
 21
7.000954
 31
0.0
  0
LINE
  8
0
  6
CONTINUOUS
 62
    90
  5
105
 10
12.0
 20
4.500338
 30
0.0
 11
12.0
 21
7.000318
 31
0.0
  0
LINE
  8
0
  6
CONTINUOUS
 62
    90
  5
106
 10
12.5
 20
4.477679
 30
0.0
 11
12.5
 21
6.982911
 31
0.0
  0
LINE
  8
0
  6
CONTINUOUS
 62
    90
  5
107
 10
13.0
 20
4.425244
 30
0.0
 11
13.0
 21
6.942574
 31
0.0
  0
LINE
  8
0
  6
CONTINUOUS
 62
    90
  5
108
 10
13.5
 20
4.34247
 30
0.0
 11
13.5
 21
6.879051
 31
0.0
  0
LINE
  8
0
  6
CONTINUOUS
 62
    90
  5
109
 10
14.0
 20
4.228438
 30
0.0
 11
14.0
 21
6.791931
 31
0.0
  0
LINE
  8
0
  6
CONTINUOUS
 62
    90
  5
10A
 10
14.5
 20
4.081822
 30
0.0
 11
14.5
 21
6.680635
 31
0.0
  0
LINE
  8
0
  6
CONTINUOUS
 62
    90
  5
10B
 10
15.0
 20
3.9008
 30
0.0
 11
15.0
 21
6.544394
 31
0.0
  0
LINE
  8
0
  6
CONTINUOUS
 62
    90
  5
10C
 10
15.5
 20
3.682934
 30
0.0
 11
15.5
 21
6.382223
 31
0.0
  0
LINE
  8
0
  6
CONTINUOUS
 62
    90
  5
10D
 10
16.0
 20
3.424968
 30
0.0
 11
16.0
 21
6.19288
 31
0.0
  0
LINE
  8
0
  6
CONTINUOUS
 62
    90
  5
10E
 10
16.5
 20
3.122531
 30
0.0
 11
16.5
 21
5.974811
 31
0.0
  0
LINE
  8
0
  6
CONTINUOUS
 62
    90
  5
10F
 10
17.0
 20
2.775852
 30
0.0
 11
17.0
 21
5.726077
 31
0.0
  0
LINE
  8
0
  6
CONTINUOUS
 62
    90
  5
110
 10
17.5
 20
2.312142
 30
0.0
 11
17.5
 21
5.444245
 31
0.0
  0
LINE
  8
0
  6
CONTINUOUS
 62
    90
  5
111
 10
18.0
 20
1.609074
 30
0.0
 11
18.0
 21
5.126237
 31
0.0
  0
LINE
  8
0
  6
CONTINUOUS
 62
    90
  5
112
 10
18.5
 20
0.0
 30
0.0
 11
18.5
 21
4.771619
 31
0.0
  0
LINE
  8
0
  6
CONTINUOUS
 62
    90
  5
113
 10
19.0
 20
0.0
 30
0.0
 11
19.0
 21
4.347858
 31
0.0
  0
LINE
  8
0
  6
CONTINUOUS
 62
    90
  5
114
 10
19.5
 20
0.0
 30
0.0
 11
19.5
 21
3.818733
 31
0.0
  0
LINE
  8
0
  6
CONTINUOUS
 62
    90
  5
115
 10
20.0
 20
0.0
 30
0.0
 11
20.0
 21
3.13454
 31
0.0
  0
LINE
  8
0
  6
CONTINUOUS
 62
    90
  5
116
 10
20.5
 20
0.0
 30
0.0
 11
20.5
 21
2.164594
 31
0.0
  0
ENDBLK
  8
0
  5
117
  0
BLOCK
  8
0
  5
118
  2
*X3
 70
     1
 10
0.0
 20
0.0
 30
0.0
  3
*X3
  0
LINE
  8
0
  6
CONTINUOUS
 62
    90
  5
119
 10
11.401868
 20
-7.0
 30
0.0
 11
12.024271
 21
-7.0
 31
0.0
  0
LINE
  8
0
  6
CONTINUOUS
 62
    90
  5
11A
 10
8.280871
 20
-6.5
 30
0.0
 11
15.145268
 21
-6.5
 31
0.0
  0
LINE
  8
0
  6
CONTINUOUS
 62
    90
  5
11B
 10
6.980572
 20
-6.0
 30
0.0
 11
16.445568
 21
-6.0
 31
0.0
  0
LINE
  8
0
  6
CONTINUOUS
 62
    90
  5
11C
 10
6.020332
 20
-5.5
 30
0.0
 11
17.405807
 21
-5.5
 31
0.0
  0
LINE
  8
0
  6
CONTINUOUS
 62
    90
  5
11D
 10
5.243059
 20
-5.0
 30
0.0
 11
18.183081
 21
-5.0
 31
0.0
  0
LINE
  8
0
  6
CONTINUOUS
 62
    90
  5
11E
 10
4.593643
 20
-4.5
 30
0.0
 11
11.406201
 21
-4.5
 31
0.0
  0
LINE
  8
0
  6
CONTINUOUS
 62
    90
  5
11F
 10
11.713061
 20
-4.5
 30
0.0
 11
11.713077
 21
-4.5
 31
0.0
  0
LINE
  8
0
  6
CONTINUOUS
 62
    90
  5
120
 10
12.019936
 20
-4.5
 30
0.0
 11
18.832497
 21
-4.5
 31
0.0
  0
LINE
  8
0
  6
CONTINUOUS
 62
    90
  5
121
 10
4.084522
 20
-4.0
 30
0.0
 11
8.687917
 21
-4.0
 31
0.0
  0
LINE
  8
0
  6
CONTINUOUS
 62
    90
  5
122
 10
14.73822
 20
-4.0
 30
0.0
 11
19.341617
 21
-4.0
 31
0.0
  0
LINE
  8
0
  6
CONTINUOUS
 62
    90
  5
123
 10
3.675452
 20
-3.5
 30
0.0
 11
7.56339
 21
-3.5
 31
0.0
  0
LINE
  8
0
  6
CONTINUOUS
 62
    90
  5
124
 10
15.862747
 20
-3.5
 30
0.0
 11
19.750687
 21
-3.5
 31
0.0
  0
LINE
  8
0
  6
CONTINUOUS
 62
    90
  5
125
 10
3.343526
 20
-3.0
 30
0.0
 11
6.743705
 21
-3.0
 31
0.0
  0
LINE
  8
0
  6
CONTINUOUS
 62
    90
  5
126
 10
16.682432
 20
-3.0
 30
0.0
 11
20.082613
 21
-3.0
 31
0.0
  0
LINE
  8
0
  6
CONTINUOUS
 62
    90
  5
127
 10
3.075105
 20
-2.5
 30
0.0
 11
6.107277
 21
-2.5
 31
0.0
  0
LINE
  8
0
  6
CONTINUOUS
 62
    90
  5
128
 10
17.31886
 20
-2.5
 30
0.0
 11
20.351034
 21
-2.5
 31
0.0
  0
LINE
  8
0
  6
CONTINUOUS
 62
    90
  5
129
 10
2.861447
 20
-2.0
 30
0.0
 11
5.673981
 21
-2.0
 31
0.0
  0
LINE
  8
0
  6
CONTINUOUS
 62
    90
  5
12A
 10
17.752157
 20
-2.0
 30
0.0
 11
20.564692
 21
-2.0
 31
0.0
  0
LINE
  8
0
  6
CONTINUOUS
 62
    90
  5
12B
 10
2.696717
 20
-1.5
 30
0.0
 11
5.368326
 21
-1.5
 31
0.0
  0
LINE
  8
0
  6
CONTINUOUS
 62
    90
  5
12C
 10
18.057812
 20
-1.5
 30
0.0
 11
20.729422
 21
-1.5
 31
0.0
  0
LINE
  8
0
  6
CONTINUOUS
 62
    90
  5
12D
 10
2.576973
 20
-1.0
 30
0.0
 11
5.157436
 21
-1.0
 31
0.0
  0
LINE
  8
0
  6
CONTINUOUS
 62
    90
  5
12E
 10
18.268702
 20
-1.0
 30
0.0
 11
20.849166
 21
-1.0
 31
0.0
  0
LINE
  8
0
  6
CONTINUOUS
 62
    90
  5
12F
 10
2.499615
 20
-0.5
 30
0.0
 11
5.025111
 21
-0.5
 31
0.0
  0
LINE
  8
0
  6
CONTINUOUS
 62
    90
  5
130
 10
18.401027
 20
-0.5
 30
0.0
 11
20.926523
 21
-0.5
 31
0.0
  0
LINE
  8
0
  6
CONTINUOUS
 62
    90
  5
131
 10
2.46307
 20
0.0
 30
0.0
 11
4.963071
 21
0.0
 31
0.0
  0
LINE
  8
0
  6
CONTINUOUS
 62
    90
  5
132
 10
18.463068
 20
0.0
 30
0.0
 11
20.963069
 21
0.0
 31
0.0
  0
LINE
  8
0
  6
CONTINUOUS
 62
    90
  5
133
 10
2.5
 20
-0.503379
 30
0.0
 11
2.5
 21
0.0
 31
0.0
  0
LINE
  8
0
  6
CONTINUOUS
 62
    90
  5
134
 10
3.0
 20
-2.337525
 30
0.0
 11
3.0
 21
0.0
 31
0.0
  0
LINE
  8
0
  6
CONTINUOUS
 62
    90
  5
135
 10
3.5
 20
-3.248721
 30
0.0
 11
3.5
 21
0.0
 31
0.0
  0
LINE
  8
0
  6
CONTINUOUS
 62
    90
  5
136
 10
4.0
 20
-3.90502
 30
0.0
 11
4.0
 21
0.0
 31
0.0
  0
LINE
  8
0
  6
CONTINUOUS
 62
    90
  5
137
 10
4.5
 20
-4.416311
 30
0.0
 11
4.5
 21
0.0
 31
0.0
  0
LINE
  8
0
  6
CONTINUOUS
 62
    90
  5
138
 10
5.0
 20
-4.826986
 30
0.0
 11
5.0
 21
-0.354251
 31
0.0
  0
LINE
  8
0
  6
CONTINUOUS
 62
    90
  5
139
 10
5.5
 20
-5.175633
 30
0.0
 11
5.5
 21
-1.737097
 31
0.0
  0
LINE
  8
0
  6
CONTINUOUS
 62
    90
  5
13A
 10
6.0
 20
-5.488072
 30
0.0
 11
6.0
 21
-2.391901
 31
0.0
  0
LINE
  8
0
  6
CONTINUOUS
 62
    90
  5
13B
 10
6.5
 20
-5.764839
 30
0.0
 11
6.5
 21
-2.831437
 31
0.0
  0
LINE
  8
0
  6
CONTINUOUS
 62
    90
  5
13C
 10
7.0
 20
-6.008903
 30
0.0
 11
7.0
 21
-3.170218
 31
0.0
  0
LINE
  8
0
  6
CONTINUOUS
 62
    90
  5
13D
 10
7.5
 20
-6.222617
 30
0.0
 11
7.5
 21
-3.465755
 31
0.0
  0
LINE
  8
0
  6
CONTINUOUS
 62
    90
  5
13E
 10
8.0
 20
-6.407857
 30
0.0
 11
8.0
 21
-3.717553
 31
0.0
  0
LINE
  8
0
  6
CONTINUOUS
 62
    90
  5
13F
 10
8.5
 20
-6.566126
 30
0.0
 11
8.5
 21
-3.929794
 31
0.0
  0
LINE
  8
0
  6
CONTINUOUS
 62
    90
  5
140
 10
9.0
 20
-6.698625
 30
0.0
 11
9.0
 21
-4.105596
 31
0.0
  0
LINE
  8
0
  6
CONTINUOUS
 62
    90
  5
141
 10
9.5
 20
-6.806307
 30
0.0
 11
9.5
 21
-4.247298
 31
0.0
  0
LINE
  8
0
  6
CONTINUOUS
 62
    90
  5
142
 10
10.0
 20
-6.889908
 30
0.0
 11
10.0
 21
-4.356639
 31
0.0
  0
LINE
  8
0
  6
CONTINUOUS
 62
    90
  5
143
 10
10.5
 20
-6.949984
 30
0.0
 11
10.5
 21
-4.434882
 31
0.0
  0
LINE
  8
0
  6
CONTINUOUS
 62
    90
  5
144
 10
11.0
 20
-6.986921
 30
0.0
 11
11.0
 21
-4.482891
 31
0.0
  0
LINE
  8
0
  6
CONTINUOUS
 62
    90
  5
145
 10
11.5
 20
-7.000954
 30
0.0
 11
11.5
 21
-4.501179
 31
0.0
  0
LINE
  8
0
  6
CONTINUOUS
 62
    90
  5
146
 10
12.0
 20
-7.000318
 30
0.0
 11
12.0
 21
-4.500338
 31
0.0
  0
LINE
  8
0
  6
CONTINUOUS
 62
    90
  5
147
 10
12.5
 20
-6.982911
 30
0.0
 11
12.5
 21
-4.477678
 31
0.0
  0
LINE
  8
0
  6
CONTINUOUS
 62
    90
  5
148
 10
13.0
 20
-6.942574
 30
0.0
 11
13.0
 21
-4.425243
 31
0.0
  0
LINE
  8
0
  6
CONTINUOUS
 62
    90
  5
149
 10
13.5
 20
-6.879051
 30
0.0
 11
13.5
 21
-4.342469
 31
0.0
  0
LINE
  8
0
  6
CONTINUOUS
 62
    90
  5
14A
 10
14.0
 20
-6.791931
 30
0.0
 11
14.0
 21
-4.228438
 31
0.0
  0
LINE
  8
0
  6
CONTINUOUS
 62
    90
  5
14B
 10
14.5
 20
-6.680635
 30
0.0
 11
14.5
 21
-4.081821
 31
0.0
  0
LINE
  8
0
  6
CONTINUOUS
 62
    90
  5
14C
 10
15.0
 20
-6.544394
 30
0.0
 11
15.0
 21
-3.9008
 31
0.0
  0
LINE
  8
0
  6
CONTINUOUS
 62
    90
  5
14D
 10
15.5
 20
-6.382223
 30
0.0
 11
15.5
 21
-3.682934
 31
0.0
  0
LINE
  8
0
  6
CONTINUOUS
 62
    90
  5
14E
 10
16.0
 20
-6.19288
 30
0.0
 11
16.0
 21
-3.424968
 31
0.0
  0
LINE
  8
0
  6
CONTINUOUS
 62
    90
  5
14F
 10
16.5
 20
-5.974811
 30
0.0
 11
16.5
 21
-3.122531
 31
0.0
  0
LINE
  8
0
  6
CONTINUOUS
 62
    90
  5
150
 10
17.0
 20
-5.726077
 30
0.0
 11
17.0
 21
-2.775852
 31
0.0
  0
LINE
  8
0
  6
CONTINUOUS
 62
    90
  5
151
 10
17.5
 20
-5.444245
 30
0.0
 11
17.5
 21
-2.312142
 31
0.0
  0
LINE
  8
0
  6
CONTINUOUS
 62
    90
  5
152
 10
18.0
 20
-5.126237
 30
0.0
 11
18.0
 21
-1.609074
 31
0.0
  0
LINE
  8
0
  6
CONTINUOUS
 62
    90
  5
153
 10
18.5
 20
-4.771619
 30
0.0
 11
18.5
 21
0.0
 31
0.0
  0
LINE
  8
0
  6
CONTINUOUS
 62
    90
  5
154
 10
19.0
 20
-4.347858
 30
0.0
 11
19.0
 21
0.0
 31
0.0
  0
LINE
  8
0
  6
CONTINUOUS
 62
    90
  5
155
 10
19.5
 20
-3.818733
 30
0.0
 11
19.5
 21
0.0
 31
0.0
  0
LINE
  8
0
  6
CONTINUOUS
 62
    90
  5
156
 10
20.0
 20
-3.13454
 30
0.0
 11
20.0
 21
0.0
 31
0.0
  0
LINE
  8
0
  6
CONTINUOUS
 62
    90
  5
157
 10
20.5
 20
-2.164594
 30
0.0
 11
20.5
 21
0.0
 31
0.0
  0
ENDBLK
  8
0
  5
158
  0
BLOCK
  8
0
  5
159
  2
*X4
 70
     1
 10
0.0
 20
0.0
 30
0.0
  3
*X4
  0
LINE
  8
0
  6
CONTINUOUS
 62
    90
  5
15A
 10
-10.286931
 20
-6.0
 30
0.0
 11
-7.286931
 21
-6.0
 31
0.0
  0
LINE
  8
0
  6
CONTINUOUS
 62
    90
  5
15B
 10
-2.163632
 20
-6.0
 30
0.0
 11
1.533069
 21
-6.0
 31
0.0
  0
LINE
  8
0
  6
CONTINUOUS
 62
    90
  5
15C
 10
-10.286931
 20
-5.5
 30
0.0
 11
-7.286931
 21
-5.5
 31
0.0
  0
LINE
  8
0
  6
CONTINUOUS
 62
    90
  5
15D
 10
-2.523632
 20
-5.5
 30
0.0
 11
1.173069
 21
-5.5
 31
0.0
  0
LINE
  8
0
  6
CONTINUOUS
 62
    90
  5
15E
 10
-10.286931
 20
-5.0
 30
0.0
 11
-7.286931
 21
-5.0
 31
0.0
  0
LINE
  8
0
  6
CONTINUOUS
 62
    90
  5
15F
 10
-2.883632
 20
-5.0
 30
0.0
 11
0.813069
 21
-5.0
 31
0.0
  0
LINE
  8
0
  6
CONTINUOUS
 62
    90
  5
160
 10
-10.286931
 20
-4.5
 30
0.0
 11
-7.286931
 21
-4.5
 31
0.0
  0
LINE
  8
0
  6
CONTINUOUS
 62
    90
  5
161
 10
-3.243632
 20
-4.5
 30
0.0
 11
0.45307
 21
-4.5
 31
0.0
  0
LINE
  8
0
  6
CONTINUOUS
 62
    90
  5
162
 10
-10.286931
 20
-4.0
 30
0.0
 11
-7.286931
 21
-4.0
 31
0.0
  0
LINE
  8
0
  6
CONTINUOUS
 62
    90
  5
163
 10
-3.603632
 20
-4.0
 30
0.0
 11
0.09307
 21
-4.0
 31
0.0
  0
LINE
  8
0
  6
CONTINUOUS
 62
    90
  5
164
 10
-10.286931
 20
-3.5
 30
0.0
 11
-7.286931
 21
-3.5
 31
0.0
  0
LINE
  8
0
  6
CONTINUOUS
 62
    90
  5
165
 10
-3.963632
 20
-3.5
 30
0.0
 11
-0.26693
 21
-3.5
 31
0.0
  0
LINE
  8
0
  6
CONTINUOUS
 62
    90
  5
166
 10
-10.286931
 20
-3.0
 30
0.0
 11
-7.286931
 21
-3.0
 31
0.0
  0
LINE
  8
0
  6
CONTINUOUS
 62
    90
  5
167
 10
-4.323632
 20
-3.0
 30
0.0
 11
-0.62693
 21
-3.0
 31
0.0
  0
LINE
  8
0
  6
CONTINUOUS
 62
    90
  5
168
 10
-10.286931
 20
-2.5
 30
0.0
 11
-7.286931
 21
-2.5
 31
0.0
  0
LINE
  8
0
  6
CONTINUOUS
 62
    90
  5
169
 10
-4.683633
 20
-2.5
 30
0.0
 11
-0.98693
 21
-2.5
 31
0.0
  0
LINE
  8
0
  6
CONTINUOUS
 62
    90
  5
16A
 10
-10.286931
 20
-2.0
 30
0.0
 11
-1.10079
 21
-2.0
 31
0.0
  0
LINE
  8
0
  6
CONTINUOUS
 62
    90
  5
16B
 10
-10.286931
 20
-1.5
 30
0.0
 11
-0.126018
 21
-1.5
 31
0.0
  0
LINE
  8
0
  6
CONTINUOUS
 62
    90
  5
16C
 10
-10.286931
 20
-1.0
 30
0.0
 11
0.473468
 21
-1.0
 31
0.0
  0
LINE
  8
0
  6
CONTINUOUS
 62
    90
  5
16D
 10
-10.286931
 20
-0.5
 30
0.0
 11
0.900001
 21
-0.5
 31
0.0
  0
LINE
  8
0
  6
CONTINUOUS
 62
    90
  5
16E
 10
-10.286931
 20
0.0
 30
0.0
 11
1.213069
 21
0.0
 31
0.0
  0
LINE
  8
0
  6
CONTINUOUS
 62
    90
  5
16F
 10
-10.286931
 20
0.5
 30
0.0
 11
1.439563
 21
0.5
 31
0.0
  0
LINE
  8
0
  6
CONTINUOUS
 62
    90
  5
170
 10
-1.786931
 20
1.0
 30
0.0
 11
1.593747
 21
1.0
 31
0.0
  0
LINE
  8
0
  6
CONTINUOUS
 62
    90
  5
171
 10
-1.391287
 20
1.5
 30
0.0
 11
1.683555
 21
1.5
 31
0.0
  0
LINE
  8
0
  6
CONTINUOUS
 62
    90
  5
172
 10
-1.286931
 20
2.0
 30
0.0
 11
1.713069
 21
2.0
 31
0.0
  0
LINE
  8
0
  6
CONTINUOUS
 62
    90
  5
173
 10
-1.391287
 20
2.5
 30
0.0
 11
1.683555
 21
2.5
 31
0.0
  0
LINE
  8
0
  6
CONTINUOUS
 62
    90
  5
174
 10
-1.786931
 20
3.0
 30
0.0
 11
1.593747
 21
3.0
 31
0.0
  0
LINE
  8
0
  6
CONTINUOUS
 62
    90
  5
175
 10
-10.286931
 20
3.5
 30
0.0
 11
1.439563
 21
3.5
 31
0.0
  0
LINE
  8
0
  6
CONTINUOUS
 62
    90
  5
176
 10
-10.286931
 20
4.0
 30
0.0
 11
1.213069
 21
4.0
 31
0.0
  0
LINE
  8
0
  6
CONTINUOUS
 62
    90
  5
177
 10
-10.286931
 20
4.5
 30
0.0
 11
0.900001
 21
4.5
 31
0.0
  0
LINE
  8
0
  6
CONTINUOUS
 62
    90
  5
178
 10
-10.286931
 20
5.0
 30
0.0
 11
0.473468
 21
5.0
 31
0.0
  0
LINE
  8
0
  6
CONTINUOUS
 62
    90
  5
179
 10
-10.286931
 20
5.5
 30
0.0
 11
-0.126018
 21
5.5
 31
0.0
  0
LINE
  8
0
  6
CONTINUOUS
 62
    90
  5
17A
 10
-10.286931
 20
6.0
 30
0.0
 11
-1.10079
 21
6.0
 31
0.0
  0
LINE
  8
0
  6
CONTINUOUS
 62
    90
  5
17B
 10
-10.0
 20
-6.25
 30
0.0
 11
-10.0
 21
0.75
 31
0.0
  0
LINE
  8
0
  6
CONTINUOUS
 62
    90
  5
17C
 10
-10.0
 20
3.25
 30
0.0
 11
-10.0
 21
6.25
 31
0.0
  0
LINE
  8
0
  6
CONTINUOUS
 62
    90
  5
17D
 10
-9.5
 20
-6.25
 30
0.0
 11
-9.5
 21
0.75
 31
0.0
  0
LINE
  8
0
  6
CONTINUOUS
 62
    90
  5
17E
 10
-9.5
 20
3.25
 30
0.0
 11
-9.5
 21
6.25
 31
0.0
  0
LINE
  8
0
  6
CONTINUOUS
 62
    90
  5
17F
 10
-9.0
 20
-6.25
 30
0.0
 11
-9.0
 21
0.75
 31
0.0
  0
LINE
  8
0
  6
CONTINUOUS
 62
    90
  5
180
 10
-9.0
 20
3.25
 30
0.0
 11
-9.0
 21
6.25
 31
0.0
  0
LINE
  8
0
  6
CONTINUOUS
 62
    90
  5
181
 10
-8.5
 20
-6.25
 30
0.0
 11
-8.5
 21
0.75
 31
0.0
  0
LINE
  8
0
  6
CONTINUOUS
 62
    90
  5
182
 10
-8.5
 20
3.25
 30
0.0
 11
-8.5
 21
6.25
 31
0.0
  0
LINE
  8
0
  6
CONTINUOUS
 62
    90
  5
183
 10
-8.0
 20
-6.25
 30
0.0
 11
-8.0
 21
0.75
 31
0.0
  0
LINE
  8
0
  6
CONTINUOUS
 62
    90
  5
184
 10
-8.0
 20
3.25
 30
0.0
 11
-8.0
 21
6.25
 31
0.0
  0
LINE
  8
0
  6
CONTINUOUS
 62
    90
  5
185
 10
-7.5
 20
-6.25
 30
0.0
 11
-7.5
 21
0.75
 31
0.0
  0
LINE
  8
0
  6
CONTINUOUS
 62
    90
  5
186
 10
-7.5
 20
3.25
 30
0.0
 11
-7.5
 21
6.25
 31
0.0
  0
LINE
  8
0
  6
CONTINUOUS
 62
    90
  5
187
 10
-7.0
 20
-2.25
 30
0.0
 11
-7.0
 21
0.75
 31
0.0
  0
LINE
  8
0
  6
CONTINUOUS
 62
    90
  5
188
 10
-7.0
 20
3.25
 30
0.0
 11
-7.0
 21
6.25
 31
0.0
  0
LINE
  8
0
  6
CONTINUOUS
 62
    90
  5
189
 10
-6.5
 20
-2.25
 30
0.0
 11
-6.5
 21
0.75
 31
0.0
  0
LINE
  8
0
  6
CONTINUOUS
 62
    90
  5
18A
 10
-6.5
 20
3.25
 30
0.0
 11
-6.5
 21
6.25
 31
0.0
  0
LINE
  8
0
  6
CONTINUOUS
 62
    90
  5
18B
 10
-6.0
 20
-2.25
 30
0.0
 11
-6.0
 21
0.75
 31
0.0
  0
LINE
  8
0
  6
CONTINUOUS
 62
    90
  5
18C
 10
-6.0
 20
3.25
 30
0.0
 11
-6.0
 21
6.25
 31
0.0
  0
LINE
  8
0
  6
CONTINUOUS
 62
    90
  5
18D
 10
-5.5
 20
-2.25
 30
0.0
 11
-5.5
 21
0.75
 31
0.0
  0
LINE
  8
0
  6
CONTINUOUS
 62
    90
  5
18E
 10
-5.5
 20
3.25
 30
0.0
 11
-5.5
 21
6.25
 31
0.0
  0
LINE
  8
0
  6
CONTINUOUS
 62
    90
  5
18F
 10
-5.0
 20
-2.25
 30
0.0
 11
-5.0
 21
0.75
 31
0.0
  0
LINE
  8
0
  6
CONTINUOUS
 62
    90
  5
190
 10
-5.0
 20
3.25
 30
0.0
 11
-5.0
 21
6.25
 31
0.0
  0
LINE
  8
0
  6
CONTINUOUS
 62
    90
  5
191
 10
-4.5
 20
-2.755045
 30
0.0
 11
-4.5
 21
0.75
 31
0.0
  0
LINE
  8
0
  6
CONTINUOUS
 62
    90
  5
192
 10
-4.5
 20
3.25
 30
0.0
 11
-4.5
 21
6.25
 31
0.0
  0
LINE
  8
0
  6
CONTINUOUS
 62
    90
  5
193
 10
-4.0
 20
-3.449489
 30
0.0
 11
-4.0
 21
0.75
 31
0.0
  0
LINE
  8
0
  6
CONTINUOUS
 62
    90
  5
194
 10
-4.0
 20
3.25
 30
0.0
 11
-4.0
 21
6.25
 31
0.0
  0
LINE
  8
0
  6
CONTINUOUS
 62
    90
  5
195
 10
-3.5
 20
-4.143934
 30
0.0
 11
-3.5
 21
0.75
 31
0.0
  0
LINE
  8
0
  6
CONTINUOUS
 62
    90
  5
196
 10
-3.5
 20
3.25
 30
0.0
 11
-3.5
 21
6.25
 31
0.0
  0
LINE
  8
0
  6
CONTINUOUS
 62
    90
  5
197
 10
-3.0
 20
-4.838378
 30
0.0
 11
-3.0
 21
0.75
 31
0.0
  0
LINE
  8
0
  6
CONTINUOUS
 62
    90
  5
198
 10
-3.0
 20
3.25
 30
0.0
 11
-3.0
 21
6.25
 31
0.0
  0
LINE
  8
0
  6
CONTINUOUS
 62
    90
  5
199
 10
-2.5
 20
-5.532822
 30
0.0
 11
-2.5
 21
0.750546
 31
0.0
  0
LINE
  8
0
  6
CONTINUOUS
 62
    90
  5
19A
 10
-2.5
 20
3.249454
 30
0.0
 11
-2.5
 21
6.24984
 31
0.0
  0
LINE
  8
0
  6
CONTINUOUS
 62
    90
  5
19B
 10
-2.0
 20
-6.227266
 30
0.0
 11
-2.0
 21
0.871193
 31
0.0
  0
LINE
  8
0
  6
CONTINUOUS
 62
    90
  5
19C
 10
-2.0
 20
3.128807
 30
0.0
 11
-2.0
 21
6.215947
 31
0.0
  0
LINE
  8
0
  6
CONTINUOUS
 62
    90
  5
19D
 10
-1.5
 20
-6.25
 30
0.0
 11
-1.5
 21
1.301949
 31
0.0
  0
LINE
  8
0
  6
CONTINUOUS
 62
    90
  5
19E
 10
-1.5
 20
2.698051
 30
0.0
 11
-1.5
 21
6.121562
 31
0.0
  0
LINE
  8
0
  6
CONTINUOUS
 62
    90
  5
19F
 10
-1.0
 20
-6.25
 30
0.0
 11
-1.0
 21
-2.481848
 31
0.0
  0
LINE
  8
0
  6
CONTINUOUS
 62
    90
  5
1A0
 10
-1.0
 20
-1.962366
 30
0.0
 11
-1.0
 21
5.962366
 31
0.0
  0
LINE
  8
0
  6
CONTINUOUS
 62
    90
  5
1A1
 10
-0.5
 20
-6.25
 30
0.0
 11
-0.5
 21
-3.176292
 31
0.0
  0
LINE
  8
0
  6
CONTINUOUS
 62
    90
  5
1A2
 10
-0.5
 20
-1.730069
 30
0.0
 11
-0.5
 21
5.730069
 31
0.0
  0
LINE
  8
0
  6
CONTINUOUS
 62
    90
  5
1A3
 10
0.0
 20
-6.25
 30
0.0
 11
0.0
 21
-3.870737
 31
0.0
  0
LINE
  8
0
  6
CONTINUOUS
 62
    90
  5
1A4
 10
0.0
 20
-1.409763
 30
0.0
 11
0.0
 21
5.409763
 31
0.0
  0
LINE
  8
0
  6
CONTINUOUS
 62
    90
  5
1A5
 10
0.5
 20
-6.25
 30
0.0
 11
0.5
 21
-4.565181
 31
0.0
  0
LINE
  8
0
  6
CONTINUOUS
 62
    90
  5
1A6
 10
0.5
 20
-0.973139
 30
0.0
 11
0.5
 21
4.973139
 31
0.0
  0
LINE
  8
0
  6
CONTINUOUS
 62
    90
  5
1A7
 10
1.0
 20
-6.25
 30
0.0
 11
1.0
 21
-5.259626
 31
0.0
  0
LINE
  8
0
  6
CONTINUOUS
 62
    90
  5
1A8
 10
1.0
 20
-0.3564
 30
0.0
 11
1.0
 21
4.3564
 31
0.0
  0
LINE
  8
0
  6
CONTINUOUS
 62
    90
  5
1A9
 10
1.5
 20
-6.25
 30
0.0
 11
1.5
 21
-5.95407
 31
0.0
  0
LINE
  8
0
  6
CONTINUOUS
 62
    90
  5
1AA
 10
1.5
 20
0.671207
 30
0.0
 11
1.5
 21
3.328793
 31
0.0
  0
ENDBLK
  8
0
  5
1AB
  0
BLOCK
  8
0
  5
1AC
  2
*X5
 70
     1
 10
0.0
 20
0.0
 30
0.0
  3
*X5
  0
LINE
  8
0
  6
CONTINUOUS
 62
    90
  5
1AD
 10
-23.286931
 20
-6.0
 30
0.0
 11
-20.286931
 21
-6.0
 31
0.0
  0
LINE
  8
0
  6
CONTINUOUS
 62
    90
  5
1AE
 10
-15.163631
 20
-6.0
 30
0.0
 11
-11.466931
 21
-6.0
 31
0.0
  0
LINE
  8
0
  6
CONTINUOUS
 62
    90
  5
1AF
 10
-23.286931
 20
-5.5
 30
0.0
 11
-20.286931
 21
-5.5
 31
0.0
  0
LINE
  8
0
  6
CONTINUOUS
 62
    90
  5
1B0
 10
-15.523631
 20
-5.5
 30
0.0
 11
-11.826931
 21
-5.5
 31
0.0
  0
LINE
  8
0
  6
CONTINUOUS
 62
    90
  5
1B1
 10
-23.286931
 20
-5.0
 30
0.0
 11
-20.286931
 21
-5.0
 31
0.0
  0
LINE
  8
0
  6
CONTINUOUS
 62
    90
  5
1B2
 10
-15.883631
 20
-5.0
 30
0.0
 11
-12.186931
 21
-5.0
 31
0.0
  0
LINE
  8
0
  6
CONTINUOUS
 62
    90
  5
1B3
 10
-23.286931
 20
-4.5
 30
0.0
 11
-20.286931
 21
-4.5
 31
0.0
  0
LINE
  8
0
  6
CONTINUOUS
 62
    90
  5
1B4
 10
-16.24363
 20
-4.5
 30
0.0
 11
-12.54693
 21
-4.5
 31
0.0
  0
LINE
  8
0
  6
CONTINUOUS
 62
    90
  5
1B5
 10
-23.286931
 20
-4.0
 30
0.0
 11
-20.286931
 21
-4.0
 31
0.0
  0
LINE
  8
0
  6
CONTINUOUS
 62
    90
  5
1B6
 10
-16.60363
 20
-4.0
 30
0.0
 11
-12.90693
 21
-4.0
 31
0.0
  0
LINE
  8
0
  6
CONTINUOUS
 62
    90
  5
1B7
 10
-23.286931
 20
-3.5
 30
0.0
 11
-20.286931
 21
-3.5
 31
0.0
  0
LINE
  8
0
  6
CONTINUOUS
 62
    90
  5
1B8
 10
-16.96363
 20
-3.5
 30
0.0
 11
-13.26693
 21
-3.5
 31
0.0
  0
LINE
  8
0
  6
CONTINUOUS
 62
    90
  5
1B9
 10
-23.286931
 20
-3.0
 30
0.0
 11
-20.286931
 21
-3.0
 31
0.0
  0
LINE
  8
0
  6
CONTINUOUS
 62
    90
  5
1BA
 10
-17.323629
 20
-3.0
 30
0.0
 11
-13.62693
 21
-3.0
 31
0.0
  0
LINE
  8
0
  6
CONTINUOUS
 62
    90
  5
1BB
 10
-23.286931
 20
-2.5
 30
0.0
 11
-20.286931
 21
-2.5
 31
0.0
  0
LINE
  8
0
  6
CONTINUOUS
 62
    90
  5
1BC
 10
-17.683629
 20
-2.5
 30
0.0
 11
-13.98693
 21
-2.5
 31
0.0
  0
LINE
  8
0
  6
CONTINUOUS
 62
    90
  5
1BD
 10
-23.286931
 20
-2.0
 30
0.0
 11
-14.10079
 21
-2.0
 31
0.0
  0
LINE
  8
0
  6
CONTINUOUS
 62
    90
  5
1BE
 10
-23.286931
 20
-1.5
 30
0.0
 11
-13.126018
 21
-1.5
 31
0.0
  0
LINE
  8
0
  6
CONTINUOUS
 62
    90
  5
1BF
 10
-23.286931
 20
-1.0
 30
0.0
 11
-12.526532
 21
-1.0
 31
0.0
  0
LINE
  8
0
  6
CONTINUOUS
 62
    90
  5
1C0
 10
-23.286931
 20
-0.5
 30
0.0
 11
-12.099999
 21
-0.5
 31
0.0
  0
LINE
  8
0
  6
CONTINUOUS
 62
    90
  5
1C1
 10
-23.286931
 20
0.0
 30
0.0
 11
-11.786931
 21
0.0
 31
0.0
  0
LINE
  8
0
  6
CONTINUOUS
 62
    90
  5
1C2
 10
-23.286931
 20
0.5
 30
0.0
 11
-11.560437
 21
0.5
 31
0.0
  0
LINE
  8
0
  6
CONTINUOUS
 62
    90
  5
1C3
 10
-14.786931
 20
1.0
 30
0.0
 11
-11.406253
 21
1.0
 31
0.0
  0
LINE
  8
0
  6
CONTINUOUS
 62
    90
  5
1C4
 10
-14.391287
 20
1.5
 30
0.0
 11
-11.316445
 21
1.5
 31
0.0
  0
LINE
  8
0
  6
CONTINUOUS
 62
    90
  5
1C5
 10
-14.286931
 20
2.0
 30
0.0
 11
-11.286931
 21
2.0
 31
0.0
  0
LINE
  8
0
  6
CONTINUOUS
 62
    90
  5
1C6
 10
-14.391287
 20
2.5
 30
0.0
 11
-11.316445
 21
2.5
 31
0.0
  0
LINE
  8
0
  6
CONTINUOUS
 62
    90
  5
1C7
 10
-14.786931
 20
3.0
 30
0.0
 11
-11.406253
 21
3.0
 31
0.0
  0
LINE
  8
0
  6
CONTINUOUS
 62
    90
  5
1C8
 10
-23.286931
 20
3.5
 30
0.0
 11
-11.560437
 21
3.5
 31
0.0
  0
LINE
  8
0
  6
CONTINUOUS
 62
    90
  5
1C9
 10
-23.286931
 20
4.0
 30
0.0
 11
-11.786931
 21
4.0
 31
0.0
  0
LINE
  8
0
  6
CONTINUOUS
 62
    90
  5
1CA
 10
-23.286931
 20
4.5
 30
0.0
 11
-12.099999
 21
4.5
 31
0.0
  0
LINE
  8
0
  6
CONTINUOUS
 62
    90
  5
1CB
 10
-23.286931
 20
5.0
 30
0.0
 11
-12.526532
 21
5.0
 31
0.0
  0
LINE
  8
0
  6
CONTINUOUS
 62
    90
  5
1CC
 10
-23.286931
 20
5.5
 30
0.0
 11
-13.126018
 21
5.5
 31
0.0
  0
LINE
  8
0
  6
CONTINUOUS
 62
    90
  5
1CD
 10
-23.286931
 20
6.0
 30
0.0
 11
-14.10079
 21
6.0
 31
0.0
  0
LINE
  8
0
  6
CONTINUOUS
 62
    90
  5
1CE
 10
-23.0
 20
-6.25
 30
0.0
 11
-23.0
 21
0.75
 31
0.0
  0
LINE
  8
0
  6
CONTINUOUS
 62
    90
  5
1CF
 10
-23.0
 20
3.25
 30
0.0
 11
-23.0
 21
6.25
 31
0.0
  0
LINE
  8
0
  6
CONTINUOUS
 62
    90
  5
1D0
 10
-22.5
 20
-6.25
 30
0.0
 11
-22.5
 21
0.75
 31
0.0
  0
LINE
  8
0
  6
CONTINUOUS
 62
    90
  5
1D1
 10
-22.5
 20
3.25
 30
0.0
 11
-22.5
 21
6.25
 31
0.0
  0
LINE
  8
0
  6
CONTINUOUS
 62
    90
  5
1D2
 10
-22.0
 20
-6.25
 30
0.0
 11
-22.0
 21
0.75
 31
0.0
  0
LINE
  8
0
  6
CONTINUOUS
 62
    90
  5
1D3
 10
-22.0
 20
3.25
 30
0.0
 11
-22.0
 21
6.25
 31
0.0
  0
LINE
  8
0
  6
CONTINUOUS
 62
    90
  5
1D4
 10
-21.5
 20
-6.25
 30
0.0
 11
-21.5
 21
0.75
 31
0.0
  0
LINE
  8
0
  6
CONTINUOUS
 62
    90
  5
1D5
 10
-21.5
 20
3.25
 30
0.0
 11
-21.5
 21
6.25
 31
0.0
  0
LINE
  8
0
  6
CONTINUOUS
 62
    90
  5
1D6
 10
-21.0
 20
-6.25
 30
0.0
 11
-21.0
 21
0.75
 31
0.0
  0
LINE
  8
0
  6
CONTINUOUS
 62
    90
  5
1D7
 10
-21.0
 20
3.25
 30
0.0
 11
-21.0
 21
6.25
 31
0.0
  0
LINE
  8
0
  6
CONTINUOUS
 62
    90
  5
1D8
 10
-20.5
 20
-6.25
 30
0.0
 11
-20.5
 21
0.75
 31
0.0
  0
LINE
  8
0
  6
CONTINUOUS
 62
    90
  5
1D9
 10
-20.5
 20
3.25
 30
0.0
 11
-20.5
 21
6.25
 31
0.0
  0
LINE
  8
0
  6
CONTINUOUS
 62
    90
  5
1DA
 10
-20.0
 20
-2.25
 30
0.0
 11
-20.0
 21
0.75
 31
0.0
  0
LINE
  8
0
  6
CONTINUOUS
 62
    90
  5
1DB
 10
-20.0
 20
3.25
 30
0.0
 11
-20.0
 21
6.25
 31
0.0
  0
LINE
  8
0
  6
CONTINUOUS
 62
    90
  5
1DC
 10
-19.5
 20
-2.25
 30
0.0
 11
-19.5
 21
0.75
 31
0.0
  0
LINE
  8
0
  6
CONTINUOUS
 62
    90
  5
1DD
 10
-19.5
 20
3.25
 30
0.0
 11
-19.5
 21
6.25
 31
0.0
  0
LINE
  8
0
  6
CONTINUOUS
 62
    90
  5
1DE
 10
-19.0
 20
-2.25
 30
0.0
 11
-19.0
 21
0.75
 31
0.0
  0
LINE
  8
0
  6
CONTINUOUS
 62
    90
  5
1DF
 10
-19.0
 20
3.25
 30
0.0
 11
-19.0
 21
6.25
 31
0.0
  0
LINE
  8
0
  6
CONTINUOUS
 62
    90
  5
1E0
 10
-18.5
 20
-2.25
 30
0.0
 11
-18.5
 21
0.75
 31
0.0
  0
LINE
  8
0
  6
CONTINUOUS
 62
    90
  5
1E1
 10
-18.5
 20
3.25
 30
0.0
 11
-18.5
 21
6.25
 31
0.0
  0
LINE
  8
0
  6
CONTINUOUS
 62
    90
  5
1E2
 10
-18.0
 20
-2.25
 30
0.0
 11
-18.0
 21
0.75
 31
0.0
  0
LINE
  8
0
  6
CONTINUOUS
 62
    90
  5
1E3
 10
-18.0
 20
3.25
 30
0.0
 11
-18.0
 21
6.25
 31
0.0
  0
LINE
  8
0
  6
CONTINUOUS
 62
    90
  5
1E4
 10
-17.5
 20
-2.755041
 30
0.0
 11
-17.5
 21
0.75
 31
0.0
  0
LINE
  8
0
  6
CONTINUOUS
 62
    90
  5
1E5
 10
-17.5
 20
3.25
 30
0.0
 11
-17.5
 21
6.25
 31
0.0
  0
LINE
  8
0
  6
CONTINUOUS
 62
    90
  5
1E6
 10
-17.0
 20
-3.449486
 30
0.0
 11
-17.0
 21
0.75
 31
0.0
  0
LINE
  8
0
  6
CONTINUOUS
 62
    90
  5
1E7
 10
-17.0
 20
3.25
 30
0.0
 11
-17.0
 21
6.25
 31
0.0
  0
LINE
  8
0
  6
CONTINUOUS
 62
    90
  5
1E8
 10
-16.5
 20
-4.143931
 30
0.0
 11
-16.5
 21
0.75
 31
0.0
  0
LINE
  8
0
  6
CONTINUOUS
 62
    90
  5
1E9
 10
-16.5
 20
3.25
 30
0.0
 11
-16.5
 21
6.25
 31
0.0
  0
LINE
  8
0
  6
CONTINUOUS
 62
    90
  5
1EA
 10
-16.0
 20
-4.838376
 30
0.0
 11
-16.0
 21
0.75
 31
0.0
  0
LINE
  8
0
  6
CONTINUOUS
 62
    90
  5
1EB
 10
-16.0
 20
3.25
 30
0.0
 11
-16.0
 21
6.25
 31
0.0
  0
LINE
  8
0
  6
CONTINUOUS
 62
    90
  5
1EC
 10
-15.5
 20
-5.532821
 30
0.0
 11
-15.5
 21
0.750546
 31
0.0
  0
LINE
  8
0
  6
CONTINUOUS
 62
    90
  5
1ED
 10
-15.5
 20
3.249454
 30
0.0
 11
-15.5
 21
6.24984
 31
0.0
  0
LINE
  8
0
  6
CONTINUOUS
 62
    90
  5
1EE
 10
-15.0
 20
-6.227266
 30
0.0
 11
-15.0
 21
0.871193
 31
0.0
  0
LINE
  8
0
  6
CONTINUOUS
 62
    90
  5
1EF
 10
-15.0
 20
3.128807
 30
0.0
 11
-15.0
 21
6.215947
 31
0.0
  0
LINE
  8
0
  6
CONTINUOUS
 62
    90
  5
1F0
 10
-14.5
 20
-6.25
 30
0.0
 11
-14.5
 21
1.301949
 31
0.0
  0
LINE
  8
0
  6
CONTINUOUS
 62
    90
  5
1F1
 10
-14.5
 20
2.698051
 30
0.0
 11
-14.5
 21
6.121562
 31
0.0
  0
LINE
  8
0
  6
CONTINUOUS
 62
    90
  5
1F2
 10
-14.0
 20
-6.25
 30
0.0
 11
-14.0
 21
-2.481848
 31
0.0
  0
LINE
  8
0
  6
CONTINUOUS
 62
    90
  5
1F3
 10
-14.0
 20
-1.962366
 30
0.0
 11
-14.0
 21
5.962366
 31
0.0
  0
LINE
  8
0
  6
CONTINUOUS
 62
    90
  5
1F4
 10
-13.5
 20
-6.25
 30
0.0
 11
-13.5
 21
-3.176292
 31
0.0
  0
LINE
  8
0
  6
CONTINUOUS
 62
    90
  5
1F5
 10
-13.5
 20
-1.730069
 30
0.0
 11
-13.5
 21
5.730069
 31
0.0
  0
LINE
  8
0
  6
CONTINUOUS
 62
    90
  5
1F6
 10
-13.0
 20
-6.25
 30
0.0
 11
-13.0
 21
-3.870737
 31
0.0
  0
LINE
  8
0
  6
CONTINUOUS
 62
    90
  5
1F7
 10
-13.0
 20
-1.409763
 30
0.0
 11
-13.0
 21
5.409763
 31
0.0
  0
LINE
  8
0
  6
CONTINUOUS
 62
    90
  5
1F8
 10
-12.5
 20
-6.25
 30
0.0
 11
-12.5
 21
-4.565181
 31
0.0
  0
LINE
  8
0
  6
CONTINUOUS
 62
    90
  5
1F9
 10
-12.5
 20
-0.973139
 30
0.0
 11
-12.5
 21
4.973139
 31
0.0
  0
LINE
  8
0
  6
CONTINUOUS
 62
    90
  5
1FA
 10
-12.0
 20
-6.25
 30
0.0
 11
-12.0
 21
-5.259626
 31
0.0
  0
LINE
  8
0
  6
CONTINUOUS
 62
    90
  5
1FB
 10
-12.0
 20
-0.3564
 30
0.0
 11
-12.0
 21
4.3564
 31
0.0
  0
LINE
  8
0
  6
CONTINUOUS
 62
    90
  5
1FC
 10
-11.5
 20
-6.25
 30
0.0
 11
-11.5
 21
-5.95407
 31
0.0
  0
LINE
  8
0
  6
CONTINUOUS
 62
    90
  5
1FD
 10
-11.5
 20
0.671207
 30
0.0
 11
-11.5
 21
3.328793
 31
0.0
  0
ENDBLK
  8
0
  5
1FE
  0
BLOCK
  8
0
  5
1FF
  2
*X6
 70
     1
 10
0.0
 20
0.0
 30
0.0
  3
*X6
  0
LINE
  8
0
  6
CONTINUOUS
 62
    90
  5
200
 10
-39.651931
 20
-6.0
 30
0.0
 11
-36.242476
 21
-6.0
 31
0.0
  0
LINE
  8
0
  6
CONTINUOUS
 62
    90
  5
201
 10
-27.831385
 20
-6.0
 30
0.0
 11
-24.421931
 21
-6.0
 31
0.0
  0
LINE
  8
0
  6
CONTINUOUS
 62
    90
  5
202
 10
-39.381931
 20
-5.5
 30
0.0
 11
-35.972476
 21
-5.5
 31
0.0
  0
LINE
  8
0
  6
CONTINUOUS
 62
    90
  5
203
 10
-28.101385
 20
-5.5
 30
0.0
 11
-24.691931
 21
-5.5
 31
0.0
  0
LINE
  8
0
  6
CONTINUOUS
 62
    90
  5
204
 10
-39.111931
 20
-5.0
 30
0.0
 11
-35.702476
 21
-5.0
 31
0.0
  0
LINE
  8
0
  6
CONTINUOUS
 62
    90
  5
205
 10
-28.371385
 20
-5.0
 30
0.0
 11
-24.961931
 21
-5.0
 31
0.0
  0
LINE
  8
0
  6
CONTINUOUS
 62
    90
  5
206
 10
-38.841931
 20
-4.5
 30
0.0
 11
-35.432476
 21
-4.5
 31
0.0
  0
LINE
  8
0
  6
CONTINUOUS
 62
    90
  5
207
 10
-28.641386
 20
-4.5
 30
0.0
 11
-25.231931
 21
-4.5
 31
0.0
  0
LINE
  8
0
  6
CONTINUOUS
 62
    90
  5
208
 10
-38.571931
 20
-4.0
 30
0.0
 11
-35.162475
 21
-4.0
 31
0.0
  0
LINE
  8
0
  6
CONTINUOUS
 62
    90
  5
209
 10
-28.911386
 20
-4.0
 30
0.0
 11
-25.501931
 21
-4.0
 31
0.0
  0
LINE
  8
0
  6
CONTINUOUS
 62
    90
  5
20A
 10
-38.301931
 20
-3.5
 30
0.0
 11
-34.892475
 21
-3.5
 31
0.0
  0
LINE
  8
0
  6
CONTINUOUS
 62
    90
  5
20B
 10
-29.181386
 20
-3.5
 30
0.0
 11
-25.771931
 21
-3.5
 31
0.0
  0
LINE
  8
0
  6
CONTINUOUS
 62
    90
  5
20C
 10
-38.031931
 20
-3.0
 30
0.0
 11
-34.622475
 21
-3.0
 31
0.0
  0
LINE
  8
0
  6
CONTINUOUS
 62
    90
  5
20D
 10
-29.451386
 20
-3.0
 30
0.0
 11
-26.041931
 21
-3.0
 31
0.0
  0
LINE
  8
0
  6
CONTINUOUS
 62
    90
  5
20E
 10
-37.761931
 20
-2.5
 30
0.0
 11
-34.352475
 21
-2.5
 31
0.0
  0
LINE
  8
0
  6
CONTINUOUS
 62
    90
  5
20F
 10
-29.721386
 20
-2.5
 30
0.0
 11
-26.311931
 21
-2.5
 31
0.0
  0
LINE
  8
0
  6
CONTINUOUS
 62
    90
  5
210
 10
-37.491931
 20
-2.0
 30
0.0
 11
-34.082475
 21
-2.0
 31
0.0
  0
LINE
  8
0
  6
CONTINUOUS
 62
    90
  5
211
 10
-29.991386
 20
-2.0
 30
0.0
 11
-26.581931
 21
-2.0
 31
0.0
  0
LINE
  8
0
  6
CONTINUOUS
 62
    90
  5
212
 10
-37.221931
 20
-1.5
 30
0.0
 11
-33.812474
 21
-1.5
 31
0.0
  0
LINE
  8
0
  6
CONTINUOUS
 62
    90
  5
213
 10
-30.261387
 20
-1.5
 30
0.0
 11
-26.851931
 21
-1.5
 31
0.0
  0
LINE
  8
0
  6
CONTINUOUS
 62
    90
  5
214
 10
-36.951931
 20
-1.0
 30
0.0
 11
-33.542474
 21
-1.0
 31
0.0
  0
LINE
  8
0
  6
CONTINUOUS
 62
    90
  5
215
 10
-30.531387
 20
-1.0
 30
0.0
 11
-27.121931
 21
-1.0
 31
0.0
  0
LINE
  8
0
  6
CONTINUOUS
 62
    90
  5
216
 10
-36.681931
 20
-0.5
 30
0.0
 11
-33.272474
 21
-0.5
 31
0.0
  0
LINE
  8
0
  6
CONTINUOUS
 62
    90
  5
217
 10
-30.801387
 20
-0.5
 30
0.0
 11
-27.391931
 21
-0.5
 31
0.0
  0
LINE
  8
0
  6
CONTINUOUS
 62
    90
  5
218
 10
-36.411931
 20
0.0
 30
0.0
 11
-33.002474
 21
0.0
 31
0.0
  0
LINE
  8
0
  6
CONTINUOUS
 62
    90
  5
219
 10
-31.071387
 20
0.0
 30
0.0
 11
-27.661931
 21
0.0
 31
0.0
  0
LINE
  8
0
  6
CONTINUOUS
 62
    90
  5
21A
 10
-36.141931
 20
0.5
 30
0.0
 11
-32.732474
 21
0.5
 31
0.0
  0
LINE
  8
0
  6
CONTINUOUS
 62
    90
  5
21B
 10
-31.341387
 20
0.5
 30
0.0
 11
-27.931931
 21
0.5
 31
0.0
  0
LINE
  8
0
  6
CONTINUOUS
 62
    90
  5
21C
 10
-35.871931
 20
1.0
 30
0.0
 11
-32.462474
 21
1.0
 31
0.0
  0
LINE
  8
0
  6
CONTINUOUS
 62
    90
  5
21D
 10
-31.611388
 20
1.0
 30
0.0
 11
-28.201931
 21
1.0
 31
0.0
  0
LINE
  8
0
  6
CONTINUOUS
 62
    90
  5
21E
 10
-35.601931
 20
1.5
 30
0.0
 11
-32.192473
 21
1.5
 31
0.0
  0
LINE
  8
0
  6
CONTINUOUS
 62
    90
  5
21F
 10
-31.881388
 20
1.5
 30
0.0
 11
-28.471931
 21
1.5
 31
0.0
  0
LINE
  8
0
  6
CONTINUOUS
 62
    90
  5
220
 10
-35.331931
 20
2.0
 30
0.0
 11
-28.741931
 21
2.0
 31
0.0
  0
LINE
  8
0
  6
CONTINUOUS
 62
    90
  5
221
 10
-35.061931
 20
2.5
 30
0.0
 11
-29.011931
 21
2.5
 31
0.0
  0
LINE
  8
0
  6
CONTINUOUS
 62
    90
  5
222
 10
-34.791931
 20
3.0
 30
0.0
 11
-29.281931
 21
3.0
 31
0.0
  0
LINE
  8
0
  6
CONTINUOUS
 62
    90
  5
223
 10
-34.521931
 20
3.5
 30
0.0
 11
-29.551931
 21
3.5
 31
0.0
  0
LINE
  8
0
  6
CONTINUOUS
 62
    90
  5
224
 10
-34.251931
 20
4.0
 30
0.0
 11
-29.821931
 21
4.0
 31
0.0
  0
LINE
  8
0
  6
CONTINUOUS
 62
    90
  5
225
 10
-33.981931
 20
4.5
 30
0.0
 11
-30.091931
 21
4.5
 31
0.0
  0
LINE
  8
0
  6
CONTINUOUS
 62
    90
  5
226
 10
-33.711931
 20
5.0
 30
0.0
 11
-30.361931
 21
5.0
 31
0.0
  0
LINE
  8
0
  6
CONTINUOUS
 62
    90
  5
227
 10
-33.441931
 20
5.5
 30
0.0
 11
-30.631931
 21
5.5
 31
0.0
  0
LINE
  8
0
  6
CONTINUOUS
 62
    90
  5
228
 10
-33.171931
 20
6.0
 30
0.0
 11
-30.901931
 21
6.0
 31
0.0
  0
LINE
  8
0
  6
CONTINUOUS
 62
    90
  5
229
 10
-39.5
 20
-6.25
 30
0.0
 11
-39.5
 21
-5.718647
 31
0.0
  0
LINE
  8
0
  6
CONTINUOUS
 62
    90
  5
22A
 10
-39.0
 20
-6.25
 30
0.0
 11
-39.0
 21
-4.792721
 31
0.0
  0
LINE
  8
0
  6
CONTINUOUS
 62
    90
  5
22B
 10
-38.5
 20
-6.25
 30
0.0
 11
-38.5
 21
-3.866795
 31
0.0
  0
LINE
  8
0
  6
CONTINUOUS
 62
    90
  5
22C
 10
-38.0
 20
-6.25
 30
0.0
 11
-38.0
 21
-2.940869
 31
0.0
  0
LINE
  8
0
  6
CONTINUOUS
 62
    90
  5
22D
 10
-37.5
 20
-6.25
 30
0.0
 11
-37.5
 21
-2.014943
 31
0.0
  0
LINE
  8
0
  6
CONTINUOUS
 62
    90
  5
22E
 10
-37.0
 20
-6.25
 30
0.0
 11
-37.0
 21
-1.089017
 31
0.0
  0
LINE
  8
0
  6
CONTINUOUS
 62
    90
  5
22F
 10
-36.5
 20
-6.25
 30
0.0
 11
-36.5
 21
-0.163092
 31
0.0
  0
LINE
  8
0
  6
CONTINUOUS
 62
    90
  5
230
 10
-36.0
 20
-5.55097
 30
0.0
 11
-36.0
 21
0.762834
 31
0.0
  0
LINE
  8
0
  6
CONTINUOUS
 62
    90
  5
231
 10
-35.5
 20
-4.625045
 30
0.0
 11
-35.5
 21
1.68876
 31
0.0
  0
LINE
  8
0
  6
CONTINUOUS
 62
    90
  5
232
 10
-35.0
 20
-3.69912
 30
0.0
 11
-35.0
 21
2.614686
 31
0.0
  0
LINE
  8
0
  6
CONTINUOUS
 62
    90
  5
233
 10
-34.5
 20
-2.773195
 30
0.0
 11
-34.5
 21
3.540612
 31
0.0
  0
LINE
  8
0
  6
CONTINUOUS
 62
    90
  5
234
 10
-34.0
 20
-1.847269
 30
0.0
 11
-34.0
 21
4.466538
 31
0.0
  0
LINE
  8
0
  6
CONTINUOUS
 62
    90
  5
235
 10
-33.5
 20
-0.921344
 30
0.0
 11
-33.5
 21
5.392464
 31
0.0
  0
LINE
  8
0
  6
CONTINUOUS
 62
    90
  5
236
 10
-33.0
 20
0.004581
 30
0.0
 11
-33.0
 21
6.25
 31
0.0
  0
LINE
  8
0
  6
CONTINUOUS
 62
    90
  5
237
 10
-32.5
 20
0.930507
 30
0.0
 11
-32.5
 21
6.25
 31
0.0
  0
LINE
  8
0
  6
CONTINUOUS
 62
    90
  5
238
 10
-32.0
 20
1.719652
 30
0.0
 11
-32.0
 21
6.25
 31
0.0
  0
LINE
  8
0
  6
CONTINUOUS
 62
    90
  5
239
 10
-31.5
 20
0.793727
 30
0.0
 11
-31.5
 21
6.25
 31
0.0
  0
LINE
  8
0
  6
CONTINUOUS
 62
    90
  5
23A
 10
-31.0
 20
-0.132198
 30
0.0
 11
-31.0
 21
6.18161
 31
0.0
  0
LINE
  8
0
  6
CONTINUOUS
 62
    90
  5
23B
 10
-30.5
 20
-1.058124
 30
0.0
 11
-30.5
 21
5.255684
 31
0.0
  0
LINE
  8
0
  6
CONTINUOUS
 62
    90
  5
23C
 10
-30.0
 20
-1.984049
 30
0.0
 11
-30.0
 21
4.329758
 31
0.0
  0
LINE
  8
0
  6
CONTINUOUS
 62
    90
  5
23D
 10
-29.5
 20
-2.909974
 30
0.0
 11
-29.5
 21
3.403832
 31
0.0
  0
LINE
  8
0
  6
CONTINUOUS
 62
    90
  5
23E
 10
-29.0
 20
-3.8359
 30
0.0
 11
-29.0
 21
2.477906
 31
0.0
  0
LINE
  8
0
  6
CONTINUOUS
 62
    90
  5
23F
 10
-28.5
 20
-4.761825
 30
0.0
 11
-28.5
 21
1.55198
 31
0.0
  0
LINE
  8
0
  6
CONTINUOUS
 62
    90
  5
240
 10
-28.0
 20
-5.68775
 30
0.0
 11
-28.0
 21
0.626055
 31
0.0
  0
LINE
  8
0
  6
CONTINUOUS
 62
    90
  5
241
 10
-27.5
 20
-6.25
 30
0.0
 11
-27.5
 21
-0.299871
 31
0.0
  0
LINE
  8
0
  6
CONTINUOUS
 62
    90
  5
242
 10
-27.0
 20
-6.25
 30
0.0
 11
-27.0
 21
-1.225797
 31
0.0
  0
LINE
  8
0
  6
CONTINUOUS
 62
    90
  5
243
 10
-26.5
 20
-6.25
 30
0.0
 11
-26.5
 21
-2.151723
 31
0.0
  0
LINE
  8
0
  6
CONTINUOUS
 62
    90
  5
244
 10
-26.0
 20
-6.25
 30
0.0
 11
-26.0
 21
-3.077649
 31
0.0
  0
LINE
  8
0
  6
CONTINUOUS
 62
    90
  5
245
 10
-25.5
 20
-6.25
 30
0.0
 11
-25.5
 21
-4.003575
 31
0.0
  0
LINE
  8
0
  6
CONTINUOUS
 62
    90
  5
246
 10
-25.0
 20
-6.25
 30
0.0
 11
-25.0
 21
-4.929501
 31
0.0
  0
LINE
  8
0
  6
CONTINUOUS
 62
    90
  5
247
 10
-24.5
 20
-6.25
 30
0.0
 11
-24.5
 21
-5.855427
 31
0.0
  0
ENDBLK
  8
0
  5
248
  0
BLOCK
  8
0
  6
BYBLOCK
 62
     0
  5
27
  2
_OPEN30
 70
     2
 10
0.0
 20
0.0
 30
0.0
  3
_OPEN30
  0
LINE
  8
0
  6
BYBLOCK
 62
     0
  5
28
 10
-1.0
 20
0.267949
 30
0.0
 11
0.0
 21
0.0
 31
0.0
  0
LINE
  8
0
  6
BYBLOCK
 62
     0
  5
29
 10
0.0
 20
0.0
 30
0.0
 11
-1.0
 21
-0.267949
 31
0.0
  0
LINE
  8
0
  6
BYBLOCK
 62
     0
  5
2A
 10
0.0
 20
0.0
 30
0.0
 11
-1.0
 21
0.0
 31
0.0
  0
ENDBLK
  8
0
  6
BYBLOCK
 62
     0
  5
2B
  0
ENDSEC
  0
SECTION
  2
ENTITIES
  0
LINE
  8
LY_3
  6
CONTINUOUS
 62
     3
  5
249
 10
-116.499996
 20
50.5
 30
0.0
 11
-235.500004
 21
50.5
 31
0.0
  0
LINE
  8
LY_3
  6
CONTINUOUS
 62
     3
  5
24A
 10
-114.499996
 20
48.5
 30
0.0
 11
-114.499996
 21
-48.499998
 31
0.0
  0
LINE
  8
LY_3
  6
CONTINUOUS
 62
     3
  5
24B
 10
-116.499996
 20
-50.499998
 30
0.0
 11
-235.500004
 21
-50.499998
 31
0.0
  0
LINE
  8
LY_3
  6
CONTINUOUS
 62
     3
  5
24C
 10
-237.500004
 20
48.5
 30
0.0
 11
-237.500004
 21
-48.499998
 31
0.0
  0
LINE
  8
LY_3
  6
CONTINUOUS
 62
     3
  5
24D
 10
-131.088436
 20
55.000008
 30
0.0
 11
-220.911564
 21
55.000008
 31
0.0
  0
LINE
  8
LY_3
  6
CONTINUOUS
 62
     3
  5
24E
 10
-126.144497
 20
-54.999996
 30
0.0
 11
-225.855511
 21
-54.999996
 31
0.0
  0
LINE
  8
LY_3
  6
CONTINUOUS
 62
     3
  5
24F
 10
-241.000004
 20
63.0
 30
0.0
 11
-241.000004
 21
-63.0
 31
0.0
  0
LINE
  8
LY_3
  6
CONTINUOUS
 62
     3
  5
250
 10
-112.999996
 20
65.0
 30
0.0
 11
-239.000004
 21
65.0
 31
0.0
  0
LINE
  8
LY_3
  6
CONTINUOUS
 62
     3
  5
251
 10
-112.999996
 20
-65.0
 30
0.0
 11
-239.000004
 21
-65.0
 31
0.0
  0
LINE
  8
LY_3
  6
CONTINUOUS
 62
     3
  5
252
 10
-110.999996
 20
63.0
 30
0.0
 11
-110.999996
 21
-63.0
 31
0.0
  0
LINE
  8
LY_3
  6
CONTINUOUS
 62
     3
  5
253
 10
-237.000004
 20
48.0
 30
0.0
 11
-237.000004
 21
-48.0
 31
0.0
  0
LINE
  8
LY_3
  6
CONTINUOUS
 62
     3
  5
254
 10
-115.000004
 20
48.0
 30
0.0
 11
-115.000004
 21
-48.0
 31
0.0
  0
LINE
  8
LY_3
  6
CONTINUOUS
 62
     3
  5
255
 10
-235.000004
 20
-50.0
 30
0.0
 11
-117.000004
 21
-50.0
 31
0.0
  0
LINE
  8
LY_3
  6
CONTINUOUS
 62
     3
  5
256
 10
-235.000004
 20
50.0
 30
0.0
 11
-117.000004
 21
50.0
 31
0.0
  0
LINE
  8
LY_3
  6
CONTINUOUS
 62
     3
  5
257
 10
190.0
 20
62.000008
 30
0.0
 11
190.0
 21
-63.999996
 31
0.0
  0
LINE
  8
LY_3
  6
CONTINUOUS
 62
     3
  5
258
 10
58.0
 20
62.000008
 30
0.0
 11
58.0
 21
-63.999996
 31
0.0
  0
LINE
  8
LY_3
  6
CONTINUOUS
 62
     3
  5
259
 10
59.75
 20
62.000008
 30
0.0
 11
59.75
 21
-63.999996
 31
0.0
  0
LINE
  8
LY_3
  6
CONTINUOUS
 62
     3
  5
25A
 10
188.25
 20
62.000008
 30
0.0
 11
188.25
 21
-63.999996
 31
0.0
  0
LINE
  8
LY_3
  6
CONTINUOUS
 62
     3
  5
25B
 10
59.75
 20
-11.0
 30
0.0
 11
59.0
 21
-11.0
 31
0.0
  0
LINE
  8
LY_3
  6
CONTINUOUS
 62
     3
  5
25C
 10
59.75
 20
9.0
 30
0.0
 11
59.0
 21
9.0
 31
0.0
  0
LINE
  8
LY_3
  6
CONTINUOUS
 62
     3
  5
25D
 10
59.75
 20
8.0
 30
0.0
 11
59.0
 21
8.0
 31
0.0
  0
LINE
  8
LY_3
  6
CONTINUOUS
 62
     3
  5
25E
 10
59.75
 20
-10.0
 30
0.0
 11
59.0
 21
-10.0
 31
0.0
  0
LINE
  8
LY_3
  6
CONTINUOUS
 62
     3
  5
25F
 10
188.2
 20
2.5
 30
0.0
 11
186.7
 21
2.5
 31
0.0
  0
LINE
  8
LY_3
  6
CONTINUOUS
 62
     3
  5
260
 10
188.2
 20
-4.5
 30
0.0
 11
186.7
 21
-4.5
 31
0.0
  0
LINE
  8
LY_3
  6
CONTINUOUS
 62
     3
  5
261
 10
185.5
 20
4.0
 30
0.0
 11
184.7
 21
4.0
 31
0.0
  0
LINE
  8
LY_3
  6
CONTINUOUS
 62
     3
  5
262
 10
185.5
 20
-6.0
 30
0.0
 11
184.7
 21
-6.0
 31
0.0
  0
LINE
  8
LY_3
  6
CONTINUOUS
 62
     3
  5
263
 10
59.8
 20
31.5
 30
0.0
 11
62.5
 21
31.5
 31
0.0
  0
LINE
  8
LY_3
  6
CONTINUOUS
 62
     3
  5
264
 10
59.8
 20
-33.5
 30
0.0
 11
62.5
 21
-33.5
 31
0.0
  0
LINE
  8
LY_3
  6
CONTINUOUS
 62
     3
  5
265
 10
59.8
 20
62.0
 30
0.0
 11
59.8
 21
-64.0
 31
0.0
  0
LINE
  8
LY_3
  6
CONTINUOUS
 62
     3
  5
266
 10
188.2
 20
-4.5
 30
0.0
 11
188.2
 21
-64.0
 31
0.0
  0
LINE
  8
LY_3
  6
CONTINUOUS
 62
     3
  5
267
 10
188.2
 20
62.0
 30
0.0
 11
188.2
 21
2.5
 31
0.0
  0
LINE
  8
LY_3
  6
CONTINUOUS
 62
     3
  5
268
 10
186.7
 20
2.5
 30
0.0
 11
186.7
 21
-4.5
 31
0.0
  0
LINE
  8
LY_3
  6
CONTINUOUS
 62
     3
  5
269
 10
184.7
 20
4.0
 30
0.0
 11
184.7
 21
-6.0
 31
0.0
  0
LINE
  8
LY_3
  6
CONTINUOUS
 62
     3
  5
26A
 10
63.5
 20
60.5
 30
0.0
 11
88.197237
 21
60.5
 31
0.0
  0
LINE
  8
LY_3
  6
CONTINUOUS
 62
     3
  5
26B
 10
63.5
 20
-62.5
 30
0.0
 11
88.197237
 21
-62.5
 31
0.0
  0
LINE
  8
LY_3
  6
CONTINUOUS
 62
     3
  5
26C
 10
62.5
 20
59.5
 30
0.0
 11
62.5
 21
46.499992
 31
0.0
  0
LINE
  8
LY_3
  6
CONTINUOUS
 62
     3
  5
26D
 10
185.5
 20
59.5
 30
0.0
 11
185.5
 21
4.0
 31
0.0
  0
LINE
  8
LY_3
  6
CONTINUOUS
 62
     3
  5
26E
 10
185.5
 20
-6.0
 30
0.0
 11
185.5
 21
-61.5
 31
0.0
  0
LINE
  8
LY_3
  6
CONTINUOUS
 62
     3
  5
26F
 10
62.5
 20
-33.5
 30
0.0
 11
62.5
 21
-40.999992
 31
0.0
  0
LINE
  8
LY_3
  6
CONTINUOUS
 62
     3
  5
270
 10
62.5
 20
-48.500004
 30
0.0
 11
62.5
 21
-61.5
 31
0.0
  0
LINE
  8
LY_3
  6
CONTINUOUS
 62
     3
  5
271
 10
62.5
 20
38.999992
 30
0.0
 11
62.5
 21
31.5
 31
0.0
  0
LINE
  8
LY_3
  6
CONTINUOUS
 62
     3
  5
272
 10
170.802763
 20
60.5
 30
0.0
 11
184.5
 21
60.5
 31
0.0
  0
LINE
  8
LY_3
  6
CONTINUOUS
 62
     3
  5
273
 10
170.802763
 20
-62.5
 30
0.0
 11
184.5
 21
-62.5
 31
0.0
  0
LINE
  8
LY_3
  6
CONTINUOUS
 62
     3
  5
274
 10
187.0
 20
65.0
 30
0.0
 11
61.0
 21
65.0
 31
0.0
  0
LINE
  8
LY_3
  6
CONTINUOUS
 62
     3
  5
275
 10
187.0
 20
-67.0
 30
0.0
 11
61.0
 21
-67.0
 31
0.0
  0
LINE
  8
LY_3
  6
CONTINUOUS
 62
     3
  5
276
 10
187.0
 20
63.25
 30
0.0
 11
61.0
 21
63.25
 31
0.0
  0
LINE
  8
LY_3
  6
CONTINUOUS
 62
     3
  5
277
 10
187.0
 20
-65.25
 30
0.0
 11
61.0
 21
-65.25
 31
0.0
  0
LINE
  8
LY_3
  6
CONTINUOUS
 62
     3
  5
278
 10
187.0
 20
63.2
 30
0.0
 11
61.0
 21
63.2
 31
0.0
  0
LINE
  8
LY_3
  6
CONTINUOUS
 62
     3
  5
279
 10
187.0
 20
-65.2
 30
0.0
 11
61.0
 21
-65.2
 31
0.0
  0
LINE
  8
LY_3
  6
CONTINUOUS
 62
     3
  5
27A
 10
128.5
 20
-62.5
 30
0.0
 11
167.197237
 21
-62.5
 31
0.0
  0
LINE
  8
LY_3
  6
CONTINUOUS
 62
     3
  5
27B
 10
128.5
 20
60.5
 30
0.0
 11
167.197237
 21
60.5
 31
0.0
  0
LINE
  8
LY_3
  6
CONTINUOUS
 62
     3
  5
27C
 10
119.5
 20
60.5
 30
0.0
 11
119.5
 21
57.499992
 31
0.0
  0
LINE
  8
LY_3
  6
CONTINUOUS
 62
     3
  5
27D
 10
128.5
 20
60.5
 30
0.0
 11
128.5
 21
57.499992
 31
0.0
  0
LINE
  8
LY_3
  6
CONTINUOUS
 62
     3
  5
27E
 10
119.5
 20
-59.500004
 30
0.0
 11
119.5
 21
-62.5
 31
0.0
  0
LINE
  8
LY_3
  6
CONTINUOUS
 62
     3
  5
27F
 10
128.5
 20
-59.500004
 30
0.0
 11
128.5
 21
-62.5
 31
0.0
  0
LINE
  8
LY_3
  6
CONTINUOUS
 62
     3
  5
280
 10
91.802763
 20
-62.5
 30
0.0
 11
119.5
 21
-62.5
 31
0.0
  0
LINE
  8
LY_3
  6
CONTINUOUS
 62
     3
  5
281
 10
91.802763
 20
60.5
 30
0.0
 11
119.5
 21
60.5
 31
0.0
  0
LINE
  8
LY_3
  6
CONTINUOUS
 62
     3
  5
282
 10
95.0
 20
38.999992
 30
0.0
 11
95.0
 21
-40.999992
 31
0.0
  0
LINE
  8
LY_3
  6
CONTINUOUS
 62
     3
  5
283
 10
96.5
 20
44.499992
 30
0.0
 11
96.5
 21
-46.500004
 31
0.0
  0
LINE
  8
LY_3
  6
CONTINUOUS
 62
     3
  5
284
 10
87.0
 20
40.999992
 30
0.0
 11
87.0
 21
38.999992
 31
0.0
  0
LINE
  8
LY_3
  6
CONTINUOUS
 62
     3
  5
285
 10
82.0
 20
40.999992
 30
0.0
 11
82.0
 21
38.999992
 31
0.0
  0
LINE
  8
LY_3
  6
CONTINUOUS
 62
     3
  5
286
 10
62.5
 20
38.999992
 30
0.0
 11
82.0
 21
38.999992
 31
0.0
  0
LINE
  8
LY_3
  6
CONTINUOUS
 62
     3
  5
287
 10
82.0
 20
40.999992
 30
0.0
 11
87.0
 21
40.999992
 31
0.0
  0
LINE
  8
LY_3
  6
CONTINUOUS
 62
     3
  5
288
 10
87.0
 20
38.999992
 30
0.0
 11
95.0
 21
38.999992
 31
0.0
  0
LINE
  8
LY_3
  6
CONTINUOUS
 62
     3
  5
289
 10
62.5
 20
-40.999992
 30
0.0
 11
82.0
 21
-40.999992
 31
0.0
  0
LINE
  8
LY_3
  6
CONTINUOUS
 62
     3
  5
28A
 10
82.0
 20
-42.999992
 30
0.0
 11
82.0
 21
-40.999992
 31
0.0
  0
LINE
  8
LY_3
  6
CONTINUOUS
 62
     3
  5
28B
 10
82.0
 20
-42.999992
 30
0.0
 11
87.0
 21
-42.999992
 31
0.0
  0
LINE
  8
LY_3
  6
CONTINUOUS
 62
     3
  5
28C
 10
87.0
 20
-42.999992
 30
0.0
 11
87.0
 21
-40.999992
 31
0.0
  0
LINE
  8
LY_3
  6
CONTINUOUS
 62
     3
  5
28D
 10
87.0
 20
-40.999992
 30
0.0
 11
95.0
 21
-40.999992
 31
0.0
  0
LINE
  8
LY_3
  6
CONTINUOUS
 62
     3
  5
28E
 10
82.0
 20
40.499992
 30
0.0
 11
87.0
 21
40.499992
 31
0.0
  0
LINE
  8
LY_3
  6
CONTINUOUS
 62
     3
  5
28F
 10
82.0
 20
-42.499992
 30
0.0
 11
87.0
 21
-42.499992
 31
0.0
  0
LINE
  8
LY_3
  6
CONTINUOUS
 62
     3
  5
290
 10
62.5
 20
-40.200001
 30
0.0
 11
95.0
 21
-40.200001
 31
0.0
  0
LINE
  8
LY_3
  6
CONTINUOUS
 62
     3
  5
291
 10
74.799999
 20
-31.800001
 30
0.0
 11
95.0
 21
-31.800001
 31
0.0
  0
LINE
  8
LY_3
  6
CONTINUOUS
 62
     3
  5
292
 10
74.799999
 20
-30.200003
 30
0.0
 11
95.0
 21
-30.200003
 31
0.0
  0
LINE
  8
LY_3
  6
CONTINUOUS
 62
     3
  5
293
 10
74.799999
 20
-21.800001
 30
0.0
 11
95.0
 21
-21.800001
 31
0.0
  0
LINE
  8
LY_3
  6
CONTINUOUS
 62
     3
  5
294
 10
74.799999
 20
-20.200003
 30
0.0
 11
95.0
 21
-20.200003
 31
0.0
  0
LINE
  8
LY_3
  6
CONTINUOUS
 62
     3
  5
295
 10
74.800001
 20
-11.800003
 30
0.0
 11
95.0
 21
-11.800003
 31
0.0
  0
LINE
  8
LY_3
  6
CONTINUOUS
 62
     3
  5
296
 10
74.800001
 20
-10.200001
 30
0.0
 11
95.0
 21
-10.200001
 31
0.0
  0
LINE
  8
LY_3
  6
CONTINUOUS
 62
     3
  5
297
 10
74.800001
 20
-1.800003
 30
0.0
 11
95.0
 21
-1.800003
 31
0.0
  0
LINE
  8
LY_3
  6
CONTINUOUS
 62
     3
  5
298
 10
74.800001
 20
-0.200001
 30
0.0
 11
95.0
 21
-0.200001
 31
0.0
  0
LINE
  8
LY_3
  6
CONTINUOUS
 62
     3
  5
299
 10
74.800001
 20
8.199997
 30
0.0
 11
95.0
 21
8.199997
 31
0.0
  0
LINE
  8
LY_3
  6
CONTINUOUS
 62
     3
  5
29A
 10
74.800001
 20
9.799999
 30
0.0
 11
95.0
 21
9.799999
 31
0.0
  0
LINE
  8
LY_3
  6
CONTINUOUS
 62
     3
  5
29B
 10
74.799999
 20
18.199997
 30
0.0
 11
95.0
 21
18.199997
 31
0.0
  0
LINE
  8
LY_3
  6
CONTINUOUS
 62
     3
  5
29C
 10
74.799999
 20
19.799995
 30
0.0
 11
95.0
 21
19.799995
 31
0.0
  0
LINE
  8
LY_3
  6
CONTINUOUS
 62
     3
  5
29D
 10
74.799999
 20
28.199997
 30
0.0
 11
95.0
 21
28.199997
 31
0.0
  0
LINE
  8
LY_3
  6
CONTINUOUS
 62
     3
  5
29E
 10
74.799999
 20
29.799995
 30
0.0
 11
95.0
 21
29.799995
 31
0.0
  0
LINE
  8
LY_3
  6
CONTINUOUS
 62
     3
  5
29F
 10
62.5
 20
38.199997
 30
0.0
 11
95.0
 21
38.199997
 31
0.0
  0
LINE
  8
LY_3
  6
CONTINUOUS
 62
     3
  5
2A0
 10
85.800003
 20
38.199997
 30
0.0
 11
85.800003
 21
29.799995
 31
0.0
  0
LINE
  8
LY_3
  6
CONTINUOUS
 62
     3
  5
2A1
 10
94.199997
 20
38.199997
 30
0.0
 11
94.199997
 21
29.799995
 31
0.0
  0
LINE
  8
LY_3
  6
CONTINUOUS
 62
     3
  5
2A2
 10
85.800003
 20
-31.800001
 30
0.0
 11
85.800003
 21
-40.200001
 31
0.0
  0
LINE
  8
LY_3
  6
CONTINUOUS
 62
     3
  5
2A3
 10
85.800003
 20
-21.800001
 30
0.0
 11
85.800003
 21
-30.200003
 31
0.0
  0
LINE
  8
LY_3
  6
CONTINUOUS
 62
     3
  5
2A4
 10
85.800003
 20
-11.800003
 30
0.0
 11
85.800003
 21
-20.200003
 31
0.0
  0
LINE
  8
LY_3
  6
CONTINUOUS
 62
     3
  5
2A5
 10
85.800003
 20
-1.800003
 30
0.0
 11
85.800003
 21
-10.200001
 31
0.0
  0
LINE
  8
LY_3
  6
CONTINUOUS
 62
     3
  5
2A6
 10
85.800003
 20
8.199997
 30
0.0
 11
85.800003
 21
-0.200001
 31
0.0
  0
LINE
  8
LY_3
  6
CONTINUOUS
 62
     3
  5
2A7
 10
85.800003
 20
18.199997
 30
0.0
 11
85.800003
 21
9.799999
 31
0.0
  0
LINE
  8
LY_3
  6
CONTINUOUS
 62
     3
  5
2A8
 10
85.800003
 20
28.199997
 30
0.0
 11
85.800003
 21
19.799995
 31
0.0
  0
LINE
  8
LY_3
  6
CONTINUOUS
 62
     3
  5
2A9
 10
94.199997
 20
28.199997
 30
0.0
 11
94.199997
 21
19.799995
 31
0.0
  0
LINE
  8
LY_3
  6
CONTINUOUS
 62
     3
  5
2AA
 10
94.199997
 20
18.199997
 30
0.0
 11
94.199997
 21
9.799999
 31
0.0
  0
LINE
  8
LY_3
  6
CONTINUOUS
 62
     3
  5
2AB
 10
94.199997
 20
8.199997
 30
0.0
 11
94.199997
 21
-0.200001
 31
0.0
  0
LINE
  8
LY_3
  6
CONTINUOUS
 62
     3
  5
2AC
 10
94.199997
 20
-1.800003
 30
0.0
 11
94.199997
 21
-10.200001
 31
0.0
  0
LINE
  8
LY_3
  6
CONTINUOUS
 62
     3
  5
2AD
 10
94.199997
 20
-11.800003
 30
0.0
 11
94.199997
 21
-20.200003
 31
0.0
  0
LINE
  8
LY_3
  6
CONTINUOUS
 62
     3
  5
2AE
 10
94.199997
 20
-21.800001
 30
0.0
 11
94.199997
 21
-30.200003
 31
0.0
  0
LINE
  8
LY_3
  6
CONTINUOUS
 62
     3
  5
2AF
 10
94.199997
 20
-31.800001
 30
0.0
 11
94.199997
 21
-40.200001
 31
0.0
  0
LINE
  8
LY_3
  6
CONTINUOUS
 62
     3
  5
2B0
 10
63.5
 20
45.499992
 30
0.0
 11
95.5
 21
45.499992
 31
0.0
  0
LINE
  8
LY_3
  6
CONTINUOUS
 62
     3
  5
2B1
 10
63.5
 20
-47.500004
 30
0.0
 11
95.5
 21
-47.500004
 31
0.0
  0
LINE
  8
LY_3
  6
CONTINUOUS
 62
    80
  5
2B2
 10
87.095262
 20
34.75
 30
0.0
 11
88.25
 21
34.75
 31
0.0
  0
LINE
  8
LY_3
  6
CONTINUOUS
 62
    80
  5
2B3
 10
87.095262
 20
33.25
 30
0.0
 11
88.25
 21
33.25
 31
0.0
  0
LINE
  8
LY_3
  6
CONTINUOUS
 62
    80
  5
2B4
 10
90.75
 20
36.904738
 30
0.0
 11
90.75
 21
35.75
 31
0.0
  0
LINE
  8
LY_3
  6
CONTINUOUS
 62
    80
  5
2B5
 10
89.25
 20
36.904738
 30
0.0
 11
89.25
 21
35.75
 31
0.0
  0
LINE
  8
LY_3
  6
CONTINUOUS
 62
    80
  5
2B6
 10
89.25
 20
32.25
 30
0.0
 11
89.25
 21
31.095262
 31
0.0
  0
LINE
  8
LY_3
  6
CONTINUOUS
 62
    80
  5
2B7
 10
90.75
 20
32.25
 30
0.0
 11
90.75
 21
31.095262
 31
0.0
  0
LINE
  8
LY_3
  6
CONTINUOUS
 62
    80
  5
2B8
 10
91.75
 20
34.75
 30
0.0
 11
92.904738
 21
34.75
 31
0.0
  0
LINE
  8
LY_3
  6
CONTINUOUS
 62
    80
  5
2B9
 10
91.75
 20
33.25
 30
0.0
 11
92.904738
 21
33.25
 31
0.0
  0
LINE
  8
LY_3
  6
CONTINUOUS
 62
    80
  5
2BA
 10
87.095262
 20
-35.25
 30
0.0
 11
88.25
 21
-35.25
 31
0.0
  0
LINE
  8
LY_3
  6
CONTINUOUS
 62
    80
  5
2BB
 10
87.095262
 20
-36.75
 30
0.0
 11
88.25
 21
-36.75
 31
0.0
  0
LINE
  8
LY_3
  6
CONTINUOUS
 62
    80
  5
2BC
 10
90.75
 20
-33.095262
 30
0.0
 11
90.75
 21
-34.25
 31
0.0
  0
LINE
  8
LY_3
  6
CONTINUOUS
 62
    80
  5
2BD
 10
89.25
 20
-33.095262
 30
0.0
 11
89.25
 21
-34.25
 31
0.0
  0
LINE
  8
LY_3
  6
CONTINUOUS
 62
    80
  5
2BE
 10
89.25
 20
-37.75
 30
0.0
 11
89.25
 21
-38.904738
 31
0.0
  0
LINE
  8
LY_3
  6
CONTINUOUS
 62
    80
  5
2BF
 10
90.75
 20
-37.75
 30
0.0
 11
90.75
 21
-38.904738
 31
0.0
  0
LINE
  8
LY_3
  6
CONTINUOUS
 62
    80
  5
2C0
 10
91.75
 20
-35.25
 30
0.0
 11
92.904738
 21
-35.25
 31
0.0
  0
LINE
  8
LY_3
  6
CONTINUOUS
 62
    80
  5
2C1
 10
91.75
 20
-36.75
 30
0.0
 11
92.904738
 21
-36.75
 31
0.0
  0
LINE
  8
LY_3
  6
CONTINUOUS
 62
    80
  5
2C2
 10
87.095262
 20
-25.25
 30
0.0
 11
88.25
 21
-25.25
 31
0.0
  0
LINE
  8
LY_3
  6
CONTINUOUS
 62
    80
  5
2C3
 10
87.095262
 20
-26.75
 30
0.0
 11
88.25
 21
-26.75
 31
0.0
  0
LINE
  8
LY_3
  6
CONTINUOUS
 62
    80
  5
2C4
 10
90.75
 20
-23.095262
 30
0.0
 11
90.75
 21
-24.25
 31
0.0
  0
LINE
  8
LY_3
  6
CONTINUOUS
 62
    80
  5
2C5
 10
89.25
 20
-23.095262
 30
0.0
 11
89.25
 21
-24.25
 31
0.0
  0
LINE
  8
LY_3
  6
CONTINUOUS
 62
    80
  5
2C6
 10
89.25
 20
-27.75
 30
0.0
 11
89.25
 21
-28.904738
 31
0.0
  0
LINE
  8
LY_3
  6
CONTINUOUS
 62
    80
  5
2C7
 10
90.75
 20
-27.75
 30
0.0
 11
90.75
 21
-28.904738
 31
0.0
  0
LINE
  8
LY_3
  6
CONTINUOUS
 62
    80
  5
2C8
 10
91.75
 20
-25.25
 30
0.0
 11
92.904738
 21
-25.25
 31
0.0
  0
LINE
  8
LY_3
  6
CONTINUOUS
 62
    80
  5
2C9
 10
91.75
 20
-26.75
 30
0.0
 11
92.904738
 21
-26.75
 31
0.0
  0
LINE
  8
LY_3
  6
CONTINUOUS
 62
    80
  5
2CA
 10
87.095262
 20
-15.25
 30
0.0
 11
88.25
 21
-15.25
 31
0.0
  0
LINE
  8
LY_3
  6
CONTINUOUS
 62
    80
  5
2CB
 10
87.095262
 20
-16.75
 30
0.0
 11
88.25
 21
-16.75
 31
0.0
  0
LINE
  8
LY_3
  6
CONTINUOUS
 62
    80
  5
2CC
 10
90.75
 20
-13.095262
 30
0.0
 11
90.75
 21
-14.25
 31
0.0
  0
LINE
  8
LY_3
  6
CONTINUOUS
 62
    80
  5
2CD
 10
89.25
 20
-13.095262
 30
0.0
 11
89.25
 21
-14.25
 31
0.0
  0
LINE
  8
LY_3
  6
CONTINUOUS
 62
    80
  5
2CE
 10
89.25
 20
-17.75
 30
0.0
 11
89.25
 21
-18.904738
 31
0.0
  0
LINE
  8
LY_3
  6
CONTINUOUS
 62
    80
  5
2CF
 10
90.75
 20
-17.75
 30
0.0
 11
90.75
 21
-18.904738
 31
0.0
  0
LINE
  8
LY_3
  6
CONTINUOUS
 62
    80
  5
2D0
 10
91.75
 20
-15.25
 30
0.0
 11
92.904738
 21
-15.25
 31
0.0
  0
LINE
  8
LY_3
  6
CONTINUOUS
 62
    80
  5
2D1
 10
91.75
 20
-16.75
 30
0.0
 11
92.904738
 21
-16.75
 31
0.0
  0
LINE
  8
LY_3
  6
CONTINUOUS
 62
    80
  5
2D2
 10
87.095262
 20
-5.25
 30
0.0
 11
88.25
 21
-5.25
 31
0.0
  0
LINE
  8
LY_3
  6
CONTINUOUS
 62
    80
  5
2D3
 10
87.095262
 20
-6.75
 30
0.0
 11
88.25
 21
-6.75
 31
0.0
  0
LINE
  8
LY_3
  6
CONTINUOUS
 62
    80
  5
2D4
 10
90.75
 20
-3.095262
 30
0.0
 11
90.75
 21
-4.25
 31
0.0
  0
LINE
  8
LY_3
  6
CONTINUOUS
 62
    80
  5
2D5
 10
89.25
 20
-3.095262
 30
0.0
 11
89.25
 21
-4.25
 31
0.0
  0
LINE
  8
LY_3
  6
CONTINUOUS
 62
    80
  5
2D6
 10
89.25
 20
-7.75
 30
0.0
 11
89.25
 21
-8.904738
 31
0.0
  0
LINE
  8
LY_3
  6
CONTINUOUS
 62
    80
  5
2D7
 10
90.75
 20
-7.75
 30
0.0
 11
90.75
 21
-8.904738
 31
0.0
  0
LINE
  8
LY_3
  6
CONTINUOUS
 62
    80
  5
2D8
 10
91.75
 20
-5.25
 30
0.0
 11
92.904738
 21
-5.25
 31
0.0
  0
LINE
  8
LY_3
  6
CONTINUOUS
 62
    80
  5
2D9
 10
91.75
 20
-6.75
 30
0.0
 11
92.904738
 21
-6.75
 31
0.0
  0
LINE
  8
LY_3
  6
CONTINUOUS
 62
    80
  5
2DA
 10
87.095262
 20
4.75
 30
0.0
 11
88.25
 21
4.75
 31
0.0
  0
LINE
  8
LY_3
  6
CONTINUOUS
 62
    80
  5
2DB
 10
87.095262
 20
3.25
 30
0.0
 11
88.25
 21
3.25
 31
0.0
  0
LINE
  8
LY_3
  6
CONTINUOUS
 62
    80
  5
2DC
 10
90.75
 20
6.904738
 30
0.0
 11
90.75
 21
5.75
 31
0.0
  0
LINE
  8
LY_3
  6
CONTINUOUS
 62
    80
  5
2DD
 10
89.25
 20
6.904738
 30
0.0
 11
89.25
 21
5.75
 31
0.0
  0
LINE
  8
LY_3
  6
CONTINUOUS
 62
    80
  5
2DE
 10
89.25
 20
2.25
 30
0.0
 11
89.25
 21
1.095262
 31
0.0
  0
LINE
  8
LY_3
  6
CONTINUOUS
 62
    80
  5
2DF
 10
90.75
 20
2.25
 30
0.0
 11
90.75
 21
1.095262
 31
0.0
  0
LINE
  8
LY_3
  6
CONTINUOUS
 62
    80
  5
2E0
 10
91.75
 20
4.75
 30
0.0
 11
92.904738
 21
4.75
 31
0.0
  0
LINE
  8
LY_3
  6
CONTINUOUS
 62
    80
  5
2E1
 10
91.75
 20
3.25
 30
0.0
 11
92.904738
 21
3.25
 31
0.0
  0
LINE
  8
LY_3
  6
CONTINUOUS
 62
    80
  5
2E2
 10
87.095262
 20
14.75
 30
0.0
 11
88.25
 21
14.75
 31
0.0
  0
LINE
  8
LY_3
  6
CONTINUOUS
 62
    80
  5
2E3
 10
87.095262
 20
13.25
 30
0.0
 11
88.25
 21
13.25
 31
0.0
  0
LINE
  8
LY_3
  6
CONTINUOUS
 62
    80
  5
2E4
 10
90.75
 20
16.904738
 30
0.0
 11
90.75
 21
15.75
 31
0.0
  0
LINE
  8
LY_3
  6
CONTINUOUS
 62
    80
  5
2E5
 10
89.25
 20
16.904738
 30
0.0
 11
89.25
 21
15.75
 31
0.0
  0
LINE
  8
LY_3
  6
CONTINUOUS
 62
    80
  5
2E6
 10
89.25
 20
12.25
 30
0.0
 11
89.25
 21
11.095262
 31
0.0
  0
LINE
  8
LY_3
  6
CONTINUOUS
 62
    80
  5
2E7
 10
90.75
 20
12.25
 30
0.0
 11
90.75
 21
11.095262
 31
0.0
  0
LINE
  8
LY_3
  6
CONTINUOUS
 62
    80
  5
2E8
 10
91.75
 20
14.75
 30
0.0
 11
92.904738
 21
14.75
 31
0.0
  0
LINE
  8
LY_3
  6
CONTINUOUS
 62
    80
  5
2E9
 10
91.75
 20
13.25
 30
0.0
 11
92.904738
 21
13.25
 31
0.0
  0
LINE
  8
LY_3
  6
CONTINUOUS
 62
    80
  5
2EA
 10
87.095262
 20
24.75
 30
0.0
 11
88.25
 21
24.75
 31
0.0
  0
LINE
  8
LY_3
  6
CONTINUOUS
 62
    80
  5
2EB
 10
87.095262
 20
23.25
 30
0.0
 11
88.25
 21
23.25
 31
0.0
  0
LINE
  8
LY_3
  6
CONTINUOUS
 62
    80
  5
2EC
 10
90.75
 20
26.904738
 30
0.0
 11
90.75
 21
25.75
 31
0.0
  0
LINE
  8
LY_3
  6
CONTINUOUS
 62
    80
  5
2ED
 10
89.25
 20
26.904738
 30
0.0
 11
89.25
 21
25.75
 31
0.0
  0
LINE
  8
LY_3
  6
CONTINUOUS
 62
    80
  5
2EE
 10
89.25
 20
22.25
 30
0.0
 11
89.25
 21
21.095262
 31
0.0
  0
LINE
  8
LY_3
  6
CONTINUOUS
 62
    80
  5
2EF
 10
90.75
 20
22.25
 30
0.0
 11
90.75
 21
21.095262
 31
0.0
  0
LINE
  8
LY_3
  6
CONTINUOUS
 62
    80
  5
2F0
 10
91.75
 20
24.75
 30
0.0
 11
92.904738
 21
24.75
 31
0.0
  0
LINE
  8
LY_3
  6
CONTINUOUS
 62
    80
  5
2F1
 10
91.75
 20
23.25
 30
0.0
 11
92.904738
 21
23.25
 31
0.0
  0
ARC
  8
LY_3
  6
CONTINUOUS
 62
     3
  5
2F2
 10
-116.499996
 20
48.5
 30
0.0
 40
2.0
 50
0.0
 51
89.999982
  0
ARC
  8
LY_3
  6
CONTINUOUS
 62
     3
  5
2F3
 10
-235.500004
 20
48.5
 30
0.0
 40
2.0
 50
89.999982
 51
179.999964
  0
ARC
  8
LY_3
  6
CONTINUOUS
 62
     3
  5
2F4
 10
-235.500004
 20
-48.499998
 30
0.0
 40
2.0
 50
179.999981
 51
270.000018
  0
ARC
  8
LY_3
  6
CONTINUOUS
 62
     3
  5
2F5
 10
-116.499996
 20
-48.499998
 30
0.0
 40
2.0
 50
270.000018
 51
0.0
  0
ARC
  8
LY_3
  6
CONTINUOUS
 62
     3
  5
2F6
 10
-237.500004
 20
-36.499999
 30
0.0
 40
0.5
 50
0.0
 51
90.0
  0
ARC
  8
LY_3
  6
CONTINUOUS
 62
     3
  5
2F7
 10
-237.500004
 20
-43.499999
 30
0.0
 40
0.5
 50
270.0
 51
0.0
  0
ARC
  8
LY_3
  6
CONTINUOUS
 62
     3
  5
2F8
 10
-237.500004
 20
36.499999
 30
0.0
 40
0.5
 50
270.0
 51
0.0
  0
ARC
  8
LY_3
  6
CONTINUOUS
 62
     3
  5
2F9
 10
-237.500004
 20
43.499999
 30
0.0
 40
0.5
 50
0.0
 51
90.0
  0
ARC
  8
LY_3
  6
CONTINUOUS
 62
     3
  5
2FA
 10
-114.500004
 20
-36.499999
 30
0.0
 40
0.5
 50
90.0
 51
180.0
  0
ARC
  8
LY_3
  6
CONTINUOUS
 62
     3
  5
2FB
 10
-114.500004
 20
-43.499999
 30
0.0
 40
0.5
 50
180.0
 51
270.0
  0
ARC
  8
LY_3
  6
CONTINUOUS
 62
     3
  5
2FC
 10
-114.500004
 20
36.499999
 30
0.0
 40
0.5
 50
180.0
 51
270.0
  0
ARC
  8
LY_3
  6
CONTINUOUS
 62
     3
  5
2FD
 10
-114.500004
 20
43.499999
 30
0.0
 40
0.5
 50
90.0
 51
180.0
  0
ARC
  8
LY_3
  6
CONTINUOUS
 62
     3
  5
2FE
 10
-239.000004
 20
63.0
 30
0.0
 40
2.0
 50
89.999982
 51
179.999964
  0
ARC
  8
LY_3
  6
CONTINUOUS
 62
     3
  5
2FF
 10
-239.000004
 20
-63.0
 30
0.0
 40
2.0
 50
179.999981
 51
270.000018
  0
ARC
  8
LY_3
  6
CONTINUOUS
 62
     3
  5
300
 10
-112.999996
 20
-63.0
 30
0.0
 40
2.0
 50
270.000018
 51
0.0
  0
ARC
  8
LY_3
  6
CONTINUOUS
 62
     3
  5
301
 10
-112.999996
 20
63.0
 30
0.0
 40
2.0
 50
0.0
 51
89.999982
  0
ARC
  8
LY_3
  6
CONTINUOUS
 62
     3
  5
302
 10
-235.000004
 20
48.0
 30
0.0
 40
2.0
 50
89.999982
 51
179.999964
  0
ARC
  8
LY_3
  6
CONTINUOUS
 62
     3
  5
303
 10
-235.000004
 20
-48.0
 30
0.0
 40
2.0
 50
179.999981
 51
270.000018
  0
ARC
  8
LY_3
  6
CONTINUOUS
 62
     3
  5
304
 10
-117.000004
 20
-48.0
 30
0.0
 40
2.0
 50
270.000018
 51
0.0
  0
ARC
  8
LY_3
  6
CONTINUOUS
 62
     3
  5
305
 10
-117.000004
 20
48.0
 30
0.0
 40
2.0
 50
0.0
 51
89.999982
  0
ARC
  8
LY_3
  6
CONTINUOUS
 62
     3
  5
306
 10
61.0
 20
62.000008
 30
0.0
 40
3.0
 50
89.999982
 51
179.999964
  0
ARC
  8
LY_3
  6
CONTINUOUS
 62
     3
  5
307
 10
61.0
 20
-63.999996
 30
0.0
 40
3.0
 50
179.999981
 51
270.000018
  0
ARC
  8
LY_3
  6
CONTINUOUS
 62
     3
  5
308
 10
187.0
 20
-63.999996
 30
0.0
 40
3.0
 50
270.000018
 51
0.0
  0
ARC
  8
LY_3
  6
CONTINUOUS
 62
     3
  5
309
 10
187.0
 20
62.000008
 30
0.0
 40
3.0
 50
0.0
 51
89.999982
  0
ARC
  8
LY_3
  6
CONTINUOUS
 62
     3
  5
30A
 10
61.0
 20
62.000008
 30
0.0
 40
1.25
 50
89.999982
 51
179.999964
  0
ARC
  8
LY_3
  6
CONTINUOUS
 62
     3
  5
30B
 10
187.0
 20
62.000008
 30
0.0
 40
1.25
 50
0.0
 51
89.999982
  0
ARC
  8
LY_3
  6
CONTINUOUS
 62
     3
  5
30C
 10
187.0
 20
-63.999996
 30
0.0
 40
1.25
 50
270.000018
 51
0.0
  0
ARC
  8
LY_3
  6
CONTINUOUS
 62
     3
  5
30D
 10
61.0
 20
-63.999996
 30
0.0
 40
1.25
 50
179.999981
 51
270.000018
  0
ARC
  8
LY_3
  6
CONTINUOUS
 62
     3
  5
30E
 10
59.0
 20
-10.5
 30
0.0
 40
0.5
 50
90.0
 51
270.0
  0
ARC
  8
LY_3
  6
CONTINUOUS
 62
     3
  5
30F
 10
59.0
 20
8.5
 30
0.0
 40
0.5
 50
90.0
 51
270.0
  0
CIRCLE
  8
LY_3
  6
CONTINUOUS
 62
     3
  5
310
 10
151.5
 20
47.75
 30
0.0
 40
4.0
  0
ARC
  8
LY_3
  6
CONTINUOUS
 62
     3
  5
311
 10
61.0
 20
62.0
 30
0.0
 40
1.2
 50
90.000003
 51
180.000005
  0
ARC
  8
LY_3
  6
CONTINUOUS
 62
     3
  5
312
 10
61.0
 20
-64.0
 30
0.0
 40
1.2
 50
179.999995
 51
269.999997
  0
ARC
  8
LY_3
  6
CONTINUOUS
 62
     3
  5
313
 10
187.0
 20
-64.0
 30
0.0
 40
1.2
 50
269.999997
 51
0.0
  0
ARC
  8
LY_3
  6
CONTINUOUS
 62
     3
  5
314
 10
187.0
 20
62.0
 30
0.0
 40
1.2
 50
0.0
 51
90.000003
  0
CIRCLE
  8
LY_3
  6
CONTINUOUS
 62
     3
  5
315
 10
90.0
 20
57.499992
 30
0.0
 40
3.5
  0
CIRCLE
  8
LY_3
  6
CONTINUOUS
 62
     3
  5
316
 10
169.0
 20
57.499992
 30
0.0
 40
3.5
  0
CIRCLE
  8
LY_3
  6
CONTINUOUS
 62
     3
  5
317
 10
90.0
 20
-59.499992
 30
0.0
 40
3.5
  0
CIRCLE
  8
LY_3
  6
CONTINUOUS
 62
     3
  5
318
 10
169.0
 20
-59.499992
 30
0.0
 40
3.5
  0
CIRCLE
  8
LY_3
  6
CONTINUOUS
 62
     3
  5
319
 10
90.0
 20
57.499992
 30
0.0
 40
1.6
  0
CIRCLE
  8
LY_3
  6
CONTINUOUS
 62
     3
  5
31A
 10
169.0
 20
57.499992
 30
0.0
 40
1.6
  0
CIRCLE
  8
LY_3
  6
CONTINUOUS
 62
     3
  5
31B
 10
169.0
 20
-59.499992
 30
0.0
 40
1.6
  0
CIRCLE
  8
LY_3
  6
CONTINUOUS
 62
     3
  5
31C
 10
90.0
 20
-59.499992
 30
0.0
 40
1.6
  0
ARC
  8
LY_3
  6
CONTINUOUS
 62
     3
  5
31D
 10
63.5
 20
-48.500004
 30
0.0
 40
1.0
 50
90.0
 51
180.0
  0
ARC
  8
LY_3
  6
CONTINUOUS
 62
     3
  5
31E
 10
63.5
 20
46.499992
 30
0.0
 40
1.0
 50
180.0
 51
270.0
  0
ARC
  8
LY_3
  6
CONTINUOUS
 62
     3
  5
31F
 10
63.5
 20
59.5
 30
0.0
 40
1.0
 50
90.0
 51
180.0
  0
ARC
  8
LY_3
  6
CONTINUOUS
 62
     3
  5
320
 10
63.5
 20
-61.5
 30
0.0
 40
1.0
 50
180.0
 51
270.0
  0
ARC
  8
LY_3
  6
CONTINUOUS
 62
     3
  5
321
 10
184.5
 20
59.5
 30
0.0
 40
1.0
 50
0.0
 51
90.0
  0
ARC
  8
LY_3
  6
CONTINUOUS
 62
     3
  5
322
 10
184.5
 20
-61.5
 30
0.0
 40
1.0
 50
270.0
 51
0.0
  0
CIRCLE
  8
LY_3
  6
CONTINUOUS
 62
     3
  5
323
 10
124.0
 20
57.499992
 30
0.0
 40
2.25
  0
ARC
  8
LY_3
  6
CONTINUOUS
 62
     3
  5
324
 10
124.0
 20
57.499992
 30
0.0
 40
4.5
 50
180.0
 51
0.0
  0
CIRCLE
  8
LY_3
  6
CONTINUOUS
 62
     3
  5
325
 10
124.0
 20
-59.500004
 30
0.0
 40
2.25
  0
ARC
  8
LY_3
  6
CONTINUOUS
 62
     3
  5
326
 10
124.0
 20
-59.500004
 30
0.0
 40
4.5
 50
0.0
 51
180.0
  0
ARC
  8
LY_3
  6
CONTINUOUS
 62
     3
  5
327
 10
74.799999
 20
28.999996
 30
0.0
 40
0.799999
 50
90.0
 51
270.0
  0
ARC
  8
LY_3
  6
CONTINUOUS
 62
     3
  5
328
 10
74.799999
 20
18.999996
 30
0.0
 40
0.799999
 50
90.0
 51
270.0
  0
ARC
  8
LY_3
  6
CONTINUOUS
 62
     3
  5
329
 10
74.800001
 20
8.999998
 30
0.0
 40
0.800001
 50
90.0
 51
270.0
  0
ARC
  8
LY_3
  6
CONTINUOUS
 62
     3
  5
32A
 10
74.800001
 20
-1.000002
 30
0.0
 40
0.800001
 50
90.0
 51
270.0
  0
ARC
  8
LY_3
  6
CONTINUOUS
 62
     3
  5
32B
 10
74.800001
 20
-11.000002
 30
0.0
 40
0.800001
 50
90.0
 51
270.0
  0
ARC
  8
LY_3
  6
CONTINUOUS
 62
     3
  5
32C
 10
74.799999
 20
-21.000002
 30
0.0
 40
0.799999
 50
90.0
 51
270.0
  0
ARC
  8
LY_3
  6
CONTINUOUS
 62
     3
  5
32D
 10
74.799999
 20
-31.000002
 30
0.0
 40
0.799999
 50
90.0
 51
270.0
  0
ARC
  8
LY_3
  6
CONTINUOUS
 62
    80
  5
32E
 10
95.5
 20
-46.500004
 30
0.0
 40
1.0
 50
270.0
 51
0.0
  0
ARC
  8
LY_3
  6
CONTINUOUS
 62
     3
  5
32F
 10
95.5
 20
44.499992
 30
0.0
 40
1.0
 50
0.0
 51
90.0
  0
ARC
  8
LY_3
  6
CONTINUOUS
 62
    80
  5
330
 10
91.75
 20
35.75
 30
0.0
 40
1.0
 50
180.0
 51
270.0
  0
ARC
  8
LY_3
  6
CONTINUOUS
 62
    80
  5
331
 10
88.25
 20
35.75
 30
0.0
 40
1.0
 50
270.0
 51
0.0
  0
CIRCLE
  8
LY_3
  6
CONTINUOUS
 62
    80
  5
332
 10
90.0
 20
34.0
 30
0.0
 40
4.0
  0
ARC
  8
LY_3
  6
CONTINUOUS
 62
    80
  5
333
 10
90.0
 20
34.0
 30
0.0
 40
3.0
 50
345.522488
 51
14.477512
  0
ARC
  8
LY_3
  6
CONTINUOUS
 62
    80
  5
334
 10
90.0
 20
34.0
 30
0.0
 40
3.0
 50
255.522488
 51
284.477512
  0
ARC
  8
LY_3
  6
CONTINUOUS
 62
    80
  5
335
 10
90.0
 20
34.0
 30
0.0
 40
3.0
 50
165.522488
 51
194.477512
  0
ARC
  8
LY_3
  6
CONTINUOUS
 62
    80
  5
336
 10
90.0
 20
34.0
 30
0.0
 40
3.0
 50
75.522488
 51
104.477512
  0
ARC
  8
LY_3
  6
CONTINUOUS
 62
    80
  5
337
 10
91.75
 20
32.25
 30
0.0
 40
1.0
 50
90.0
 51
180.0
  0
ARC
  8
LY_3
  6
CONTINUOUS
 62
    80
  5
338
 10
88.25
 20
32.25
 30
0.0
 40
1.0
 50
0.0
 51
90.0
  0
ARC
  8
LY_3
  6
CONTINUOUS
 62
    80
  5
339
 10
91.75
 20
-37.75
 30
0.0
 40
1.0
 50
90.0
 51
180.0
  0
ARC
  8
LY_3
  6
CONTINUOUS
 62
    80
  5
33A
 10
88.25
 20
-37.75
 30
0.0
 40
1.0
 50
0.0
 51
90.0
  0
ARC
  8
LY_3
  6
CONTINUOUS
 62
    80
  5
33B
 10
91.75
 20
-34.25
 30
0.0
 40
1.0
 50
180.0
 51
270.0
  0
ARC
  8
LY_3
  6
CONTINUOUS
 62
    80
  5
33C
 10
88.25
 20
-34.25
 30
0.0
 40
1.0
 50
270.0
 51
0.0
  0
CIRCLE
  8
LY_3
  6
CONTINUOUS
 62
    80
  5
33D
 10
90.0
 20
-36.0
 30
0.0
 40
4.0
  0
ARC
  8
LY_3
  6
CONTINUOUS
 62
    80
  5
33E
 10
90.0
 20
-36.0
 30
0.0
 40
3.0
 50
345.522488
 51
14.477512
  0
ARC
  8
LY_3
  6
CONTINUOUS
 62
    80
  5
33F
 10
90.0
 20
-36.0
 30
0.0
 40
3.0
 50
255.522488
 51
284.477512
  0
ARC
  8
LY_3
  6
CONTINUOUS
 62
    80
  5
340
 10
90.0
 20
-36.0
 30
0.0
 40
3.0
 50
165.522488
 51
194.477512
  0
ARC
  8
LY_3
  6
CONTINUOUS
 62
    80
  5
341
 10
90.0
 20
-36.0
 30
0.0
 40
3.0
 50
75.522488
 51
104.477512
  0
ARC
  8
LY_3
  6
CONTINUOUS
 62
    80
  5
342
 10
91.75
 20
-27.75
 30
0.0
 40
1.0
 50
90.0
 51
180.0
  0
ARC
  8
LY_3
  6
CONTINUOUS
 62
    80
  5
343
 10
88.25
 20
-27.75
 30
0.0
 40
1.0
 50
0.0
 51
90.0
  0
ARC
  8
LY_3
  6
CONTINUOUS
 62
    80
  5
344
 10
91.75
 20
-24.25
 30
0.0
 40
1.0
 50
180.0
 51
270.0
  0
ARC
  8
LY_3
  6
CONTINUOUS
 62
    80
  5
345
 10
88.25
 20
-24.25
 30
0.0
 40
1.0
 50
270.0
 51
0.0
  0
CIRCLE
  8
LY_3
  6
CONTINUOUS
 62
    80
  5
346
 10
90.0
 20
-26.0
 30
0.0
 40
4.0
  0
ARC
  8
LY_3
  6
CONTINUOUS
 62
    80
  5
347
 10
90.0
 20
-26.0
 30
0.0
 40
3.0
 50
345.522488
 51
14.477512
  0
ARC
  8
LY_3
  6
CONTINUOUS
 62
    80
  5
348
 10
90.0
 20
-26.0
 30
0.0
 40
3.0
 50
255.522488
 51
284.477512
  0
ARC
  8
LY_3
  6
CONTINUOUS
 62
    80
  5
349
 10
90.0
 20
-26.0
 30
0.0
 40
3.0
 50
165.522488
 51
194.477512
  0
ARC
  8
LY_3
  6
CONTINUOUS
 62
    80
  5
34A
 10
90.0
 20
-26.0
 30
0.0
 40
3.0
 50
75.522488
 51
104.477512
  0
ARC
  8
LY_3
  6
CONTINUOUS
 62
    80
  5
34B
 10
91.75
 20
-17.75
 30
0.0
 40
1.0
 50
90.0
 51
180.0
  0
ARC
  8
LY_3
  6
CONTINUOUS
 62
    80
  5
34C
 10
88.25
 20
-17.75
 30
0.0
 40
1.0
 50
0.0
 51
90.0
  0
ARC
  8
LY_3
  6
CONTINUOUS
 62
    80
  5
34D
 10
91.75
 20
-14.25
 30
0.0
 40
1.0
 50
180.0
 51
270.0
  0
ARC
  8
LY_3
  6
CONTINUOUS
 62
    80
  5
34E
 10
88.25
 20
-14.25
 30
0.0
 40
1.0
 50
270.0
 51
0.0
  0
CIRCLE
  8
LY_3
  6
CONTINUOUS
 62
    80
  5
34F
 10
90.0
 20
-16.0
 30
0.0
 40
4.0
  0
ARC
  8
LY_3
  6
CONTINUOUS
 62
    80
  5
350
 10
90.0
 20
-16.0
 30
0.0
 40
3.0
 50
345.522488
 51
14.477512
  0
ARC
  8
LY_3
  6
CONTINUOUS
 62
    80
  5
351
 10
90.0
 20
-16.0
 30
0.0
 40
3.0
 50
255.522488
 51
284.477512
  0
ARC
  8
LY_3
  6
CONTINUOUS
 62
    80
  5
352
 10
90.0
 20
-16.0
 30
0.0
 40
3.0
 50
165.522488
 51
194.477512
  0
ARC
  8
LY_3
  6
CONTINUOUS
 62
    80
  5
353
 10
90.0
 20
-16.0
 30
0.0
 40
3.0
 50
75.522488
 51
104.477512
  0
ARC
  8
LY_3
  6
CONTINUOUS
 62
    80
  5
354
 10
91.75
 20
-7.75
 30
0.0
 40
1.0
 50
90.0
 51
180.0
  0
ARC
  8
LY_3
  6
CONTINUOUS
 62
    80
  5
355
 10
88.25
 20
-7.75
 30
0.0
 40
1.0
 50
0.0
 51
90.0
  0
ARC
  8
LY_3
  6
CONTINUOUS
 62
    80
  5
356
 10
91.75
 20
-4.25
 30
0.0
 40
1.0
 50
180.0
 51
270.0
  0
ARC
  8
LY_3
  6
CONTINUOUS
 62
    80
  5
357
 10
88.25
 20
-4.25
 30
0.0
 40
1.0
 50
270.0
 51
0.0
  0
CIRCLE
  8
LY_3
  6
CONTINUOUS
 62
    80
  5
358
 10
90.0
 20
-6.0
 30
0.0
 40
4.0
  0
ARC
  8
LY_3
  6
CONTINUOUS
 62
    80
  5
359
 10
90.0
 20
-6.0
 30
0.0
 40
3.0
 50
345.522488
 51
14.477512
  0
ARC
  8
LY_3
  6
CONTINUOUS
 62
    80
  5
35A
 10
90.0
 20
-6.0
 30
0.0
 40
3.0
 50
255.522488
 51
284.477512
  0
ARC
  8
LY_3
  6
CONTINUOUS
 62
    80
  5
35B
 10
90.0
 20
-6.0
 30
0.0
 40
3.0
 50
165.522488
 51
194.477512
  0
ARC
  8
LY_3
  6
CONTINUOUS
 62
    80
  5
35C
 10
90.0
 20
-6.0
 30
0.0
 40
3.0
 50
75.522488
 51
104.477512
  0
ARC
  8
LY_3
  6
CONTINUOUS
 62
    80
  5
35D
 10
91.75
 20
2.25
 30
0.0
 40
1.0
 50
90.0
 51
180.0
  0
ARC
  8
LY_3
  6
CONTINUOUS
 62
    80
  5
35E
 10
88.25
 20
2.25
 30
0.0
 40
1.0
 50
0.0
 51
90.0
  0
ARC
  8
LY_3
  6
CONTINUOUS
 62
    80
  5
35F
 10
91.75
 20
5.75
 30
0.0
 40
1.0
 50
180.0
 51
270.0
  0
ARC
  8
LY_3
  6
CONTINUOUS
 62
    80
  5
360
 10
88.25
 20
5.75
 30
0.0
 40
1.0
 50
270.0
 51
0.0
  0
CIRCLE
  8
LY_3
  6
CONTINUOUS
 62
    80
  5
361
 10
90.0
 20
4.0
 30
0.0
 40
4.0
  0
ARC
  8
LY_3
  6
CONTINUOUS
 62
    80
  5
362
 10
90.0
 20
4.0
 30
0.0
 40
3.0
 50
345.522488
 51
14.477512
  0
ARC
  8
LY_3
  6
CONTINUOUS
 62
    80
  5
363
 10
90.0
 20
4.0
 30
0.0
 40
3.0
 50
255.522488
 51
284.477512
  0
ARC
  8
LY_3
  6
CONTINUOUS
 62
    80
  5
364
 10
90.0
 20
4.0
 30
0.0
 40
3.0
 50
165.522488
 51
194.477512
  0
ARC
  8
LY_3
  6
CONTINUOUS
 62
    80
  5
365
 10
90.0
 20
4.0
 30
0.0
 40
3.0
 50
75.522488
 51
104.477512
  0
ARC
  8
LY_3
  6
CONTINUOUS
 62
    80
  5
366
 10
91.75
 20
12.25
 30
0.0
 40
1.0
 50
90.0
 51
180.0
  0
ARC
  8
LY_3
  6
CONTINUOUS
 62
    80
  5
367
 10
88.25
 20
12.25
 30
0.0
 40
1.0
 50
0.0
 51
90.0
  0
ARC
  8
LY_3
  6
CONTINUOUS
 62
    80
  5
368
 10
91.75
 20
15.75
 30
0.0
 40
1.0
 50
180.0
 51
270.0
  0
ARC
  8
LY_3
  6
CONTINUOUS
 62
    80
  5
369
 10
88.25
 20
15.75
 30
0.0
 40
1.0
 50
270.0
 51
0.0
  0
CIRCLE
  8
LY_3
  6
CONTINUOUS
 62
    80
  5
36A
 10
90.0
 20
14.0
 30
0.0
 40
4.0
  0
ARC
  8
LY_3
  6
CONTINUOUS
 62
    80
  5
36B
 10
90.0
 20
14.0
 30
0.0
 40
3.0
 50
345.522488
 51
14.477512
  0
ARC
  8
LY_3
  6
CONTINUOUS
 62
    80
  5
36C
 10
90.0
 20
14.0
 30
0.0
 40
3.0
 50
255.522488
 51
284.477512
  0
ARC
  8
LY_3
  6
CONTINUOUS
 62
    80
  5
36D
 10
90.0
 20
14.0
 30
0.0
 40
3.0
 50
165.522488
 51
194.477512
  0
ARC
  8
LY_3
  6
CONTINUOUS
 62
    80
  5
36E
 10
90.0
 20
14.0
 30
0.0
 40
3.0
 50
75.522488
 51
104.477512
  0
ARC
  8
LY_3
  6
CONTINUOUS
 62
    80
  5
36F
 10
91.75
 20
22.25
 30
0.0
 40
1.0
 50
90.0
 51
180.0
  0
ARC
  8
LY_3
  6
CONTINUOUS
 62
    80
  5
370
 10
88.25
 20
22.25
 30
0.0
 40
1.0
 50
0.0
 51
90.0
  0
ARC
  8
LY_3
  6
CONTINUOUS
 62
    80
  5
371
 10
91.75
 20
25.75
 30
0.0
 40
1.0
 50
180.0
 51
270.0
  0
ARC
  8
LY_3
  6
CONTINUOUS
 62
    80
  5
372
 10
88.25
 20
25.75
 30
0.0
 40
1.0
 50
270.0
 51
0.0
  0
CIRCLE
  8
LY_3
  6
CONTINUOUS
 62
    80
  5
373
 10
90.0
 20
24.0
 30
0.0
 40
4.0
  0
ARC
  8
LY_3
  6
CONTINUOUS
 62
    80
  5
374
 10
90.0
 20
24.0
 30
0.0
 40
3.0
 50
345.522488
 51
14.477512
  0
ARC
  8
LY_3
  6
CONTINUOUS
 62
    80
  5
375
 10
90.0
 20
24.0
 30
0.0
 40
3.0
 50
255.522488
 51
284.477512
  0
ARC
  8
LY_3
  6
CONTINUOUS
 62
    80
  5
376
 10
90.0
 20
24.0
 30
0.0
 40
3.0
 50
165.522488
 51
194.477512
  0
ARC
  8
LY_3
  6
CONTINUOUS
 62
    80
  5
377
 10
90.0
 20
24.0
 30
0.0
 40
3.0
 50
75.522488
 51
104.477512
  0
POLYLINE
  8
LY_3
  6
CONTINUOUS
 62
     3
  5
378
 66
     1
 10
0.0
 20
0.0
 30
0.0
  0
VERTEX
  8
LY_3
  6
CONTINUOUS
 62
     3
  5
5F2
 10
-241.000004
 20
63.0
 30
0.0
  0
VERTEX
  8
LY_3
  6
CONTINUOUS
 62
     3
  5
5F3
 10
-240.593962
 20
62.536678
 30
0.0
  0
VERTEX
  8
LY_3
  6
CONTINUOUS
 62
     3
  5
5F4
 10
-240.176495
 20
62.081699
 30
0.0
  0
VERTEX
  8
LY_3
  6
CONTINUOUS
 62
     3
  5
5F5
 10
-239.747794
 20
61.6357
 30
0.0
  0
VERTEX
  8
LY_3
  6
CONTINUOUS
 62
     3
  5
5F6
 10
-239.308048
 20
61.199315
 30
0.0
  0
VERTEX
  8
LY_3
  6
CONTINUOUS
 62
     3
  5
5F7
 10
-238.857447
 20
60.77318
 30
0.0
  0
VERTEX
  8
LY_3
  6
CONTINUOUS
 62
     3
  5
5F8
 10
-238.396181
 20
60.357932
 30
0.0
  0
VERTEX
  8
LY_3
  6
CONTINUOUS
 62
     3
  5
5F9
 10
-237.924439
 20
59.954205
 30
0.0
  0
VERTEX
  8
LY_3
  6
CONTINUOUS
 62
     3
  5
5FA
 10
-237.442411
 20
59.562636
 30
0.0
  0
VERTEX
  8
LY_3
  6
CONTINUOUS
 62
     3
  5
5FB
 10
-236.950288
 20
59.183861
 30
0.0
  0
VERTEX
  8
LY_3
  6
CONTINUOUS
 62
     3
  5
5FC
 10
-236.448258
 20
58.818515
 30
0.0
  0
VERTEX
  8
LY_3
  6
CONTINUOUS
 62
     3
  5
5FD
 10
-235.936511
 20
58.467234
 30
0.0
  0
VERTEX
  8
LY_3
  6
CONTINUOUS
 62
     3
  5
5FE
 10
-235.415238
 20
58.130654
 30
0.0
  0
VERTEX
  8
LY_3
  6
CONTINUOUS
 62
     3
  5
5FF
 10
-234.884627
 20
57.80941
 30
0.0
  0
VERTEX
  8
LY_3
  6
CONTINUOUS
 62
     3
  5
600
 10
-234.344869
 20
57.504138
 30
0.0
  0
VERTEX
  8
LY_3
  6
CONTINUOUS
 62
     3
  5
601
 10
-233.796154
 20
57.215474
 30
0.0
  0
VERTEX
  8
LY_3
  6
CONTINUOUS
 62
     3
  5
602
 10
-233.23867
 20
56.944054
 30
0.0
  0
VERTEX
  8
LY_3
  6
CONTINUOUS
 62
     3
  5
603
 10
-232.519801
 20
56.625475
 30
0.0
  0
VERTEX
  8
LY_3
  6
CONTINUOUS
 62
     3
  5
604
 10
-231.788365
 20
56.335195
 30
0.0
  0
VERTEX
  8
LY_3
  6
CONTINUOUS
 62
     3
  5
605
 10
-231.045583
 20
56.072781
 30
0.0
  0
VERTEX
  8
LY_3
  6
CONTINUOUS
 62
     3
  5
606
 10
-230.292674
 20
55.837798
 30
0.0
  0
VERTEX
  8
LY_3
  6
CONTINUOUS
 62
     3
  5
607
 10
-229.530856
 20
55.629815
 30
0.0
  0
VERTEX
  8
LY_3
  6
CONTINUOUS
 62
     3
  5
608
 10
-228.761349
 20
55.448397
 30
0.0
  0
VERTEX
  8
LY_3
  6
CONTINUOUS
 62
     3
  5
609
 10
-227.985371
 20
55.293111
 30
0.0
  0
VERTEX
  8
LY_3
  6
CONTINUOUS
 62
     3
  5
60A
 10
-227.204142
 20
55.163525
 30
0.0
  0
VERTEX
  8
LY_3
  6
CONTINUOUS
 62
     3
  5
60B
 10
-226.418882
 20
55.059204
 30
0.0
  0
VERTEX
  8
LY_3
  6
CONTINUOUS
 62
     3
  5
60C
 10
-225.630808
 20
54.979716
 30
0.0
  0
VERTEX
  8
LY_3
  6
CONTINUOUS
 62
     3
  5
60D
 10
-224.84114
 20
54.924627
 30
0.0
  0
VERTEX
  8
LY_3
  6
CONTINUOUS
 62
     3
  5
60E
 10
-224.051098
 20
54.893504
 30
0.0
  0
VERTEX
  8
LY_3
  6
CONTINUOUS
 62
     3
  5
60F
 10
-223.2619
 20
54.885914
 30
0.0
  0
VERTEX
  8
LY_3
  6
CONTINUOUS
 62
     3
  5
610
 10
-222.474766
 20
54.901423
 30
0.0
  0
VERTEX
  8
LY_3
  6
CONTINUOUS
 62
     3
  5
611
 10
-221.690914
 20
54.939599
 30
0.0
  0
VERTEX
  8
LY_3
  6
CONTINUOUS
 62
     3
  5
612
 10
-220.911564
 20
55.000008
 30
0.0
  0
SEQEND
  8
LY_3
  6
CONTINUOUS
 62
     3
  5
613
  0
POLYLINE
  8
LY_3
  6
CONTINUOUS
 62
     3
  5
379
 66
     1
 10
0.0
 20
0.0
 30
0.0
  0
VERTEX
  8
LY_3
  6
CONTINUOUS
 62
     3
  5
614
 10
-111.000004
 20
63.0
 30
0.0
  0
VERTEX
  8
LY_3
  6
CONTINUOUS
 62
     3
  5
615
 10
-111.406046
 20
62.536678
 30
0.0
  0
VERTEX
  8
LY_3
  6
CONTINUOUS
 62
     3
  5
616
 10
-111.823513
 20
62.081699
 30
0.0
  0
VERTEX
  8
LY_3
  6
CONTINUOUS
 62
     3
  5
617
 10
-112.252214
 20
61.6357
 30
0.0
  0
VERTEX
  8
LY_3
  6
CONTINUOUS
 62
     3
  5
618
 10
-112.691959
 20
61.199315
 30
0.0
  0
VERTEX
  8
LY_3
  6
CONTINUOUS
 62
     3
  5
619
 10
-113.14256
 20
60.77318
 30
0.0
  0
VERTEX
  8
LY_3
  6
CONTINUOUS
 62
     3
  5
61A
 10
-113.603827
 20
60.357932
 30
0.0
  0
VERTEX
  8
LY_3
  6
CONTINUOUS
 62
     3
  5
61B
 10
-114.075569
 20
59.954205
 30
0.0
  0
VERTEX
  8
LY_3
  6
CONTINUOUS
 62
     3
  5
61C
 10
-114.557596
 20
59.562636
 30
0.0
  0
VERTEX
  8
LY_3
  6
CONTINUOUS
 62
     3
  5
61D
 10
-115.04972
 20
59.183861
 30
0.0
  0
VERTEX
  8
LY_3
  6
CONTINUOUS
 62
     3
  5
61E
 10
-115.55175
 20
58.818515
 30
0.0
  0
VERTEX
  8
LY_3
  6
CONTINUOUS
 62
     3
  5
61F
 10
-116.063497
 20
58.467234
 30
0.0
  0
VERTEX
  8
LY_3
  6
CONTINUOUS
 62
     3
  5
620
 10
-116.58477
 20
58.130654
 30
0.0
  0
VERTEX
  8
LY_3
  6
CONTINUOUS
 62
     3
  5
621
 10
-117.115381
 20
57.80941
 30
0.0
  0
VERTEX
  8
LY_3
  6
CONTINUOUS
 62
     3
  5
622
 10
-117.655138
 20
57.504138
 30
0.0
  0
VERTEX
  8
LY_3
  6
CONTINUOUS
 62
     3
  5
623
 10
-118.203854
 20
57.215474
 30
0.0
  0
VERTEX
  8
LY_3
  6
CONTINUOUS
 62
     3
  5
624
 10
-118.761337
 20
56.944054
 30
0.0
  0
VERTEX
  8
LY_3
  6
CONTINUOUS
 62
     3
  5
625
 10
-119.480207
 20
56.625475
 30
0.0
  0
VERTEX
  8
LY_3
  6
CONTINUOUS
 62
     3
  5
626
 10
-120.211642
 20
56.335195
 30
0.0
  0
VERTEX
  8
LY_3
  6
CONTINUOUS
 62
     3
  5
627
 10
-120.954424
 20
56.072781
 30
0.0
  0
VERTEX
  8
LY_3
  6
CONTINUOUS
 62
     3
  5
628
 10
-121.707334
 20
55.837798
 30
0.0
  0
VERTEX
  8
LY_3
  6
CONTINUOUS
 62
     3
  5
629
 10
-122.469152
 20
55.629815
 30
0.0
  0
VERTEX
  8
LY_3
  6
CONTINUOUS
 62
     3
  5
62A
 10
-123.238659
 20
55.448397
 30
0.0
  0
VERTEX
  8
LY_3
  6
CONTINUOUS
 62
     3
  5
62B
 10
-124.014637
 20
55.293111
 30
0.0
  0
VERTEX
  8
LY_3
  6
CONTINUOUS
 62
     3
  5
62C
 10
-124.795865
 20
55.163525
 30
0.0
  0
VERTEX
  8
LY_3
  6
CONTINUOUS
 62
     3
  5
62D
 10
-125.581126
 20
55.059204
 30
0.0
  0
VERTEX
  8
LY_3
  6
CONTINUOUS
 62
     3
  5
62E
 10
-126.3692
 20
54.979716
 30
0.0
  0
VERTEX
  8
LY_3
  6
CONTINUOUS
 62
     3
  5
62F
 10
-127.158867
 20
54.924627
 30
0.0
  0
VERTEX
  8
LY_3
  6
CONTINUOUS
 62
     3
  5
630
 10
-127.948909
 20
54.893504
 30
0.0
  0
VERTEX
  8
LY_3
  6
CONTINUOUS
 62
     3
  5
631
 10
-128.738107
 20
54.885914
 30
0.0
  0
VERTEX
  8
LY_3
  6
CONTINUOUS
 62
     3
  5
632
 10
-129.525242
 20
54.901423
 30
0.0
  0
VERTEX
  8
LY_3
  6
CONTINUOUS
 62
     3
  5
633
 10
-130.309094
 20
54.939599
 30
0.0
  0
VERTEX
  8
LY_3
  6
CONTINUOUS
 62
     3
  5
634
 10
-131.088444
 20
55.000008
 30
0.0
  0
SEQEND
  8
LY_3
  6
CONTINUOUS
 62
     3
  5
635
  0
POLYLINE
  8
LY_3
  6
CONTINUOUS
 62
     3
  5
37A
 66
     1
 10
0.0
 20
0.0
 30
0.0
  0
VERTEX
  8
LY_3
  6
CONTINUOUS
 62
     3
  5
636
 10
-241.000004
 20
-63.0
 30
0.0
  0
VERTEX
  8
LY_3
  6
CONTINUOUS
 62
     3
  5
637
 10
-240.593962
 20
-62.536678
 30
0.0
  0
VERTEX
  8
LY_3
  6
CONTINUOUS
 62
     3
  5
638
 10
-240.176495
 20
-62.081699
 30
0.0
  0
VERTEX
  8
LY_3
  6
CONTINUOUS
 62
     3
  5
639
 10
-239.747794
 20
-61.635699
 30
0.0
  0
VERTEX
  8
LY_3
  6
CONTINUOUS
 62
     3
  5
63A
 10
-239.308048
 20
-61.199314
 30
0.0
  0
VERTEX
  8
LY_3
  6
CONTINUOUS
 62
     3
  5
63B
 10
-238.857447
 20
-60.773179
 30
0.0
  0
VERTEX
  8
LY_3
  6
CONTINUOUS
 62
     3
  5
63C
 10
-238.396181
 20
-60.35793
 30
0.0
  0
VERTEX
  8
LY_3
  6
CONTINUOUS
 62
     3
  5
63D
 10
-237.924439
 20
-59.954204
 30
0.0
  0
VERTEX
  8
LY_3
  6
CONTINUOUS
 62
     3
  5
63E
 10
-237.442412
 20
-59.562635
 30
0.0
  0
VERTEX
  8
LY_3
  6
CONTINUOUS
 62
     3
  5
63F
 10
-236.950288
 20
-59.183859
 30
0.0
  0
VERTEX
  8
LY_3
  6
CONTINUOUS
 62
     3
  5
640
 10
-236.448258
 20
-58.818513
 30
0.0
  0
VERTEX
  8
LY_3
  6
CONTINUOUS
 62
     3
  5
641
 10
-235.936511
 20
-58.467231
 30
0.0
  0
VERTEX
  8
LY_3
  6
CONTINUOUS
 62
     3
  5
642
 10
-235.415238
 20
-58.130651
 30
0.0
  0
VERTEX
  8
LY_3
  6
CONTINUOUS
 62
     3
  5
643
 10
-234.884627
 20
-57.809406
 30
0.0
  0
VERTEX
  8
LY_3
  6
CONTINUOUS
 62
     3
  5
644
 10
-234.344869
 20
-57.504134
 30
0.0
  0
VERTEX
  8
LY_3
  6
CONTINUOUS
 62
     3
  5
645
 10
-233.796154
 20
-57.21547
 30
0.0
  0
VERTEX
  8
LY_3
  6
CONTINUOUS
 62
     3
  5
646
 10
-233.23867
 20
-56.94405
 30
0.0
  0
VERTEX
  8
LY_3
  6
CONTINUOUS
 62
     3
  5
647
 10
-232.519801
 20
-56.625471
 30
0.0
  0
VERTEX
  8
LY_3
  6
CONTINUOUS
 62
     3
  5
648
 10
-231.788365
 20
-56.335192
 30
0.0
  0
VERTEX
  8
LY_3
  6
CONTINUOUS
 62
     3
  5
649
 10
-231.045583
 20
-56.072777
 30
0.0
  0
VERTEX
  8
LY_3
  6
CONTINUOUS
 62
     3
  5
64A
 10
-230.292674
 20
-55.837795
 30
0.0
  0
VERTEX
  8
LY_3
  6
CONTINUOUS
 62
     3
  5
64B
 10
-229.530856
 20
-55.629812
 30
0.0
  0
VERTEX
  8
LY_3
  6
CONTINUOUS
 62
     3
  5
64C
 10
-228.761349
 20
-55.448394
 30
0.0
  0
VERTEX
  8
LY_3
  6
CONTINUOUS
 62
     3
  5
64D
 10
-227.985371
 20
-55.293109
 30
0.0
  0
VERTEX
  8
LY_3
  6
CONTINUOUS
 62
     3
  5
64E
 10
-227.204142
 20
-55.163523
 30
0.0
  0
VERTEX
  8
LY_3
  6
CONTINUOUS
 62
     3
  5
64F
 10
-226.418882
 20
-55.059202
 30
0.0
  0
VERTEX
  8
LY_3
  6
CONTINUOUS
 62
     3
  5
650
 10
-225.630808
 20
-54.979714
 30
0.0
  0
VERTEX
  8
LY_3
  6
CONTINUOUS
 62
     3
  5
651
 10
-224.84114
 20
-54.924626
 30
0.0
  0
VERTEX
  8
LY_3
  6
CONTINUOUS
 62
     3
  5
652
 10
-224.051098
 20
-54.893503
 30
0.0
  0
VERTEX
  8
LY_3
  6
CONTINUOUS
 62
     3
  5
653
 10
-223.2619
 20
-54.885913
 30
0.0
  0
VERTEX
  8
LY_3
  6
CONTINUOUS
 62
     3
  5
654
 10
-222.474766
 20
-54.901423
 30
0.0
  0
VERTEX
  8
LY_3
  6
CONTINUOUS
 62
     3
  5
655
 10
-221.690914
 20
-54.939599
 30
0.0
  0
VERTEX
  8
LY_3
  6
CONTINUOUS
 62
     3
  5
656
 10
-220.911564
 20
-55.000008
 30
0.0
  0
SEQEND
  8
LY_3
  6
CONTINUOUS
 62
     3
  5
657
  0
POLYLINE
  8
LY_3
  6
CONTINUOUS
 62
     3
  5
37B
 66
     1
 10
0.0
 20
0.0
 30
0.0
  0
VERTEX
  8
LY_3
  6
CONTINUOUS
 62
     3
  5
658
 10
-111.000004
 20
-63.0
 30
0.0
  0
VERTEX
  8
LY_3
  6
CONTINUOUS
 62
     3
  5
659
 10
-111.406046
 20
-62.536678
 30
0.0
  0
VERTEX
  8
LY_3
  6
CONTINUOUS
 62
     3
  5
65A
 10
-111.823512
 20
-62.081699
 30
0.0
  0
VERTEX
  8
LY_3
  6
CONTINUOUS
 62
     3
  5
65B
 10
-112.252214
 20
-61.635699
 30
0.0
  0
VERTEX
  8
LY_3
  6
CONTINUOUS
 62
     3
  5
65C
 10
-112.691959
 20
-61.199314
 30
0.0
  0
VERTEX
  8
LY_3
  6
CONTINUOUS
 62
     3
  5
65D
 10
-113.14256
 20
-60.773179
 30
0.0
  0
VERTEX
  8
LY_3
  6
CONTINUOUS
 62
     3
  5
65E
 10
-113.603826
 20
-60.35793
 30
0.0
  0
VERTEX
  8
LY_3
  6
CONTINUOUS
 62
     3
  5
65F
 10
-114.075568
 20
-59.954204
 30
0.0
  0
VERTEX
  8
LY_3
  6
CONTINUOUS
 62
     3
  5
660
 10
-114.557596
 20
-59.562635
 30
0.0
  0
VERTEX
  8
LY_3
  6
CONTINUOUS
 62
     3
  5
661
 10
-115.04972
 20
-59.183859
 30
0.0
  0
VERTEX
  8
LY_3
  6
CONTINUOUS
 62
     3
  5
662
 10
-115.55175
 20
-58.818513
 30
0.0
  0
VERTEX
  8
LY_3
  6
CONTINUOUS
 62
     3
  5
663
 10
-116.063496
 20
-58.467231
 30
0.0
  0
VERTEX
  8
LY_3
  6
CONTINUOUS
 62
     3
  5
664
 10
-116.58477
 20
-58.130651
 30
0.0
  0
VERTEX
  8
LY_3
  6
CONTINUOUS
 62
     3
  5
665
 10
-117.11538
 20
-57.809406
 30
0.0
  0
VERTEX
  8
LY_3
  6
CONTINUOUS
 62
     3
  5
666
 10
-117.655138
 20
-57.504134
 30
0.0
  0
VERTEX
  8
LY_3
  6
CONTINUOUS
 62
     3
  5
667
 10
-118.203854
 20
-57.21547
 30
0.0
  0
VERTEX
  8
LY_3
  6
CONTINUOUS
 62
     3
  5
668
 10
-118.761337
 20
-56.94405
 30
0.0
  0
VERTEX
  8
LY_3
  6
CONTINUOUS
 62
     3
  5
669
 10
-119.480207
 20
-56.625471
 30
0.0
  0
VERTEX
  8
LY_3
  6
CONTINUOUS
 62
     3
  5
66A
 10
-120.211642
 20
-56.335192
 30
0.0
  0
VERTEX
  8
LY_3
  6
CONTINUOUS
 62
     3
  5
66B
 10
-120.954424
 20
-56.072777
 30
0.0
  0
VERTEX
  8
LY_3
  6
CONTINUOUS
 62
     3
  5
66C
 10
-121.707334
 20
-55.837795
 30
0.0
  0
VERTEX
  8
LY_3
  6
CONTINUOUS
 62
     3
  5
66D
 10
-122.469152
 20
-55.629812
 30
0.0
  0
VERTEX
  8
LY_3
  6
CONTINUOUS
 62
     3
  5
66E
 10
-123.238659
 20
-55.448394
 30
0.0
  0
VERTEX
  8
LY_3
  6
CONTINUOUS
 62
     3
  5
66F
 10
-124.014637
 20
-55.293109
 30
0.0
  0
VERTEX
  8
LY_3
  6
CONTINUOUS
 62
     3
  5
670
 10
-124.795865
 20
-55.163523
 30
0.0
  0
VERTEX
  8
LY_3
  6
CONTINUOUS
 62
     3
  5
671
 10
-125.581126
 20
-55.059202
 30
0.0
  0
VERTEX
  8
LY_3
  6
CONTINUOUS
 62
     3
  5
672
 10
-126.3692
 20
-54.979714
 30
0.0
  0
VERTEX
  8
LY_3
  6
CONTINUOUS
 62
     3
  5
673
 10
-127.158867
 20
-54.924626
 30
0.0
  0
VERTEX
  8
LY_3
  6
CONTINUOUS
 62
     3
  5
674
 10
-127.948909
 20
-54.893503
 30
0.0
  0
VERTEX
  8
LY_3
  6
CONTINUOUS
 62
     3
  5
675
 10
-128.738107
 20
-54.885913
 30
0.0
  0
VERTEX
  8
LY_3
  6
CONTINUOUS
 62
     3
  5
676
 10
-129.525242
 20
-54.901423
 30
0.0
  0
VERTEX
  8
LY_3
  6
CONTINUOUS
 62
     3
  5
677
 10
-130.309094
 20
-54.939599
 30
0.0
  0
VERTEX
  8
LY_3
  6
CONTINUOUS
 62
     3
  5
678
 10
-131.088444
 20
-55.000008
 30
0.0
  0
SEQEND
  8
LY_3
  6
CONTINUOUS
 62
     3
  5
679
  0
LINE
  8
LY_3
  6
CONTINUOUS
 62
     3
  5
37C
 10
-1.999998
 20
66.000054
 30
0.0
 11
-62.0
 21
65.000054
 31
0.0
  0
LINE
  8
LY_3
  6
CONTINUOUS
 62
     3
  5
37D
 10
-2.0
 20
64.2
 30
0.0
 11
-2.0
 21
32.5
 31
0.0
  0
LINE
  8
LY_3
  6
CONTINUOUS
 62
     3
  5
37E
 10
0.0
 20
63.2
 30
0.0
 11
0.0
 21
-63.2
 31
0.0
  0
LINE
  8
LY_3
  6
CONTINUOUS
 62
     3
  5
37F
 10
-2.0
 20
-66.000053
 30
0.0
 11
-2.0
 21
66.000054
 31
0.0
  0
ARC
  8
LY_3
  6
CONTINUOUS
 62
     3
  5
380
 10
-1.0
 20
63.2
 30
0.0
 40
1.0
 50
0.0
 51
90.0
  0
LINE
  8
LY_3
  6
CONTINUOUS
 62
     3
  5
381
 10
-1.0
 20
64.2
 30
0.0
 11
-2.0
 21
64.2
 31
0.0
  0
LINE
  8
LY_3
  6
CONTINUOUS
 62
     3
  5
382
 10
-1.999998
 20
-66.000054
 30
0.0
 11
-62.0
 21
-65.000054
 31
0.0
  0
LINE
  8
LY_3
  6
CONTINUOUS
 62
     3
  5
383
 10
-2.0
 20
-32.5
 30
0.0
 11
-2.0
 21
-64.2
 31
0.0
  0
LINE
  8
LY_3
  6
CONTINUOUS
 62
     3
  5
384
 10
-1.0
 20
-64.2
 30
0.0
 11
-2.0
 21
-64.2
 31
0.0
  0
ARC
  8
LY_3
  6
CONTINUOUS
 62
     3
  5
385
 10
-1.0
 20
-63.2
 30
0.0
 40
1.0
 50
270.0
 51
0.0
  0
LINE
  8
LY_3
  6
CONTINUOUS
 62
     3
  5
386
 10
-69.292484
 20
64.473349
 30
0.0
 11
-75.816099
 21
55.259631
 31
0.0
  0
LINE
  8
LY_3
  6
CONTINUOUS
 62
     3
  5
387
 10
-62.5
 20
65.0
 30
0.0
 11
-62.5
 21
44.999999
 31
0.0
  0
LINE
  8
LY_3
  6
CONTINUOUS
 62
     3
  5
388
 10
-62.0
 20
-65.000054
 30
0.0
 11
-62.0
 21
65.000054
 31
0.0
  0
LINE
  8
LY_3
  6
CONTINUOUS
 62
     3
  5
389
 10
-69.0
 20
64.74749
 30
0.0
 11
-69.0
 21
-64.74749
 31
0.0
  0
LINE
  8
LY_3
  6
CONTINUOUS
 62
     3
  5
38A
 10
-62.0
 20
64.5
 30
0.0
 11
-62.5
 21
64.5
 31
0.0
  0
LINE
  8
LY_3
  6
CONTINUOUS
 62
     3
  5
38B
 10
-68.493853
 20
64.895414
 30
0.0
 11
-62.500016
 21
65.000037
 31
0.0
  0
ARC
  8
LY_3
  6
CONTINUOUS
 62
     3
  5
38C
 10
-68.476395
 20
63.895531
 30
0.0
 40
1.0
 50
91.000265
 51
144.700093
  0
ARC
  8
LY_3
  6
CONTINUOUS
 62
     3
  5
38D
 10
-75.0
 20
54.681824
 30
0.0
 40
1.0
 50
144.700271
 51
180.0
  0
LINE
  8
LY_3
  6
CONTINUOUS
 62
     3
  5
38E
 10
-76.0
 20
48.0
 30
0.0
 11
-76.0
 21
-48.0
 31
0.0
  0
LINE
  8
LY_3
  6
CONTINUOUS
 62
     3
  5
38F
 10
-62.5
 20
34.999999
 30
0.0
 11
-62.5
 21
-34.999999
 31
0.0
  0
LINE
  8
LY_3
  6
CONTINUOUS
 62
     3
  5
390
 10
-70.960007
 20
50.5
 30
0.0
 11
-70.960007
 21
-50.5
 31
0.0
  0
LINE
  8
LY_3
  6
CONTINUOUS
 62
     3
  5
391
 10
-62.0
 20
34.999999
 30
0.0
 11
-63.0
 21
34.999999
 31
0.0
  0
LINE
  8
LY_3
  6
CONTINUOUS
 62
     3
  5
392
 10
-62.0
 20
44.999999
 30
0.0
 11
-63.0
 21
44.999999
 31
0.0
  0
LINE
  8
LY_3
  6
CONTINUOUS
 62
     3
  5
393
 10
-76.0
 20
54.681824
 30
0.0
 11
-76.0
 21
51.0
 31
0.0
  0
LINE
  8
LY_3
  6
CONTINUOUS
 62
     3
  5
394
 10
-75.5
 20
50.5
 30
0.0
 11
-70.960007
 21
50.5
 31
0.0
  0
LINE
  8
LY_3
  6
CONTINUOUS
 62
     3
  5
395
 10
-63.0
 20
44.999999
 30
0.0
 11
-63.0
 21
34.999999
 31
0.0
  0
LINE
  8
LY_3
  6
CONTINUOUS
 62
     3
  5
396
 10
-74.0
 20
50.0
 30
0.0
 11
-70.960007
 21
50.0
 31
0.0
  0
ARC
  8
LY_3
  6
CONTINUOUS
 62
     3
  5
397
 10
-75.5
 20
51.0
 30
0.0
 40
0.5
 50
180.0
 51
270.000037
  0
ARC
  8
LY_3
  6
CONTINUOUS
 62
     3
  5
398
 10
-74.0
 20
48.0
 30
0.0
 40
2.0
 50
89.999982
 51
179.999964
  0
LINE
  8
LY_3
  6
CONTINUOUS
 62
     3
  5
399
 10
-62.0
 20
-44.999999
 30
0.0
 11
-63.0
 21
-44.999999
 31
0.0
  0
LINE
  8
LY_3
  6
CONTINUOUS
 62
     3
  5
39A
 10
-62.0
 20
-34.999999
 30
0.0
 11
-63.0
 21
-34.999999
 31
0.0
  0
LINE
  8
LY_3
  6
CONTINUOUS
 62
     3
  5
39B
 10
-62.0
 20
-64.5
 30
0.0
 11
-62.5
 21
-64.5
 31
0.0
  0
LINE
  8
LY_3
  6
CONTINUOUS
 62
     3
  5
39C
 10
-68.493862
 20
-64.895398
 30
0.0
 11
-62.500009
 21
-65.000021
 31
0.0
  0
LINE
  8
LY_3
  6
CONTINUOUS
 62
     3
  5
39D
 10
-75.816074
 20
-55.259627
 30
0.0
 11
-69.292458
 21
-64.473346
 31
0.0
  0
LINE
  8
LY_3
  6
CONTINUOUS
 62
     3
  5
39E
 10
-76.0
 20
-51.0
 30
0.0
 11
-76.0
 21
-54.681816
 31
0.0
  0
LINE
  8
LY_3
  6
CONTINUOUS
 62
     3
  5
39F
 10
-75.5
 20
-50.5
 30
0.0
 11
-70.960007
 21
-50.5
 31
0.0
  0
LINE
  8
LY_3
  6
CONTINUOUS
 62
     3
  5
3A0
 10
-63.0
 20
-34.999999
 30
0.0
 11
-63.0
 21
-44.999999
 31
0.0
  0
LINE
  8
LY_3
  6
CONTINUOUS
 62
     3
  5
3A1
 10
-62.5
 20
-44.999999
 30
0.0
 11
-62.5
 21
-65.0
 31
0.0
  0
LINE
  8
LY_3
  6
CONTINUOUS
 62
     3
  5
3A2
 10
-74.0
 20
-50.0
 30
0.0
 11
-70.960007
 21
-50.0
 31
0.0
  0
ARC
  8
LY_3
  6
CONTINUOUS
 62
     3
  5
3A3
 10
-68.476395
 20
-63.895531
 30
0.0
 40
1.0
 50
215.299968
 51
268.999796
  0
ARC
  8
LY_3
  6
CONTINUOUS
 62
     3
  5
3A4
 10
-75.0
 20
-54.681816
 30
0.0
 40
1.0
 50
180.0
 51
215.299784
  0
ARC
  8
LY_3
  6
CONTINUOUS
 62
     3
  5
3A5
 10
-75.5
 20
-51.0
 30
0.0
 40
0.5
 50
90.000018
 51
180.0
  0
ARC
  8
LY_3
  6
CONTINUOUS
 62
     3
  5
3A6
 10
-74.0
 20
-48.0
 30
0.0
 40
2.0
 50
179.999981
 51
270.000018
  0
ENDSEC
  0
EOF
